  0
SECTION
  2
HEADER
  9
$ACADVER
  1
AC1015
  9
$ACADMAINTVER
 70
    20
  9
$DWGCODEPAGE
  3
ANSI_932
  9
$INSBASE
 10
0.0
 20
0.0
 30
0.0
  9
$EXTMIN
 10
-0.1992683443922942
 20
-0.0300125700741774
 30
-0.0000000349181948
  9
$EXTMAX
 10
552.1267041414421
 20
382.0535391812
 30
0.0000000814935746
  9
$LIMMIN
 10
0.0
 20
0.0
  9
$LIMMAX
 10
2840.0
 20
1970.0
  9
$ORTHOMODE
 70
     0
  9
$REGENMODE
 70
     1
  9
$FILLMODE
 70
     1
  9
$QTEXTMODE
 70
     0
  9
$MIRRTEXT
 70
     1
  9
$LTSCALE
 40
1.0
  9
$ATTMODE
 70
     1
  9
$TEXTSIZE
 40
2.5
  9
$TRACEWID
 40
1.0
  9
$TEXTSTYLE
  7
Standard
  9
$CLAYER
  8
0
  9
$CELTYPE
  6
ByLayer
  9
$CECOLOR
 62
   256
  9
$CELTSCALE
 40
1.0
  9
$DISPSILH
 70
     0
  9
$DIMSCALE
 40
2.0
  9
$DIMASZ
 40
0.8
  9
$DIMEXO
 40
1.0
  9
$DIMDLI
 40
0.0
  9
$DIMRND
 40
0.0
  9
$DIMDLE
 40
0.0
  9
$DIMEXE
 40
0.0
  9
$DIMTP
 40
0.0
  9
$DIMTM
 40
0.0
  9
$DIMTXT
 40
2.0
  9
$DIMCEN
 40
2.5
  9
$DIMTSZ
 40
0.0
  9
$DIMTOL
 70
     0
  9
$DIMLIM
 70
     0
  9
$DIMTIH
 70
     0
  9
$DIMTOH
 70
     0
  9
$DIMSE1
 70
     0
  9
$DIMSE2
 70
     0
  9
$DIMTAD
 70
     2
  9
$DIMZIN
 70
     8
  9
$DIMBLK
  1

  9
$DIMASO
 70
     1
  9
$DIMSHO
 70
     1
  9
$DIMPOST
  1

  9
$DIMAPOST
  1

  9
$DIMALT
 70
     0
  9
$DIMALTD
 70
     4
  9
$DIMALTF
 40
0.0394
  9
$DIMLFAC
 40
1.0
  9
$DIMTOFL
 70
     1
  9
$DIMTVP
 40
0.0
  9
$DIMTIX
 70
     0
  9
$DIMSOXD
 70
     0
  9
$DIMSAH
 70
     1
  9
$DIMBLK1
  1
DOT
  9
$DIMBLK2
  1
DOT
  9
$DIMSTYLE
  2
STANDARD
  9
$DIMCLRD
 70
     0
  9
$DIMCLRE
 70
     0
  9
$DIMCLRT
 70
     0
  9
$DIMTFAC
 40
1.0
  9
$DIMGAP
 40
0.1
  9
$DIMJUST
 70
     0
  9
$DIMSD1
 70
     0
  9
$DIMSD2
 70
     0
  9
$DIMTOLJ
 70
     1
  9
$DIMTZIN
 70
     0
  9
$DIMALTZ
 70
     0
  9
$DIMALTTZ
 70
     0
  9
$DIMUPT
 70
     0
  9
$DIMDEC
 70
     4
  9
$DIMTDEC
 70
     4
  9
$DIMALTU
 70
     8
  9
$DIMALTTD
 70
     4
  9
$DIMTXSTY
  7
Standard
  9
$DIMAUNIT
 70
     0
  9
$DIMADEC
 70
     0
  9
$DIMALTRND
 40
0.0
  9
$DIMAZIN
 70
     0
  9
$DIMDSEP
 70
    46
  9
$DIMATFIT
 70
     3
  9
$DIMFRAC
 70
     0
  9
$DIMLDRBLK
  1
DOT
  9
$DIMLUNIT
 70
     2
  9
$DIMLWD
 70
    -2
  9
$DIMLWE
 70
    -2
  9
$DIMTMOVE
 70
     1
  9
$LUNITS
 70
     2
  9
$LUPREC
 70
     8
  9
$SKETCHINC
 40
1.0
  9
$FILLETRAD
 40
0.0
  9
$AUNITS
 70
     0
  9
$AUPREC
 70
     8
  9
$MENU
  1
.
  9
$ELEVATION
 40
0.0
  9
$PELEVATION
 40
0.0
  9
$THICKNESS
 40
0.0
  9
$LIMCHECK
 70
     0
  9
$CHAMFERA
 40
10.0
  9
$CHAMFERB
 40
10.0
  9
$CHAMFERC
 40
20.0
  9
$CHAMFERD
 40
0.0
  9
$SKPOLY
 70
     0
  9
$TDCREATE
 40
2453276.413761574
  9
$TDUCREATE
 40
2453276.038766620
  9
$TDUPDATE
 40
2459989.483125000
  9
$TDUUPDATE
 40
2459989.108125000
  9
$TDINDWG
 40
0.3056740046
  9
$TDUSRTIMER
 40
0.3056740046
  9
$USRTIMER
 70
     1
  9
$ANGBASE
 50
0.0
  9
$ANGDIR
 70
     0
  9
$PDMODE
 70
     0
  9
$PDSIZE
 40
0.0
  9
$PLINEWID
 40
0.0
  9
$SPLFRAME
 70
     0
  9
$SPLINETYPE
 70
     6
  9
$SPLINESEGS
 70
     8
  9
$HANDSEED
  5
4C63
  9
$SURFTAB1
 70
     6
  9
$SURFTAB2
 70
     6
  9
$SURFTYPE
 70
     6
  9
$SURFU
 70
     6
  9
$SURFV
 70
     6
  9
$UCSBASE
  2

  9
$UCSNAME
  2

  9
$UCSORG
 10
0.0
 20
0.0
 30
0.0
  9
$UCSXDIR
 10
1.0
 20
0.0
 30
0.0
  9
$UCSYDIR
 10
0.0
 20
1.0
 30
0.0
  9
$UCSORTHOREF
  2

  9
$UCSORTHOVIEW
 70
     0
  9
$UCSORGTOP
 10
0.0
 20
0.0
 30
0.0
  9
$UCSORGBOTTOM
 10
0.0
 20
0.0
 30
0.0
  9
$UCSORGLEFT
 10
0.0
 20
0.0
 30
0.0
  9
$UCSORGRIGHT
 10
0.0
 20
0.0
 30
0.0
  9
$UCSORGFRONT
 10
0.0
 20
0.0
 30
0.0
  9
$UCSORGBACK
 10
0.0
 20
0.0
 30
0.0
  9
$PUCSBASE
  2

  9
$PUCSNAME
  2

  9
$PUCSORG
 10
0.0
 20
0.0
 30
0.0
  9
$PUCSXDIR
 10
1.0
 20
0.0
 30
0.0
  9
$PUCSYDIR
 10
0.0
 20
1.0
 30
0.0
  9
$PUCSORTHOREF
  2

  9
$PUCSORTHOVIEW
 70
     0
  9
$PUCSORGTOP
 10
0.0
 20
0.0
 30
0.0
  9
$PUCSORGBOTTOM
 10
0.0
 20
0.0
 30
0.0
  9
$PUCSORGLEFT
 10
0.0
 20
0.0
 30
0.0
  9
$PUCSORGRIGHT
 10
0.0
 20
0.0
 30
0.0
  9
$PUCSORGFRONT
 10
0.0
 20
0.0
 30
0.0
  9
$PUCSORGBACK
 10
0.0
 20
0.0
 30
0.0
  9
$USERI1
 70
     0
  9
$USERI2
 70
     0
  9
$USERI3
 70
     0
  9
$USERI4
 70
     0
  9
$USERI5
 70
     0
  9
$USERR1
 40
0.0
  9
$USERR2
 40
0.0
  9
$USERR3
 40
0.0
  9
$USERR4
 40
0.0
  9
$USERR5
 40
0.0
  9
$WORLDVIEW
 70
     1
  9
$SHADEDGE
 70
     2
  9
$SHADEDIF
 70
    70
  9
$TILEMODE
 70
     1
  9
$MAXACTVP
 70
    64
  9
$PINSBASE
 10
0.0
 20
0.0
 30
0.0
  9
$PLIMCHECK
 70
     0
  9
$PEXTMIN
 10
0.0
 20
0.0
 30
0.0
  9
$PEXTMAX
 10
0.0
 20
0.0
 30
0.0
  9
$PLIMMIN
 10
0.0
 20
0.0
  9
$PLIMMAX
 10
12.0
 20
9.0
  9
$UNITMODE
 70
     0
  9
$VISRETAIN
 70
     1
  9
$PLINEGEN
 70
     0
  9
$PSLTSCALE
 70
     1
  9
$TREEDEPTH
 70
  3020
  9
$CMLSTYLE
  2
Standard
  9
$CMLJUST
 70
     0
  9
$CMLSCALE
 40
20.0
  9
$PROXYGRAPHICS
 70
     1
  9
$MEASUREMENT
 70
     1
  9
$CELWEIGHT
370
    -1
  9
$ENDCAPS
280
     0
  9
$JOINSTYLE
280
     0
  9
$LWDISPLAY
290
     0
  9
$INSUNITS
 70
     4
  9
$HYPERLINKBASE
  1

  9
$STYLESHEET
  1
monochrome.stb
  9
$XEDIT
290
     1
  9
$CEPSNTYPE
380
     0
  9
$PSTYLEMODE
290
     1
  9
$FINGERPRINTGUID
  2
{B4E61C12-08AD-407D-A83C-7C7812CA1D8B}
  9
$VERSIONGUID
  2
{323F7A7E-AEC2-1249-B40B-64D2DE7D2A4F}
  9
$EXTNAMES
290
     1
  9
$PSVPSCALE
 40
0.0
  9
$OLESTARTUP
290
     0
  0
ENDSEC
  0
SECTION
  2
CLASSES
  0
CLASS
  1
ACDBDICTIONARYWDFLT
  2
AcDbDictionaryWithDefault
  3
ObjectDBX Classes
 90
        0
280
     0
281
     0
  0
CLASS
  1
ACDBPLACEHOLDER
  2
AcDbPlaceHolder
  3
ObjectDBX Classes
 90
        0
280
     0
281
     0
  0
CLASS
  1
LAYOUT
  2
AcDbLayout
  3
ObjectDBX Classes
 90
        0
280
     0
281
     0
  0
CLASS
  1
DICTIONARYVAR
  2
AcDbDictionaryVar
  3
ObjectDBX Classes
 90
        0
280
     0
281
     0
  0
CLASS
  1
SORTENTSTABLE
  2
AcDbSortentsTable
  3
ObjectDBX Classes
 90
        0
280
     0
281
     0
  0
CLASS
  1
MATERIAL
  2
AcDbMaterial
  3
ObjectDBX Classes
 90
     1153
280
     0
281
     0
  0
CLASS
  1
VISUALSTYLE
  2
AcDbVisualStyle
  3
ObjectDBX Classes
 90
     4095
280
     0
281
     0
  0
CLASS
  1
TABLESTYLE
  2
AcDbTableStyle
  3
ObjectDBX Classes
 90
     4095
280
     0
281
     0
  0
CLASS
  1
SCALE
  2
AcDbScale
  3
ObjectDBX Classes
 90
     1153
280
     0
281
     0
  0
CLASS
  1
MLEADERSTYLE
  2
AcDbMLeaderStyle
  3
ACDB_MLEADERSTYLE_CLASS
 90
     4095
280
     0
281
     0
  0
CLASS
  1
AEC_REFEDIT_STATUS_TRACKER
  2
AecDbRefEditStatusTracker
  3
AecArchBase80|Product Desc: Autodesk Architectural Desktop 2007 |Company: Autodesk,Inc. |WEB Address: www.autodesk.com
 90
    32897
280
     0
281
     0
  0
CLASS
  1
NPOCOLLECTION
  2
AcDbImpNonPersistentObjectsCollection
  3
ObjectDBX Classes
 90
    33921
280
     0
281
     0
  0
CLASS
  1
CELLSTYLEMAP
  2
AcDbCellStyleMap
  3
ObjectDBX Classes
 90
     1152
280
     0
281
     0
  0
CLASS
  1
ACDBSECTIONVIEWSTYLE
  2
AcDbSectionViewStyle
  3
ObjectDBX Classes
 90
     1025
280
     0
281
     0
  0
CLASS
  1
ACDBDETAILVIEWSTYLE
  2
AcDbDetailViewStyle
  3
ObjectDBX Classes
 90
     1025
280
     0
281
     0
  0
ENDSEC
  0
SECTION
  2
TABLES
  0
TABLE
  2
VPORT
  5
8
102
{ACAD_XDICTIONARY
360
45AF
102
}
330
0
100
AcDbSymbolTable
 70
     1
  0
VPORT
  5
44FC
330
8
100
AcDbSymbolTableRecord
100
AcDbViewportTableRecord
  2
*Active
 70
     0
 10
0.0
 20
0.0
 11
1.0
 21
1.0
 12
275.9637178985249
 22
191.0117633055629
 13
0.0
 23
0.0
 14
10.0
 24
10.0
 15
10.0
 25
10.0
 16
0.0
 26
0.0
 36
1.0
 17
0.0
 27
0.0
 37
0.0
 40
384.9138002827651
 41
2.122373300370828
 42
50.0
 43
0.0
 44
0.0
 50
0.0
 51
0.0
 71
     0
 72
   100
 73
     1
 74
     3
 75
     0
 76
     0
 77
     0
 78
     0
281
     0
 65
     1
110
0.0
120
0.0
130
0.0
111
1.0
121
0.0
131
0.0
112
0.0
122
1.0
132
0.0
 79
     0
146
0.0
1001
ACAD_NAV_VCDISPLAY
1070
     3
  0
ENDTAB
  0
TABLE
  2
LTYPE
  5
5
330
0
100
AcDbSymbolTable
 70
     3
  0
LTYPE
  5
14
330
5
100
AcDbSymbolTableRecord
100
AcDbLinetypeTableRecord
  2
ByBlock
 70
     0
  3

 72
    65
 73
     0
 40
0.0
  0
LTYPE
  5
15
330
5
100
AcDbSymbolTableRecord
100
AcDbLinetypeTableRecord
  2
ByLayer
 70
     0
  3

 72
    65
 73
     0
 40
0.0
  0
LTYPE
  5
16
330
5
100
AcDbSymbolTableRecord
100
AcDbLinetypeTableRecord
  2
Continuous
 70
     0
  3
Solid line
 72
    65
 73
     0
 40
0.0
  0
LTYPE
  5
2B0B
330
5
100
AcDbSymbolTableRecord
100
AcDbLinetypeTableRecord
  2
DASHED
 70
     0
  3
__ __ __ __ __ __ __ __ __ __ __ __ __ __ __ __
 72
    65
 73
     2
 40
0.75
 49
0.5
 74
     0
 49
-0.25
 74
     0
  0
LTYPE
  5
49DB
330
5
100
AcDbSymbolTableRecord
100
AcDbLinetypeTableRecord
  2
DASHED1
 70
     0
  3
--  --  --  --  --  --  --  --  
 72
    65
 73
     2
 40
2.5
 49
1.25
 74
     0
 49
-1.25
 74
     0
  0
ENDTAB
  0
TABLE
  2
LAYER
  5
2
102
{ACAD_XDICTIONARY
360
2D
102
}
330
0
100
AcDbSymbolTable
 70
     8
  0
LAYER
  5
10
102
{ACAD_XDICTIONARY
360
45A1
102
}
330
2
100
AcDbSymbolTableRecord
100
AcDbLayerTableRecord
  2
0
 70
     0
 62
     7
  6
Continuous
290
     0
370
    -3
390
29
  0
LAYER
  5
2301
330
2
100
AcDbSymbolTableRecord
100
AcDbLayerTableRecord
  2
Defpoints
 70
     0
 62
    -7
  6
Continuous
290
     0
370
    -3
390
F
  0
LAYER
  5
2388
102
{ACAD_XDICTIONARY
360
45A3
102
}
330
2
100
AcDbSymbolTableRecord
100
AcDbLayerTableRecord
  2
moji
 70
     0
 62
     7
  6
Continuous
370
    -3
390
29
  0
LAYER
  5
238A
102
{ACAD_XDICTIONARY
360
45A5
102
}
330
2
100
AcDbSymbolTableRecord
100
AcDbLayerTableRecord
  2
SUNPO
 70
     0
 62
     7
  6
Continuous
370
    -3
390
29
  0
LAYER
  5
2757
102
{ACAD_XDICTIONARY
360
45A7
102
}
330
2
100
AcDbSymbolTableRecord
100
AcDbLayerTableRecord
  2
KANAMONO
 70
     0
 62
     5
  6
Continuous
370
    -3
390
29
  0
LAYER
  5
2758
102
{ACAD_XDICTIONARY
360
45A9
102
}
330
2
100
AcDbSymbolTableRecord
100
AcDbLayerTableRecord
  2
KANAMONO_SCREW
 70
     0
 62
     4
  6
Continuous
370
    -3
390
29
  0
LAYER
  5
469E
102
{ACAD_XDICTIONARY
360
469F
102
}
330
2
100
AcDbSymbolTableRecord
100
AcDbLayerTableRecord
  2
WAKU
 70
     0
 62
     7
  6
Continuous
370
    -3
390
29
  0
LAYER
  5
49DC
102
{ACAD_XDICTIONARY
360
49DD
102
}
330
2
100
AcDbSymbolTableRecord
100
AcDbLayerTableRecord
  2
single
 70
     0
 62
     6
  6
Continuous
370
    -3
390
F
  0
ENDTAB
  0
TABLE
  2
STYLE
  5
3
330
0
100
AcDbSymbolTable
 70
     2
  0
STYLE
  5
11
330
3
100
AcDbSymbolTableRecord
100
AcDbTextStyleTableRecord
  2
Standard
 70
     0
 40
0.0
 41
1.0
 50
0.0
 71
     0
 42
2.5
  3

  4

1001
ACAD
1000
MS Gothic
1071
    32817
  0
STYLE
  5
46A0
330
3
100
AcDbSymbolTableRecord
100
AcDbTextStyleTableRecord
  2
MSゴシック
 70
     0
 40
0.0
 41
1.0
 50
0.0
 71
     0
 42
2.5
  3

  4

1001
ACAD
1000
MS Gothic
1071
    32817
  0
ENDTAB
  0
TABLE
  2
VIEW
  5
6
330
0
100
AcDbSymbolTable
 70
     0
  0
ENDTAB
  0
TABLE
  2
UCS
  5
7
330
0
100
AcDbSymbolTable
 70
     0
  0
ENDTAB
  0
TABLE
  2
APPID
  5
9
330
0
100
AcDbSymbolTable
 70
     6
  0
APPID
  5
12
330
9
100
AcDbSymbolTableRecord
100
AcDbRegAppTableRecord
  2
ACAD
 70
     0
  0
APPID
  5
45DF
330
9
100
AcDbSymbolTableRecord
100
AcDbRegAppTableRecord
  2
ACAD_MLEADERVER
 70
     0
  0
APPID
  5
4621
330
9
100
AcDbSymbolTableRecord
100
AcDbRegAppTableRecord
  2
ACAD_EXEMPT_FROM_CAD_STANDARDS
 70
     0
  0
APPID
  5
46A1
330
9
100
AcDbSymbolTableRecord
100
AcDbRegAppTableRecord
  2
ACAD_PSEXT
 70
     0
  0
APPID
  5
46A2
330
9
100
AcDbSymbolTableRecord
100
AcDbRegAppTableRecord
  2
ACAD_NAV_VCDISPLAY
 70
     0
  0
APPID
  5
48AC
330
9
100
AcDbSymbolTableRecord
100
AcDbRegAppTableRecord
  2
AcadAnnoPO
 70
     0
  0
ENDTAB
  0
TABLE
  2
DIMSTYLE
  5
A
330
0
100
AcDbSymbolTable
 70
     1
100
AcDbDimStyleTable
 71
     1
340
22E4
  0
DIMSTYLE
105
22E4
330
A
100
AcDbSymbolTableRecord
100
AcDbDimStyleTableRecord
  2
STANDARD
 70
     0
 40
2.0
 41
0.8
 42
1.0
 43
0.0
 44
0.0
 73
     0
 74
     0
 77
     2
 78
     8
140
2.0
141
2.5
143
0.0394
147
0.1
171
     4
172
     1
173
     1
273
     8
274
     4
279
     1
340
11
341
903
343
903
344
903
  0
ENDTAB
  0
TABLE
  2
BLOCK_RECORD
  5
1
330
0
100
AcDbSymbolTable
 70
     9
  0
BLOCK_RECORD
  5
1F
102
{ACAD_XDICTIONARY
360
1C62
102
}
330
1
100
AcDbSymbolTableRecord
100
AcDbBlockTableRecord
  2
*Model_Space
340
22
  0
BLOCK_RECORD
  5
1CD0
330
1
100
AcDbSymbolTableRecord
100
AcDbBlockTableRecord
  2
*Paper_Space
340
1CD1
  0
BLOCK_RECORD
  5
903
330
1
100
AcDbSymbolTableRecord
100
AcDbBlockTableRecord
  2
_DOT
340
0
102
{BLKREFS
331
4A7E
331
4A7F
331
4A84
331
4A85
331
4A8A
331
4A8B
331
4828
331
4829
331
4831
331
4832
331
483A
331
483B
331
4843
331
4844
331
484C
331
484D
331
4855
331
4856
331
4A90
331
4A91
331
4A96
331
4A97
331
4A9C
331
4A9D
102
}
  0
BLOCK_RECORD
  5
2A86
330
1
100
AcDbSymbolTableRecord
100
AcDbBlockTableRecord
  2
s6r-60
340
0
310
2800000020000000200000000100080000000000000400000000000000000000000000000000000000000000000080000080000000808000800000008000800080800000C0C0C000C0DCC000F0CAA6000020400000206000002080000020A0000020C0000020E00000400000004020000040400000406000004080000040A0
310
000040C0000040E00000600000006020000060400000606000006080000060A0000060C0000060E00000800000008020000080400000806000008080000080A0000080C0000080E00000A0000000A0200000A0400000A0600000A0800000A0A00000A0C00000A0E00000C0000000C0200000C0400000C0600000C0800000C0
310
A00000C0C00000C0E00000E0000000E0200000E0400000E0600000E0800000E0A00000E0C00000E0E00040000000400020004000400040006000400080004000A0004000C0004000E00040200000402020004020400040206000402080004020A0004020C0004020E000404000004040200040404000404060004040800040
310
40A0004040C0004040E00040600000406020004060400040606000406080004060A0004060C0004060E00040800000408020004080400040806000408080004080A0004080C0004080E00040A0000040A0200040A0400040A0600040A0800040A0A00040A0C00040A0E00040C0000040C0200040C0400040C0600040C08000
310
40C0A00040C0C00040C0E00040E0000040E0200040E0400040E0600040E0800040E0A00040E0C00040E0E00080000000800020008000400080006000800080008000A0008000C0008000E00080200000802020008020400080206000802080008020A0008020C0008020E00080400000804020008040400080406000804080
310
008040A0008040C0008040E00080600000806020008060400080606000806080008060A0008060C0008060E00080800000808020008080400080806000808080008080A0008080C0008080E00080A0000080A0200080A0400080A0600080A0800080A0A00080A0C00080A0E00080C0000080C0200080C0400080C0600080C0
310
800080C0A00080C0C00080C0E00080E0000080E0200080E0400080E0600080E0800080E0A00080E0C00080E0E000C0000000C0002000C0004000C0006000C0008000C000A000C000C000C000E000C0200000C0202000C0204000C0206000C0208000C020A000C020C000C020E000C0400000C0402000C0404000C0406000C0
310
408000C040A000C040C000C040E000C0600000C0602000C0604000C0606000C0608000C060A000C060C000C060E000C0800000C0802000C0804000C0806000C0808000C080A000C080C000C080E000C0A00000C0A02000C0A04000C0A06000C0A08000C0A0A000C0A0C000C0A0E000C0C00000C0C02000C0C04000C0C06000
310
C0C08000C0C0A000F0FBFF00A4A0A000808080000000FF0000FF000000FFFF00FF000000FF00FF00FFFF0000FFFFFF00FFFFFFFFFFFFFFFFFFFFFFFFFFFFFFFFFFFFFFFFFFFFFFFFFFFFFFFFFFFFFFFFFFFFFFFFFFFFFFFFFFFFFFFFFFFFFFFFFEFFFFFFFFFFFFFFFFFFFFFFFFFFFFFFFFFFFFFFFFFFFFFFFFFFFFFFFFFFFF
310
FEFEFFFFFFFFFFFFFFFFFFFFFFFFFFFFFFFFFFFFFFFFFFFFFFFFFFFFFFFFFFFEFEFEFEFFFFFFFFFFFFFFFFFFFFFFFFFFFFFFFFFFFFFFFFFFFFFFFFFFFFFFFEFEFEFEFEFEFFFFFFFFFFFFFFFFFFFFFFFFFFFFFFFFFFFFFFFFFFFFFFFFFFFFFEFEFEFEFEFEFFFFFFFFFFFFFFFFFFFFFFFFFFFFFFFFFFFFFFFFFFFFFFFFFFFFFE
310
FEFEFEFEFEFFFFFFFFFFFFFFFFFFFFFFFFFFFFFFFFFFFFFFFFFFFFFFFFFFFFFEFEFEFEFEFEFFFFFFFFFFFFFFFFFFFFFFFFFFFFFFFFFFFFFFFFFFFFFFFFFFFFFEFEFEFEFEFEFFFFFFFFFFFFFFFFFFFFFFFFFFFFFFFFFFFFFFFFFFFFFFFFFFFFFEFEFEFEFEFEFFFFFFFFFFFFFFFFFFFFFFFFFFFFFFFFFFFFFFFFFFFFFFFFFFFF
310
FEFEFEFEFEFEFFFFFFFFFFFFFFFFFFFFFFFFFFFFFFFFFFFFFFFFFFFFFFFFFFFFFEFFFEFEFFFEFFFFFFFFFFFFFFFFFFFFFFFFFFFFFFFFFFFFFFFFFFFFFFFFFFFFFEFFFEFEFFFEFFFFFFFFFFFFFFFFFFFFFFFFFFFFFFFFFFFFFFFFFFFFFFFFFFFFFEFFFEFEFFFEFFFFFFFFFFFFFFFFFFFFFFFFFFFFFFFFFFFFFFFFFFFFFFFFFF
310
FFFFFEFEFEFFFEFFFFFFFFFFFFFFFFFFFFFFFFFFFFFFFFFFFFFFFFFFFFFFFFFFFFFFFEFFFFFEFFFFFFFFFFFFFFFFFFFFFFFFFFFFFFFFFFFFFFFFFFFFFFFFFFFFFFFFFEFEFEFEFFFFFFFFFFFFFFFFFFFFFFFFFFFFFFFFFFFFFFFFFFFFFFFFFFFFFFFFFEFEFEFEFFFFFFFFFFFFFFFFFFFFFFFFFFFFFFFFFFFFFFFFFFFFFFFFFF
310
FFFFFFFEFFFFFEFFFFFFFFFFFFFFFFFFFFFFFFFFFFFFFFFFFFFFFFFFFFFFFFFFFFFFFFFEFFFFFEFFFFFFFFFFFFFFFFFFFFFFFFFFFFFFFFFFFFFFFFFFFFFFFFFFFFFFFFFEFFFFFEFFFFFFFFFFFFFFFFFFFFFFFFFFFFFFFFFFFFFFFFFFFFFFFFFFFFFFFFFEFFFFFEFFFFFFFFFFFFFFFFFFFFFFFFFFFFFFFFFFFFFFFFFFFFFFFF
310
FFFFFFFFFEFFFFFEFFFFFFFFFFFFFFFFFFFFFFFFFFFFFFFFFFFFFFFFFFFFFFFFFFFFFFFFFEFFFFFEFFFFFFFFFFFFFFFFFFFFFFFFFFFFFFFFFFFFFFFFFFFFFFFFFFFFFFFFFEFFFFFEFFFFFFFFFFFFFFFFFFFFFFFFFFFFFFFFFFFFFFFFFFFFFFFFFFFFFFFFFEFFFFFEFFFFFFFFFFFFFFFFFFFFFFFFFFFFFFFFFFFFFFFFFFFFFF
310
FFFFFFFFFFFEFFFFFEFFFFFFFFFFFFFFFFFFFFFFFFFFFFFFFFFFFFFFFFFFFFFFFFFFFFFFFFFEFFFFFEFFFFFFFFFFFFFFFFFFFFFFFFFFFFFFFFFFFFFFFFFFFFFFFFFFFFFFFFFEFEFEFEFFFFFFFFFFFFFFFFFFFFFFFFFFFFFFFFFFFFFFFFFFFFFFFFFFFFFFFFFEFEFEFEFFFFFFFFFFFFFFFFFFFFFFFFFFFFFFFFFFFFFFFFFFFF
310
FFFFFFFFFFFFFEFEFEFEFFFFFFFFFFFFFFFFFFFFFFFFFFFFFFFFFFFFFFFFFFFFFFFFFFFFFFFFFFFFFFFFFFFFFFFFFFFFFFFFFFFFFFFFFFFF
1001
ACAD
1000
DesignCenter Data
1002
{
1070
     1
1070
     4
1002
}
  0
BLOCK_RECORD
  5
3FFE
330
1
100
AcDbSymbolTableRecord
100
AcDbBlockTableRecord
  2
*D2
340
0
  0
BLOCK_RECORD
  5
400A
330
1
100
AcDbSymbolTableRecord
100
AcDbBlockTableRecord
  2
*D3
340
0
  0
BLOCK_RECORD
  5
402E
330
1
100
AcDbSymbolTableRecord
100
AcDbBlockTableRecord
  2
*D4
340
0
  0
BLOCK_RECORD
  5
403A
330
1
100
AcDbSymbolTableRecord
100
AcDbBlockTableRecord
  2
*D5
340
0
  0
BLOCK_RECORD
  5
410C
330
1
100
AcDbSymbolTableRecord
100
AcDbBlockTableRecord
  2
*D6
340
0
  0
BLOCK_RECORD
  5
4124
330
1
100
AcDbSymbolTableRecord
100
AcDbBlockTableRecord
  2
*D7
340
0
  0
BLOCK_RECORD
  5
48F6
330
1
100
AcDbSymbolTableRecord
100
AcDbBlockTableRecord
  2
up60_2020
340
0
310
28000000200000002000000001002000000000000010000001000000010000000000000000000000302821FF302821FF302821FF302821FF302821FF302821FF302821FF302821FF302821FF302821FF302821FF302821FF302821FF302821FF302821FF302821FF302821FF302821FF302821FF302821FF302821FF302821
310
FF302821FF302821FF302821FF302821FF302821FF302821FF302821FF302821FF302821FF302821FF302821FF302821FF302821FF302821FF302821FF302821FF302821FF302821FF302821FF302821FF302821FF302821FF302821FF302821FF302821FF302821FFFFFF00FF302821FF302821FF302821FF302821FF3028
310
21FF302821FF302821FF302821FF302821FF302821FF302821FF302821FF302821FF302821FF302821FF302821FF302821FF302821FF302821FF302821FF302821FF302821FF302821FF302821FF302821FF302821FF302821FF302821FF302821FF302821FFFFFF00FFFFFF00FF302821FF302821FF302821FF302821FF30
310
2821FF302821FF302821FF302821FF302821FF302821FF302821FF302821FF302821FF302821FF302821FF302821FF302821FF302821FF302821FF302821FF302821FF302821FF302821FF302821FF302821FF302821FF302821FF302821FF302821FF302821FFFFFF00FFFFFF00FF302821FF302821FF302821FF302821FF
310
302821FF302821FF302821FF302821FF302821FF302821FF302821FF302821FF302821FF302821FF302821FF302821FF302821FF302821FF302821FF302821FF302821FF302821FF302821FF302821FF302821FF302821FF302821FF302821FF302821FFFFFF00FFFFFF00FFFFFF00FFFFFF00FF302821FF302821FF302821
310
FF302821FF302821FF302821FF302821FF302821FF302821FF302821FF302821FF302821FF302821FF302821FF302821FF302821FF302821FF302821FF302821FF302821FF302821FF302821FF302821FF302821FF302821FF302821FF302821FF302821FFFFFF00FFFFFF00FFFFFF00FFFFFF00FF302821FF302821FF3028
310
21FF302821FF302821FF302821FF302821FF302821FF302821FF302821FF302821FF302821FF302821FF302821FF302821FF302821FF302821FF302821FF302821FF302821FF302821FF302821FF302821FF302821FF302821FF302821FF302821FF302821FFFFFF00FFFFFF00FFFFFF00FFFFFF00FF302821FF302821FF30
310
2821FF302821FF302821FF302821FF302821FF302821FF302821FF302821FF302821FF302821FF302821FF302821FF302821FF302821FF302821FF302821FF302821FF302821FF302821FF302821FF302821FF302821FF302821FF302821FF302821FF302821FFFFFF00FFFFFF00FFFFFF00FFFFFF00FF302821FF302821FF
310
302821FF302821FF302821FF302821FF302821FF302821FF302821FF302821FF302821FF302821FF302821FF302821FF302821FF302821FF302821FF302821FF302821FF302821FF302821FF302821FF302821FF302821FF302821FF302821FF302821FF302821FFFFFF00FFFFFF00FFFFFF00FFFFFF00FF302821FF302821
310
FF302821FF302821FF302821FF302821FF302821FF302821FF302821FF302821FF302821FF302821FF302821FF302821FF302821FF302821FF302821FF302821FF302821FF302821FF302821FF302821FF302821FF302821FF302821FF302821FF302821FF302821FFFFFF00FFFFFF00FFFFFF00FFFFFF00FF302821FF3028
310
21FF302821FF302821FF302821FF302821FF302821FF302821FF302821FF302821FF302821FF302821FF302821FF302821FF302821FF302821FF302821FF302821FF302821FF302821FF302821FF302821FF302821FF302821FF302821FF302821FF302821FF302821FFFFFF00FFFFFF00FFFFFF00FFFFFF00FF302821FF30
310
2821FF302821FF302821FF302821FF302821FF302821FF302821FF302821FF302821FF302821FF302821FF302821FF302821FF302821FF302821FF302821FF302821FF302821FF302821FF302821FF302821FF302821FF302821FF302821FF302821FF302821FF302821FFFFFF00FFFFFF00FFFFFF00FFFFFF00FF302821FF
310
302821FF302821FF302821FF302821FF302821FF302821FF302821FF302821FF302821FF302821FF302821FF302821FF302821FF302821FF302821FF302821FF302821FF302821FF302821FF302821FF302821FF302821FF302821FF302821FF302821FF302821FF302821FFFFFF00FFFFFF00FFFFFF00FFFFFF00FF302821
310
FF302821FF302821FF302821FF302821FF302821FF302821FF302821FF302821FF302821FF302821FF302821FF302821FF302821FF302821FF302821FF302821FF302821FF302821FF302821FF302821FF302821FF302821FF302821FF302821FF302821FF302821FF302821FFFFFF00FFFFFF00FFFFFF00FFFFFF00FF3028
310
21FF302821FF302821FF302821FF302821FF302821FF302821FF302821FF302821FF302821FF302821FF302821FF302821FF302821FF302821FF302821FF302821FF302821FF302821FF302821FF302821FF302821FF302821FF302821FF302821FF302821FF302821FF302821FFFFFF00FFFFFF00FFFFFF00FFFFFF00FF30
310
2821FF302821FF302821FF302821FF302821FF302821FF302821FF302821FF302821FF302821FF302821FF302821FF302821FF302821FF302821FF302821FF302821FF302821FF302821FF302821FF302821FF302821FF302821FF302821FF302821FF302821FF302821FF302821FFFFFF00FFFFFF00FFFFFF00FFFFFF00FF
310
302821FF302821FF302821FF302821FF302821FF302821FF302821FF302821FF302821FF302821FF302821FF302821FF302821FF302821FF302821FF302821FF302821FF302821FF302821FF302821FF302821FF302821FF302821FF302821FF302821FF302821FF302821FF302821FFFFFF00FFFFFF00FFFFFF00FFFFFF00
310
FF302821FF302821FF302821FF302821FF302821FF302821FF302821FF302821FF302821FF302821FF302821FF302821FF302821FF302821FF302821FF302821FF302821FF302821FF302821FF302821FF302821FF302821FF302821FF302821FF302821FF302821FF302821FF302821FFFFFF00FFFFFF00FFFFFF00FFFFFF
310
00FF302821FF302821FF302821FF302821FF302821FF302821FF302821FF302821FF302821FF302821FF302821FF302821FF302821FF302821FF302821FF302821FF302821FF302821FF302821FF302821FF302821FF302821FF302821FF302821FF302821FF302821FF302821FF302821FFFFFF00FFFFFF00FFFFFF00FFFF
310
FF00FF302821FF302821FF302821FF302821FF302821FF302821FF302821FF302821FF302821FF302821FF302821FF302821FF302821FF302821FF302821FF302821FF302821FF302821FF302821FF302821FF302821FF302821FF302821FF302821FF302821FF302821FF302821FF302821FFFFFF00FFFFFF00FFFFFF00FF
310
FFFF00FF302821FF302821FF302821FF302821FF302821FF302821FF302821FF302821FF302821FF302821FF302821FF302821FF302821FF302821FF302821FF302821FF302821FF302821FF302821FF302821FF302821FF302821FF302821FF302821FF302821FF302821FF302821FF302821FFFFFF00FFFFFF00FFFFFF00
310
FFFFFF00FF302821FF302821FF302821FF302821FF302821FF302821FF302821FF302821FF302821FF302821FF302821FF302821FF302821FF302821FF302821FF302821FF302821FF302821FF302821FF302821FF302821FF302821FF302821FF302821FF302821FF302821FF302821FF302821FFFFFF00FF302821FF3028
310
21FFFFFF00FF302821FF302821FF302821FF302821FF302821FF302821FF302821FF302821FF302821FF302821FF302821FF302821FF302821FF302821FF302821FF302821FF302821FF302821FF302821FF302821FF302821FF302821FF302821FF302821FF302821FF302821FF302821FF302821FFFFFF00FF302821FF30
310
2821FFFFFF00FF302821FF302821FF302821FF302821FF302821FF302821FF302821FF302821FF302821FF302821FF302821FF302821FF302821FF302821FF302821FF302821FF302821FF302821FF302821FF302821FF302821FF302821FF302821FF302821FF302821FF302821FF302821FF302821FFFFFF00FF302821FF
310
302821FFFFFF00FF302821FF302821FF302821FF302821FF302821FF302821FF302821FF302821FF302821FF302821FF302821FF302821FF302821FF302821FF302821FF302821FF302821FF302821FF302821FF302821FF302821FF302821FF302821FF302821FF302821FF302821FF302821FF302821FFFFFF00FF302821
310
FF302821FFFFFF00FF302821FF302821FF302821FF302821FF302821FF302821FF302821FF302821FF302821FF302821FF302821FF302821FF302821FF302821FF302821FF302821FF302821FF302821FF302821FF302821FF302821FF302821FF302821FF302821FF302821FF302821FF302821FF302821FFFFFF00FFFFFF
310
00FFFFFF00FFFFFF00FF302821FF302821FF302821FF302821FF302821FF302821FF302821FF302821FF302821FF302821FF302821FF302821FF302821FF302821FF302821FF302821FF302821FF302821FF302821FF302821FF302821FF302821FF302821FF302821FF302821FF302821FF302821FF302821FFFFFF00FFFF
310
FF00FFFFFF00FFFFFF00FF302821FF302821FF302821FF302821FF302821FF302821FF302821FF302821FF302821FF302821FF302821FF302821FF302821FF302821FF302821FF302821FF302821FF302821FF302821FF302821FF302821FF302821FF302821FF302821FF302821FF302821FF302821FF302821FFFFFF00FF
310
FFFF00FFFFFF00FFFFFF00FF302821FF302821FF302821FF302821FF302821FF302821FF302821FF302821FF302821FF302821FF302821FF302821FF302821FF302821FF302821FF302821FF302821FF302821FF302821FF302821FF302821FF302821FF302821FF302821FF302821FF302821FF302821FF302821FFFFFF00
310
FFFFFF00FFFFFF00FFFFFF00FF302821FF302821FF302821FF302821FF302821FF302821FF302821FF302821FF302821FF302821FF302821FF302821FF302821FF302821FF302821FF302821FF302821FF302821FF302821FF302821FF302821FF302821FF302821FF302821FF302821FF302821FF302821FF302821FFFFFF
310
00FFFFFF00FFFFFF00FFFFFF00FF302821FF302821FF302821FF302821FF302821FF302821FF302821FF302821FF302821FF302821FF302821FF302821FF302821FF302821FF302821FF302821FF302821FF302821FF302821FF302821FF302821FF302821FF302821FF302821FF302821FF302821FF302821FF302821FFFF
310
FF00FFFFFF00FFFFFF00FFFFFF00FF302821FF302821FF302821FF302821FF302821FF302821FF302821FF302821FF302821FF302821FF302821FF302821FF302821FF302821FF302821FF302821FF302821FF302821FF302821FF302821FF302821FF302821FF302821FF302821FF302821FF302821FF302821FF302821FF
310
302821FF302821FF302821FF302821FF302821FF302821FF302821FF302821FF302821FF302821FF302821FF302821FF302821FF302821FF302821FF302821FF302821FF302821FF
1001
ACAD
1000
DesignCenter Data
1002
{
1070
     1
1070
     4
1002
}
  0
ENDTAB
  0
ENDSEC
  0
SECTION
  2
BLOCKS
  0
BLOCK
  5
20
330
1F
100
AcDbEntity
  8
0
100
AcDbBlockBegin
  2
*Model_Space
 70
     0
 10
0.0
 20
0.0
 30
0.0
  3
*Model_Space
  1

  0
ENDBLK
  5
21
330
1F
100
AcDbEntity
  8
0
100
AcDbBlockEnd
  0
BLOCK
  5
1CD2
330
1CD0
100
AcDbEntity
 67
     1
  8
0
100
AcDbBlockBegin
  2
*Paper_Space
 70
     0
 10
0.0
 20
0.0
 30
0.0
  3
*Paper_Space
  1

  0
ENDBLK
  5
1CD3
330
1CD0
100
AcDbEntity
 67
     1
  8
0
100
AcDbBlockEnd
  0
BLOCK
  5
906
330
903
100
AcDbEntity
  8
0
100
AcDbBlockBegin
  2
_DOT
 70
     0
 10
0.0
 20
0.0
 30
0.0
  3
_DOT
  1

  0
LWPOLYLINE
  5
904
330
903
100
AcDbEntity
  8
0
  6
ByBlock
 62
     0
100
AcDbPolyline
 90
        2
 70
     1
 43
0.5
 10
-0.25
 20
0.0
 42
1.0
 10
0.25
 20
0.0
 42
1.0
  0
LINE
  5
905
330
903
100
AcDbEntity
  8
0
  6
ByBlock
 62
     0
100
AcDbLine
 10
-0.5
 20
0.0
 30
0.0
 11
-1.0
 21
0.0
 31
0.0
  0
ENDBLK
  5
907
330
903
100
AcDbEntity
  8
0
100
AcDbBlockEnd
  0
BLOCK
  5
2AD9
330
2A86
100
AcDbEntity
  8
0
 48
20.0
100
AcDbBlockBegin
  2
s6r-60
 70
     0
 10
0.0
 20
0.0
 30
0.0
  3
s6r-60
  1

  0
LWPOLYLINE
  5
2A87
330
2A86
100
AcDbEntity
  8
KANAMONO_SCREW
100
AcDbPolyline
 90
        7
 70
     0
 43
0.0
 10
3.0
 20
-29.5
 10
3.0
 20
-1.299999999999954
 10
4.0
 20
0.0
 10
4.0
 20
0.5
 10
-4.0
 20
0.5
 10
-4.0
 20
0.0
 10
4.0
 20
0.0
  0
LWPOLYLINE
  5
2A88
330
2A86
100
AcDbEntity
  8
KANAMONO_SCREW
100
AcDbPolyline
 90
        3
 70
     0
 43
0.0
 10
-4.0
 20
0.0
 10
-3.0
 20
-1.299999999999954
 10
-3.000000000000454
 20
-29.50000000000085
  0
LINE
  5
2A89
330
2A86
100
AcDbEntity
  8
KANAMONO_SCREW
100
AcDbLine
 10
0.0
 20
-63.29999999999995
 30
0.0
 11
-2.200000000000045
 21
-55.29999999999995
 31
0.0
  0
LINE
  5
2A8A
330
2A86
100
AcDbEntity
  8
KANAMONO_SCREW
100
AcDbLine
 10
2.200000000000045
 20
-55.29999999999995
 30
0.0
 11
0.0
 21
-63.29999999999995
 31
0.0
  0
LINE
  5
2A8B
330
2A86
100
AcDbEntity
  8
KANAMONO_SCREW
100
AcDbLine
 10
-0.2729385095193493
 20
-62.30749632902098
 30
0.0
 11
0.3532357144075604
 21
-62.01550649306478
 31
0.0
  0
ARC
  5
2A8C
330
2A86
100
AcDbEntity
  8
KANAMONO_SCREW
100
AcDbCircle
 10
-7.659849134879777
 20
-40.17943698590795
 30
0.0
 40
9.859876903588483
100
AcDbArc
 50
0.1359815000569386
 51
35.17074423212627
  0
LINE
  5
2A8D
330
2A86
100
AcDbEntity
  8
KANAMONO_SCREW
100
AcDbLine
 10
-2.199999999999931
 20
-40.43513805717942
 30
0.0
 11
1.608586036090741
 21
-38.65916522180817
 31
0.0
  0
ARC
  5
2A8E
330
2A86
100
AcDbEntity
  8
KANAMONO_SCREW
100
AcDbCircle
 10
7.65984913487955
 20
-40.17943698590795
 30
0.0
 40
9.859876903588483
100
AcDbArc
 50
144.8292557678737
 51
179.864018499943
  0
LINE
  5
2A8F
330
2A86
100
AcDbEntity
  8
KANAMONO_SCREW
100
AcDbLine
 10
-4.800000000000068
 20
-38.74999999999955
 30
0.0
 11
-4.800000000000068
 21
-42.99999999999989
 31
0.0
  0
LINE
  5
2A90
330
2A86
100
AcDbEntity
  8
KANAMONO_SCREW
100
AcDbLine
 10
4.799999999999954
 20
-42.99999999999989
 30
0.0
 11
4.799999999999954
 21
-38.74999999999977
 31
0.0
  0
LINE
  5
2A91
330
2A86
100
AcDbEntity
  8
KANAMONO_SCREW
100
AcDbLine
 10
2.200000000000045
 20
-59.5
 30
0.0
 11
3.800000000000181
 21
-59.50000000000011
 31
0.0
  0
LINE
  5
2A92
330
2A86
100
AcDbEntity
  8
KANAMONO_SCREW
100
AcDbLine
 10
-4.800000000000295
 20
-49.0
 30
0.0
 11
-4.800000000000181
 21
-50.99999999999977
 31
0.0
  0
LINE
  5
2A93
330
2A86
100
AcDbEntity
  8
KANAMONO_SCREW
100
AcDbLine
 10
-2.199999999999931
 20
-50.94481273529709
 30
0.0
 11
2.200000000000159
 21
-48.89305903941511
 31
0.0
  0
LINE
  5
2A94
330
2A86
100
AcDbEntity
  8
KANAMONO_SCREW
100
AcDbLine
 10
-2.200000000000045
 20
-59.49999999999988
 30
0.0
 11
-2.200000000000045
 21
-40.15603631653152
 31
0.0
  0
LINE
  5
2A95
330
2A86
100
AcDbEntity
  8
KANAMONO_SCREW
100
AcDbLine
 10
2.200000000000045
 20
-40.15603631653209
 30
0.0
 11
2.200000000000045
 21
-59.5
 31
0.0
  0
LINE
  5
2A96
330
2A86
100
AcDbEntity
  8
KANAMONO_SCREW
100
AcDbLine
 10
-1.980716023836066
 20
-56.09739627696012
 30
0.0
 11
2.200000000000045
 21
-54.147896378474
 31
0.0
  0
LINE
  5
2A97
330
2A86
100
AcDbEntity
  8
KANAMONO_SCREW
100
AcDbLine
 10
-3.299999999999954
 20
-55.49999999999989
 30
0.0
 11
-3.299999999999954
 21
-57.0
 31
0.0
  0
LINE
  5
2A98
330
2A86
100
AcDbEntity
  8
KANAMONO_SCREW
100
AcDbLine
 10
-1.126827266677764
 20
-59.20244630299066
 30
0.0
 11
1.45833446243796
 21
-57.99696559113477
 31
0.0
  0
LINE
  5
2A99
330
2A86
100
AcDbEntity
  8
KANAMONO_SCREW
100
AcDbLine
 10
-1.553771645256915
 20
-57.64992128997528
 30
0.0
 11
2.010883836453444
 21
-55.98769514016954
 31
0.0
  0
LINE
  5
2A9A
330
2A86
100
AcDbEntity
  8
KANAMONO_SCREW
100
AcDbLine
 10
-3.799999999999954
 20
-59.50000000000011
 30
0.0
 11
-2.200000000000045
 21
-59.49999999999988
 31
0.0
  0
LINE
  5
2A9B
330
2A86
100
AcDbEntity
  8
KANAMONO_SCREW
100
AcDbLine
 10
-4.800000000000068
 20
-57.0
 30
0.0
 11
-4.800000000000068
 21
-58.0
 31
0.0
  0
LINE
  5
2A9C
330
2A86
100
AcDbEntity
  8
KANAMONO_SCREW
100
AcDbLine
 10
-4.800000000000068
 20
-58.0
 30
0.0
 11
-3.799999999999954
 21
-59.50000000000011
 31
0.0
  0
LINE
  5
2A9D
330
2A86
100
AcDbEntity
  8
KANAMONO_SCREW
100
AcDbLine
 10
-3.299999999999954
 20
-57.0
 30
0.0
 11
-4.800000000000068
 21
-57.0
 31
0.0
  0
LINE
  5
2A9E
330
2A86
100
AcDbEntity
  8
KANAMONO_SCREW
100
AcDbLine
 10
-0.6998828880982729
 20
-60.75497131600582
 30
0.0
 11
0.9057850884225899
 21
-60.00623604209977
 31
0.0
  0
LINE
  5
2A9F
330
2A86
100
AcDbEntity
  8
KANAMONO_SCREW
100
AcDbLine
 10
-2.200000000000045
 20
-54.44803762800302
 30
0.0
 11
2.200000000000272
 21
-52.39628393212092
 31
0.0
  0
LINE
  5
2AA0
330
2A86
100
AcDbEntity
  8
KANAMONO_SCREW
100
AcDbLine
 10
-2.200000000000159
 20
-52.69642518165017
 30
0.0
 11
2.200000000000159
 21
-50.64467148576795
 31
0.0
  0
LINE
  5
2AA1
330
2A86
100
AcDbEntity
  8
KANAMONO_SCREW
100
AcDbLine
 10
-4.800000000000181
 20
-50.99999999999977
 30
0.0
 11
-3.300000000000068
 21
-51.49999999999988
 31
0.0
  0
LINE
  5
2AA2
330
2A86
100
AcDbEntity
  8
KANAMONO_SCREW
100
AcDbLine
 10
-4.800000000000181
 20
-53.0
 30
0.0
 11
-4.800000000000068
 21
-55.0
 31
0.0
  0
LINE
  5
2AA3
330
2A86
100
AcDbEntity
  8
KANAMONO_SCREW
100
AcDbLine
 10
-4.800000000000068
 20
-55.0
 30
0.0
 11
-3.299999999999954
 21
-55.49999999999989
 31
0.0
  0
LINE
  5
2AA4
330
2A86
100
AcDbEntity
  8
KANAMONO_SCREW
100
AcDbLine
 10
-3.300000000000068
 20
-53.0
 30
0.0
 11
-4.800000000000181
 21
-53.0
 31
0.0
  0
LINE
  5
2AA5
330
2A86
100
AcDbEntity
  8
KANAMONO_SCREW
100
AcDbLine
 10
-3.300000000000068
 20
-51.49999999999988
 30
0.0
 11
-3.300000000000068
 21
-53.0
 31
0.0
  0
LINE
  5
2AA6
330
2A86
100
AcDbEntity
  8
KANAMONO_SCREW
100
AcDbLine
 10
-4.800000000000181
 20
-40.00833404712671
 30
0.0
 11
-5.088567175761681
 21
-40.00833404712693
 31
0.0
  0
ARC
  5
2AA7
330
2A86
100
AcDbEntity
  8
KANAMONO_SCREW
100
AcDbCircle
 10
0.1473318668159891
 20
-42.20982178778513
 30
0.0
 40
5.679893225786392
100
AcDbArc
 50
157.1951788054447
 51
209.4219706231233
  0
LINE
  5
2AA8
330
2A86
100
AcDbEntity
  8
KANAMONO_SCREW
100
AcDbLine
 10
-4.800000000000068
 20
-45.0
 30
0.0
 11
-4.800000000000068
 21
-47.0
 31
0.0
  0
LINE
  5
2AA9
330
2A86
100
AcDbEntity
  8
KANAMONO_SCREW
100
AcDbLine
 10
-2.200000000000159
 20
-45.68997539623842
 30
0.0
 11
2.200000000000386
 21
-43.6382217003561
 31
0.0
  0
LINE
  5
2AAA
330
2A86
100
AcDbEntity
  8
KANAMONO_SCREW
100
AcDbLine
 10
-2.200000000000045
 20
-47.44158784259127
 30
0.0
 11
2.200000000000272
 21
-45.38983414670918
 31
0.0
  0
LINE
  5
2AAB
330
2A86
100
AcDbEntity
  8
KANAMONO_SCREW
100
AcDbLine
 10
-2.200000000000045
 20
-49.19320028894424
 30
0.0
 11
2.200000000000272
 21
-47.14144659306202
 31
0.0
  0
LINE
  5
2AAC
330
2A86
100
AcDbEntity
  8
KANAMONO_SCREW
100
AcDbLine
 10
-4.800000000000068
 20
-47.0
 30
0.0
 11
-3.300000000000181
 21
-47.49999999999988
 31
0.0
  0
LINE
  5
2AAD
330
2A86
100
AcDbEntity
  8
KANAMONO_SCREW
100
AcDbLine
 10
-3.300000000000181
 20
-49.0
 30
0.0
 11
-4.800000000000295
 21
-49.0
 31
0.0
  0
LINE
  5
2AAE
330
2A86
100
AcDbEntity
  8
KANAMONO_SCREW
100
AcDbLine
 10
-3.300000000000181
 20
-47.49999999999988
 30
0.0
 11
-3.300000000000181
 21
-49.0
 31
0.0
  0
LINE
  5
2AAF
330
2A86
100
AcDbEntity
  8
KANAMONO_SCREW
100
AcDbLine
 10
-2.200000000000045
 20
-43.93836294988534
 30
0.0
 11
2.200000000000272
 21
-41.88660925400324
 31
0.0
  0
LINE
  5
2AB0
330
2A86
100
AcDbEntity
  8
KANAMONO_SCREW
100
AcDbLine
 10
-2.200000000000045
 20
-42.18675050353249
 30
0.0
 11
2.200000000000272
 21
-40.13499680765028
 31
0.0
  0
LINE
  5
2AB1
330
2A86
100
AcDbEntity
  8
KANAMONO_SCREW
100
AcDbLine
 10
-3.300000000000181
 20
-44.99999999999988
 30
0.0
 11
-3.876239569296672
 21
-44.99999999999977
 31
0.0
  0
LINE
  5
2AB2
330
2A86
100
AcDbEntity
  8
KANAMONO_SCREW
100
AcDbLine
 10
-3.300000000000181
 20
-43.49999999999977
 30
0.0
 11
-3.300000000000181
 21
-44.99999999999988
 31
0.0
  0
LINE
  5
2AB3
330
2A86
100
AcDbEntity
  8
KANAMONO_SCREW
100
AcDbLine
 10
-4.800000000000068
 20
-42.99999999999989
 30
0.0
 11
-3.300000000000181
 21
-43.49999999999977
 31
0.0
  0
ARC
  5
2AB4
330
2A86
100
AcDbEntity
  8
KANAMONO_SCREW
100
AcDbCircle
 10
1.071092297519271
 20
-42.20982178778479
 30
0.0
 40
5.679893225786392
100
AcDbArc
 50
188.8781154175122
 51
209.4219706231233
  0
LINE
  5
2AB5
330
2A86
100
AcDbEntity
  8
KANAMONO_SCREW
100
AcDbLine
 10
4.800000000000068
 20
-51.00000000000012
 30
0.0
 11
4.799999999999954
 21
-49.00000000000011
 31
0.0
  0
LINE
  5
2AB6
330
2A86
100
AcDbEntity
  8
KANAMONO_SCREW
100
AcDbLine
 10
3.300000000000181
 20
-57.0
 30
0.0
 11
3.300000000000181
 21
-55.49999999999989
 31
0.0
  0
LINE
  5
2AB7
330
2A86
100
AcDbEntity
  8
KANAMONO_SCREW
100
AcDbLine
 10
4.800000000000181
 20
-58.00000000000011
 30
0.0
 11
4.800000000000181
 21
-57.00000000000011
 31
0.0
  0
LINE
  5
2AB8
330
2A86
100
AcDbEntity
  8
KANAMONO_SCREW
100
AcDbLine
 10
3.800000000000181
 20
-59.50000000000011
 30
0.0
 11
4.800000000000181
 21
-58.00000000000011
 31
0.0
  0
LINE
  5
2AB9
330
2A86
100
AcDbEntity
  8
KANAMONO_SCREW
100
AcDbLine
 10
4.800000000000181
 20
-57.00000000000011
 30
0.0
 11
3.300000000000181
 21
-57.0
 31
0.0
  0
LINE
  5
2ABA
330
2A86
100
AcDbEntity
  8
KANAMONO_SCREW
100
AcDbLine
 10
4.800000000000068
 20
-55.00000000000011
 30
0.0
 11
4.800000000000068
 21
-53.00000000000011
 31
0.0
  0
LINE
  5
2ABB
330
2A86
100
AcDbEntity
  8
KANAMONO_SCREW
100
AcDbLine
 10
3.300000000000068
 20
-53.0
 30
0.0
 11
3.300000000000068
 21
-51.49999999999988
 31
0.0
  0
LINE
  5
2ABC
330
2A86
100
AcDbEntity
  8
KANAMONO_SCREW
100
AcDbLine
 10
3.300000000000068
 20
-51.49999999999988
 30
0.0
 11
4.800000000000068
 21
-51.00000000000012
 31
0.0
  0
LINE
  5
2ABD
330
2A86
100
AcDbEntity
  8
KANAMONO_SCREW
100
AcDbLine
 10
4.800000000000068
 20
-53.00000000000011
 30
0.0
 11
3.300000000000068
 21
-53.0
 31
0.0
  0
LINE
  5
2ABE
330
2A86
100
AcDbEntity
  8
KANAMONO_SCREW
100
AcDbLine
 10
3.300000000000181
 20
-55.49999999999989
 30
0.0
 11
4.800000000000068
 21
-55.00000000000011
 31
0.0
  0
LINE
  5
2ABF
330
2A86
100
AcDbEntity
  8
KANAMONO_SCREW
100
AcDbLine
 10
4.799999999999954
 20
-47.0
 30
0.0
 11
4.799999999999954
 21
-45.0
 31
0.0
  0
LINE
  5
2AC0
330
2A86
100
AcDbEntity
  8
KANAMONO_SCREW
100
AcDbLine
 10
3.299999999999954
 20
-47.49999999999988
 30
0.0
 11
4.799999999999954
 21
-47.0
 31
0.0
  0
LINE
  5
2AC1
330
2A86
100
AcDbEntity
  8
KANAMONO_SCREW
100
AcDbLine
 10
4.799999999999954
 20
-49.00000000000011
 30
0.0
 11
3.299999999999954
 21
-49.0
 31
0.0
  0
LINE
  5
2AC2
330
2A86
100
AcDbEntity
  8
KANAMONO_SCREW
100
AcDbLine
 10
3.299999999999954
 20
-49.0
 30
0.0
 11
3.299999999999954
 21
-47.49999999999988
 31
0.0
  0
LINE
  5
2AC3
330
2A86
100
AcDbEntity
  8
KANAMONO_SCREW
100
AcDbLine
 10
4.799999999999954
 20
-40.00833404712671
 30
0.0
 11
5.088567175761454
 21
-40.00833404712693
 31
0.0
  0
ARC
  5
2AC4
330
2A86
100
AcDbEntity
  8
KANAMONO_SCREW
100
AcDbCircle
 10
-1.071092297519498
 20
-42.20982178778479
 30
0.0
 40
5.679893225786392
100
AcDbArc
 50
330.5780293768767
 51
351.1218845824877
  0
LINE
  5
2AC5
330
2A86
100
AcDbEntity
  8
KANAMONO_SCREW
100
AcDbLine
 10
3.299999999999954
 20
-44.99999999999988
 30
0.0
 11
3.299999999999954
 21
-43.49999999999977
 31
0.0
  0
LINE
  5
2AC6
330
2A86
100
AcDbEntity
  8
KANAMONO_SCREW
100
AcDbLine
 10
3.299999999999954
 20
-43.49999999999977
 30
0.0
 11
4.799999999999954
 21
-42.99999999999989
 31
0.0
  0
LINE
  5
2AC7
330
2A86
100
AcDbEntity
  8
KANAMONO_SCREW
100
AcDbLine
 10
3.876239569296672
 20
-44.99999999999977
 30
0.0
 11
3.299999999999954
 21
-44.99999999999988
 31
0.0
  0
ARC
  5
2AC8
330
2A86
100
AcDbEntity
  8
KANAMONO_SCREW
100
AcDbCircle
 10
-0.1473318668162165
 20
-42.20982178778513
 30
0.0
 40
5.679893225786392
100
AcDbArc
 50
330.5780293768767
 51
22.8048211945553
  0
LINE
  5
2AC9
330
2A86
100
AcDbEntity
  8
KANAMONO_SCREW
100
AcDbLine
 10
3.0
 20
-27.5
 30
0.0
 11
-3.0
 21
-27.5
 31
0.0
  0
LINE
  5
2ACA
330
2A86
100
AcDbEntity
  8
KANAMONO_SCREW
100
AcDbLine
 10
3.0
 20
-28.5
 30
0.0
 11
-3.0
 21
-28.5
 31
0.0
  0
LINE
  5
2ACB
330
2A86
100
AcDbEntity
  8
KANAMONO_SCREW
100
AcDbLine
 10
3.0
 20
-29.5
 30
0.0
 11
-3.0
 21
-29.5
 31
0.0
  0
ARC
  5
2ACC
330
2A86
100
AcDbEntity
  8
KANAMONO_SCREW
100
AcDbCircle
 10
26.87278604750498
 20
-40.11321782546042
 30
0.0
 40
31.70210937541362
100
AcDbArc
 50
160.44086710814
 51
177.535472548574
  0
LINE
  5
2ACD
330
2A86
100
AcDbEntity
  8
KANAMONO_SCREW
100
AcDbLine
 10
-1.499669838132945
 20
-38.35695629311101
 30
0.0
 11
1.097300952475279
 21
-37.14596892544558
 31
0.0
  0
LINE
  5
2ACE
330
2A86
100
AcDbEntity
  8
KANAMONO_SCREW
100
AcDbLine
 10
-0.400000000000091
 20
-34.49999999999989
 30
0.0
 11
0.3999999999998636
 21
-34.49999999999989
 31
0.0
  0
LINE
  5
2ACF
330
2A86
100
AcDbEntity
  8
KANAMONO_SCREW
100
AcDbLine
 10
-0.8481885289712636
 20
-36.30155312315106
 30
0.0
 11
0.6599209906190709
 21
-35.5983101048297
 31
0.0
  0
ARC
  5
2AD0
330
2A86
100
AcDbEntity
  8
KANAMONO_SCREW
100
AcDbCircle
 10
-26.8727860475052
 20
-40.11321782546042
 30
0.0
 40
31.70210937541362
100
AcDbArc
 50
2.464527451426015
 51
19.55913289186
  0
LINE
  5
2AD1
330
2A86
100
AcDbEntity
  8
KANAMONO_SCREW
100
AcDbLine
 10
-3.0
 20
-1.299999999999954
 30
0.0
 11
3.0
 21
-1.299999999999954
 31
0.0
  0
LINE
  5
2AD2
330
2A86
100
AcDbEntity
  8
KANAMONO_SCREW
100
AcDbLine
 10
-4.399999999999977
 20
1.200000000000045
 30
0.0
 11
4.399999999999977
 21
1.200000000000045
 31
0.0
  0
LINE
  5
2AD3
330
2A86
100
AcDbEntity
  8
KANAMONO_SCREW
100
AcDbLine
 10
-4.399999999999977
 20
1.700000000000045
 30
0.0
 11
4.399999999999977
 21
1.700000000000045
 31
0.0
  0
LINE
  5
2AD4
330
2A86
100
AcDbEntity
  8
KANAMONO_SCREW
100
AcDbLine
 10
-2.200000000000045
 20
-1.299999999999954
 30
0.0
 11
2.200000000000045
 21
-1.299999999999954
 31
0.0
  0
LINE
  5
2AD5
330
2A86
100
AcDbEntity
  8
KANAMONO_SCREW
100
AcDbLine
 10
-4.399999999999977
 20
1.200000000000045
 30
0.0
 11
-4.399999999999863
 21
1.700000000000045
 31
0.0
  0
LINE
  5
2AD6
330
2A86
100
AcDbEntity
  8
KANAMONO_SCREW
100
AcDbLine
 10
-3.783999999999991
 20
0.5
 30
0.0
 11
-4.399999999999977
 21
1.200000000000045
 31
0.0
  0
LINE
  5
2AD7
330
2A86
100
AcDbEntity
  8
KANAMONO_SCREW
100
AcDbLine
 10
4.399999999999977
 20
1.700000000000045
 30
0.0
 11
4.399999999999977
 21
1.200000000000045
 31
0.0
  0
LINE
  5
2AD8
330
2A86
100
AcDbEntity
  8
KANAMONO_SCREW
100
AcDbLine
 10
4.399999999999977
 20
1.200000000000045
 30
0.0
 11
3.783999999999991
 21
0.5
 31
0.0
  0
ENDBLK
  5
2ADA
330
2A86
100
AcDbEntity
  8
0
 48
20.0
100
AcDbBlockEnd
  0
BLOCK
  5
4008
330
3FFE
100
AcDbEntity
  8
0
100
AcDbBlockBegin
  2
*D2
 70
     1
 10
0.0
 20
0.0
 30
0.0
  3
*D2
  1

  0
LINE
  5
4825
330
3FFE
100
AcDbEntity
  8
SUNPO
  6
Continuous
 62
     0
370
    -2
100
AcDbLine
 10
346.4081624910845
 20
121.621841963908
 30
0.0
 11
346.4081624910845
 21
100.5773220094375
 31
0.0
  0
LINE
  5
4826
330
3FFE
100
AcDbEntity
  8
SUNPO
  6
Continuous
 62
     0
370
    -2
100
AcDbLine
 10
258.4081624910845
 20
121.121841963908
 30
0.0
 11
258.4081624910845
 21
100.5773220094375
 31
0.0
  0
LINE
  5
4827
330
3FFE
100
AcDbEntity
  8
SUNPO
  6
Continuous
 62
     0
370
    -2
100
AcDbLine
 10
344.8081624910845
 20
100.5773220094375
 30
0.0
 11
260.0081624910845
 21
100.5773220094375
 31
0.0
  0
INSERT
  5
4828
330
3FFE
100
AcDbEntity
  8
SUNPO
  6
Continuous
 62
     0
370
    -2
100
AcDbBlockReference
  2
_DOT
 10
346.4081624910845
 20
100.5773220094375
 30
0.0
 41
1.6
 42
1.6
 43
1.6
  0
INSERT
  5
4829
330
3FFE
100
AcDbEntity
  8
SUNPO
  6
Continuous
 62
     0
370
    -2
100
AcDbBlockReference
  2
_DOT
 10
258.4081624910845
 20
100.5773220094375
 30
0.0
 41
1.6
 42
1.6
 43
1.6
 50
180.0
  0
MTEXT
  5
482A
330
3FFE
100
AcDbEntity
  8
SUNPO
  6
Continuous
 62
     0
100
AcDbMText
 10
302.4081624910845
 20
98.37732200943749
 30
0.0
 40
4.0
 41
0.0
 71
     5
 72
     1
  1
\A1;88
 73
     1
 44
1.0
1001
ACAD
1000
MTEXTBEGIN
1070
    73
1070
     1
1070
    44
1040
1.0
1070
    74
1070
     0
1000
MTEXTEND
  0
POINT
  5
482B
330
3FFE
100
AcDbEntity
  8
Defpoints
  6
Continuous
 62
     0
100
AcDbPoint
 10
346.4081624910845
 20
123.621841963908
 30
0.0
  0
POINT
  5
482C
330
3FFE
100
AcDbEntity
  8
Defpoints
  6
Continuous
 62
     0
100
AcDbPoint
 10
258.4081624910845
 20
123.121841963908
 30
0.0
  0
POINT
  5
482D
330
3FFE
100
AcDbEntity
  8
Defpoints
  6
Continuous
 62
     0
100
AcDbPoint
 10
258.4081624910845
 20
100.5773220094375
 30
0.0
  0
ENDBLK
  5
4009
330
3FFE
100
AcDbEntity
  8
0
100
AcDbBlockEnd
  0
BLOCK
  5
4014
330
400A
100
AcDbEntity
  8
0
100
AcDbBlockBegin
  2
*D3
 70
     1
 10
0.0
 20
0.0
 30
0.0
  3
*D3
  1

  0
LINE
  5
482E
330
400A
100
AcDbEntity
  8
SUNPO
  6
Continuous
 62
     0
370
    -2
100
AcDbLine
 10
236.4128698583926
 20
75.4218419639081
 30
0.0
 11
236.4128698583926
 21
66.56740024008982
 31
0.0
  0
LINE
  5
482F
330
400A
100
AcDbEntity
  8
SUNPO
  6
Continuous
 62
     0
370
    -2
100
AcDbLine
 10
346.4128698583925
 20
121.621841963908
 30
0.0
 11
346.4128698583925
 21
66.56740024008982
 31
0.0
  0
LINE
  5
4830
330
400A
100
AcDbEntity
  8
SUNPO
  6
Continuous
 62
     0
370
    -2
100
AcDbLine
 10
238.0128698583926
 20
66.56740024008982
 30
0.0
 11
344.8128698583925
 21
66.56740024008982
 31
0.0
  0
INSERT
  5
4831
330
400A
100
AcDbEntity
  8
SUNPO
  6
Continuous
 62
     0
370
    -2
100
AcDbBlockReference
  2
_DOT
 10
236.4128698583926
 20
66.56740024008982
 30
0.0
 41
1.6
 42
1.6
 43
1.6
 50
180.0
  0
INSERT
  5
4832
330
400A
100
AcDbEntity
  8
SUNPO
  6
Continuous
 62
     0
370
    -2
100
AcDbBlockReference
  2
_DOT
 10
346.4128698583925
 20
66.56740024008982
 30
0.0
 41
1.6
 42
1.6
 43
1.6
  0
MTEXT
  5
4833
330
400A
100
AcDbEntity
  8
SUNPO
  6
Continuous
 62
     0
100
AcDbMText
 10
291.4128698583925
 20
64.36740024008982
 30
0.0
 40
4.0
 41
0.0
 71
     5
 72
     1
  1
\A1;110
 73
     1
 44
1.0
1001
ACAD
1000
MTEXTBEGIN
1070
    73
1070
     1
1070
    44
1040
1.0
1070
    74
1070
     0
1000
MTEXTEND
  0
POINT
  5
4834
330
400A
100
AcDbEntity
  8
Defpoints
  6
Continuous
 62
     0
100
AcDbPoint
 10
236.4128698583926
 20
77.42184196390809
 30
0.0
  0
POINT
  5
4835
330
400A
100
AcDbEntity
  8
Defpoints
  6
Continuous
 62
     0
100
AcDbPoint
 10
346.4128698583925
 20
123.621841963908
 30
0.0
  0
POINT
  5
4836
330
400A
100
AcDbEntity
  8
Defpoints
  6
Continuous
 62
     0
100
AcDbPoint
 10
346.4128698583925
 20
66.56740024008982
 30
0.0
  0
ENDBLK
  5
4015
330
400A
100
AcDbEntity
  8
0
100
AcDbBlockEnd
  0
BLOCK
  5
4038
330
402E
100
AcDbEntity
  8
0
100
AcDbBlockBegin
  2
*D4
 70
     1
 10
0.0
 20
0.0
 30
0.0
  3
*D4
  1

  0
LINE
  5
4837
330
402E
100
AcDbEntity
  8
SUNPO
  6
Continuous
 62
     0
370
    -2
100
AcDbLine
 10
236.4128698583926
 20
199.1218419639081
 30
0.0
 11
236.4128698583926
 21
215.8017354403986
 31
0.0
  0
LINE
  5
4838
330
402E
100
AcDbEntity
  8
SUNPO
  6
Continuous
 62
     0
370
    -2
100
AcDbLine
 10
321.4128698583926
 20
177.9218419639081
 30
0.0
 11
321.4128698583926
 21
215.8017354403986
 31
0.0
  0
LINE
  5
4839
330
402E
100
AcDbEntity
  8
SUNPO
  6
Continuous
 62
     0
370
    -2
100
AcDbLine
 10
238.0128698583926
 20
215.8017354403986
 30
0.0
 11
319.8128698583925
 21
215.8017354403986
 31
0.0
  0
INSERT
  5
483A
330
402E
100
AcDbEntity
  8
SUNPO
  6
Continuous
 62
     0
370
    -2
100
AcDbBlockReference
  2
_DOT
 10
236.4128698583926
 20
215.8017354403986
 30
0.0
 41
1.6
 42
1.6
 43
1.6
 50
180.0
  0
INSERT
  5
483B
330
402E
100
AcDbEntity
  8
SUNPO
  6
Continuous
 62
     0
370
    -2
100
AcDbBlockReference
  2
_DOT
 10
321.4128698583926
 20
215.8017354403986
 30
0.0
 41
1.6
 42
1.6
 43
1.6
  0
MTEXT
  5
483C
330
402E
100
AcDbEntity
  8
SUNPO
  6
Continuous
 62
     0
100
AcDbMText
 10
278.9128698583926
 20
218.0017354403986
 30
0.0
 40
4.0
 41
0.0
 71
     5
 72
     1
  1
\A1;85
 73
     1
 44
1.0
1001
ACAD
1000
MTEXTBEGIN
1070
    73
1070
     1
1070
    44
1040
1.0
1070
    74
1070
     0
1000
MTEXTEND
  0
POINT
  5
483D
330
402E
100
AcDbEntity
  8
Defpoints
  6
Continuous
 62
     0
100
AcDbPoint
 10
236.4128698583926
 20
197.1218419639081
 30
0.0
  0
POINT
  5
483E
330
402E
100
AcDbEntity
  8
Defpoints
  6
Continuous
 62
     0
100
AcDbPoint
 10
321.4128698583926
 20
175.921841963908
 30
0.0
  0
POINT
  5
483F
330
402E
100
AcDbEntity
  8
Defpoints
  6
Continuous
 62
     0
100
AcDbPoint
 10
321.4128698583926
 20
215.8017354403986
 30
0.0
  0
ENDBLK
  5
4039
330
402E
100
AcDbEntity
  8
0
100
AcDbBlockEnd
  0
BLOCK
  5
4044
330
403A
100
AcDbEntity
  8
0
100
AcDbBlockBegin
  2
*D5
 70
     1
 10
0.0
 20
0.0
 30
0.0
  3
*D5
  1

  0
LINE
  5
4840
330
403A
100
AcDbEntity
  8
SUNPO
  6
Continuous
 62
     0
370
    -2
100
AcDbLine
 10
234.4128698583926
 20
77.12184196390811
 30
0.0
 11
211.9947425036216
 21
77.12184196390812
 31
0.0
  0
LINE
  5
4841
330
403A
100
AcDbEntity
  8
SUNPO
  6
Continuous
 62
     0
370
    -2
100
AcDbLine
 10
234.4128698583926
 20
197.1218419639081
 30
0.0
 11
211.9947425036216
 21
197.1218419639081
 31
0.0
  0
LINE
  5
4842
330
403A
100
AcDbEntity
  8
SUNPO
  6
Continuous
 62
     0
370
    -2
100
AcDbLine
 10
211.9947425036216
 20
78.72184196390811
 30
0.0
 11
211.9947425036216
 21
195.5218419639081
 31
0.0
  0
INSERT
  5
4843
330
403A
100
AcDbEntity
  8
SUNPO
  6
Continuous
 62
     0
370
    -2
100
AcDbBlockReference
  2
_DOT
 10
211.9947425036216
 20
77.12184196390812
 30
0.0
 41
1.6
 42
1.6
 43
1.6
 50
270.0
  0
INSERT
  5
4844
330
403A
100
AcDbEntity
  8
SUNPO
  6
Continuous
 62
     0
370
    -2
100
AcDbBlockReference
  2
_DOT
 10
211.9947425036216
 20
197.1218419639081
 30
0.0
 41
1.6
 42
1.6
 43
1.6
 50
90.0
  0
MTEXT
  5
4845
330
403A
100
AcDbEntity
  8
SUNPO
  6
Continuous
 62
     0
100
AcDbMText
 10
209.7947425036216
 20
137.1218419639081
 30
0.0
 40
4.0
 41
0.0
 71
     5
 72
     1
  1
\A1;120
 11
0.0000000000000001
 21
1.0
 31
0.0
 73
     1
 44
1.0
1001
ACAD
1000
MTEXTBEGIN
1070
    73
1070
     1
1070
    44
1040
1.0
1070
    74
1070
     0
1000
MTEXTEND
  0
POINT
  5
4846
330
403A
100
AcDbEntity
  8
Defpoints
  6
Continuous
 62
     0
100
AcDbPoint
 10
236.4128698583926
 20
77.12184196390811
 30
0.0
  0
POINT
  5
4847
330
403A
100
AcDbEntity
  8
Defpoints
  6
Continuous
 62
     0
100
AcDbPoint
 10
236.4128698583926
 20
197.1218419639081
 30
0.0
  0
POINT
  5
4848
330
403A
100
AcDbEntity
  8
Defpoints
  6
Continuous
 62
     0
100
AcDbPoint
 10
211.9947425036216
 20
197.1218419639081
 30
0.0
  0
ENDBLK
  5
4045
330
403A
100
AcDbEntity
  8
0
100
AcDbBlockEnd
  0
BLOCK
  5
4116
330
410C
100
AcDbEntity
  8
0
100
AcDbBlockBegin
  2
*D6
 70
     1
 10
0.0
 20
0.0
 30
0.0
  3
*D6
  1

  0
LINE
  5
4849
330
410C
100
AcDbEntity
  8
SUNPO
  6
Continuous
 62
     0
370
    -2
100
AcDbLine
 10
236.4128698583926
 20
199.1218419639081
 30
0.0
 11
236.4128698583926
 21
206.9810103552473
 31
0.0
  0
LINE
  5
484A
330
410C
100
AcDbEntity
  8
SUNPO
  6
Continuous
 62
     0
370
    -2
100
AcDbLine
 10
256.4128698583926
 20
199.1218419639081
 30
0.0
 11
256.4128698583926
 21
206.9810103552473
 31
0.0
  0
LINE
  5
484B
330
410C
100
AcDbEntity
  8
SUNPO
  6
Continuous
 62
     0
370
    -2
100
AcDbLine
 10
238.0128698583926
 20
206.9810103552473
 30
0.0
 11
254.8128698583926
 21
206.9810103552473
 31
0.0
  0
INSERT
  5
484C
330
410C
100
AcDbEntity
  8
SUNPO
  6
Continuous
 62
     0
370
    -2
100
AcDbBlockReference
  2
_DOT
 10
236.4128698583926
 20
206.9810103552473
 30
0.0
 41
1.6
 42
1.6
 43
1.6
 50
180.0
  0
INSERT
  5
484D
330
410C
100
AcDbEntity
  8
SUNPO
  6
Continuous
 62
     0
370
    -2
100
AcDbBlockReference
  2
_DOT
 10
256.4128698583926
 20
206.9810103552473
 30
0.0
 41
1.6
 42
1.6
 43
1.6
  0
MTEXT
  5
484E
330
410C
100
AcDbEntity
  8
SUNPO
  6
Continuous
 62
     0
100
AcDbMText
 10
246.4128698583926
 20
209.1810103552473
 30
0.0
 40
4.0
 41
0.0
 71
     5
 72
     1
  1
\A1;20
 73
     1
 44
1.0
1001
ACAD
1000
MTEXTBEGIN
1070
    73
1070
     1
1070
    44
1040
1.0
1070
    74
1070
     0
1000
MTEXTEND
  0
POINT
  5
484F
330
410C
100
AcDbEntity
  8
Defpoints
  6
Continuous
 62
     0
100
AcDbPoint
 10
236.4128698583926
 20
197.1218419639081
 30
0.0
  0
POINT
  5
4850
330
410C
100
AcDbEntity
  8
Defpoints
  6
Continuous
 62
     0
100
AcDbPoint
 10
256.4128698583926
 20
197.1218419639081
 30
0.0
  0
POINT
  5
4851
330
410C
100
AcDbEntity
  8
Defpoints
  6
Continuous
 62
     0
100
AcDbPoint
 10
256.4128698583926
 20
206.9810103552473
 30
0.0
  0
ENDBLK
  5
4117
330
410C
100
AcDbEntity
  8
0
100
AcDbBlockEnd
  0
BLOCK
  5
412E
330
4124
100
AcDbEntity
  8
0
100
AcDbBlockBegin
  2
*D7
 70
     1
 10
0.0
 20
0.0
 30
0.0
  3
*D7
  1

  0
LINE
  5
4852
330
4124
100
AcDbEntity
  8
SUNPO
  6
Continuous
 62
     0
370
    -2
100
AcDbLine
 10
343.4128698583926
 20
125.121841963908
 30
0.0
 11
356.6081913503112
 21
125.121841963908
 31
0.0
  0
LINE
  5
4853
330
4124
100
AcDbEntity
  8
SUNPO
  6
Continuous
 62
     0
370
    -2
100
AcDbLine
 10
322.9081624910843
 20
175.121841963908
 30
0.0
 11
356.6081913503112
 21
175.121841963908
 31
0.0
  0
LINE
  5
4854
330
4124
100
AcDbEntity
  8
SUNPO
  6
Continuous
 62
     0
370
    -2
100
AcDbLine
 10
356.6081913503112
 20
126.721841963908
 30
0.0
 11
356.6081913503112
 21
173.521841963908
 31
0.0
  0
INSERT
  5
4855
330
4124
100
AcDbEntity
  8
SUNPO
  6
Continuous
 62
     0
370
    -2
100
AcDbBlockReference
  2
_DOT
 10
356.6081913503112
 20
125.121841963908
 30
0.0
 41
1.6
 42
1.6
 43
1.6
 50
270.0
  0
INSERT
  5
4856
330
4124
100
AcDbEntity
  8
SUNPO
  6
Continuous
 62
     0
370
    -2
100
AcDbBlockReference
  2
_DOT
 10
356.6081913503112
 20
175.121841963908
 30
0.0
 41
1.6
 42
1.6
 43
1.6
 50
90.0
  0
MTEXT
  5
4857
330
4124
100
AcDbEntity
  8
SUNPO
  6
Continuous
 62
     0
100
AcDbMText
 10
358.8081913503112
 20
150.121841963908
 30
0.0
 40
4.0
 41
0.0
 71
     5
 72
     1
  1
\A1;50
 11
0.0000000000000001
 21
1.0
 31
0.0
 73
     1
 44
1.0
1001
ACAD
1000
MTEXTBEGIN
1070
    73
1070
     1
1070
    44
1040
1.0
1070
    74
1070
     0
1000
MTEXTEND
  0
POINT
  5
4858
330
4124
100
AcDbEntity
  8
Defpoints
  6
Continuous
 62
     0
100
AcDbPoint
 10
341.4128698583926
 20
125.121841963908
 30
0.0
  0
POINT
  5
4859
330
4124
100
AcDbEntity
  8
Defpoints
  6
Continuous
 62
     0
100
AcDbPoint
 10
320.9081624910843
 20
175.121841963908
 30
0.0
  0
POINT
  5
485A
330
4124
100
AcDbEntity
  8
Defpoints
  6
Continuous
 62
     0
100
AcDbPoint
 10
356.6081913503112
 20
175.121841963908
 30
0.0
  0
ENDBLK
  5
412F
330
4124
100
AcDbEntity
  8
0
100
AcDbBlockEnd
  0
BLOCK
  5
48F7
330
48F6
100
AcDbEntity
  8
0
100
AcDbBlockBegin
  2
up60_2020
 70
     0
 10
0.0
 20
0.0
 30
0.0
  3
up60_2020
  1

  0
LINE
  5
48F8
330
48F6
100
AcDbEntity
  8
KANAMONO_SCREW
100
AcDbLine
 10
2.789999999999736
 20
-31.56499999999937
 30
0.0
 11
2.789999999999736
 21
-2.864999999999326
 31
0.0
  0
LINE
  5
48F9
330
48F6
100
AcDbEntity
  8
KANAMONO_SCREW
100
AcDbLine
 10
-2.790000000000077
 20
-31.56499999999937
 30
0.0
 11
-2.789999999995984
 21
-2.864999999999326
 31
0.0
  0
LINE
  5
48FA
330
48F6
100
AcDbEntity
  8
KANAMONO_SCREW
100
AcDbLine
 10
0.2499999999998863
 20
-10.56499999999937
 30
0.0
 11
0.2499999999998863
 21
-2.864999999999781
 31
0.0
  0
LINE
  5
48FB
330
48F6
100
AcDbEntity
  8
KANAMONO_SCREW
100
AcDbLine
 10
3.390000000000782
 20
-8.66499999999587
 30
0.0
 11
2.789999999999736
 21
-10.56499999999937
 31
0.0
  0
LINE
  5
48FC
330
48F6
100
AcDbEntity
  8
KANAMONO_SCREW
100
AcDbLine
 10
-2.790000000000077
 20
-10.56499999999937
 30
0.0
 11
-3.389999999999076
 21
-8.665000000003146
 31
0.0
  0
LINE
  5
48FD
330
48F6
100
AcDbEntity
  8
KANAMONO_SCREW
100
AcDbLine
 10
0.2499999999998863
 20
-10.56499999999937
 30
0.0
 11
-0.0000000000002274
 21
-8.665000000003146
 31
0.0
  0
LINE
  5
48FE
330
48F6
100
AcDbEntity
  8
KANAMONO_SCREW
100
AcDbLine
 10
-0.0000000000014779
 20
-8.665000000000645
 30
0.0
 11
-0.2499999999965894
 21
-10.56499999999528
 31
0.0
  0
LINE
  5
48FF
330
48F6
100
AcDbEntity
  8
KANAMONO_SCREW
100
AcDbLine
 10
-0.2499999999965894
 20
-10.56499999999528
 30
0.0
 11
-0.2499999999943157
 21
-2.86500000001115
 31
0.0
  0
LINE
  5
4900
330
48F6
100
AcDbEntity
  8
KANAMONO_SCREW
100
AcDbLine
 10
-0.0000000000014779
 20
-8.665000000000645
 30
0.0
 11
0.0000000000001137
 21
-3.36500000001115
 31
0.0
  0
LINE
  5
4901
330
48F6
100
AcDbEntity
  8
KANAMONO_SCREW
100
AcDbLine
 10
3.390000000000782
 20
-8.66499999999587
 30
0.0
 11
3.390000000002373
 21
-3.364999999999099
 31
0.0
  0
LINE
  5
4902
330
48F6
100
AcDbEntity
  8
KANAMONO_SCREW
100
AcDbLine
 10
-3.389999999999076
 20
-8.665000000003146
 30
0.0
 11
-3.389999999997371
 21
-3.364999999999554
 31
0.0
  0
LINE
  5
4903
330
48F6
100
AcDbEntity
  8
KANAMONO_SCREW
100
AcDbLine
 10
3.390000000002373
 20
-3.364999999999099
 30
0.0
 11
2.790000000002578
 21
-2.864999999999326
 31
0.0
  0
LINE
  5
4904
330
48F6
100
AcDbEntity
  8
KANAMONO_SCREW
100
AcDbLine
 10
-2.789999999997462
 20
-2.864999999999326
 30
0.0
 11
-3.389999999997371
 21
-3.364999999999554
 31
0.0
  0
LINE
  5
4905
330
48F6
100
AcDbEntity
  8
KANAMONO_SCREW
100
AcDbLine
 10
0.2499999999998863
 20
-2.864999999999781
 30
0.0
 11
0.0000000000001137
 21
-3.364999999999554
 31
0.0
  0
LINE
  5
4906
330
48F6
100
AcDbEntity
  8
KANAMONO_SCREW
100
AcDbLine
 10
0.0000000000001137
 20
-3.364999999999554
 30
0.0
 11
-0.2499999999943157
 21
-2.86500000001115
 31
0.0
  0
LINE
  5
4907
330
48F6
100
AcDbEntity
  8
KANAMONO_SCREW
100
AcDbLine
 10
2.890000000000213
 20
-2.864999999999326
 30
0.0
 11
-2.889999999999872
 21
-2.864999999999326
 31
0.0
  0
LINE
  5
4908
330
48F6
100
AcDbEntity
  8
KANAMONO_SCREW
100
AcDbLine
 10
2.890000000000213
 20
-2.864999999999326
 30
0.0
 11
3.675000000000068
 21
-2.014999999999417
 31
0.0
  0
LINE
  5
4909
330
48F6
100
AcDbEntity
  8
KANAMONO_SCREW
100
AcDbLine
 10
-2.889999999999872
 20
-2.864999999999326
 30
0.0
 11
-3.674999999999954
 21
-2.014999999999645
 31
0.0
  0
LINE
  5
490A
330
48F6
100
AcDbEntity
  8
KANAMONO_SCREW
100
AcDbLine
 10
3.675000000000068
 20
-2.014999999999417
 30
0.0
 11
-3.674999999999954
 21
-2.014999999999645
 31
0.0
  0
LINE
  5
490B
330
48F6
100
AcDbEntity
  8
KANAMONO_SCREW
100
AcDbLine
 10
3.675000000000068
 20
-2.014999999999417
 30
0.0
 11
3.675000000000068
 21
-1.564999999999372
 31
0.0
  0
LINE
  5
490C
330
48F6
100
AcDbEntity
  8
KANAMONO_SCREW
100
AcDbLine
 10
3.675000000000068
 20
-1.564999999999372
 30
0.0
 11
-3.674999999999954
 21
-1.564999999999372
 31
0.0
  0
LINE
  5
490D
330
48F6
100
AcDbEntity
  8
KANAMONO_SCREW
100
AcDbLine
 10
-3.674999999999954
 20
-2.014999999999645
 30
0.0
 11
-3.674999999999954
 21
-1.564999999999372
 31
0.0
  0
ARC
  5
490E
330
48F6
100
AcDbEntity
  8
KANAMONO_SCREW
100
AcDbCircle
 10
1.249999999999772
 20
-30.86499999999956
 30
0.0
 40
0.5999999999999998
100
AcDbArc
 50
270.0
 51
0.0
  0
LINE
  5
490F
330
48F6
100
AcDbEntity
  8
KANAMONO_SCREW
100
AcDbLine
 10
1.849999999999795
 20
-30.86499999999956
 30
0.0
 11
1.849999999999795
 21
-22.66499999999928
 31
0.0
  0
ARC
  5
4910
330
48F6
100
AcDbEntity
  8
KANAMONO_SCREW
100
AcDbCircle
 10
-1.250000000000227
 20
-30.86499999999956
 30
0.0
 40
0.5999999999999998
100
AcDbArc
 50
180.0
 51
270.0
  0
LINE
  5
4911
330
48F6
100
AcDbEntity
  8
KANAMONO_SCREW
100
AcDbLine
 10
-1.850000000000363
 20
-30.86499999999956
 30
0.0
 11
-1.850000000000363
 21
-22.66499999999928
 31
0.0
  0
LINE
  5
4912
330
48F6
100
AcDbEntity
  8
KANAMONO_SCREW
100
AcDbLine
 10
-1.250000000000227
 20
-31.46499999999946
 30
0.0
 11
1.249999999999772
 21
-31.46499999999946
 31
0.0
  0
LINE
  5
4913
330
48F6
100
AcDbEntity
  8
KANAMONO_SCREW
100
AcDbLine
 10
3.389999999999872
 20
-24.06499999999915
 30
0.0
 11
2.789999999999963
 21
-23.56499999999937
 31
0.0
  0
LINE
  5
4914
330
48F6
100
AcDbEntity
  8
KANAMONO_SCREW
100
AcDbLine
 10
3.389999999999872
 20
-36.56499999999937
 30
0.0
 11
3.389999999999872
 21
-24.06499999999915
 31
0.0
  0
LINE
  5
4915
330
48F6
100
AcDbEntity
  8
KANAMONO_SCREW
100
AcDbLine
 10
-2.789999999999963
 20
-23.56499999999937
 30
0.0
 11
-3.3900000000001
 21
-24.0649999999996
 31
0.0
  0
LINE
  5
4916
330
48F6
100
AcDbEntity
  8
KANAMONO_SCREW
100
AcDbLine
 10
-3.3900000000001
 20
-36.5649999999996
 30
0.0
 11
-3.3900000000001
 21
-24.0649999999996
 31
0.0
  0
ARC
  5
4917
330
48F6
100
AcDbEntity
  8
KANAMONO_SCREW
100
AcDbCircle
 10
1.249999999999772
 20
-22.66499999999928
 30
0.0
 40
0.5999999999999998
100
AcDbArc
 50
0.0
 51
90.0
  0
LINE
  5
4918
330
48F6
100
AcDbEntity
  8
KANAMONO_SCREW
100
AcDbLine
 10
1.249999999999772
 20
-22.06499999999937
 30
0.0
 11
-1.250000000000227
 21
-22.06499999999937
 31
0.0
  0
ARC
  5
4919
330
48F6
100
AcDbEntity
  8
KANAMONO_SCREW
100
AcDbCircle
 10
-1.250000000000227
 20
-22.66499999999928
 30
0.0
 40
0.5999999999999998
100
AcDbArc
 50
90.0
 51
180.0
  0
LINE
  5
491A
330
48F6
100
AcDbEntity
  8
KANAMONO_SCREW
100
AcDbLine
 10
2.889999999999872
 20
-33.36499999999956
 30
0.0
 11
2.889999999999872
 21
-31.56499999999937
 31
0.0
  0
LINE
  5
491B
330
48F6
100
AcDbEntity
  8
KANAMONO_SCREW
100
AcDbLine
 10
2.889999999999872
 20
-38.76499999999964
 30
0.0
 11
2.889999999999872
 21
-36.96499999999924
 31
0.0
  0
LINE
  5
491C
330
48F6
100
AcDbEntity
  8
KANAMONO_SCREW
100
AcDbLine
 10
-2.8900000000001
 20
-33.36499999999956
 30
0.0
 11
-2.8900000000001
 21
-31.56499999999937
 31
0.0
  0
LINE
  5
491D
330
48F6
100
AcDbEntity
  8
KANAMONO_SCREW
100
AcDbLine
 10
-2.8900000000001
 20
-38.76499999999964
 30
0.0
 11
-2.8900000000001
 21
-36.96499999999924
 31
0.0
  0
LINE
  5
491E
330
48F6
100
AcDbEntity
  8
KANAMONO_SCREW
100
AcDbLine
 10
2.789999999999736
 20
-36.36499999999933
 30
0.0
 11
1.999999999999772
 21
-36.36499999999933
 31
0.0
  0
LINE
  5
491F
330
48F6
100
AcDbEntity
  8
KANAMONO_SCREW
100
AcDbLine
 10
2.789999999999736
 20
-36.96499999999924
 30
0.0
 11
2.789999999999736
 21
-33.36499999999956
 31
0.0
  0
LINE
  5
4920
330
48F6
100
AcDbEntity
  8
KANAMONO_SCREW
100
AcDbLine
 10
2.789999999999736
 20
-35.86499999999933
 30
0.0
 11
1.999999999999772
 21
-35.86499999999933
 31
0.0
  0
LINE
  5
4921
330
48F6
100
AcDbEntity
  8
KANAMONO_SCREW
100
AcDbLine
 10
2.789999999999736
 20
-35.36499999999933
 30
0.0
 11
1.999999999999772
 21
-35.36499999999933
 31
0.0
  0
LINE
  5
4922
330
48F6
100
AcDbEntity
  8
KANAMONO_SCREW
100
AcDbLine
 10
2.789999999999736
 20
-34.86499999999933
 30
0.0
 11
1.999999999999772
 21
-34.86499999999933
 31
0.0
  0
LINE
  5
4923
330
48F6
100
AcDbEntity
  8
KANAMONO_SCREW
100
AcDbLine
 10
2.789999999999736
 20
-34.36499999999933
 30
0.0
 11
1.999999999999772
 21
-34.36499999999933
 31
0.0
  0
LINE
  5
4924
330
48F6
100
AcDbEntity
  8
KANAMONO_SCREW
100
AcDbLine
 10
2.789999999999736
 20
-33.86499999999933
 30
0.0
 11
1.999999999999772
 21
-33.86499999999933
 31
0.0
  0
LINE
  5
4925
330
48F6
100
AcDbEntity
  8
KANAMONO_SCREW
100
AcDbLine
 10
-2.000000000000227
 20
-36.36499999999933
 30
0.0
 11
-2.789999999999963
 21
-36.36499999999933
 31
0.0
  0
LINE
  5
4926
330
48F6
100
AcDbEntity
  8
KANAMONO_SCREW
100
AcDbLine
 10
-2.000000000000227
 20
-35.86499999999933
 30
0.0
 11
-2.789999999999963
 21
-35.86499999999933
 31
0.0
  0
LINE
  5
4927
330
48F6
100
AcDbEntity
  8
KANAMONO_SCREW
100
AcDbLine
 10
-2.789999999999963
 20
-36.96499999999924
 30
0.0
 11
-2.790000000000077
 21
-33.36499999999956
 31
0.0
  0
LINE
  5
4928
330
48F6
100
AcDbEntity
  8
KANAMONO_SCREW
100
AcDbLine
 10
-2.000000000000227
 20
-35.36499999999933
 30
0.0
 11
-2.790000000000077
 21
-35.36499999999933
 31
0.0
  0
LINE
  5
4929
330
48F6
100
AcDbEntity
  8
KANAMONO_SCREW
100
AcDbLine
 10
-2.000000000000227
 20
-34.86499999999933
 30
0.0
 11
-2.790000000000077
 21
-34.86499999999933
 31
0.0
  0
LINE
  5
492A
330
48F6
100
AcDbEntity
  8
KANAMONO_SCREW
100
AcDbLine
 10
-2.000000000000227
 20
-34.36499999999933
 30
0.0
 11
-2.790000000000077
 21
-34.36499999999933
 31
0.0
  0
LINE
  5
492B
330
48F6
100
AcDbEntity
  8
KANAMONO_SCREW
100
AcDbLine
 10
-2.000000000000227
 20
-33.86499999999933
 30
0.0
 11
-2.790000000000077
 21
-33.86499999999933
 31
0.0
  0
LINE
  5
492C
330
48F6
100
AcDbEntity
  8
KANAMONO_SCREW
100
AcDbLine
 10
2.889999999999872
 20
-33.36499999999956
 30
0.0
 11
1.999999999999772
 21
-33.36499999999956
 31
0.0
  0
LINE
  5
492D
330
48F6
100
AcDbEntity
  8
KANAMONO_SCREW
100
AcDbLine
 10
1.999999999999772
 20
-38.76499999999964
 30
0.0
 11
1.999999999999772
 21
-33.36499999999956
 31
0.0
  0
LINE
  5
492E
330
48F6
100
AcDbEntity
  8
KANAMONO_SCREW
100
AcDbLine
 10
-2.000000000000227
 20
-38.76499999999806
 30
0.0
 11
-2.000000000000227
 21
-33.36499999999956
 31
0.0
  0
LINE
  5
492F
330
48F6
100
AcDbEntity
  8
KANAMONO_SCREW
100
AcDbLine
 10
-2.000000000000227
 20
-33.36499999999956
 30
0.0
 11
-2.8900000000001
 21
-33.36499999999956
 31
0.0
  0
LINE
  5
4930
330
48F6
100
AcDbEntity
  8
KANAMONO_SCREW
100
AcDbLine
 10
2.889999999999872
 20
-31.56499999999937
 30
0.0
 11
-2.8900000000001
 21
-31.56499999999937
 31
0.0
  0
LINE
  5
4931
330
48F6
100
AcDbEntity
  8
KANAMONO_SCREW
100
AcDbLine
 10
1.350000306161518
 20
-32.56499999999937
 30
0.0
 11
-2.8900000000001
 21
-32.56499999999937
 31
0.0
  0
LINE
  5
4932
330
48F6
100
AcDbEntity
  8
KANAMONO_SCREW
100
AcDbLine
 10
2.889999999999872
 20
-32.56499999999937
 30
0.0
 11
1.6500003061617
 21
-32.56499999999937
 31
0.0
  0
LINE
  5
4933
330
48F6
100
AcDbEntity
  8
KANAMONO_SCREW
100
AcDbLine
 10
1.6500003061617
 20
-33.96991029241235
 30
0.0
 11
1.6500003061617
 21
-32.36499999999978
 31
0.0
  0
LINE
  5
4934
330
48F6
100
AcDbEntity
  8
KANAMONO_SCREW
100
AcDbLine
 10
1.6500003061617
 20
-32.36499999999978
 30
0.0
 11
1.350000306161518
 21
-32.36499999999978
 31
0.0
  0
LINE
  5
4935
330
48F6
100
AcDbEntity
  8
KANAMONO_SCREW
100
AcDbLine
 10
1.350000306161518
 20
-33.96991029241235
 30
0.0
 11
1.350000306161518
 21
-32.36499999999978
 31
0.0
  0
ARC
  5
4936
330
48F6
100
AcDbEntity
  8
KANAMONO_SCREW
100
AcDbCircle
 10
-0.3500000000001364
 20
-37.16008960261365
 30
0.0
 40
1.3
100
AcDbArc
 50
122.858397292397
 51
180.0
  0
LINE
  5
4937
330
48F6
100
AcDbEntity
  8
KANAMONO_SCREW
100
AcDbLine
 10
-1.650000000000204
 20
-37.56499999999937
 30
0.0
 11
-1.650000000000204
 21
-37.16008960261365
 31
0.0
  0
ARC
  5
4938
330
48F6
100
AcDbEntity
  8
KANAMONO_SCREW
100
AcDbCircle
 10
-0.3500000000001364
 20
-37.16008960261365
 30
0.0
 40
1.0
100
AcDbArc
 50
122.8583972924123
 51
180.0
  0
LINE
  5
4939
330
48F6
100
AcDbEntity
  8
KANAMONO_SCREW
100
AcDbLine
 10
-1.350000000000022
 20
-37.56499999999937
 30
0.0
 11
-1.350000000000022
 21
-37.16008960261365
 31
0.0
  0
ARC
  5
493A
330
48F6
100
AcDbEntity
  8
KANAMONO_SCREW
100
AcDbCircle
 10
0.3500003061615189
 20
-33.96991029241235
 30
0.0
 40
1.0
100
AcDbArc
 50
302.8583972924124
 51
0.0
  0
LINE
  5
493B
330
48F6
100
AcDbEntity
  8
KANAMONO_SCREW
100
AcDbLine
 10
-0.8925646552850139
 20
-36.32007555818586
 30
0.0
 11
1.055334358031473
 21
-35.06192855016843
 31
0.0
  0
ARC
  5
493C
330
48F6
100
AcDbEntity
  8
KANAMONO_SCREW
100
AcDbCircle
 10
0.3500003061615189
 20
-33.96991029241235
 30
0.0
 40
1.3
100
AcDbArc
 50
302.858397292397
 51
0.0
  0
LINE
  5
493D
330
48F6
100
AcDbEntity
  8
KANAMONO_SCREW
100
AcDbLine
 10
-1.055334051870204
 20
-36.06807134485757
 30
0.0
 11
0.8925649614463964
 21
-34.80992433684014
 31
0.0
  0
LINE
  5
493E
330
48F6
100
AcDbEntity
  8
KANAMONO_SCREW
100
AcDbLine
 10
-1.350000000000022
 20
-37.56499999999937
 30
0.0
 11
-1.650000000000204
 21
-37.56499999999937
 31
0.0
  0
LINE
  5
493F
330
48F6
100
AcDbEntity
  8
KANAMONO_SCREW
100
AcDbLine
 10
-1.650000000000204
 20
-38.66991039738514
 30
0.0
 11
-1.650000000000204
 21
-38.26499999999942
 31
0.0
  0
LINE
  5
4940
330
48F6
100
AcDbEntity
  8
KANAMONO_SCREW
100
AcDbLine
 10
-1.350000000000022
 20
-38.26499999999942
 30
0.0
 11
-1.650000000000204
 21
-38.26499999999942
 31
0.0
  0
LINE
  5
4941
330
48F6
100
AcDbEntity
  8
KANAMONO_SCREW
100
AcDbLine
 10
-1.350000000000022
 20
-38.66991039738514
 30
0.0
 11
-1.350000000000022
 21
-38.26499999999942
 31
0.0
  0
ARC
  5
4942
330
48F6
100
AcDbEntity
  8
KANAMONO_SCREW
100
AcDbCircle
 10
0.1500003061614734
 20
-52.73090980663505
 30
0.0
 40
1.0
100
AcDbArc
 50
0.0
 51
57.141602707603
  0
LINE
  5
4943
330
48F6
100
AcDbEntity
  8
KANAMONO_SCREW
100
AcDbLine
 10
1.150000306161473
 20
-55.2990901933631
 30
0.0
 11
1.150000306161473
 21
-52.73090980663505
 31
0.0
  0
LINE
  5
4944
330
48F6
100
AcDbEntity
  8
KANAMONO_SCREW
100
AcDbLine
 10
-1.055334051870204
 20
-50.76192865514122
 30
0.0
 11
0.6925649614461236
 21
-51.89089576220749
 31
0.0
  0
ARC
  5
4945
330
48F6
100
AcDbEntity
  8
KANAMONO_SCREW
100
AcDbCircle
 10
0.1500003061614734
 20
-55.2990901933631
 30
0.0
 40
1.0
100
AcDbArc
 50
302.858397292397
 51
0.0
  0
LINE
  5
4946
330
48F6
100
AcDbEntity
  8
KANAMONO_SCREW
100
AcDbLine
 10
0.4446659481299094
 20
-56.29922208772177
 30
0.0
 11
0.6925649614461236
 21
-56.13910423779088
 31
0.0
  0
ARC
  5
4947
330
48F6
100
AcDbEntity
  8
KANAMONO_SCREW
100
AcDbCircle
 10
0.1500003061614734
 20
-55.2990901933631
 30
0.0
 40
1.3
100
AcDbArc
 50
302.8583972924124
 51
0.0
  0
LINE
  5
4948
330
48F6
100
AcDbEntity
  8
KANAMONO_SCREW
100
AcDbLine
 10
0.6074353447150998
 20
-56.55122630105006
 30
0.0
 11
0.8553343580317687
 21
-56.39110845111918
 31
0.0
  0
LINE
  5
4949
330
48F6
100
AcDbEntity
  8
KANAMONO_SCREW
100
AcDbLine
 10
1.450000306161427
 20
-55.2990901933631
 30
0.0
 11
1.450000306161427
 21
-52.73090980663505
 31
0.0
  0
ARC
  5
494A
330
48F6
100
AcDbEntity
  8
KANAMONO_SCREW
100
AcDbCircle
 10
0.1500003061614734
 20
-52.73090980663505
 30
0.0
 40
1.3
100
AcDbArc
 50
0.0
 51
57.141602707603
  0
LINE
  5
494B
330
48F6
100
AcDbEntity
  8
KANAMONO_SCREW
100
AcDbLine
 10
-0.8925646552850139
 20
-50.50992444181315
 30
0.0
 11
0.8553343580315413
 21
-51.6388915488792
 31
0.0
  0
ARC
  5
494C
330
48F6
100
AcDbEntity
  8
KANAMONO_SCREW
100
AcDbCircle
 10
-0.3500000000001364
 20
-38.66991039738514
 30
0.0
 40
1.3
100
AcDbArc
 50
180.0
 51
237.141602707603
  0
ARC
  5
494D
330
48F6
100
AcDbEntity
  8
KANAMONO_SCREW
100
AcDbCircle
 10
-0.3500000000001364
 20
-38.66991039738514
 30
0.0
 40
1.0
100
AcDbArc
 50
180.0
 51
237.1416027075877
  0
ARC
  5
494E
330
48F6
100
AcDbEntity
  8
KANAMONO_SCREW
100
AcDbCircle
 10
0.3500003061615189
 20
-44.16991029241194
 30
0.0
 40
1.0
100
AcDbArc
 50
302.858397292397
 51
0.0
  0
LINE
  5
494F
330
48F6
100
AcDbEntity
  8
KANAMONO_SCREW
100
AcDbLine
 10
-1.055334051870204
 20
-39.76192865514122
 30
0.0
 11
0.892564961446169
 21
-41.02007566315887
 31
0.0
  0
LINE
  5
4950
330
48F6
100
AcDbEntity
  8
KANAMONO_SCREW
100
AcDbLine
 10
1.350000306161518
 20
-44.16991029241194
 30
0.0
 11
1.350000306161518
 21
-41.86008970758644
 31
0.0
  0
ARC
  5
4951
330
48F6
100
AcDbEntity
  8
KANAMONO_SCREW
100
AcDbCircle
 10
0.3500003061615189
 20
-41.86008970758644
 30
0.0
 40
1.0
100
AcDbArc
 50
0.0
 51
57.141602707603
  0
LINE
  5
4952
330
48F6
100
AcDbEntity
  8
KANAMONO_SCREW
100
AcDbLine
 10
-0.8925646552850139
 20
-39.50992444181293
 30
0.0
 11
1.055334358031473
 21
-40.76807144983058
 31
0.0
  0
ARC
  5
4953
330
48F6
100
AcDbEntity
  8
KANAMONO_SCREW
100
AcDbCircle
 10
0.3500003061615189
 20
-41.86008970758644
 30
0.0
 40
1.3
100
AcDbArc
 50
0.0
 51
57.141602707603
  0
LINE
  5
4954
330
48F6
100
AcDbEntity
  8
KANAMONO_SCREW
100
AcDbLine
 10
1.650000306161473
 20
-44.16991029241194
 30
0.0
 11
1.650000306161473
 21
-41.86008970758644
 31
0.0
  0
ARC
  5
4955
330
48F6
100
AcDbEntity
  8
KANAMONO_SCREW
100
AcDbCircle
 10
0.3500003061615189
 20
-44.16991029241194
 30
0.0
 40
1.3
100
AcDbArc
 50
302.858397292397
 51
0.0
  0
ARC
  5
4956
330
48F6
100
AcDbEntity
  8
KANAMONO_SCREW
100
AcDbCircle
 10
-0.3500000000001364
 20
-49.66991039738513
 30
0.0
 40
1.3
100
AcDbArc
 50
180.0
 51
237.141602707603
  0
ARC
  5
4957
330
48F6
100
AcDbEntity
  8
KANAMONO_SCREW
100
AcDbCircle
 10
-0.3500000000001364
 20
-49.66991039738513
 30
0.0
 40
1.0
100
AcDbArc
 50
180.0
 51
237.1416027075877
  0
LINE
  5
4958
330
48F6
100
AcDbEntity
  8
KANAMONO_SCREW
100
AcDbLine
 10
-1.650000000000204
 20
-49.66991039738513
 30
0.0
 11
-1.650000000000204
 21
-47.36008960261346
 31
0.0
  0
LINE
  5
4959
330
48F6
100
AcDbEntity
  8
KANAMONO_SCREW
100
AcDbLine
 10
-1.055334051870204
 20
-46.26807134485716
 30
0.0
 11
0.892564961446169
 21
-45.00992433683973
 31
0.0
  0
ARC
  5
495A
330
48F6
100
AcDbEntity
  8
KANAMONO_SCREW
100
AcDbCircle
 10
-0.3500000000001364
 20
-47.36008960261346
 30
0.0
 40
1.3
100
AcDbArc
 50
122.858397292397
 51
180.0
  0
LINE
  5
495B
330
48F6
100
AcDbEntity
  8
KANAMONO_SCREW
100
AcDbLine
 10
-1.350000000000022
 20
-49.66991039738513
 30
0.0
 11
-1.350000000000022
 21
-47.36008960261346
 31
0.0
  0
LINE
  5
495C
330
48F6
100
AcDbEntity
  8
KANAMONO_SCREW
100
AcDbLine
 10
-0.8925646552850139
 20
-46.52007555818545
 30
0.0
 11
1.055334358031473
 21
-45.26192855016802
 31
0.0
  0
ARC
  5
495D
330
48F6
100
AcDbEntity
  8
KANAMONO_SCREW
100
AcDbCircle
 10
-0.3500000000001364
 20
-47.36008960261346
 30
0.0
 40
1.0
100
AcDbArc
 50
122.8583972924123
 51
180.0
  0
ARC
  5
495E
330
48F6
100
AcDbEntity
  8
KANAMONO_SCREW
100
AcDbCircle
 10
1.149999999999863
 20
-57.39124034547785
 30
0.0
 40
1.0
100
AcDbArc
 50
122.8583972924123
 51
180.0
  0
ARC
  5
495F
330
48F6
100
AcDbEntity
  8
KANAMONO_SCREW
100
AcDbCircle
 10
1.149999999999863
 20
-57.39124034547785
 30
0.0
 40
1.3
100
AcDbArc
 50
122.858397292397
 51
180.0
  0
LINE
  5
4960
330
48F6
100
AcDbEntity
  8
KANAMONO_SCREW
100
AcDbLine
 10
-0.1500000000003183
 20
-57.56499999999937
 30
0.0
 11
-0.1500000000003183
 21
-57.39124034547785
 31
0.0
  0
LINE
  5
4961
330
48F6
100
AcDbEntity
  8
KANAMONO_SCREW
100
AcDbLine
 10
0.1499999999998636
 20
-57.56499999999937
 30
0.0
 11
0.1499999999998636
 21
-57.39124034547785
 31
0.0
  0
LINE
  5
4962
330
48F6
100
AcDbEntity
  8
KANAMONO_SCREW
100
AcDbLine
 10
0.1499999999998636
 20
-57.56499999999937
 30
0.0
 11
-0.1500000000003183
 21
-57.56499999999937
 31
0.0
  0
LINE
  5
4963
330
48F6
100
AcDbEntity
  8
KANAMONO_SCREW
100
AcDbLine
 10
3.224999999999795
 20
-42.56499999999937
 30
0.0
 11
2.140943284395007
 21
-42.56499999999937
 31
0.0
  0
LINE
  5
4964
330
48F6
100
AcDbEntity
  8
KANAMONO_SCREW
100
AcDbLine
 10
-2.1410526315791
 20
-42.56499999999937
 30
0.0
 11
-3.225000000000136
 21
-42.56499999999937
 31
0.0
  0
LINE
  5
4965
330
48F6
100
AcDbEntity
  8
KANAMONO_SCREW
100
AcDbLine
 10
3.163624561810024
 20
-41.96499999999923
 30
0.0
 11
2.118689081596016
 21
-41.96499999999923
 31
0.0
  0
LINE
  5
4966
330
48F6
100
AcDbEntity
  8
KANAMONO_SCREW
100
AcDbLine
 10
3.110729824967847
 20
-41.36499999999933
 30
0.0
 11
2.096434878796571
 21
-41.36499999999933
 31
0.0
  0
LINE
  5
4967
330
48F6
100
AcDbEntity
  8
KANAMONO_SCREW
100
AcDbLine
 10
3.057835088125898
 20
-40.76499999999964
 30
0.0
 11
2.07418067599724
 21
-40.76499999999964
 31
0.0
  0
LINE
  5
4968
330
48F6
100
AcDbEntity
  8
KANAMONO_SCREW
100
AcDbLine
 10
3.004940351283607
 20
-40.16499999999928
 30
0.0
 11
2.051926473198136
 21
-40.16499999999928
 31
0.0
  0
LINE
  5
4969
330
48F6
100
AcDbEntity
  8
KANAMONO_SCREW
100
AcDbLine
 10
2.952045614441317
 20
-39.56499999999937
 30
0.0
 11
2.029672270398805
 21
-39.56499999999937
 31
0.0
  0
LINE
  5
496A
330
48F6
100
AcDbEntity
  8
KANAMONO_SCREW
100
AcDbLine
 10
-2.007423822715054
 20
-38.96499999999924
 30
0.0
 11
-2.899150571437985
 21
-38.96499999999924
 31
0.0
  0
LINE
  5
496B
330
48F6
100
AcDbEntity
  8
KANAMONO_SCREW
100
AcDbLine
 10
-2.029695290859081
 20
-39.56499999999937
 30
0.0
 11
-2.952045308280048
 21
-39.56499999999937
 31
0.0
  0
LINE
  5
496C
330
48F6
100
AcDbEntity
  8
KANAMONO_SCREW
100
AcDbLine
 10
-2.051966759002993
 20
-40.16499999999928
 30
0.0
 11
-3.004940045122339
 21
-40.16499999999928
 31
0.0
  0
LINE
  5
496D
330
48F6
100
AcDbEntity
  8
KANAMONO_SCREW
100
AcDbLine
 10
-2.074238227147134
 20
-40.76499999999964
 30
0.0
 11
-3.057834781964288
 21
-40.76499999999964
 31
0.0
  0
LINE
  5
496E
330
48F6
100
AcDbEntity
  8
KANAMONO_SCREW
100
AcDbLine
 10
-2.09650969529116
 20
-41.36499999999933
 30
0.0
 11
-3.110729518806465
 21
-41.36499999999933
 31
0.0
  0
LINE
  5
496F
330
48F6
100
AcDbEntity
  8
KANAMONO_SCREW
100
AcDbLine
 10
-2.118781163435073
 20
-41.96499999999923
 30
0.0
 11
-3.163624255648528
 21
-41.96499999999923
 31
0.0
  0
LINE
  5
4970
330
48F6
100
AcDbEntity
  8
KANAMONO_SCREW
100
AcDbLine
 10
2.141070321496044
 20
-42.56842507261512
 30
0.0
 11
1.999999999999772
 21
-38.76499999999964
 31
0.0
  0
LINE
  5
4971
330
48F6
100
AcDbEntity
  8
KANAMONO_SCREW
100
AcDbLine
 10
-2.1410526315791
 20
-42.56499999999937
 30
0.0
 11
-2.000000000000227
 21
-38.76499999999964
 31
0.0
  0
LINE
  5
4972
330
48F6
100
AcDbEntity
  8
KANAMONO_SCREW
100
AcDbLine
 10
2.149999663219205
 20
-44.26499999999964
 30
0.0
 11
2.141070321496044
 21
-42.56842507261512
 31
0.0
  0
LINE
  5
4973
330
48F6
100
AcDbEntity
  8
KANAMONO_SCREW
100
AcDbLine
 10
-2.150000000000204
 20
-44.26499999999964
 30
0.0
 11
-2.141007727306259
 21
-42.55646818812965
 31
0.0
  0
LINE
  5
4974
330
48F6
100
AcDbEntity
  8
KANAMONO_SCREW
100
AcDbLine
 10
2.89915087759914
 20
-38.96499999999924
 30
0.0
 11
2.001052631578772
 21
-38.96499999999924
 31
0.0
  0
LINE
  5
4975
330
48F6
100
AcDbEntity
  8
KANAMONO_SCREW
100
AcDbLine
 10
-2.000000000000227
 20
-36.96499999999924
 30
0.0
 11
-2.8900000000001
 21
-36.96499999999924
 31
0.0
  0
LINE
  5
4976
330
48F6
100
AcDbEntity
  8
KANAMONO_SCREW
100
AcDbLine
 10
2.889999999999872
 20
-36.96499999999924
 30
0.0
 11
1.999999999999772
 21
-36.96499999999924
 31
0.0
  0
LINE
  5
4977
330
48F6
100
AcDbEntity
  8
KANAMONO_SCREW
100
AcDbLine
 10
-2.000000000000227
 20
-38.76499999999964
 30
0.0
 11
-2.8900000000001
 21
-38.76499999999964
 31
0.0
  0
LINE
  5
4978
330
48F6
100
AcDbEntity
  8
KANAMONO_SCREW
100
AcDbLine
 10
2.889999999999872
 20
-38.76499999999964
 30
0.0
 11
1.999999999999772
 21
-38.76499999999964
 31
0.0
  0
LINE
  5
4979
330
48F6
100
AcDbEntity
  8
KANAMONO_SCREW
100
AcDbLine
 10
3.063636669798029
 20
-42.56499999999914
 30
0.0
 11
2.728636669797992
 21
-38.76499999999919
 31
0.0
  0
LINE
  5
497A
330
48F6
100
AcDbEntity
  8
KANAMONO_SCREW
100
AcDbLine
 10
-3.063636363636533
 20
-42.56499999999914
 30
0.0
 11
-2.728636363636496
 21
-38.76499999999919
 31
0.0
  0
LINE
  5
497B
330
48F6
100
AcDbEntity
  8
KANAMONO_SCREW
100
AcDbLine
 10
-2.140000000000213
 20
-44.66499999999927
 30
0.0
 11
-3.206518992490828
 21
-44.66499999999951
 31
0.0
  0
LINE
  5
497C
330
48F6
100
AcDbEntity
  8
KANAMONO_SCREW
100
AcDbLine
 10
-2.125000000000227
 20
-45.26499999999964
 30
0.0
 11
-3.191518992490728
 21
-45.26499999999964
 31
0.0
  0
LINE
  5
497D
330
48F6
100
AcDbEntity
  8
KANAMONO_SCREW
100
AcDbLine
 10
-2.110000000000354
 20
-45.86499999999932
 30
0.0
 11
-3.176518992490628
 21
-45.86499999999932
 31
0.0
  0
LINE
  5
497E
330
48F6
100
AcDbEntity
  8
KANAMONO_SCREW
100
AcDbLine
 10
-2.095000000000254
 20
-46.46499999999924
 30
0.0
 11
-3.161518992490755
 21
-46.46499999999924
 31
0.0
  0
LINE
  5
497F
330
48F6
100
AcDbEntity
  8
KANAMONO_SCREW
100
AcDbLine
 10
-2.080000000000154
 20
-47.06499999999937
 30
0.0
 11
-3.146518992490655
 21
-47.06499999999937
 31
0.0
  0
LINE
  5
4980
330
48F6
100
AcDbEntity
  8
KANAMONO_SCREW
100
AcDbLine
 10
-2.065000000000281
 20
-47.6649999999995
 30
0.0
 11
-3.131518992490555
 21
-47.6649999999995
 31
0.0
  0
LINE
  5
4981
330
48F6
100
AcDbEntity
  8
KANAMONO_SCREW
100
AcDbLine
 10
3.206518961871324
 20
-44.66499999999927
 30
0.0
 11
2.139999663219327
 21
-44.66499999999927
 31
0.0
  0
LINE
  5
4982
330
48F6
100
AcDbEntity
  8
KANAMONO_SCREW
100
AcDbLine
 10
3.191518961871224
 20
-45.26499999999964
 30
0.0
 11
2.124999663219341
 21
-45.26499999999964
 31
0.0
  0
LINE
  5
4983
330
48F6
100
AcDbEntity
  8
KANAMONO_SCREW
100
AcDbLine
 10
3.176518961871352
 20
-45.86499999999932
 30
0.0
 11
2.109999663219241
 21
-45.86499999999932
 31
0.0
  0
LINE
  5
4984
330
48F6
100
AcDbEntity
  8
KANAMONO_SCREW
100
AcDbLine
 10
3.161518961871252
 20
-46.46499999999924
 30
0.0
 11
2.094999663219141
 21
-46.46499999999924
 31
0.0
  0
LINE
  5
4985
330
48F6
100
AcDbEntity
  8
KANAMONO_SCREW
100
AcDbLine
 10
3.146518961871379
 20
-47.06499999999937
 30
0.0
 11
2.096048853145816
 21
-47.06499999999937
 31
0.0
  0
LINE
  5
4986
330
48F6
100
AcDbEntity
  8
KANAMONO_SCREW
100
AcDbLine
 10
3.13151896187162
 20
-47.66499999999928
 30
0.0
 11
2.064999663219396
 21
-47.66499999999928
 31
0.0
  0
LINE
  5
4987
330
48F6
100
AcDbEntity
  8
KANAMONO_SCREW
100
AcDbLine
 10
2.963636363665273
 20
-48.26498652761916
 30
0.0
 11
3.063636363665295
 21
-44.26498652761916
 31
0.0
  0
LINE
  5
4988
330
48F6
100
AcDbEntity
  8
KANAMONO_SCREW
100
AcDbLine
 10
-2.96363636363651
 20
-48.26499999999964
 30
0.0
 11
-3.063636363636533
 21
-44.26499999999964
 31
0.0
  0
LINE
  5
4989
330
48F6
100
AcDbEntity
  8
KANAMONO_SCREW
100
AcDbLine
 10
2.749999999999772
 20
-53.76499999999964
 30
0.0
 11
2.83636363636333
 21
-49.96499999999946
 31
0.0
  0
LINE
  5
498A
330
48F6
100
AcDbEntity
  8
KANAMONO_SCREW
100
AcDbLine
 10
2.998636669797861
 20
-53.16499999999928
 30
0.0
 11
1.898026315789479
 21
-53.16499999999928
 31
0.0
  0
LINE
  5
498B
330
48F6
100
AcDbEntity
  8
KANAMONO_SCREW
100
AcDbLine
 10
3.012273033434325
 20
-52.56499999999937
 30
0.0
 11
1.921052631578731
 21
-52.56499999999937
 31
0.0
  0
LINE
  5
498C
330
48F6
100
AcDbEntity
  8
KANAMONO_SCREW
100
AcDbLine
 10
3.025909397070563
 20
-51.96499999999947
 30
0.0
 11
1.944078947368211
 21
-51.96499999999947
 31
0.0
  0
LINE
  5
498D
330
48F6
100
AcDbEntity
  8
KANAMONO_SCREW
100
AcDbLine
 10
3.039545760707028
 20
-51.36499999999955
 30
0.0
 11
1.967105263157691
 21
-51.36499999999955
 31
0.0
  0
LINE
  5
498E
330
48F6
100
AcDbEntity
  8
KANAMONO_SCREW
100
AcDbLine
 10
3.053182124343265
 20
-50.76499999999964
 30
0.0
 11
2.01315789473665
 21
-50.76499999999964
 31
0.0
  0
LINE
  5
498F
330
48F6
100
AcDbEntity
  8
KANAMONO_SCREW
100
AcDbLine
 10
-2.013157894736991
 20
-50.76499999999964
 30
0.0
 11
-3.055032972211165
 21
-50.76499999999964
 31
0.0
  0
LINE
  5
4990
330
48F6
100
AcDbEntity
  8
KANAMONO_SCREW
100
AcDbLine
 10
-1.967105263158146
 20
-51.36499999999955
 30
0.0
 11
-3.044192331607746
 21
-51.36499999999955
 31
0.0
  0
LINE
  5
4991
330
48F6
100
AcDbEntity
  8
KANAMONO_SCREW
100
AcDbLine
 10
-1.944078947368552
 20
-51.96499999999947
 30
0.0
 11
-3.033351691004213
 21
-51.96499999999947
 31
0.0
  0
LINE
  5
4992
330
48F6
100
AcDbEntity
  8
KANAMONO_SCREW
100
AcDbLine
 10
-1.921052631579073
 20
-52.56499999999937
 30
0.0
 11
-3.022511050401135
 21
-52.56499999999937
 31
0.0
  0
LINE
  5
4993
330
48F6
100
AcDbEntity
  8
KANAMONO_SCREW
100
AcDbLine
 10
-1.898026315789707
 20
-53.16499999999951
 30
0.0
 11
-3.011670409797716
 21
-53.16499999999951
 31
0.0
  0
LINE
  5
4994
330
48F6
100
AcDbEntity
  8
KANAMONO_SCREW
100
AcDbLine
 10
-2.150000000000204
 20
-44.26499999999964
 30
0.0
 11
-3.225000000000136
 21
-44.26499999999964
 31
0.0
  0
LINE
  5
4995
330
48F6
100
AcDbEntity
  8
KANAMONO_SCREW
100
AcDbLine
 10
3.224999999999795
 20
-44.26499999999964
 30
0.0
 11
2.149999663219205
 21
-44.26499999999964
 31
0.0
  0
LINE
  5
4996
330
48F6
100
AcDbEntity
  8
KANAMONO_SCREW
100
AcDbLine
 10
2.05000000002883
 20
-48.26498652761916
 30
0.0
 11
2.150000000028626
 21
-44.26498652761916
 31
0.0
  0
LINE
  5
4997
330
48F6
100
AcDbEntity
  8
KANAMONO_SCREW
100
AcDbLine
 10
-2.050000000000181
 20
-48.26499999999896
 30
0.0
 11
-2.150000000000204
 21
-44.26499999999896
 31
0.0
  0
LINE
  5
4998
330
48F6
100
AcDbEntity
  8
KANAMONO_SCREW
100
AcDbLine
 10
3.224999999999795
 20
-44.26499999999964
 30
0.0
 11
3.224999999999795
 21
-42.56499999999937
 31
0.0
  0
LINE
  5
4999
330
48F6
100
AcDbEntity
  8
KANAMONO_SCREW
100
AcDbLine
 10
-3.225000000000136
 20
-44.26499999999964
 30
0.0
 11
-3.225000000000136
 21
-42.56499999999937
 31
0.0
  0
LINE
  5
499A
330
48F6
100
AcDbEntity
  8
KANAMONO_SCREW
100
AcDbLine
 10
-2.750000000000227
 20
-53.76499999999964
 30
0.0
 11
-2.925000000000181
 21
-49.96499999999946
 31
0.0
  0
LINE
  5
499B
330
48F6
100
AcDbEntity
  8
KANAMONO_SCREW
100
AcDbLine
 10
2.749999999999772
 20
-58.16499999999928
 30
0.0
 11
2.749999999999772
 21
-55.56499999999937
 31
0.0
  0
LINE
  5
499C
330
48F6
100
AcDbEntity
  8
KANAMONO_SCREW
100
AcDbLine
 10
-2.750000000000227
 20
-58.16499999999951
 30
0.0
 11
-2.750000000000227
 21
-55.56499999999937
 31
0.0
  0
LINE
  5
499D
330
48F6
100
AcDbEntity
  8
KANAMONO_SCREW
100
AcDbLine
 10
3.064545760706891
 20
-50.26499999999964
 30
0.0
 11
2.027929979067039
 21
-50.26499999999964
 31
0.0
  0
LINE
  5
499E
330
48F6
100
AcDbEntity
  8
KANAMONO_SCREW
100
AcDbLine
 10
2.999999999999772
 20
-53.76499999999964
 30
0.0
 11
1.874999999999772
 21
-53.76499999999964
 31
0.0
  0
LINE
  5
499F
330
48F6
100
AcDbEntity
  8
KANAMONO_SCREW
100
AcDbLine
 10
-2.036184210526471
 20
-50.26499999999964
 30
0.0
 11
-3.064066839380529
 21
-50.26499999999964
 31
0.0
  0
LINE
  5
49A0
330
48F6
100
AcDbEntity
  8
KANAMONO_SCREW
100
AcDbLine
 10
3.08636394252494
 20
-49.96499999999946
 30
0.0
 11
3.125000306161382
 21
-48.26499999999964
 31
0.0
  0
LINE
  5
49A1
330
48F6
100
AcDbEntity
  8
KANAMONO_SCREW
100
AcDbLine
 10
-3.086363636363671
 20
-49.96499999999946
 30
0.0
 11
-3.125000000000227
 21
-48.26499999999964
 31
0.0
  0
LINE
  5
49A2
330
48F6
100
AcDbEntity
  8
KANAMONO_SCREW
100
AcDbLine
 10
-2.050000000000181
 20
-49.96499999999946
 30
0.0
 11
-3.086363636363671
 21
-49.96499999999946
 31
0.0
  0
LINE
  5
49A3
330
48F6
100
AcDbEntity
  8
KANAMONO_SCREW
100
AcDbLine
 10
3.08636394252494
 20
-49.96499999999946
 30
0.0
 11
2.049999999999954
 21
-49.96499999999946
 31
0.0
  0
LINE
  5
49A4
330
48F6
100
AcDbEntity
  8
KANAMONO_SCREW
100
AcDbLine
 10
-2.050000000000181
 20
-48.26499999999964
 30
0.0
 11
-3.125000000000227
 21
-48.26499999999964
 31
0.0
  0
LINE
  5
49A5
330
48F6
100
AcDbEntity
  8
KANAMONO_SCREW
100
AcDbLine
 10
3.124999999999772
 20
-48.26499999999964
 30
0.0
 11
2.049999999999727
 21
-48.26499999999964
 31
0.0
  0
LINE
  5
49A6
330
48F6
100
AcDbEntity
  8
KANAMONO_SCREW
100
AcDbLine
 10
1.874999999999772
 20
-53.76499999999964
 30
0.0
 11
2.049999999999727
 21
-49.96499999999946
 31
0.0
  0
LINE
  5
49A7
330
48F6
100
AcDbEntity
  8
KANAMONO_SCREW
100
AcDbLine
 10
-1.875000000000227
 20
-53.76499999999964
 30
0.0
 11
-2.050000000000181
 21
-49.96499999999946
 31
0.0
  0
LINE
  5
49A8
330
48F6
100
AcDbEntity
  8
KANAMONO_SCREW
100
AcDbLine
 10
0.0000003061617235
 20
-61.06499999999937
 30
0.0
 11
-1.396311994552661
 21
-59.24979400907137
 31
0.0
  0
ARC
  5
49A9
330
48F6
100
AcDbEntity
  8
KANAMONO_SCREW
100
AcDbCircle
 10
-1.000000000000227
 20
-58.94493862864647
 30
0.0
 40
0.5
100
AcDbArc
 50
180.0
 51
217.5685920288021
  0
LINE
  5
49AA
330
48F6
100
AcDbEntity
  8
KANAMONO_SCREW
100
AcDbLine
 10
-1.500000000000113
 20
-58.76200569932348
 30
0.0
 11
-1.500000000000113
 21
-58.9449386286467
 31
0.0
  0
LINE
  5
49AB
330
48F6
100
AcDbEntity
  8
KANAMONO_SCREW
100
AcDbLine
 10
0.0000003061617235
 20
-60.5649999999996
 30
0.0
 11
-1.410368800544915
 21
-58.7315201612812
 31
0.0
  0
ARC
  5
49AC
330
48F6
100
AcDbEntity
  8
KANAMONO_SCREW
100
AcDbCircle
 10
-1.450000000000272
 20
-58.76200569932348
 30
0.0
 40
0.05
100
AcDbArc
 50
37.56859202884636
 51
180.0
  0
LINE
  5
49AD
330
48F6
100
AcDbEntity
  8
KANAMONO_SCREW
100
AcDbLine
 10
1.500000306161723
 20
-58.76200569932348
 30
0.0
 11
1.500000306161723
 21
-58.94493862864647
 31
0.0
  0
LINE
  5
49AE
330
48F6
100
AcDbEntity
  8
KANAMONO_SCREW
100
AcDbLine
 10
-0.0000000000004547
 20
-60.5649999999996
 30
0.0
 11
1.410369106706525
 21
-58.73152016128097
 31
0.0
  0
ARC
  5
49AF
330
48F6
100
AcDbEntity
  8
KANAMONO_SCREW
100
AcDbCircle
 10
1.450000306161427
 20
-58.76200569932348
 30
0.0
 40
0.05
100
AcDbArc
 50
0.0
 51
142.4314079710051
  0
LINE
  5
49B0
330
48F6
100
AcDbEntity
  8
KANAMONO_SCREW
100
AcDbLine
 10
-0.0000000000002274
 20
-61.06499999999937
 30
0.0
 11
1.396312300713816
 21
-59.24979400907137
 31
0.0
  0
ARC
  5
49B1
330
48F6
100
AcDbEntity
  8
KANAMONO_SCREW
100
AcDbCircle
 10
1.000000306161723
 20
-58.94493862864647
 30
0.0
 40
0.5
100
AcDbArc
 50
322.4314079711771
 51
0.0
  0
LINE
  5
49B2
330
48F6
100
AcDbEntity
  8
KANAMONO_SCREW
100
AcDbLine
 10
-1.500000000000113
 20
-56.46200569932353
 30
0.0
 11
-1.500000000000113
 21
-56.64493862864606
 31
0.0
  0
LINE
  5
49B3
330
48F6
100
AcDbEntity
  8
KANAMONO_SCREW
100
AcDbLine
 10
1.500000306161723
 20
-56.46200569932353
 30
0.0
 11
1.500000306161723
 21
-56.64493862864606
 31
0.0
  0
LINE
  5
49B4
330
48F6
100
AcDbEntity
  8
KANAMONO_SCREW
100
AcDbLine
 10
0.0000003061617235
 20
-58.26499999999964
 30
0.0
 11
-1.410368800544915
 21
-56.43152016128079
 31
0.0
  0
ARC
  5
49B5
330
48F6
100
AcDbEntity
  8
KANAMONO_SCREW
100
AcDbCircle
 10
-1.450000000000272
 20
-56.46200569932353
 30
0.0
 40
0.05
100
AcDbArc
 50
37.56859202884636
 51
180.0
  0
LINE
  5
49B6
330
48F6
100
AcDbEntity
  8
KANAMONO_SCREW
100
AcDbLine
 10
0.0000003061617235
 20
-58.76499999999964
 30
0.0
 11
-1.396311994552661
 21
-56.94979400907095
 31
0.0
  0
ARC
  5
49B7
330
48F6
100
AcDbEntity
  8
KANAMONO_SCREW
100
AcDbCircle
 10
-1.000000000000227
 20
-56.64493862864606
 30
0.0
 40
0.5
100
AcDbArc
 50
180.0
 51
217.5685920288229
  0
LINE
  5
49B8
330
48F6
100
AcDbEntity
  8
KANAMONO_SCREW
100
AcDbLine
 10
-0.0000000000002274
 20
-58.26499999999964
 30
0.0
 11
1.410369106706525
 21
-56.43152016128079
 31
0.0
  0
ARC
  5
49B9
330
48F6
100
AcDbEntity
  8
KANAMONO_SCREW
100
AcDbCircle
 10
1.450000306161427
 20
-56.46200569932353
 30
0.0
 40
0.05
100
AcDbArc
 50
0.0
 51
142.4314079710051
  0
LINE
  5
49BA
330
48F6
100
AcDbEntity
  8
KANAMONO_SCREW
100
AcDbLine
 10
-0.0000000000002274
 20
-58.76499999999964
 30
0.0
 11
1.396312300714043
 21
-56.94979400907119
 31
0.0
  0
ARC
  5
49BB
330
48F6
100
AcDbEntity
  8
KANAMONO_SCREW
100
AcDbCircle
 10
1.000000306161723
 20
-56.64493862864606
 30
0.0
 40
0.5
100
AcDbArc
 50
322.4314079711562
 51
0.0
  0
LINE
  5
49BC
330
48F6
100
AcDbEntity
  8
KANAMONO_SCREW
100
AcDbLine
 10
-1.875000000000227
 20
-53.76499999999964
 30
0.0
 11
-3.000000000000227
 21
-53.76499999999964
 31
0.0
  0
LINE
  5
49BD
330
48F6
100
AcDbEntity
  8
KANAMONO_SCREW
100
AcDbLine
 10
-1.875000000000227
 20
-55.56499999999937
 30
0.0
 11
-3.000000000000227
 21
-55.56499999999937
 31
0.0
  0
LINE
  5
49BE
330
48F6
100
AcDbEntity
  8
KANAMONO_SCREW
100
AcDbLine
 10
2.999999999999772
 20
-55.56499999999937
 30
0.0
 11
1.874999999999772
 21
-55.56499999999937
 31
0.0
  0
LINE
  5
49BF
330
48F6
100
AcDbEntity
  8
KANAMONO_SCREW
100
AcDbLine
 10
-1.875000000000227
 20
-58.16499999999951
 30
0.0
 11
-3.000000000000227
 21
-58.16499999999951
 31
0.0
  0
LINE
  5
49C0
330
48F6
100
AcDbEntity
  8
KANAMONO_SCREW
100
AcDbLine
 10
2.999158339380528
 20
-58.16499999999928
 30
0.0
 11
1.874999999999772
 21
-58.16499999999928
 31
0.0
  0
LINE
  5
49C1
330
48F6
100
AcDbEntity
  8
KANAMONO_SCREW
100
AcDbLine
 10
-1.875000000000227
 20
-56.61499999999955
 30
0.0
 11
-2.925000000000181
 21
-56.61499999999955
 31
0.0
  0
LINE
  5
49C2
330
48F6
100
AcDbEntity
  8
KANAMONO_SCREW
100
AcDbLine
 10
1.874999999999772
 20
-58.16499999999928
 30
0.0
 11
1.874999999999772
 21
-55.56499999999937
 31
0.0
  0
LINE
  5
49C3
330
48F6
100
AcDbEntity
  8
KANAMONO_SCREW
100
AcDbLine
 10
-1.875000000000227
 20
-58.16499999999951
 30
0.0
 11
-1.875000000000227
 21
-55.56499999999937
 31
0.0
  0
LINE
  5
49C4
330
48F6
100
AcDbEntity
  8
KANAMONO_SCREW
100
AcDbLine
 10
-1.875000000000227
 20
-57.61499999999955
 30
0.0
 11
-2.925000000000181
 21
-57.61499999999955
 31
0.0
  0
LINE
  5
49C5
330
48F6
100
AcDbEntity
  8
KANAMONO_SCREW
100
AcDbLine
 10
2.924999999999727
 20
-57.61499999999955
 30
0.0
 11
1.874999999999772
 21
-57.61499999999955
 31
0.0
  0
LINE
  5
49C6
330
48F6
100
AcDbEntity
  8
KANAMONO_SCREW
100
AcDbLine
 10
-1.875000000000227
 20
-57.11499999999955
 30
0.0
 11
-2.925000000000181
 21
-57.11499999999955
 31
0.0
  0
LINE
  5
49C7
330
48F6
100
AcDbEntity
  8
KANAMONO_SCREW
100
AcDbLine
 10
2.924999999999727
 20
-57.11499999999955
 30
0.0
 11
1.874999999999772
 21
-57.11499999999955
 31
0.0
  0
LINE
  5
49C8
330
48F6
100
AcDbEntity
  8
KANAMONO_SCREW
100
AcDbLine
 10
2.924999999999727
 20
-56.61499999999955
 30
0.0
 11
1.874999999999772
 21
-56.61499999999955
 31
0.0
  0
LINE
  5
49C9
330
48F6
100
AcDbEntity
  8
KANAMONO_SCREW
100
AcDbLine
 10
-1.875000000000227
 20
-56.11499999999955
 30
0.0
 11
-2.925000000000181
 21
-56.11499999999955
 31
0.0
  0
LINE
  5
49CA
330
48F6
100
AcDbEntity
  8
KANAMONO_SCREW
100
AcDbLine
 10
2.924999999999727
 20
-56.11499999999955
 30
0.0
 11
1.874999999999772
 21
-56.11499999999955
 31
0.0
  0
LINE
  5
49CB
330
48F6
100
AcDbEntity
  8
KANAMONO_SCREW
100
AcDbLine
 10
-3.000000000000227
 20
-55.56499999999937
 30
0.0
 11
-3.000000000000227
 21
-53.76499999999964
 31
0.0
  0
LINE
  5
49CC
330
48F6
100
AcDbEntity
  8
KANAMONO_SCREW
100
AcDbLine
 10
2.999999999999772
 20
-55.56499999999937
 30
0.0
 11
2.999999999999772
 21
-53.76499999999964
 31
0.0
  0
LINE
  5
49CD
330
48F6
100
AcDbEntity
  8
KANAMONO_SCREW
100
AcDbLine
 10
2.099999999999681
 20
-61.56499999999937
 30
0.0
 11
2.999999999999772
 21
-58.16499999999928
 31
0.0
  0
LINE
  5
49CE
330
48F6
100
AcDbEntity
  8
KANAMONO_SCREW
100
AcDbLine
 10
2.099999999999681
 20
-61.56499999999937
 30
0.0
 11
-2.100000000000136
 21
-61.56499999999937
 31
0.0
  0
LINE
  5
49CF
330
48F6
100
AcDbEntity
  8
KANAMONO_SCREW
100
AcDbLine
 10
-2.100000000000136
 20
-61.56499999999937
 30
0.0
 11
-3.000000000000227
 21
-58.16499999999951
 31
0.0
  0
LINE
  5
49D0
330
48F6
100
AcDbEntity
  8
KANAMONO_SCREW
100
AcDbLine
 10
3.389999999999872
 20
-36.56499999999937
 30
0.0
 11
2.889999999999872
 21
-38.46499999999924
 31
0.0
  0
LINE
  5
49D1
330
48F6
100
AcDbEntity
  8
KANAMONO_SCREW
100
AcDbLine
 10
-2.8900000000001
 20
-38.46499999999924
 30
0.0
 11
-3.3900000000001
 21
-36.5649999999996
 31
0.0
  0
ARC
  5
49D2
330
48F6
100
AcDbEntity
  8
KANAMONO_SCREW
100
AcDbCircle
 10
7.78312947083998
 20
-59.75998416990387
 30
0.0
 40
9.382689926641683
100
AcDbArc
 50
191.0915488138293
 51
213.9505323537957
  0
ARC
  5
49D3
330
48F6
100
AcDbEntity
  8
KANAMONO_SCREW
100
AcDbCircle
 10
-7.783129470840208
 20
-59.75998416990387
 30
0.0
 40
9.382689926641683
100
AcDbArc
 50
326.0494676462043
 51
348.9084511861707
  0
LINE
  5
49D4
330
48F6
100
AcDbEntity
  8
KANAMONO_SCREW
100
AcDbLine
 10
4.500000000000113
 20
0.0
 30
0.0
 11
-4.5
 21
0.0
 31
0.0
  0
LINE
  5
49D5
330
48F6
100
AcDbEntity
  8
KANAMONO_SCREW
100
AcDbLine
 10
4.500000000000113
 20
-0.7399999999997818
 30
0.0
 11
-4.5
 21
-0.7399999999997818
 31
0.0
  0
LINE
  5
49D6
330
48F6
100
AcDbEntity
  8
KANAMONO_SCREW
100
AcDbLine
 10
4.500000000000113
 20
0.0
 30
0.0
 11
4.500000000000113
 21
-0.7399999999997818
 31
0.0
  0
LINE
  5
49D7
330
48F6
100
AcDbEntity
  8
KANAMONO_SCREW
100
AcDbLine
 10
-4.5
 20
0.0
 30
0.0
 11
-4.5
 21
-0.7399999999997818
 31
0.0
  0
LINE
  5
49D8
330
48F6
100
AcDbEntity
  8
KANAMONO_SCREW
100
AcDbLine
 10
3.675000000000068
 20
-1.564999999999827
 30
0.0
 11
4.500000000000113
 21
-0.7399999999997818
 31
0.0
  0
LINE
  5
49D9
330
48F6
100
AcDbEntity
  8
KANAMONO_SCREW
100
AcDbLine
 10
-3.675000000000295
 20
-1.564999999999372
 30
0.0
 11
-4.5
 21
-0.7399999999997818
 31
0.0
  0
ENDBLK
  5
49DA
330
48F6
100
AcDbEntity
  8
0
100
AcDbBlockEnd
  0
ENDSEC
  0
SECTION
  2
ENTITIES
  0
LINE
  5
3660
330
1F
100
AcDbEntity
  8
moji
100
AcDbLine
 10
154.7503306999999
 20
222.1899750566628
 30
0.0
 11
329.7503306999999
 21
222.1899750566627
 31
0.0
  0
LINE
  5
3661
330
1F
100
AcDbEntity
  8
moji
100
AcDbLine
 10
154.7503307
 20
222.1899750566628
 30
0.0
 11
154.7503306999999
 21
285.1899750566628
 31
0.0
  0
LINE
  5
3662
330
1F
100
AcDbEntity
  8
moji
100
AcDbLine
 10
194.7503307
 20
222.1899750566628
 30
0.0
 11
194.7503306999999
 21
285.1899750566628
 31
0.0
  0
TEXT
  5
3663
330
1F
100
AcDbEntity
  8
moji
100
AcDbText
 10
157.2503306999999
 20
230.6899750566628
 30
0.0
 40
4.0
  1
　　　　　特注
100
AcDbText
  0
LINE
  5
3665
330
1F
100
AcDbEntity
  8
moji
100
AcDbLine
 10
154.7503306999999
 20
236.1899750566628
 30
0.0
 11
329.7503306999999
 21
236.1899750566628
 31
0.0
  0
TEXT
  5
3667
330
1F
100
AcDbEntity
  8
moji
100
AcDbText
 10
157.2503306999999
 20
244.6899750566627
 30
0.0
 40
4.0
  1
表面処理　標準
100
AcDbText
  0
TEXT
  5
3668
330
1F
100
AcDbEntity
  8
moji
100
AcDbText
 10
197.2503306999999
 20
272.6899750566627
 30
0.0
 40
4.0
  1
A6063S-T5
100
AcDbText
  0
TEXT
  5
3669
330
1F
100
AcDbEntity
  8
moji
100
AcDbText
 10
157.2503306999999
 20
272.6899750566627
 30
0.0
 40
4.0
  1
材質
100
AcDbText
  0
LINE
  5
366A
330
1F
100
AcDbEntity
  8
moji
100
AcDbLine
 10
154.7503306999999
 20
271.1899750566626
 30
0.0
 11
329.7503306999999
 21
271.1899750566626
 31
0.0
  0
LINE
  5
366B
330
1F
100
AcDbEntity
  8
moji
100
AcDbLine
 10
154.7503306999999
 20
278.1899750566627
 30
0.0
 11
329.7503306999999
 21
278.1899750566627
 31
0.0
  0
LINE
  5
366D
330
1F
100
AcDbEntity
  8
moji
100
AcDbLine
 10
262.2503306999999
 20
250.1899750566628
 30
0.0
 11
262.2503307
 21
285.1899750566627
 31
0.0
  0
LINE
  5
366E
330
1F
100
AcDbEntity
  8
moji
100
AcDbLine
 10
329.7503307000001
 20
222.1899750566628
 30
0.0
 11
329.7503306999999
 21
285.1899750566627
 31
0.0
  0
TEXT
  5
366F
330
1F
100
AcDbEntity
  8
moji
100
AcDbText
 10
157.2503306999999
 20
286.6899750566627
 30
0.0
 40
4.0
  1
シングルエッジＴ５０
100
AcDbText
  0
LINE
  5
3670
330
1F
100
AcDbEntity
  8
moji
100
AcDbLine
 10
154.7503306999999
 20
285.1899750566627
 30
0.0
 11
329.7503306999999
 21
285.1899750566627
 31
0.0
  0
TEXT
  5
3671
330
1F
100
AcDbEntity
  8
moji
100
AcDbText
 10
197.2503306999999
 20
279.6899750566627
 30
0.0
 40
4.0
  1
本体
100
AcDbText
  0
TEXT
  5
3672
330
1F
100
AcDbEntity
  8
moji
100
AcDbText
 10
264.7503307
 20
279.6899750566627
 30
0.0
 40
4.0
  1
ジョイント板
100
AcDbText
  0
TEXT
  5
3673
330
1F
100
AcDbEntity
  8
moji
100
AcDbText
 10
264.7503307
 20
272.6899750566626
 30
0.0
 40
4.0
  1
A1050B-H24
100
AcDbText
  0
LINE
  5
3674
330
1F
100
AcDbEntity
  8
moji
100
AcDbLine
 10
154.7503307
 20
257.1899750566628
 30
0.0
 11
329.7503307000001
 21
257.1899750566628
 31
0.0
  0
LINE
  5
3675
330
1F
100
AcDbEntity
  8
moji
100
AcDbLine
 10
194.7503306999999
 20
264.1899750566627
 30
0.0
 11
329.7503307000001
 21
264.1899750566627
 31
0.0
  0
LINE
  5
3676
330
1F
100
AcDbEntity
  8
moji
100
AcDbLine
 10
228.5003307
 20
271.1899750566626
 30
0.0
 11
228.5003307
 21
257.1899750566628
 31
0.0
  0
LINE
  5
3677
330
1F
100
AcDbEntity
  8
moji
100
AcDbLine
 10
296.0003307
 20
271.1899750566626
 30
0.0
 11
296.0003307
 21
257.1899750566628
 31
0.0
  0
LINE
  5
3678
330
1F
100
AcDbEntity
  8
moji
100
AcDbLine
 10
154.7503307
 20
250.1899750566628
 30
0.0
 11
329.7503307000001
 21
250.1899750566628
 31
0.0
  0
TEXT
  5
3679
330
1F
100
AcDbEntity
  8
moji
100
AcDbText
 10
157.2503306999999
 20
265.6899750566627
 30
0.0
 40
4.0
  1
規格(mm)
100
AcDbText
  0
TEXT
  5
367A
330
1F
100
AcDbEntity
  8
moji
100
AcDbText
 10
197.2503307
 20
265.6899750566627
 30
0.0
 40
4.0
  1
長さ
100
AcDbText
  0
TEXT
  5
367B
330
1F
100
AcDbEntity
  8
moji
100
AcDbText
 10
231.0003307
 20
265.6899750566627
 30
0.0
 40
4.0
  1
厚さ
100
AcDbText
  0
TEXT
  5
367C
330
1F
100
AcDbEntity
  8
moji
100
AcDbText
 10
197.2503306999999
 20
258.6899750566626
 30
0.0
 40
4.0
  1
2000
100
AcDbText
  0
TEXT
  5
367D
330
1F
100
AcDbEntity
  8
moji
100
AcDbText
 10
231.0003307
 20
258.6899750566626
 30
0.0
 40
4.0
  1
2.0
100
AcDbText
  0
TEXT
  5
367E
330
1F
100
AcDbEntity
  8
moji
100
AcDbText
 10
264.7503307
 20
265.6899750566625
 30
0.0
 40
4.0
  1
長さ
100
AcDbText
  0
TEXT
  5
367F
330
1F
100
AcDbEntity
  8
moji
100
AcDbText
 10
264.7503307
 20
258.6899750566626
 30
0.0
 40
4.0
  1
80
100
AcDbText
  0
TEXT
  5
3680
330
1F
100
AcDbEntity
  8
moji
100
AcDbText
 10
298.5003306999999
 20
265.6899750566625
 30
0.0
 40
4.0
  1
厚さ
100
AcDbText
  0
TEXT
  5
3681
330
1F
100
AcDbEntity
  8
moji
100
AcDbText
 10
298.5003306999999
 20
258.6899750566626
 30
0.0
 40
4.0
  1
0.6
100
AcDbText
  0
TEXT
  5
3682
330
1F
100
AcDbEntity
  8
moji
100
AcDbText
 10
157.2503307
 20
251.6899750566627
 30
0.0
 40
4.0
  1
ビス穴
100
AcDbText
  0
TEXT
  5
3683
330
1F
100
AcDbEntity
  8
moji
100
AcDbText
 10
197.2503307
 20
251.6899750566627
 30
0.0
 40
4.0
  1
7穴　300mm間隔
100
AcDbText
  0
TEXT
  5
459E
330
1F
100
AcDbEntity
  8
moji
100
AcDbText
 10
197.2503306999998
 20
223.6899750566628
 30
0.0
 40
4.0
  1
アクリル樹脂系塗装（デュラクロン他）
100
AcDbText
  0
TEXT
  5
459F
330
1F
100
AcDbEntity
  8
moji
100
AcDbText
 10
197.2503306999998
 20
230.6899750566628
 30
0.0
 40
4.0
  1
2次電解着色（ブロンズ）
100
AcDbText
  0
TEXT
  5
45A0
330
1F
100
AcDbEntity
  8
moji
100
AcDbText
 10
197.2503306999998
 20
244.6899750566627
 30
0.0
 40
4.0
  1
JIS H 8602-2010 A1種
100
AcDbText
  0
LINE
  5
46B5
330
1F
100
AcDbEntity
  8
0
100
AcDbLine
 10
0.0
 20
369.9999999999997
 30
0.0
 11
552.0000000000001
 21
369.999999999999
 31
0.0
  0
TEXT
  5
46B6
330
1F
100
AcDbEntity
  8
WAKU
100
AcDbText
 10
529.507614213198
 20
372.0000000000001
 30
0.0
 40
6.0
  1
set50
  7
MSゴシック
 72
     2
 11
549.0000000000001
 21
372.0000000000001
 31
0.0
100
AcDbText
  0
TEXT
  5
46B8
330
1F
100
AcDbEntity
  8
WAKU
100
AcDbText
 10
3.0
 20
372.0000000000001
 30
0.0
 40
8.0
  1
アルミ雨仕舞材／勾配屋根用
  7
MSゴシック
100
AcDbText
  0
TEXT
  5
46B9
330
1F
100
AcDbEntity
  8
WAKU
100
AcDbText
 10
3.0
 20
360.0000000000008
 30
0.0
 40
6.0
  1
シングルエッジＴ５０／ケラバアルミ金物 断熱５０ｍｍ用
  7
MSゴシック
100
AcDbText
  0
TEXT
  5
46BA
330
1F
100
AcDbEntity
  8
WAKU
100
AcDbText
 10
521.7106598984773
 20
360.000000000001
 30
0.0
 40
6.0
  1
1/2(A4)
  7
MSゴシック
 72
     2
 11
549.0000000000001
 21
360.000000000001
 31
0.0
100
AcDbText
  0
LINE
  5
4A77
330
1F
100
AcDbEntity
  8
0
100
AcDbLine
 10
96.00000000000001
 20
59.00000000000002
 30
0.0
 11
456.0
 21
59.00000000000002
 31
0.0
  0
LINE
  5
4A78
330
1F
100
AcDbEntity
  8
0
100
AcDbLine
 10
456.0
 20
59.00000000000002
 30
0.0
 11
456.0
 21
299.0
 31
0.0
  0
LINE
  5
4A79
330
1F
100
AcDbEntity
  8
0
100
AcDbLine
 10
456.0
 20
299.0
 30
0.0
 11
96.00000000000001
 21
299.0
 31
0.0
  0
LINE
  5
4A7A
330
1F
100
AcDbEntity
  8
0
100
AcDbLine
 10
96.00000000000001
 20
299.0
 30
0.0
 11
96.00000000000001
 21
59.00000000000002
 31
0.0
  0
LINE
  5
4A7B
330
1F
100
AcDbEntity
  8
SUNPO
  6
Continuous
100
AcDbLine
 10
346.4081624910845
 20
121.621841963908
 30
0.0
 11
346.4081624910845
 21
100.5773220094375
 31
0.0
  0
LINE
  5
4A7C
330
1F
100
AcDbEntity
  8
SUNPO
  6
Continuous
100
AcDbLine
 10
258.4081624910845
 20
121.121841963908
 30
0.0
 11
258.4081624910845
 21
100.5773220094375
 31
0.0
  0
LINE
  5
4A7D
330
1F
100
AcDbEntity
  8
SUNPO
  6
Continuous
100
AcDbLine
 10
344.8081624910845
 20
100.5773220094375
 30
0.0
 11
260.0081624910845
 21
100.5773220094375
 31
0.0
  0
INSERT
  5
4A7E
330
1F
100
AcDbEntity
  8
SUNPO
  6
Continuous
100
AcDbBlockReference
  2
_DOT
 10
346.4081624910845
 20
100.5773220094375
 30
0.0
 41
1.6
 42
1.6
 43
1.6
  0
INSERT
  5
4A7F
330
1F
100
AcDbEntity
  8
SUNPO
  6
Continuous
100
AcDbBlockReference
  2
_DOT
 10
258.4081624910845
 20
100.5773220094375
 30
0.0
 41
1.6
 42
1.6
 43
1.6
 50
180.0
  0
MTEXT
  5
4A80
330
1F
100
AcDbEntity
  8
SUNPO
  6
Continuous
100
AcDbMText
 10
302.4081624910845
 20
98.37732200943749
 30
0.0
 40
4.0
 41
0.0
 71
     5
 72
     1
  1
\A1;88
 73
     1
 44
1.0
1001
ACAD
1000
MTEXTBEGIN
1070
    73
1070
     1
1070
    44
1040
1.0
1070
    74
1070
     0
1000
MTEXTEND
  0
LINE
  5
4A81
330
1F
100
AcDbEntity
  8
SUNPO
  6
Continuous
100
AcDbLine
 10
236.4128698583926
 20
75.4218419639081
 30
0.0
 11
236.4128698583926
 21
66.56740024008982
 31
0.0
  0
LINE
  5
4A82
330
1F
100
AcDbEntity
  8
SUNPO
  6
Continuous
100
AcDbLine
 10
346.4128698583925
 20
121.621841963908
 30
0.0
 11
346.4128698583925
 21
66.56740024008982
 31
0.0
  0
LINE
  5
4A83
330
1F
100
AcDbEntity
  8
SUNPO
  6
Continuous
100
AcDbLine
 10
238.0128698583926
 20
66.56740024008982
 30
0.0
 11
344.8128698583925
 21
66.56740024008982
 31
0.0
  0
INSERT
  5
4A84
330
1F
100
AcDbEntity
  8
SUNPO
  6
Continuous
100
AcDbBlockReference
  2
_DOT
 10
236.4128698583926
 20
66.56740024008982
 30
0.0
 41
1.6
 42
1.6
 43
1.6
 50
180.0
  0
INSERT
  5
4A85
330
1F
100
AcDbEntity
  8
SUNPO
  6
Continuous
100
AcDbBlockReference
  2
_DOT
 10
346.4128698583925
 20
66.56740024008982
 30
0.0
 41
1.6
 42
1.6
 43
1.6
  0
MTEXT
  5
4A86
330
1F
100
AcDbEntity
  8
SUNPO
  6
Continuous
100
AcDbMText
 10
291.4128698583925
 20
64.36740024008982
 30
0.0
 40
4.0
 41
0.0
 71
     5
 72
     1
  1
\A1;110
 73
     1
 44
1.0
1001
ACAD
1000
MTEXTBEGIN
1070
    73
1070
     1
1070
    44
1040
1.0
1070
    74
1070
     0
1000
MTEXTEND
  0
LINE
  5
4A87
330
1F
100
AcDbEntity
  8
SUNPO
  6
Continuous
100
AcDbLine
 10
236.4128698583926
 20
199.1218419639081
 30
0.0
 11
236.4128698583926
 21
215.8017354403986
 31
0.0
  0
LINE
  5
4A88
330
1F
100
AcDbEntity
  8
SUNPO
  6
Continuous
100
AcDbLine
 10
321.4128698583926
 20
177.9218419639081
 30
0.0
 11
321.4128698583926
 21
215.8017354403986
 31
0.0
  0
LINE
  5
4A89
330
1F
100
AcDbEntity
  8
SUNPO
  6
Continuous
100
AcDbLine
 10
238.0128698583926
 20
215.8017354403986
 30
0.0
 11
319.8128698583925
 21
215.8017354403986
 31
0.0
  0
INSERT
  5
4A8A
330
1F
100
AcDbEntity
  8
SUNPO
  6
Continuous
100
AcDbBlockReference
  2
_DOT
 10
236.4128698583926
 20
215.8017354403986
 30
0.0
 41
1.6
 42
1.6
 43
1.6
 50
180.0
  0
INSERT
  5
4A8B
330
1F
100
AcDbEntity
  8
SUNPO
  6
Continuous
100
AcDbBlockReference
  2
_DOT
 10
321.4128698583926
 20
215.8017354403986
 30
0.0
 41
1.6
 42
1.6
 43
1.6
  0
MTEXT
  5
4A8C
330
1F
100
AcDbEntity
  8
SUNPO
  6
Continuous
100
AcDbMText
 10
278.9128698583926
 20
218.0017354403986
 30
0.0
 40
4.0
 41
0.0
 71
     5
 72
     1
  1
\A1;85
 73
     1
 44
1.0
1001
ACAD
1000
MTEXTBEGIN
1070
    73
1070
     1
1070
    44
1040
1.0
1070
    74
1070
     0
1000
MTEXTEND
  0
LINE
  5
4A8D
330
1F
100
AcDbEntity
  8
SUNPO
  6
Continuous
100
AcDbLine
 10
234.4128698583926
 20
77.12184196390811
 30
0.0
 11
211.9947425036216
 21
77.12184196390812
 31
0.0
  0
LINE
  5
4A8E
330
1F
100
AcDbEntity
  8
SUNPO
  6
Continuous
100
AcDbLine
 10
234.4128698583926
 20
197.1218419639081
 30
0.0
 11
211.9947425036216
 21
197.1218419639081
 31
0.0
  0
LINE
  5
4A8F
330
1F
100
AcDbEntity
  8
SUNPO
  6
Continuous
100
AcDbLine
 10
211.9947425036216
 20
78.72184196390811
 30
0.0
 11
211.9947425036216
 21
195.5218419639081
 31
0.0
  0
INSERT
  5
4A90
330
1F
100
AcDbEntity
  8
SUNPO
  6
Continuous
100
AcDbBlockReference
  2
_DOT
 10
211.9947425036216
 20
77.12184196390812
 30
0.0
 41
1.6
 42
1.6
 43
1.6
 50
270.0
  0
INSERT
  5
4A91
330
1F
100
AcDbEntity
  8
SUNPO
  6
Continuous
100
AcDbBlockReference
  2
_DOT
 10
211.9947425036216
 20
197.1218419639081
 30
0.0
 41
1.6
 42
1.6
 43
1.6
 50
90.0
  0
MTEXT
  5
4A92
330
1F
100
AcDbEntity
  8
SUNPO
  6
Continuous
100
AcDbMText
 10
209.7947425036216
 20
137.1218419639081
 30
0.0
 40
4.0
 41
0.0
 71
     5
 72
     1
  1
\A1;120
 11
0.0000000000000001
 21
1.0
 31
0.0
 73
     1
 44
1.0
1001
ACAD
1000
MTEXTBEGIN
1070
    73
1070
     1
1070
    44
1040
1.0
1070
    74
1070
     0
1000
MTEXTEND
  0
LINE
  5
4A93
330
1F
100
AcDbEntity
  8
SUNPO
  6
Continuous
100
AcDbLine
 10
236.4128698583926
 20
199.1218419639081
 30
0.0
 11
236.4128698583926
 21
206.9810103552473
 31
0.0
  0
LINE
  5
4A94
330
1F
100
AcDbEntity
  8
SUNPO
  6
Continuous
100
AcDbLine
 10
256.4128698583926
 20
199.1218419639081
 30
0.0
 11
256.4128698583926
 21
206.9810103552473
 31
0.0
  0
LINE
  5
4A95
330
1F
100
AcDbEntity
  8
SUNPO
  6
Continuous
100
AcDbLine
 10
238.0128698583926
 20
206.9810103552473
 30
0.0
 11
254.8128698583926
 21
206.9810103552473
 31
0.0
  0
INSERT
  5
4A96
330
1F
100
AcDbEntity
  8
SUNPO
  6
Continuous
100
AcDbBlockReference
  2
_DOT
 10
236.4128698583926
 20
206.9810103552473
 30
0.0
 41
1.6
 42
1.6
 43
1.6
 50
180.0
  0
INSERT
  5
4A97
330
1F
100
AcDbEntity
  8
SUNPO
  6
Continuous
100
AcDbBlockReference
  2
_DOT
 10
256.4128698583926
 20
206.9810103552473
 30
0.0
 41
1.6
 42
1.6
 43
1.6
  0
MTEXT
  5
4A98
330
1F
100
AcDbEntity
  8
SUNPO
  6
Continuous
100
AcDbMText
 10
246.4128698583926
 20
209.1810103552473
 30
0.0
 40
4.0
 41
0.0
 71
     5
 72
     1
  1
\A1;20
 73
     1
 44
1.0
1001
ACAD
1000
MTEXTBEGIN
1070
    73
1070
     1
1070
    44
1040
1.0
1070
    74
1070
     0
1000
MTEXTEND
  0
LINE
  5
4A99
330
1F
100
AcDbEntity
  8
SUNPO
  6
Continuous
100
AcDbLine
 10
343.4128698583926
 20
125.121841963908
 30
0.0
 11
356.6081913503112
 21
125.121841963908
 31
0.0
  0
LINE
  5
4A9A
330
1F
100
AcDbEntity
  8
SUNPO
  6
Continuous
100
AcDbLine
 10
322.9081624910843
 20
175.121841963908
 30
0.0
 11
356.6081913503112
 21
175.121841963908
 31
0.0
  0
LINE
  5
4A9B
330
1F
100
AcDbEntity
  8
SUNPO
  6
Continuous
100
AcDbLine
 10
356.6081913503112
 20
126.721841963908
 30
0.0
 11
356.6081913503112
 21
173.521841963908
 31
0.0
  0
INSERT
  5
4A9C
330
1F
100
AcDbEntity
  8
SUNPO
  6
Continuous
100
AcDbBlockReference
  2
_DOT
 10
356.6081913503112
 20
125.121841963908
 30
0.0
 41
1.6
 42
1.6
 43
1.6
 50
270.0
  0
INSERT
  5
4A9D
330
1F
100
AcDbEntity
  8
SUNPO
  6
Continuous
100
AcDbBlockReference
  2
_DOT
 10
356.6081913503112
 20
175.121841963908
 30
0.0
 41
1.6
 42
1.6
 43
1.6
 50
90.0
  0
MTEXT
  5
4A9E
330
1F
100
AcDbEntity
  8
SUNPO
  6
Continuous
100
AcDbMText
 10
358.8081913503112
 20
150.121841963908
 30
0.0
 40
4.0
 41
0.0
 71
     5
 72
     1
  1
\A1;50
 11
0.0000000000000001
 21
1.0
 31
0.0
 73
     1
 44
1.0
1001
ACAD
1000
MTEXTBEGIN
1070
    73
1070
     1
1070
    44
1040
1.0
1070
    74
1070
     0
1000
MTEXTEND
  0
ARC
  5
4A9F
330
1F
100
AcDbEntity
  8
KANAMONO
  6
Continuous
100
AcDbCircle
 10
253.5854773080718
 20
194.8218419639081
 30
0.0
 40
0.3000000000000129
100
AcDbArc
 50
355.0000000000037
 51
90.00000000000543
  0
LINE
  5
4AA0
330
1F
100
AcDbEntity
  8
KANAMONO
  6
Continuous
100
AcDbLine
 10
253.5854773080718
 20
195.1218419639081
 30
0.0
 11
238.7128698583925
 21
195.1218419639081
 31
0.0
  0
ARC
  5
4AA1
330
1F
100
AcDbEntity
  8
KANAMONO
  6
Continuous
100
AcDbCircle
 10
238.7128698583925
 20
194.8218419639081
 30
0.0
 40
0.3000000000000114
100
AcDbArc
 50
90.0
 51
180.0
  0
LINE
  5
4AA2
330
1F
100
AcDbEntity
  8
KANAMONO
  6
Continuous
100
AcDbLine
 10
238.4128698583925
 20
194.8218419639081
 30
0.0
 11
238.4128698583925
 21
175.4715253432458
 31
0.0
  0
ARC
  5
4AA3
330
1F
100
AcDbEntity
  8
KANAMONO
  6
Continuous
100
AcDbCircle
 10
238.7128698583925
 20
175.4715253432458
 30
0.0
 40
0.2999999999999829
100
AcDbArc
 50
180.0
 51
278.7461622625548
  0
LINE
  5
4AA4
330
1F
100
AcDbEntity
  8
KANAMONO
  6
Continuous
100
AcDbLine
 10
238.7584870136687
 20
175.1750138339506
 30
0.0
 11
251.4128698583926
 21
177.1218419639081
 31
0.0
  0
LINE
  5
4AA5
330
1F
100
AcDbEntity
  8
KANAMONO
  6
Continuous
100
AcDbLine
 10
251.4128698583926
 20
177.1218419639081
 30
0.0
 11
265.8628698583925
 21
177.1218419639081
 31
0.0
  0
ARC
  5
4AA6
330
1F
100
AcDbEntity
  8
KANAMONO
  6
Continuous
100
AcDbCircle
 10
265.8628698583925
 20
177.4218419639081
 30
0.0
 40
0.3000000000000398
100
AcDbArc
 50
270.0
 51
359.9999999999837
  0
ARC
  5
4AA7
330
1F
100
AcDbEntity
  8
KANAMONO
  6
Continuous
100
AcDbCircle
 10
266.3628698583926
 20
177.4218419639081
 30
0.0
 40
0.1999999999999886
100
AcDbArc
 50
90.00000000001628
 51
180.0000000000162
  0
LINE
  5
4AA8
330
1F
100
AcDbEntity
  8
KANAMONO
  6
Continuous
100
AcDbLine
 10
266.3628698583925
 20
177.6218419639081
 30
0.0
 11
266.4628698583925
 21
177.6218419639081
 31
0.0
  0
ARC
  5
4AA9
330
1F
100
AcDbEntity
  8
KANAMONO
  6
Continuous
100
AcDbCircle
 10
266.4628698583925
 20
177.4218419639081
 30
0.0
 40
0.1999999999999886
100
AcDbArc
 50
359.9999999999837
 51
89.99999999998371
  0
ARC
  5
4AAA
330
1F
100
AcDbEntity
  8
KANAMONO
  6
Continuous
100
AcDbCircle
 10
266.9628698583924
 20
177.421841963908
 30
0.0
 40
0.2999999999999545
100
AcDbArc
 50
179.9999999999837
 51
269.9999999999783
  0
LINE
  5
4AAB
330
1F
100
AcDbEntity
  8
KANAMONO
  6
Continuous
100
AcDbLine
 10
266.9628698583923
 20
177.121841963908
 30
0.0
 11
280.8628698583925
 21
177.1218419639081
 31
0.0
  0
ARC
  5
4AAC
330
1F
100
AcDbEntity
  8
KANAMONO
  6
Continuous
100
AcDbCircle
 10
280.8628698583925
 20
177.4218419639081
 30
0.0
 40
0.3000000000000398
100
AcDbArc
 50
270.0
 51
359.9999999999837
  0
ARC
  5
4AAD
330
1F
100
AcDbEntity
  8
KANAMONO
  6
Continuous
100
AcDbCircle
 10
281.3628698583926
 20
177.4218419639081
 30
0.0
 40
0.1999999999999886
100
AcDbArc
 50
90.00000000001628
 51
180.0000000000162
  0
LINE
  5
4AAE
330
1F
100
AcDbEntity
  8
KANAMONO
  6
Continuous
100
AcDbLine
 10
281.3628698583925
 20
177.6218419639081
 30
0.0
 11
281.4628698583925
 21
177.6218419639081
 31
0.0
  0
ARC
  5
4AAF
330
1F
100
AcDbEntity
  8
KANAMONO
  6
Continuous
100
AcDbCircle
 10
281.4628698583925
 20
177.4218419639081
 30
0.0
 40
0.1999999999999886
100
AcDbArc
 50
359.9999999999837
 51
89.99999999998371
  0
ARC
  5
4AB0
330
1F
100
AcDbEntity
  8
KANAMONO
  6
Continuous
100
AcDbCircle
 10
281.9628698583926
 20
177.4218419639081
 30
0.0
 40
0.3000000000000682
100
AcDbArc
 50
180.0000000000108
 51
270.0
  0
LINE
  5
4AB1
330
1F
100
AcDbEntity
  8
KANAMONO
  6
Continuous
100
AcDbLine
 10
281.9628698583926
 20
177.121841963908
 30
0.0
 11
295.8628698583925
 21
177.1218419639081
 31
0.0
  0
ARC
  5
4AB2
330
1F
100
AcDbEntity
  8
KANAMONO
  6
Continuous
100
AcDbCircle
 10
295.8628698583925
 20
177.4218419639081
 30
0.0
 40
0.3000000000000398
100
AcDbArc
 50
270.0
 51
359.9999999999837
  0
ARC
  5
4AB3
330
1F
100
AcDbEntity
  8
KANAMONO
  6
Continuous
100
AcDbCircle
 10
296.3628698583926
 20
177.4218419639081
 30
0.0
 40
0.1999999999999886
100
AcDbArc
 50
90.00000000001628
 51
180.0000000000162
  0
LINE
  5
4AB4
330
1F
100
AcDbEntity
  8
KANAMONO
  6
Continuous
100
AcDbLine
 10
296.3628698583925
 20
177.6218419639081
 30
0.0
 11
296.4628698583926
 21
177.6218419639081
 31
0.0
  0
ARC
  5
4AB5
330
1F
100
AcDbEntity
  8
KANAMONO
  6
Continuous
100
AcDbCircle
 10
296.4628698583925
 20
177.4218419639081
 30
0.0
 40
0.1999999999999886
100
AcDbArc
 50
359.9999999999837
 51
89.99999999998371
  0
ARC
  5
4AB6
330
1F
100
AcDbEntity
  8
KANAMONO
  6
Continuous
100
AcDbCircle
 10
296.9628698583925
 20
177.4218419639081
 30
0.0
 40
0.3000000000000682
100
AcDbArc
 50
180.0000000000054
 51
270.0
  0
LINE
  5
4AB7
330
1F
100
AcDbEntity
  8
KANAMONO
  6
Continuous
100
AcDbLine
 10
296.9628698583925
 20
177.121841963908
 30
0.0
 11
310.8628698583925
 21
177.1218419639081
 31
0.0
  0
ARC
  5
4AB8
330
1F
100
AcDbEntity
  8
KANAMONO
  6
Continuous
100
AcDbCircle
 10
310.8628698583925
 20
177.4218419639081
 30
0.0
 40
0.3000000000000398
100
AcDbArc
 50
270.0
 51
359.9999999999837
  0
ARC
  5
4AB9
330
1F
100
AcDbEntity
  8
KANAMONO
  6
Continuous
100
AcDbCircle
 10
311.3628698583926
 20
177.4218419639081
 30
0.0
 40
0.1999999999999886
100
AcDbArc
 50
90.00000000001628
 51
180.0000000000162
  0
LINE
  5
4ABA
330
1F
100
AcDbEntity
  8
KANAMONO
  6
Continuous
100
AcDbLine
 10
311.3628698583925
 20
177.6218419639081
 30
0.0
 11
311.4628698583925
 21
177.6218419639081
 31
0.0
  0
ARC
  5
4ABB
330
1F
100
AcDbEntity
  8
KANAMONO
  6
Continuous
100
AcDbCircle
 10
311.4628698583925
 20
177.4218419639081
 30
0.0
 40
0.1999999999999886
100
AcDbArc
 50
359.9999999999837
 51
89.99999999998371
  0
ARC
  5
4ABC
330
1F
100
AcDbEntity
  8
KANAMONO
  6
Continuous
100
AcDbCircle
 10
311.9628698583925
 20
177.421841963908
 30
0.0
 40
0.3000000000000682
100
AcDbArc
 50
180.0
 51
270.0
  0
LINE
  5
4ABD
330
1F
100
AcDbEntity
  8
KANAMONO
  6
Continuous
100
AcDbLine
 10
311.9628698583925
 20
177.121841963908
 30
0.0
 11
316.4128698583925
 21
177.121841963908
 31
0.0
  0
LINE
  5
4ABE
330
1F
100
AcDbEntity
  8
KANAMONO
  6
Continuous
100
AcDbLine
 10
316.4128698583925
 20
177.121841963908
 30
0.0
 11
321.02010287726
 21
176.1102076871774
 31
0.0
  0
ARC
  5
4ABF
330
1F
100
AcDbEntity
  8
KANAMONO
  6
Continuous
100
AcDbCircle
 10
320.9128698583925
 20
175.621841963908
 30
0.0
 40
0.4999999999999407
100
AcDbArc
 50
270.0
 51
77.61579719299736
  0
LINE
  5
4AC0
330
1F
100
AcDbEntity
  8
KANAMONO
  6
Continuous
100
AcDbLine
 10
320.9128698583925
 20
175.121841963908
 30
0.0
 11
268.9128698583926
 21
175.1218419639079
 31
0.0
  0
ARC
  5
4AC1
330
1F
100
AcDbEntity
  8
KANAMONO
  6
Continuous
100
AcDbCircle
 10
268.9128698583926
 20
174.1218419639079
 30
0.0
 40
1.0
100
AcDbArc
 50
90.0
 51
180.0
  0
LINE
  5
4AC2
330
1F
100
AcDbEntity
  8
KANAMONO
  6
Continuous
100
AcDbLine
 10
267.9128698583926
 20
174.1218419639079
 30
0.0
 11
267.9128698583926
 21
126.1218419639079
 31
0.0
  0
ARC
  5
4AC3
330
1F
100
AcDbEntity
  8
KANAMONO
  6
Continuous
100
AcDbCircle
 10
268.9128698583926
 20
126.1218419639079
 30
0.0
 40
1.0
100
AcDbArc
 50
180.0
 51
270.0
  0
LINE
  5
4AC4
330
1F
100
AcDbEntity
  8
KANAMONO
  6
Continuous
100
AcDbLine
 10
268.9128698583926
 20
125.1218419639079
 30
0.0
 11
305.8643417209686
 21
125.1218419639079
 31
0.0
  0
ARC
  5
4AC5
330
1F
100
AcDbEntity
  8
KANAMONO
  6
Continuous
100
AcDbCircle
 10
305.8643417209686
 20
124.8218419639078
 30
0.0
 40
0.3000000000000824
100
AcDbArc
 50
45.00000000000961
 51
90.00000000001087
  0
LINE
  5
4AC6
330
1F
100
AcDbEntity
  8
KANAMONO
  6
Continuous
100
AcDbLine
 10
306.0764737553246
 20
125.0339739982639
 30
0.0
 11
306.2007378240364
 21
124.9097099295519
 31
0.0
  0
ARC
  5
4AC7
330
1F
100
AcDbEntity
  8
KANAMONO
  6
Continuous
100
AcDbCircle
 10
306.4128698583924
 20
125.1218419639078
 30
0.0
 40
0.3000000000000145
100
AcDbArc
 50
224.9999999999962
 51
315.0000000000038
  0
LINE
  5
4AC8
330
1F
100
AcDbEntity
  8
KANAMONO
  6
Continuous
100
AcDbLine
 10
306.6250018927484
 20
124.9097099295519
 30
0.0
 11
306.7492659614602
 21
125.0339739982637
 31
0.0
  0
ARC
  5
4AC9
330
1F
100
AcDbEntity
  8
KANAMONO
  6
Continuous
100
AcDbCircle
 10
306.9613979958163
 20
124.8218419639079
 30
0.0
 40
0.3000000000000748
100
AcDbArc
 50
90.00000000004341
 51
135.0000000000384
  0
LINE
  5
4ACA
330
1F
100
AcDbEntity
  8
KANAMONO
  6
Continuous
100
AcDbLine
 10
306.9613979958161
 20
125.1218419639079
 30
0.0
 11
330.8643417209686
 21
125.1218419639079
 31
0.0
  0
ARC
  5
4ACB
330
1F
100
AcDbEntity
  8
KANAMONO
  6
Continuous
100
AcDbCircle
 10
330.8643417209686
 20
124.8218419639078
 30
0.0
 40
0.300000000000125
100
AcDbArc
 50
45.00000000001535
 51
90.00000000001087
  0
LINE
  5
4ACC
330
1F
100
AcDbEntity
  8
KANAMONO
  6
Continuous
100
AcDbLine
 10
331.0764737553246
 20
125.0339739982639
 30
0.0
 11
331.2007378240364
 21
124.909709929552
 31
0.0
  0
ARC
  5
4ACD
330
1F
100
AcDbEntity
  8
KANAMONO
  6
Continuous
100
AcDbCircle
 10
331.4128698583924
 20
125.121841963908
 30
0.0
 40
0.3000000000000547
100
AcDbArc
 50
225.0000000000039
 51
314.9999999999961
  0
LINE
  5
4ACE
330
1F
100
AcDbEntity
  8
KANAMONO
  6
Continuous
100
AcDbLine
 10
331.6250018927484
 20
124.909709929552
 30
0.0
 11
331.7492659614602
 21
125.0339739982638
 31
0.0
  0
ARC
  5
4ACF
330
1F
100
AcDbEntity
  8
KANAMONO
  6
Continuous
100
AcDbCircle
 10
331.9613979958162
 20
124.8218419639079
 30
0.0
 40
0.3000000000000044
100
AcDbArc
 50
90.00000000001087
 51
135.0000000000057
  0
LINE
  5
4AD0
330
1F
100
AcDbEntity
  8
KANAMONO
  6
Continuous
100
AcDbLine
 10
331.9613979958161
 20
125.1218419639078
 30
0.0
 11
341.4128698583925
 21
125.1218419639079
 31
0.0
  0
LINE
  5
4AD1
330
1F
100
AcDbEntity
  8
KANAMONO
  6
Continuous
100
AcDbLine
 10
341.4128698583925
 20
125.1218419639079
 30
0.0
 11
346.02010287726
 21
124.1102076871773
 31
0.0
  0
ARC
  5
4AD2
330
1F
100
AcDbEntity
  8
KANAMONO
  6
Continuous
100
AcDbCircle
 10
345.9128698583925
 20
123.6218419639079
 30
0.0
 40
0.4999999999999684
100
AcDbArc
 50
270.0
 51
77.61579719299806
  0
LINE
  5
4AD3
330
1F
100
AcDbEntity
  8
KANAMONO
  6
Continuous
100
AcDbLine
 10
345.9128698583925
 20
123.1218419639079
 30
0.0
 11
258.4128698583926
 21
123.1218419639079
 31
0.0
  0
LINE
  5
4AD4
330
1F
100
AcDbEntity
  8
KANAMONO
  6
Continuous
100
AcDbLine
 10
258.4128698583926
 20
123.1218419639079
 30
0.0
 11
257.9798571565003
 21
122.8718419639079
 31
0.0
  0
ARC
  5
4AD5
330
1F
100
AcDbEntity
  8
KANAMONO
  6
Continuous
100
AcDbCircle
 10
257.7298571565003
 20
123.3048546658001
 30
0.0
 40
0.5000000000000449
100
AcDbArc
 50
210.0000000000033
 51
300.0000000000046
  0
LINE
  5
4AD6
330
1F
100
AcDbEntity
  8
KANAMONO
  6
Continuous
100
AcDbLine
 10
257.2968444546081
 20
123.0548546658001
 30
0.0
 11
256.9468444546081
 21
123.6610724484493
 31
0.0
  0
ARC
  5
4AD7
330
1F
100
AcDbEntity
  8
KANAMONO
  6
Continuous
100
AcDbCircle
 10
257.3798571565003
 20
123.9110724484492
 30
0.0
 40
0.5000000000000197
100
AcDbArc
 50
119.9999999999997
 51
209.9999999999931
  0
LINE
  5
4AD8
330
1F
100
AcDbEntity
  8
KANAMONO
  6
Continuous
100
AcDbLine
 10
257.1298571565003
 20
124.3440851503414
 30
0.0
 11
258.2449206659613
 21
124.9878673676924
 31
0.0
  0
ARC
  5
4AD9
330
1F
100
AcDbEntity
  8
KANAMONO
  6
Continuous
100
AcDbCircle
 10
258.7449206659614
 20
124.1218419639078
 30
0.0
 40
1.000000000000098
100
AcDbArc
 50
89.99999999999674
 51
120.0000000000005
  0
LINE
  5
4ADA
330
1F
100
AcDbEntity
  8
KANAMONO
  6
Continuous
100
AcDbLine
 10
258.7449206659615
 20
125.1218419639079
 30
0.0
 11
265.4128698583926
 21
125.1218419639079
 31
0.0
  0
ARC
  5
4ADB
330
1F
100
AcDbEntity
  8
KANAMONO
  6
Continuous
100
AcDbCircle
 10
265.4128698583926
 20
125.6218419639079
 30
0.0
 40
0.5
100
AcDbArc
 50
270.0
 51
0.0
  0
LINE
  5
4ADC
330
1F
100
AcDbEntity
  8
KANAMONO
  6
Continuous
100
AcDbLine
 10
265.9128698583926
 20
125.6218419639079
 30
0.0
 11
265.9128698583926
 21
174.1218419639079
 31
0.0
  0
ARC
  5
4ADD
330
1F
100
AcDbEntity
  8
KANAMONO
  6
Continuous
100
AcDbCircle
 10
264.9128698583926
 20
174.1218419639079
 30
0.0
 40
1.0
100
AcDbArc
 50
0.0
 51
90.0
  0
LINE
  5
4ADE
330
1F
100
AcDbEntity
  8
KANAMONO
  6
Continuous
100
AcDbLine
 10
264.9128698583926
 20
175.1218419639078
 30
0.0
 11
251.565816296358
 21
175.1218419639079
 31
0.0
  0
LINE
  5
4ADF
330
1F
100
AcDbEntity
  8
KANAMONO
  6
Continuous
100
AcDbLine
 10
251.565816296358
 20
175.1218419639079
 30
0.0
 11
238.6672527031163
 21
173.1374475649478
 31
0.0
  0
ARC
  5
4AE0
330
1F
100
AcDbEntity
  8
KANAMONO
  6
Continuous
100
AcDbCircle
 10
238.7128698583925
 20
172.8409360556527
 30
0.0
 40
0.299999999999972
100
AcDbArc
 50
98.74616226255479
 51
180.0
  0
LINE
  5
4AE1
330
1F
100
AcDbEntity
  8
KANAMONO
  6
Continuous
100
AcDbLine
 10
238.4128698583925
 20
172.8409360556527
 30
0.0
 11
238.4128698583925
 21
79.02184196390809
 31
0.0
  0
ARC
  5
4AE2
330
1F
100
AcDbEntity
  8
KANAMONO
  6
Continuous
100
AcDbCircle
 10
238.7128698583925
 20
79.0218419639081
 30
0.0
 40
0.3000000000000114
100
AcDbArc
 50
180.0000000000027
 51
270.0
  0
LINE
  5
4AE3
330
1F
100
AcDbEntity
  8
KANAMONO
  6
Continuous
100
AcDbLine
 10
238.7128698583925
 20
78.72184196390808
 30
0.0
 11
239.6128698583925
 21
78.72184196390819
 31
0.0
  0
ARC
  5
4AE4
330
1F
100
AcDbEntity
  8
KANAMONO
  6
Continuous
100
AcDbCircle
 10
239.6128698583925
 20
79.0218419639082
 30
0.0
 40
0.3000000000000114
100
AcDbArc
 50
270.0
 51
0.0
  0
LINE
  5
4AE5
330
1F
100
AcDbEntity
  8
KANAMONO
  6
Continuous
100
AcDbLine
 10
239.9128698583925
 20
79.0218419639082
 30
0.0
 11
239.9128698583925
 21
80.22184196390814
 31
0.0
  0
ARC
  5
4AE6
330
1F
100
AcDbEntity
  8
KANAMONO
  6
Continuous
100
AcDbCircle
 10
242.4128698583925
 20
80.22184196390812
 30
0.0
 40
2.499999999999971
100
AcDbArc
 50
118.0724869358527
 51
179.9999999999996
  0
ARC
  5
4AE7
330
1F
100
AcDbEntity
  8
KANAMONO
  6
Continuous
100
AcDbCircle
 10
241.6128698583925
 20
81.72184196390814
 30
0.0
 40
0.7999999999999722
100
AcDbArc
 50
298.0724869358534
 51
118.0724869358539
  0
ARC
  5
4AE8
330
1F
100
AcDbEntity
  8
KANAMONO
  6
Continuous
100
AcDbCircle
 10
242.4128698583925
 20
80.22184196390812
 30
0.0
 40
0.9000000000000333
100
AcDbArc
 50
118.0724869358527
 51
179.9999999999991
  0
LINE
  5
4AE9
330
1F
100
AcDbEntity
  8
KANAMONO
  6
Continuous
100
AcDbLine
 10
241.5128698583925
 20
80.22184196390814
 30
0.0
 11
241.5128698583925
 21
77.42184196390806
 31
0.0
  0
ARC
  5
4AEA
330
1F
100
AcDbEntity
  8
KANAMONO
  6
Continuous
100
AcDbCircle
 10
241.2128698583925
 20
77.42184196390806
 30
0.0
 40
0.3000000000000114
100
AcDbArc
 50
270.0
 51
0.0
  0
LINE
  5
4AEB
330
1F
100
AcDbEntity
  8
KANAMONO
  6
Continuous
100
AcDbLine
 10
241.2128698583925
 20
77.12184196390805
 30
0.0
 11
236.7128698583925
 21
77.12184196390811
 31
0.0
  0
ARC
  5
4AEC
330
1F
100
AcDbEntity
  8
KANAMONO
  6
Continuous
100
AcDbCircle
 10
236.7128698583925
 20
77.42184196390812
 30
0.0
 40
0.3000000000000114
100
AcDbArc
 50
180.0
 51
270.0
  0
LINE
  5
4AED
330
1F
100
AcDbEntity
  8
KANAMONO
  6
Continuous
100
AcDbLine
 10
236.4128698583925
 20
77.42184196390812
 30
0.0
 11
236.4128698583925
 21
196.821841963908
 31
0.0
  0
ARC
  5
4AEE
330
1F
100
AcDbEntity
  8
KANAMONO
  6
Continuous
100
AcDbCircle
 10
236.7128698583925
 20
196.821841963908
 30
0.0
 40
0.3000000000000114
100
AcDbArc
 50
90.0
 51
180.0
  0
LINE
  5
4AEF
330
1F
100
AcDbEntity
  8
KANAMONO
  6
Continuous
100
AcDbLine
 10
236.7128698583925
 20
197.121841963908
 30
0.0
 11
256.1128698583925
 21
197.1218419639081
 31
0.0
  0
ARC
  5
4AF0
330
1F
100
AcDbEntity
  8
KANAMONO
  6
Continuous
100
AcDbCircle
 10
256.1128698583925
 20
196.8218419639081
 30
0.0
 40
0.3000000000000398
100
AcDbArc
 50
0.0000000000054281
 51
90.0
  0
LINE
  5
4AF1
330
1F
100
AcDbEntity
  8
KANAMONO
  6
Continuous
100
AcDbLine
 10
256.4128698583926
 20
196.8218419639081
 30
0.0
 11
256.4128698583926
 21
195.2461060326199
 31
0.0
  0
ARC
  5
4AF2
330
1F
100
AcDbEntity
  8
KANAMONO
  6
Continuous
100
AcDbCircle
 10
256.1128698583925
 20
195.24610603262
 30
0.0
 40
0.3000000000000682
100
AcDbArc
 50
314.9999999999769
 51
359.9999999999783
  0
LINE
  5
4AF3
330
1F
100
AcDbEntity
  8
KANAMONO
  6
Continuous
100
AcDbLine
 10
256.3250018927484
 20
195.033973998264
 30
0.0
 11
254.6445578248764
 21
193.3535299303919
 31
0.0
  0
ARC
  5
4AF4
330
1F
100
AcDbEntity
  8
KANAMONO
  6
Continuous
100
AcDbCircle
 10
254.2910044342832
 20
193.7070833209852
 30
0.0
 40
0.500000000000004
100
AcDbArc
 50
175.0
 51
315.0
  0
LINE
  5
4AF5
330
1F
100
AcDbEntity
  8
KANAMONO
  6
Continuous
100
AcDbLine
 10
253.7929070852373
 20
193.750661192359
 30
0.0
 11
253.8843357174993
 21
194.7956952410838
 31
0.0
  0
LINE
  5
4AF6
330
1F
100
AcDbEntity
  8
WAKU
100
AcDbLine
 10
552.0000000000001
 20
358.0
 30
0.0
 11
0.0
 21
358.0
 31
0.0
  0
LINE
  5
4AF7
330
1F
100
AcDbEntity
  8
WAKU
100
AcDbLine
 10
0.0
 20
358.0
 30
0.0
 11
0.0
 21
382.0000000000001
 31
0.0
  0
LINE
  5
4AF8
330
1F
100
AcDbEntity
  8
WAKU
100
AcDbLine
 10
0.0
 20
382.0000000000001
 30
0.0
 11
552.0000000000001
 21
382.0000000000001
 31
0.0
  0
LINE
  5
4AF9
330
1F
100
AcDbEntity
  8
WAKU
100
AcDbLine
 10
552.0000000000001
 20
382.0000000000001
 30
0.0
 11
552.0000000000001
 21
358.0
 31
0.0
  0
LINE
  5
4AFA
330
1F
100
AcDbEntity
  8
WAKU
100
AcDbLine
 10
0.0
 20
0.0
 30
0.0
 11
552.0000000000001
 21
0.0
 31
0.0
  0
LINE
  5
4AFB
330
1F
100
AcDbEntity
  8
WAKU
100
AcDbLine
 10
552.0000000000001
 20
0.0
 30
0.0
 11
552.0000000000001
 21
382.0000000000001
 31
0.0
  0
LINE
  5
4AFC
330
1F
100
AcDbEntity
  8
WAKU
100
AcDbLine
 10
552.0000000000001
 20
382.0000000000001
 30
0.0
 11
0.0
 21
382.0000000000001
 31
0.0
  0
LINE
  5
4AFD
330
1F
100
AcDbEntity
  8
WAKU
100
AcDbLine
 10
0.0
 20
382.0000000000001
 30
0.0
 11
0.0
 21
0.0
 31
0.0
  0
LINE
  5
4AFE
330
1F
100
AcDbEntity
  8
KANAMONO_SCREW
100
AcDbLine
 10
309.2028698583922
 20
95.57184196390826
 30
0.0
 11
309.2028698583922
 21
124.2718419639083
 31
0.0
  0
LINE
  5
4AFF
330
1F
100
AcDbEntity
  8
KANAMONO_SCREW
100
AcDbLine
 10
303.6228698583924
 20
95.57184196390826
 30
0.0
 11
303.6228698583965
 21
124.2718419639083
 31
0.0
  0
LINE
  5
4B00
330
1F
100
AcDbEntity
  8
KANAMONO_SCREW
100
AcDbLine
 10
306.6628698583924
 20
116.5718419639082
 30
0.0
 11
306.6628698583924
 21
124.2718419639078
 31
0.0
  0
LINE
  5
4B01
330
1F
100
AcDbEntity
  8
KANAMONO_SCREW
100
AcDbLine
 10
309.8028698583933
 20
118.4718419639117
 30
0.0
 11
309.2028698583922
 21
116.5718419639082
 31
0.0
  0
LINE
  5
4B02
330
1F
100
AcDbEntity
  8
KANAMONO_SCREW
100
AcDbLine
 10
303.6228698583924
 20
116.5718419639082
 30
0.0
 11
303.0228698583934
 21
118.4718419639045
 31
0.0
  0
LINE
  5
4B03
330
1F
100
AcDbEntity
  8
KANAMONO_SCREW
100
AcDbLine
 10
306.6628698583924
 20
116.5718419639082
 30
0.0
 11
306.4128698583922
 21
118.4718419639045
 31
0.0
  0
LINE
  5
4B04
330
1F
100
AcDbEntity
  8
KANAMONO_SCREW
100
AcDbLine
 10
306.412869858391
 20
118.471841963907
 30
0.0
 11
306.1628698583959
 21
116.5718419639123
 31
0.0
  0
LINE
  5
4B05
330
1F
100
AcDbEntity
  8
KANAMONO_SCREW
100
AcDbLine
 10
306.1628698583959
 20
116.5718419639123
 30
0.0
 11
306.1628698583982
 21
124.2718419638965
 31
0.0
  0
LINE
  5
4B06
330
1F
100
AcDbEntity
  8
KANAMONO_SCREW
100
AcDbLine
 10
306.412869858391
 20
118.471841963907
 30
0.0
 11
306.4128698583926
 21
123.7718419638965
 31
0.0
  0
LINE
  5
4B07
330
1F
100
AcDbEntity
  8
KANAMONO_SCREW
100
AcDbLine
 10
309.8028698583933
 20
118.4718419639117
 30
0.0
 11
309.8028698583949
 21
123.7718419639085
 31
0.0
  0
LINE
  5
4B08
330
1F
100
AcDbEntity
  8
KANAMONO_SCREW
100
AcDbLine
 10
303.0228698583934
 20
118.4718419639045
 30
0.0
 11
303.0228698583951
 21
123.771841963908
 31
0.0
  0
LINE
  5
4B09
330
1F
100
AcDbEntity
  8
KANAMONO_SCREW
100
AcDbLine
 10
309.8028698583949
 20
123.7718419639085
 30
0.0
 11
309.2028698583951
 21
124.2718419639083
 31
0.0
  0
LINE
  5
4B0A
330
1F
100
AcDbEntity
  8
KANAMONO_SCREW
100
AcDbLine
 10
303.622869858395
 20
124.2718419639083
 30
0.0
 11
303.0228698583951
 21
123.771841963908
 31
0.0
  0
LINE
  5
4B0B
330
1F
100
AcDbEntity
  8
KANAMONO_SCREW
100
AcDbLine
 10
306.6628698583924
 20
124.2718419639078
 30
0.0
 11
306.4128698583926
 21
123.771841963908
 31
0.0
  0
LINE
  5
4B0C
330
1F
100
AcDbEntity
  8
KANAMONO_SCREW
100
AcDbLine
 10
306.4128698583926
 20
123.771841963908
 30
0.0
 11
306.1628698583982
 21
124.2718419638965
 31
0.0
  0
LINE
  5
4B0D
330
1F
100
AcDbEntity
  8
KANAMONO_SCREW
100
AcDbLine
 10
309.3028698583927
 20
124.2718419639083
 30
0.0
 11
303.5228698583926
 21
124.2718419639083
 31
0.0
  0
LINE
  5
4B0E
330
1F
100
AcDbEntity
  8
KANAMONO_SCREW
100
AcDbLine
 10
309.3028698583927
 20
124.2718419639083
 30
0.0
 11
310.0878698583926
 21
125.1218419639082
 31
0.0
  0
LINE
  5
4B0F
330
1F
100
AcDbEntity
  8
KANAMONO_SCREW
100
AcDbLine
 10
303.5228698583926
 20
124.2718419639083
 30
0.0
 11
302.7378698583925
 21
125.121841963908
 31
0.0
  0
LINE
  5
4B10
330
1F
100
AcDbEntity
  8
KANAMONO_SCREW
100
AcDbLine
 10
310.0878698583926
 20
125.1218419639082
 30
0.0
 11
302.7378698583925
 21
125.121841963908
 31
0.0
  0
LINE
  5
4B11
330
1F
100
AcDbEntity
  8
KANAMONO_SCREW
100
AcDbLine
 10
310.0878698583926
 20
125.1218419639082
 30
0.0
 11
310.0878698583926
 21
125.5718419639082
 31
0.0
  0
LINE
  5
4B12
330
1F
100
AcDbEntity
  8
KANAMONO_SCREW
100
AcDbLine
 10
310.0878698583926
 20
125.5718419639082
 30
0.0
 11
302.7378698583925
 21
125.5718419639082
 31
0.0
  0
LINE
  5
4B13
330
1F
100
AcDbEntity
  8
KANAMONO_SCREW
100
AcDbLine
 10
302.7378698583925
 20
125.121841963908
 30
0.0
 11
302.7378698583925
 21
125.5718419639082
 31
0.0
  0
ARC
  5
4B14
330
1F
100
AcDbEntity
  8
KANAMONO_SCREW
100
AcDbCircle
 10
307.6628698583923
 20
96.27184196390807
 30
0.0
 40
0.5999999999999998
100
AcDbArc
 50
270.0
 51
0.0
  0
LINE
  5
4B15
330
1F
100
AcDbEntity
  8
KANAMONO_SCREW
100
AcDbLine
 10
308.2628698583923
 20
96.27184196390807
 30
0.0
 11
308.2628698583923
 21
104.4718419639083
 31
0.0
  0
ARC
  5
4B16
330
1F
100
AcDbEntity
  8
KANAMONO_SCREW
100
AcDbCircle
 10
305.1628698583922
 20
96.27184196390807
 30
0.0
 40
0.5999999999999998
100
AcDbArc
 50
180.0
 51
270.0
  0
LINE
  5
4B17
330
1F
100
AcDbEntity
  8
KANAMONO_SCREW
100
AcDbLine
 10
304.5628698583921
 20
96.27184196390807
 30
0.0
 11
304.5628698583921
 21
104.4718419639083
 31
0.0
  0
LINE
  5
4B18
330
1F
100
AcDbEntity
  8
KANAMONO_SCREW
100
AcDbLine
 10
305.1628698583922
 20
95.67184196390817
 30
0.0
 11
307.6628698583923
 21
95.67184196390817
 31
0.0
  0
LINE
  5
4B19
330
1F
100
AcDbEntity
  8
KANAMONO_SCREW
100
AcDbLine
 10
309.8028698583923
 20
103.0718419639085
 30
0.0
 11
309.2028698583924
 21
103.5718419639082
 31
0.0
  0
LINE
  5
4B1A
330
1F
100
AcDbEntity
  8
KANAMONO_SCREW
100
AcDbLine
 10
309.8028698583923
 20
90.57184196390826
 30
0.0
 11
309.8028698583923
 21
103.0718419639085
 31
0.0
  0
LINE
  5
4B1B
330
1F
100
AcDbEntity
  8
KANAMONO_SCREW
100
AcDbLine
 10
303.6228698583925
 20
103.5718419639082
 30
0.0
 11
303.0228698583924
 21
103.071841963908
 31
0.0
  0
LINE
  5
4B1C
330
1F
100
AcDbEntity
  8
KANAMONO_SCREW
100
AcDbLine
 10
303.0228698583924
 20
90.57184196390803
 30
0.0
 11
303.0228698583924
 21
103.071841963908
 31
0.0
  0
ARC
  5
4B1D
330
1F
100
AcDbEntity
  8
KANAMONO_SCREW
100
AcDbCircle
 10
307.6628698583923
 20
104.4718419639083
 30
0.0
 40
0.5999999999999998
100
AcDbArc
 50
0.0
 51
90.0
  0
LINE
  5
4B1E
330
1F
100
AcDbEntity
  8
KANAMONO_SCREW
100
AcDbLine
 10
307.6628698583923
 20
105.0718419639082
 30
0.0
 11
305.1628698583922
 21
105.0718419639082
 31
0.0
  0
ARC
  5
4B1F
330
1F
100
AcDbEntity
  8
KANAMONO_SCREW
100
AcDbCircle
 10
305.1628698583922
 20
104.4718419639083
 30
0.0
 40
0.5999999999999998
100
AcDbArc
 50
90.0
 51
180.0
  0
LINE
  5
4B20
330
1F
100
AcDbEntity
  8
KANAMONO_SCREW
100
AcDbLine
 10
309.3028698583923
 20
93.77184196390807
 30
0.0
 11
309.3028698583923
 21
95.57184196390826
 31
0.0
  0
LINE
  5
4B21
330
1F
100
AcDbEntity
  8
KANAMONO_SCREW
100
AcDbLine
 10
309.3028698583923
 20
88.37184196390799
 30
0.0
 11
309.3028698583923
 21
90.17184196390839
 31
0.0
  0
LINE
  5
4B22
330
1F
100
AcDbEntity
  8
KANAMONO_SCREW
100
AcDbLine
 10
303.5228698583924
 20
93.77184196390807
 30
0.0
 11
303.5228698583924
 21
95.57184196390826
 31
0.0
  0
LINE
  5
4B23
330
1F
100
AcDbEntity
  8
KANAMONO_SCREW
100
AcDbLine
 10
303.5228698583924
 20
88.37184196390799
 30
0.0
 11
303.5228698583924
 21
90.17184196390839
 31
0.0
  0
LINE
  5
4B24
330
1F
100
AcDbEntity
  8
KANAMONO_SCREW
100
AcDbLine
 10
309.2028698583922
 20
90.77184196390829
 30
0.0
 11
308.4128698583922
 21
90.77184196390829
 31
0.0
  0
LINE
  5
4B25
330
1F
100
AcDbEntity
  8
KANAMONO_SCREW
100
AcDbLine
 10
309.2028698583922
 20
90.17184196390839
 30
0.0
 11
309.2028698583922
 21
93.77184196390807
 31
0.0
  0
LINE
  5
4B26
330
1F
100
AcDbEntity
  8
KANAMONO_SCREW
100
AcDbLine
 10
309.2028698583922
 20
91.2718419639083
 30
0.0
 11
308.4128698583922
 21
91.2718419639083
 31
0.0
  0
LINE
  5
4B27
330
1F
100
AcDbEntity
  8
KANAMONO_SCREW
100
AcDbLine
 10
309.2028698583922
 20
91.77184196390831
 30
0.0
 11
308.4128698583922
 21
91.77184196390831
 31
0.0
  0
LINE
  5
4B28
330
1F
100
AcDbEntity
  8
KANAMONO_SCREW
100
AcDbLine
 10
309.2028698583922
 20
92.2718419639083
 30
0.0
 11
308.4128698583922
 21
92.2718419639083
 31
0.0
  0
LINE
  5
4B29
330
1F
100
AcDbEntity
  8
KANAMONO_SCREW
100
AcDbLine
 10
309.2028698583922
 20
92.7718419639083
 30
0.0
 11
308.4128698583922
 21
92.7718419639083
 31
0.0
  0
LINE
  5
4B2A
330
1F
100
AcDbEntity
  8
KANAMONO_SCREW
100
AcDbLine
 10
309.2028698583922
 20
93.27184196390829
 30
0.0
 11
308.4128698583922
 21
93.27184196390829
 31
0.0
  0
LINE
  5
4B2B
330
1F
100
AcDbEntity
  8
KANAMONO_SCREW
100
AcDbLine
 10
304.4128698583922
 20
90.77184196390829
 30
0.0
 11
303.6228698583925
 21
90.77184196390829
 31
0.0
  0
LINE
  5
4B2C
330
1F
100
AcDbEntity
  8
KANAMONO_SCREW
100
AcDbLine
 10
304.4128698583922
 20
91.2718419639083
 30
0.0
 11
303.6228698583925
 21
91.2718419639083
 31
0.0
  0
LINE
  5
4B2D
330
1F
100
AcDbEntity
  8
KANAMONO_SCREW
100
AcDbLine
 10
303.6228698583925
 20
90.17184196390839
 30
0.0
 11
303.6228698583924
 21
93.77184196390807
 31
0.0
  0
LINE
  5
4B2E
330
1F
100
AcDbEntity
  8
KANAMONO_SCREW
100
AcDbLine
 10
304.4128698583922
 20
91.77184196390831
 30
0.0
 11
303.6228698583924
 21
91.77184196390831
 31
0.0
  0
LINE
  5
4B2F
330
1F
100
AcDbEntity
  8
KANAMONO_SCREW
100
AcDbLine
 10
304.4128698583922
 20
92.2718419639083
 30
0.0
 11
303.6228698583924
 21
92.2718419639083
 31
0.0
  0
LINE
  5
4B30
330
1F
100
AcDbEntity
  8
KANAMONO_SCREW
100
AcDbLine
 10
304.4128698583922
 20
92.7718419639083
 30
0.0
 11
303.6228698583924
 21
92.7718419639083
 31
0.0
  0
LINE
  5
4B31
330
1F
100
AcDbEntity
  8
KANAMONO_SCREW
100
AcDbLine
 10
304.4128698583922
 20
93.27184196390829
 30
0.0
 11
303.6228698583924
 21
93.27184196390829
 31
0.0
  0
LINE
  5
4B32
330
1F
100
AcDbEntity
  8
KANAMONO_SCREW
100
AcDbLine
 10
309.3028698583923
 20
93.77184196390807
 30
0.0
 11
308.4128698583922
 21
93.77184196390807
 31
0.0
  0
LINE
  5
4B33
330
1F
100
AcDbEntity
  8
KANAMONO_SCREW
100
AcDbLine
 10
308.4128698583922
 20
88.37184196390799
 30
0.0
 11
308.4128698583922
 21
93.77184196390807
 31
0.0
  0
LINE
  5
4B34
330
1F
100
AcDbEntity
  8
KANAMONO_SCREW
100
AcDbLine
 10
304.4128698583922
 20
88.37184196390957
 30
0.0
 11
304.4128698583922
 21
93.77184196390807
 31
0.0
  0
LINE
  5
4B35
330
1F
100
AcDbEntity
  8
KANAMONO_SCREW
100
AcDbLine
 10
304.4128698583922
 20
93.77184196390807
 30
0.0
 11
303.5228698583924
 21
93.77184196390807
 31
0.0
  0
LINE
  5
4B36
330
1F
100
AcDbEntity
  8
KANAMONO_SCREW
100
AcDbLine
 10
309.3028698583923
 20
95.57184196390826
 30
0.0
 11
303.5228698583924
 21
95.57184196390826
 31
0.0
  0
LINE
  5
4B37
330
1F
100
AcDbEntity
  8
KANAMONO_SCREW
100
AcDbLine
 10
307.762870164554
 20
94.57184196390825
 30
0.0
 11
303.5228698583924
 21
94.57184196390825
 31
0.0
  0
LINE
  5
4B38
330
1F
100
AcDbEntity
  8
KANAMONO_SCREW
100
AcDbLine
 10
309.3028698583923
 20
94.57184196390825
 30
0.0
 11
308.0628701645542
 21
94.57184196390825
 31
0.0
  0
LINE
  5
4B39
330
1F
100
AcDbEntity
  8
KANAMONO_SCREW
100
AcDbLine
 10
308.0628701645542
 20
93.16693167149528
 30
0.0
 11
308.0628701645542
 21
94.77184196390785
 31
0.0
  0
LINE
  5
4B3A
330
1F
100
AcDbEntity
  8
KANAMONO_SCREW
100
AcDbLine
 10
308.0628701645542
 20
94.77184196390785
 30
0.0
 11
307.762870164554
 21
94.77184196390785
 31
0.0
  0
LINE
  5
4B3B
330
1F
100
AcDbEntity
  8
KANAMONO_SCREW
100
AcDbLine
 10
307.762870164554
 20
93.16693167149528
 30
0.0
 11
307.762870164554
 21
94.77184196390785
 31
0.0
  0
ARC
  5
4B3C
330
1F
100
AcDbEntity
  8
KANAMONO_SCREW
100
AcDbCircle
 10
306.0628698583923
 20
89.97675236129397
 30
0.0
 40
1.3
100
AcDbArc
 50
122.858397292397
 51
180.0
  0
LINE
  5
4B3D
330
1F
100
AcDbEntity
  8
KANAMONO_SCREW
100
AcDbLine
 10
304.7628698583923
 20
89.57184196390825
 30
0.0
 11
304.7628698583923
 21
89.97675236129397
 31
0.0
  0
ARC
  5
4B3E
330
1F
100
AcDbEntity
  8
KANAMONO_SCREW
100
AcDbCircle
 10
306.0628698583923
 20
89.97675236129397
 30
0.0
 40
1.0
100
AcDbArc
 50
122.8583972924123
 51
180.0
  0
LINE
  5
4B3F
330
1F
100
AcDbEntity
  8
KANAMONO_SCREW
100
AcDbLine
 10
305.0628698583925
 20
89.57184196390825
 30
0.0
 11
305.0628698583925
 21
89.97675236129397
 31
0.0
  0
ARC
  5
4B40
330
1F
100
AcDbEntity
  8
KANAMONO_SCREW
100
AcDbCircle
 10
306.762870164554
 20
93.16693167149528
 30
0.0
 40
1.0
100
AcDbArc
 50
302.8583972924124
 51
0.0
  0
LINE
  5
4B41
330
1F
100
AcDbEntity
  8
KANAMONO_SCREW
100
AcDbLine
 10
305.5203052031075
 20
90.81676640572176
 30
0.0
 11
307.4682042164239
 21
92.0749134137392
 31
0.0
  0
ARC
  5
4B42
330
1F
100
AcDbEntity
  8
KANAMONO_SCREW
100
AcDbCircle
 10
306.762870164554
 20
93.16693167149528
 30
0.0
 40
1.3
100
AcDbArc
 50
302.858397292397
 51
0.0
  0
LINE
  5
4B43
330
1F
100
AcDbEntity
  8
KANAMONO_SCREW
100
AcDbLine
 10
305.3575358065223
 20
91.06877061905006
 30
0.0
 11
307.3054348198389
 21
92.32691762706748
 31
0.0
  0
LINE
  5
4B44
330
1F
100
AcDbEntity
  8
KANAMONO_SCREW
100
AcDbLine
 10
305.0628698583925
 20
89.57184196390825
 30
0.0
 11
304.7628698583923
 21
89.57184196390825
 31
0.0
  0
LINE
  5
4B45
330
1F
100
AcDbEntity
  8
KANAMONO_SCREW
100
AcDbLine
 10
304.7628698583923
 20
88.46693156652248
 30
0.0
 11
304.7628698583923
 21
88.87184196390821
 31
0.0
  0
LINE
  5
4B46
330
1F
100
AcDbEntity
  8
KANAMONO_SCREW
100
AcDbLine
 10
305.0628698583925
 20
88.87184196390821
 30
0.0
 11
304.7628698583923
 21
88.87184196390821
 31
0.0
  0
LINE
  5
4B47
330
1F
100
AcDbEntity
  8
KANAMONO_SCREW
100
AcDbLine
 10
305.0628698583925
 20
88.46693156652248
 30
0.0
 11
305.0628698583925
 21
88.87184196390821
 31
0.0
  0
ARC
  5
4B48
330
1F
100
AcDbEntity
  8
KANAMONO_SCREW
100
AcDbCircle
 10
306.562870164554
 20
74.40593215727258
 30
0.0
 40
1.0
100
AcDbArc
 50
0.0
 51
57.141602707603
  0
LINE
  5
4B49
330
1F
100
AcDbEntity
  8
KANAMONO_SCREW
100
AcDbLine
 10
307.5628701645539
 20
71.83775177054453
 30
0.0
 11
307.5628701645539
 21
74.40593215727258
 31
0.0
  0
LINE
  5
4B4A
330
1F
100
AcDbEntity
  8
KANAMONO_SCREW
100
AcDbLine
 10
305.3575358065223
 20
76.37491330876641
 30
0.0
 11
307.1054348198386
 21
75.24594620170013
 31
0.0
  0
ARC
  5
4B4B
330
1F
100
AcDbEntity
  8
KANAMONO_SCREW
100
AcDbCircle
 10
306.562870164554
 20
71.83775177054453
 30
0.0
 40
1.0
100
AcDbArc
 50
302.858397292397
 51
0.0
  0
LINE
  5
4B4C
330
1F
100
AcDbEntity
  8
KANAMONO_SCREW
100
AcDbLine
 10
306.8575358065224
 20
70.83761987618585
 30
0.0
 11
307.1054348198386
 21
70.99773772611674
 31
0.0
  0
ARC
  5
4B4D
330
1F
100
AcDbEntity
  8
KANAMONO_SCREW
100
AcDbCircle
 10
306.562870164554
 20
71.83775177054453
 30
0.0
 40
1.3
100
AcDbArc
 50
302.8583972924124
 51
0.0
  0
LINE
  5
4B4E
330
1F
100
AcDbEntity
  8
KANAMONO_SCREW
100
AcDbLine
 10
307.0203052031076
 20
70.58561566285757
 30
0.0
 11
307.2682042164242
 21
70.74573351278845
 31
0.0
  0
LINE
  5
4B4F
330
1F
100
AcDbEntity
  8
KANAMONO_SCREW
100
AcDbLine
 10
307.8628701645539
 20
71.83775177054453
 30
0.0
 11
307.8628701645539
 21
74.40593215727258
 31
0.0
  0
ARC
  5
4B50
330
1F
100
AcDbEntity
  8
KANAMONO_SCREW
100
AcDbCircle
 10
306.562870164554
 20
74.40593215727258
 30
0.0
 40
1.3
100
AcDbArc
 50
0.0
 51
57.141602707603
  0
LINE
  5
4B51
330
1F
100
AcDbEntity
  8
KANAMONO_SCREW
100
AcDbLine
 10
305.5203052031075
 20
76.62691752209447
 30
0.0
 11
307.268204216424
 21
75.49795041502843
 31
0.0
  0
ARC
  5
4B52
330
1F
100
AcDbEntity
  8
KANAMONO_SCREW
100
AcDbCircle
 10
306.0628698583923
 20
88.46693156652248
 30
0.0
 40
1.3
100
AcDbArc
 50
180.0
 51
237.141602707603
  0
ARC
  5
4B53
330
1F
100
AcDbEntity
  8
KANAMONO_SCREW
100
AcDbCircle
 10
306.0628698583923
 20
88.46693156652248
 30
0.0
 40
1.0
100
AcDbArc
 50
180.0
 51
237.1416027075877
  0
ARC
  5
4B54
330
1F
100
AcDbEntity
  8
KANAMONO_SCREW
100
AcDbCircle
 10
306.762870164554
 20
82.96693167149568
 30
0.0
 40
1.0
100
AcDbArc
 50
302.858397292397
 51
0.0
  0
LINE
  5
4B55
330
1F
100
AcDbEntity
  8
KANAMONO_SCREW
100
AcDbLine
 10
305.3575358065223
 20
87.37491330876641
 30
0.0
 11
307.3054348198386
 21
86.11676630074875
 31
0.0
  0
LINE
  5
4B56
330
1F
100
AcDbEntity
  8
KANAMONO_SCREW
100
AcDbLine
 10
307.762870164554
 20
82.96693167149568
 30
0.0
 11
307.762870164554
 21
85.27675225632119
 31
0.0
  0
ARC
  5
4B57
330
1F
100
AcDbEntity
  8
KANAMONO_SCREW
100
AcDbCircle
 10
306.762870164554
 20
85.27675225632119
 30
0.0
 40
1.0
100
AcDbArc
 50
0.0
 51
57.141602707603
  0
LINE
  5
4B58
330
1F
100
AcDbEntity
  8
KANAMONO_SCREW
100
AcDbLine
 10
305.5203052031075
 20
87.6269175220947
 30
0.0
 11
307.4682042164239
 21
86.36877051407704
 31
0.0
  0
ARC
  5
4B59
330
1F
100
AcDbEntity
  8
KANAMONO_SCREW
100
AcDbCircle
 10
306.762870164554
 20
85.27675225632119
 30
0.0
 40
1.3
100
AcDbArc
 50
0.0
 51
57.141602707603
  0
LINE
  5
4B5A
330
1F
100
AcDbEntity
  8
KANAMONO_SCREW
100
AcDbLine
 10
308.0628701645539
 20
82.96693167149568
 30
0.0
 11
308.0628701645539
 21
85.27675225632119
 31
0.0
  0
ARC
  5
4B5B
330
1F
100
AcDbEntity
  8
KANAMONO_SCREW
100
AcDbCircle
 10
306.762870164554
 20
82.96693167149568
 30
0.0
 40
1.3
100
AcDbArc
 50
302.858397292397
 51
0.0
  0
ARC
  5
4B5C
330
1F
100
AcDbEntity
  8
KANAMONO_SCREW
100
AcDbCircle
 10
306.0628698583923
 20
77.46693156652249
 30
0.0
 40
1.3
100
AcDbArc
 50
180.0
 51
237.141602707603
  0
ARC
  5
4B5D
330
1F
100
AcDbEntity
  8
KANAMONO_SCREW
100
AcDbCircle
 10
306.0628698583923
 20
77.46693156652249
 30
0.0
 40
1.0
100
AcDbArc
 50
180.0
 51
237.1416027075877
  0
LINE
  5
4B5E
330
1F
100
AcDbEntity
  8
KANAMONO_SCREW
100
AcDbLine
 10
304.7628698583923
 20
77.46693156652249
 30
0.0
 11
304.7628698583923
 21
79.77675236129416
 31
0.0
  0
LINE
  5
4B5F
330
1F
100
AcDbEntity
  8
KANAMONO_SCREW
100
AcDbLine
 10
305.3575358065223
 20
80.86877061905047
 30
0.0
 11
307.3054348198386
 21
82.12691762706789
 31
0.0
  0
ARC
  5
4B60
330
1F
100
AcDbEntity
  8
KANAMONO_SCREW
100
AcDbCircle
 10
306.0628698583923
 20
79.77675236129416
 30
0.0
 40
1.3
100
AcDbArc
 50
122.858397292397
 51
180.0
  0
LINE
  5
4B61
330
1F
100
AcDbEntity
  8
KANAMONO_SCREW
100
AcDbLine
 10
305.0628698583925
 20
77.46693156652249
 30
0.0
 11
305.0628698583925
 21
79.77675236129416
 31
0.0
  0
LINE
  5
4B62
330
1F
100
AcDbEntity
  8
KANAMONO_SCREW
100
AcDbLine
 10
305.5203052031075
 20
80.61676640572217
 30
0.0
 11
307.4682042164239
 21
81.87491341373961
 31
0.0
  0
ARC
  5
4B63
330
1F
100
AcDbEntity
  8
KANAMONO_SCREW
100
AcDbCircle
 10
306.0628698583923
 20
79.77675236129416
 30
0.0
 40
1.0
100
AcDbArc
 50
122.8583972924123
 51
180.0
  0
ARC
  5
4B64
330
1F
100
AcDbEntity
  8
KANAMONO_SCREW
100
AcDbCircle
 10
307.5628698583923
 20
69.74560161842977
 30
0.0
 40
1.0
100
AcDbArc
 50
122.8583972924123
 51
180.0
  0
ARC
  5
4B65
330
1F
100
AcDbEntity
  8
KANAMONO_SCREW
100
AcDbCircle
 10
307.5628698583923
 20
69.74560161842977
 30
0.0
 40
1.3
100
AcDbArc
 50
122.858397292397
 51
180.0
  0
LINE
  5
4B66
330
1F
100
AcDbEntity
  8
KANAMONO_SCREW
100
AcDbLine
 10
306.2628698583921
 20
69.57184196390826
 30
0.0
 11
306.2628698583921
 21
69.74560161842977
 31
0.0
  0
LINE
  5
4B67
330
1F
100
AcDbEntity
  8
KANAMONO_SCREW
100
AcDbLine
 10
306.5628698583923
 20
69.57184196390826
 30
0.0
 11
306.5628698583923
 21
69.74560161842977
 31
0.0
  0
LINE
  5
4B68
330
1F
100
AcDbEntity
  8
KANAMONO_SCREW
100
AcDbLine
 10
306.5628698583923
 20
69.57184196390826
 30
0.0
 11
306.2628698583921
 21
69.57184196390826
 31
0.0
  0
LINE
  5
4B69
330
1F
100
AcDbEntity
  8
KANAMONO_SCREW
100
AcDbLine
 10
309.6378698583923
 20
84.57184196390825
 30
0.0
 11
308.5538131427875
 21
84.57184196390825
 31
0.0
  0
LINE
  5
4B6A
330
1F
100
AcDbEntity
  8
KANAMONO_SCREW
100
AcDbLine
 10
304.2718172268134
 20
84.57184196390825
 30
0.0
 11
303.1878698583923
 21
84.57184196390825
 31
0.0
  0
LINE
  5
4B6B
330
1F
100
AcDbEntity
  8
KANAMONO_SCREW
100
AcDbLine
 10
309.5764944202025
 20
85.17184196390839
 30
0.0
 11
308.5315589399885
 21
85.17184196390839
 31
0.0
  0
LINE
  5
4B6C
330
1F
100
AcDbEntity
  8
KANAMONO_SCREW
100
AcDbLine
 10
309.5235996833603
 20
85.77184196390829
 30
0.0
 11
308.509304737189
 21
85.77184196390829
 31
0.0
  0
LINE
  5
4B6D
330
1F
100
AcDbEntity
  8
KANAMONO_SCREW
100
AcDbLine
 10
309.4707049465184
 20
86.37184196390798
 30
0.0
 11
308.4870505343897
 21
86.37184196390798
 31
0.0
  0
LINE
  5
4B6E
330
1F
100
AcDbEntity
  8
KANAMONO_SCREW
100
AcDbLine
 10
309.4178102096761
 20
86.97184196390834
 30
0.0
 11
308.4647963315906
 21
86.97184196390834
 31
0.0
  0
LINE
  5
4B6F
330
1F
100
AcDbEntity
  8
KANAMONO_SCREW
100
AcDbLine
 10
309.3649154728338
 20
87.57184196390825
 30
0.0
 11
308.4425421287913
 21
87.57184196390825
 31
0.0
  0
LINE
  5
4B70
330
1F
100
AcDbEntity
  8
KANAMONO_SCREW
100
AcDbLine
 10
304.4054460356774
 20
88.17184196390838
 30
0.0
 11
303.5137192869545
 21
88.17184196390838
 31
0.0
  0
LINE
  5
4B71
330
1F
100
AcDbEntity
  8
KANAMONO_SCREW
100
AcDbLine
 10
304.3831745675334
 20
87.57184196390825
 30
0.0
 11
303.4608245501124
 21
87.57184196390825
 31
0.0
  0
LINE
  5
4B72
330
1F
100
AcDbEntity
  8
KANAMONO_SCREW
100
AcDbLine
 10
304.3609030993895
 20
86.97184196390834
 30
0.0
 11
303.4079298132701
 21
86.97184196390834
 31
0.0
  0
LINE
  5
4B73
330
1F
100
AcDbEntity
  8
KANAMONO_SCREW
100
AcDbLine
 10
304.3386316312453
 20
86.37184196390798
 30
0.0
 11
303.3550350764282
 21
86.37184196390798
 31
0.0
  0
LINE
  5
4B74
330
1F
100
AcDbEntity
  8
KANAMONO_SCREW
100
AcDbLine
 10
304.3163601631013
 20
85.77184196390829
 30
0.0
 11
303.302140339586
 21
85.77184196390829
 31
0.0
  0
LINE
  5
4B75
330
1F
100
AcDbEntity
  8
KANAMONO_SCREW
100
AcDbLine
 10
304.2940886949574
 20
85.17184196390839
 30
0.0
 11
303.2492456027439
 21
85.17184196390839
 31
0.0
  0
LINE
  5
4B76
330
1F
100
AcDbEntity
  8
KANAMONO_SCREW
100
AcDbLine
 10
308.5539401798885
 20
84.5684168912925
 30
0.0
 11
308.4128698583922
 21
88.37184196390799
 31
0.0
  0
LINE
  5
4B77
330
1F
100
AcDbEntity
  8
KANAMONO_SCREW
100
AcDbLine
 10
304.2718172268134
 20
84.57184196390825
 30
0.0
 11
304.4128698583922
 21
88.37184196390799
 31
0.0
  0
LINE
  5
4B78
330
1F
100
AcDbEntity
  8
KANAMONO_SCREW
100
AcDbLine
 10
308.5628695216117
 20
82.87184196390798
 30
0.0
 11
308.5539401798885
 21
84.5684168912925
 31
0.0
  0
LINE
  5
4B79
330
1F
100
AcDbEntity
  8
KANAMONO_SCREW
100
AcDbLine
 10
304.2628698583923
 20
82.87184196390798
 30
0.0
 11
304.2718621310862
 21
84.58037377577797
 31
0.0
  0
LINE
  5
4B7A
330
1F
100
AcDbEntity
  8
KANAMONO_SCREW
100
AcDbLine
 10
309.3120207359916
 20
88.17184196390838
 30
0.0
 11
308.4139224899713
 21
88.17184196390838
 31
0.0
  0
LINE
  5
4B7B
330
1F
100
AcDbEntity
  8
KANAMONO_SCREW
100
AcDbLine
 10
304.4128698583922
 20
90.17184196390839
 30
0.0
 11
303.5228698583924
 21
90.17184196390839
 31
0.0
  0
LINE
  5
4B7C
330
1F
100
AcDbEntity
  8
KANAMONO_SCREW
100
AcDbLine
 10
309.3028698583923
 20
90.17184196390839
 30
0.0
 11
308.4128698583922
 21
90.17184196390839
 31
0.0
  0
LINE
  5
4B7D
330
1F
100
AcDbEntity
  8
KANAMONO_SCREW
100
AcDbLine
 10
304.4128698583922
 20
88.37184196390799
 30
0.0
 11
303.5228698583924
 21
88.37184196390799
 31
0.0
  0
LINE
  5
4B7E
330
1F
100
AcDbEntity
  8
KANAMONO_SCREW
100
AcDbLine
 10
309.3028698583923
 20
88.37184196390799
 30
0.0
 11
308.4128698583922
 21
88.37184196390799
 31
0.0
  0
LINE
  5
4B7F
330
1F
100
AcDbEntity
  8
KANAMONO_SCREW
100
AcDbLine
 10
309.4765065281905
 20
84.57184196390848
 30
0.0
 11
309.1415065281905
 21
88.37184196390843
 31
0.0
  0
LINE
  5
4B80
330
1F
100
AcDbEntity
  8
KANAMONO_SCREW
100
AcDbLine
 10
303.3492334947559
 20
84.57184196390848
 30
0.0
 11
303.684233494756
 21
88.37184196390843
 31
0.0
  0
LINE
  5
4B81
330
1F
100
AcDbEntity
  8
KANAMONO_SCREW
100
AcDbLine
 10
304.2728698583923
 20
82.47184196390834
 30
0.0
 11
303.2063508659017
 21
82.47184196390811
 31
0.0
  0
LINE
  5
4B82
330
1F
100
AcDbEntity
  8
KANAMONO_SCREW
100
AcDbLine
 10
304.2878698583923
 20
81.87184196390798
 30
0.0
 11
303.2213508659018
 21
81.87184196390798
 31
0.0
  0
LINE
  5
4B83
330
1F
100
AcDbEntity
  8
KANAMONO_SCREW
100
AcDbLine
 10
304.3028698583921
 20
81.2718419639083
 30
0.0
 11
303.2363508659019
 21
81.2718419639083
 31
0.0
  0
LINE
  5
4B84
330
1F
100
AcDbEntity
  8
KANAMONO_SCREW
100
AcDbLine
 10
304.3178698583922
 20
80.67184196390838
 30
0.0
 11
303.2513508659017
 21
80.67184196390838
 31
0.0
  0
LINE
  5
4B85
330
1F
100
AcDbEntity
  8
KANAMONO_SCREW
100
AcDbLine
 10
304.3328698583923
 20
80.07184196390825
 30
0.0
 11
303.2663508659018
 21
80.07184196390825
 31
0.0
  0
LINE
  5
4B86
330
1F
100
AcDbEntity
  8
KANAMONO_SCREW
100
AcDbLine
 10
304.3478698583922
 20
79.47184196390812
 30
0.0
 11
303.2813508659019
 21
79.47184196390812
 31
0.0
  0
LINE
  5
4B87
330
1F
100
AcDbEntity
  8
KANAMONO_SCREW
100
AcDbLine
 10
309.6193888202638
 20
82.47184196390834
 30
0.0
 11
308.5528695216118
 21
82.47184196390834
 31
0.0
  0
LINE
  5
4B88
330
1F
100
AcDbEntity
  8
KANAMONO_SCREW
100
AcDbLine
 10
309.6043888202637
 20
81.87184196390798
 30
0.0
 11
308.5378695216118
 21
81.87184196390798
 31
0.0
  0
LINE
  5
4B89
330
1F
100
AcDbEntity
  8
KANAMONO_SCREW
100
AcDbLine
 10
309.5893888202638
 20
81.2718419639083
 30
0.0
 11
308.5228695216117
 21
81.2718419639083
 31
0.0
  0
LINE
  5
4B8A
330
1F
100
AcDbEntity
  8
KANAMONO_SCREW
100
AcDbLine
 10
309.5743888202637
 20
80.67184196390838
 30
0.0
 11
308.5078695216116
 21
80.67184196390838
 31
0.0
  0
LINE
  5
4B8B
330
1F
100
AcDbEntity
  8
KANAMONO_SCREW
100
AcDbLine
 10
309.5593888202639
 20
80.07184196390825
 30
0.0
 11
308.5089187115383
 21
80.07184196390825
 31
0.0
  0
LINE
  5
4B8C
330
1F
100
AcDbEntity
  8
KANAMONO_SCREW
100
AcDbLine
 10
309.5443888202641
 20
79.47184196390835
 30
0.0
 11
308.4778695216119
 21
79.47184196390835
 31
0.0
  0
LINE
  5
4B8D
330
1F
100
AcDbEntity
  8
KANAMONO_SCREW
100
AcDbLine
 10
309.3765062220577
 20
78.87185543628847
 30
0.0
 11
309.4765062220578
 21
82.87185543628847
 31
0.0
  0
LINE
  5
4B8E
330
1F
100
AcDbEntity
  8
KANAMONO_SCREW
100
AcDbLine
 10
303.449233494756
 20
78.87184196390798
 30
0.0
 11
303.3492334947559
 21
82.87184196390798
 31
0.0
  0
LINE
  5
4B8F
330
1F
100
AcDbEntity
  8
KANAMONO_SCREW
100
AcDbLine
 10
309.1628698583922
 20
73.37184196390798
 30
0.0
 11
309.2492334947558
 21
77.17184196390816
 31
0.0
  0
LINE
  5
4B90
330
1F
100
AcDbEntity
  8
KANAMONO_SCREW
100
AcDbLine
 10
309.4115065281903
 20
73.97184196390835
 30
0.0
 11
308.310896174182
 21
73.97184196390835
 31
0.0
  0
LINE
  5
4B91
330
1F
100
AcDbEntity
  8
KANAMONO_SCREW
100
AcDbLine
 10
309.4251428918268
 20
74.57184196390826
 30
0.0
 11
308.3339224899712
 21
74.57184196390826
 31
0.0
  0
LINE
  5
4B92
330
1F
100
AcDbEntity
  8
KANAMONO_SCREW
100
AcDbLine
 10
309.4387792554631
 20
75.17184196390816
 30
0.0
 11
308.3569488057607
 21
75.17184196390816
 31
0.0
  0
LINE
  5
4B93
330
1F
100
AcDbEntity
  8
KANAMONO_SCREW
100
AcDbLine
 10
309.4524156190995
 20
75.77184196390807
 30
0.0
 11
308.3799751215502
 21
75.77184196390807
 31
0.0
  0
LINE
  5
4B94
330
1F
100
AcDbEntity
  8
KANAMONO_SCREW
100
AcDbLine
 10
309.4660519827357
 20
76.37184196390798
 30
0.0
 11
308.4260277531291
 21
76.37184196390798
 31
0.0
  0
LINE
  5
4B95
330
1F
100
AcDbEntity
  8
KANAMONO_SCREW
100
AcDbLine
 10
304.3997119636555
 20
76.37184196390798
 30
0.0
 11
303.3578368861813
 21
76.37184196390798
 31
0.0
  0
LINE
  5
4B96
330
1F
100
AcDbEntity
  8
KANAMONO_SCREW
100
AcDbLine
 10
304.4457645952343
 20
75.77184196390807
 30
0.0
 11
303.3686775267847
 21
75.77184196390807
 31
0.0
  0
LINE
  5
4B97
330
1F
100
AcDbEntity
  8
KANAMONO_SCREW
100
AcDbLine
 10
304.4687909110239
 20
75.17184196390816
 30
0.0
 11
303.3795181673883
 21
75.17184196390816
 31
0.0
  0
LINE
  5
4B98
330
1F
100
AcDbEntity
  8
KANAMONO_SCREW
100
AcDbLine
 10
304.4918172268134
 20
74.57184196390826
 30
0.0
 11
303.3903588079913
 21
74.57184196390826
 31
0.0
  0
LINE
  5
4B99
330
1F
100
AcDbEntity
  8
KANAMONO_SCREW
100
AcDbLine
 10
304.5148435426028
 20
73.97184196390812
 30
0.0
 11
303.4011994485947
 21
73.97184196390812
 31
0.0
  0
LINE
  5
4B9A
330
1F
100
AcDbEntity
  8
KANAMONO_SCREW
100
AcDbLine
 10
304.2628698583923
 20
82.87184196390798
 30
0.0
 11
303.1878698583923
 21
82.87184196390798
 31
0.0
  0
LINE
  5
4B9B
330
1F
100
AcDbEntity
  8
KANAMONO_SCREW
100
AcDbLine
 10
309.6378698583923
 20
82.87184196390798
 30
0.0
 11
308.5628695216117
 21
82.87184196390798
 31
0.0
  0
LINE
  5
4B9C
330
1F
100
AcDbEntity
  8
KANAMONO_SCREW
100
AcDbLine
 10
308.4628698584213
 20
78.87185543628847
 30
0.0
 11
308.5628698584211
 21
82.87185543628847
 31
0.0
  0
LINE
  5
4B9D
330
1F
100
AcDbEntity
  8
KANAMONO_SCREW
100
AcDbLine
 10
304.3628698583923
 20
78.87184196390866
 30
0.0
 11
304.2628698583923
 21
82.87184196390866
 31
0.0
  0
LINE
  5
4B9E
330
1F
100
AcDbEntity
  8
KANAMONO_SCREW
100
AcDbLine
 10
309.6378698583923
 20
82.87184196390798
 30
0.0
 11
309.6378698583923
 21
84.57184196390825
 31
0.0
  0
LINE
  5
4B9F
330
1F
100
AcDbEntity
  8
KANAMONO_SCREW
100
AcDbLine
 10
303.1878698583923
 20
82.87184196390798
 30
0.0
 11
303.1878698583923
 21
84.57184196390825
 31
0.0
  0
LINE
  5
4BA0
330
1F
100
AcDbEntity
  8
KANAMONO_SCREW
100
AcDbLine
 10
303.6628698583923
 20
73.37184196390798
 30
0.0
 11
303.4878698583923
 21
77.17184196390816
 31
0.0
  0
LINE
  5
4BA1
330
1F
100
AcDbEntity
  8
KANAMONO_SCREW
100
AcDbLine
 10
309.1628698583922
 20
68.97184196390835
 30
0.0
 11
309.1628698583922
 21
71.57184196390826
 31
0.0
  0
LINE
  5
4BA2
330
1F
100
AcDbEntity
  8
KANAMONO_SCREW
100
AcDbLine
 10
303.6628698583923
 20
68.97184196390812
 30
0.0
 11
303.6628698583923
 21
71.57184196390826
 31
0.0
  0
LINE
  5
4BA3
330
1F
100
AcDbEntity
  8
KANAMONO_SCREW
100
AcDbLine
 10
309.4774156190994
 20
76.87184196390798
 30
0.0
 11
308.4407998374595
 21
76.87184196390798
 31
0.0
  0
LINE
  5
4BA4
330
1F
100
AcDbEntity
  8
KANAMONO_SCREW
100
AcDbLine
 10
309.4128698583923
 20
73.37184196390798
 30
0.0
 11
308.2878698583922
 21
73.37184196390798
 31
0.0
  0
LINE
  5
4BA5
330
1F
100
AcDbEntity
  8
KANAMONO_SCREW
100
AcDbLine
 10
304.376685647866
 20
76.87184196390798
 30
0.0
 11
303.3488030190119
 21
76.87184196390798
 31
0.0
  0
LINE
  5
4BA6
330
1F
100
AcDbEntity
  8
KANAMONO_SCREW
100
AcDbLine
 10
309.4992338009174
 20
77.17184196390816
 30
0.0
 11
309.5378701645539
 21
78.87184196390798
 31
0.0
  0
LINE
  5
4BA7
330
1F
100
AcDbEntity
  8
KANAMONO_SCREW
100
AcDbLine
 10
303.3265062220288
 20
77.17184196390816
 30
0.0
 11
303.2878698583922
 21
78.87184196390798
 31
0.0
  0
LINE
  5
4BA8
330
1F
100
AcDbEntity
  8
KANAMONO_SCREW
100
AcDbLine
 10
304.3628698583923
 20
77.17184196390816
 30
0.0
 11
303.3265062220288
 21
77.17184196390816
 31
0.0
  0
LINE
  5
4BA9
330
1F
100
AcDbEntity
  8
KANAMONO_SCREW
100
AcDbLine
 10
309.4992338009174
 20
77.17184196390816
 30
0.0
 11
308.4628698583924
 21
77.17184196390816
 31
0.0
  0
LINE
  5
4BAA
330
1F
100
AcDbEntity
  8
KANAMONO_SCREW
100
AcDbLine
 10
304.3628698583923
 20
78.87184196390798
 30
0.0
 11
303.2878698583922
 21
78.87184196390798
 31
0.0
  0
LINE
  5
4BAB
330
1F
100
AcDbEntity
  8
KANAMONO_SCREW
100
AcDbLine
 10
309.5378698583922
 20
78.87184196390798
 30
0.0
 11
308.4628698583922
 21
78.87184196390798
 31
0.0
  0
LINE
  5
4BAC
330
1F
100
AcDbEntity
  8
KANAMONO_SCREW
100
AcDbLine
 10
308.2878698583922
 20
73.37184196390798
 30
0.0
 11
308.4628698583922
 21
77.17184196390816
 31
0.0
  0
LINE
  5
4BAD
330
1F
100
AcDbEntity
  8
KANAMONO_SCREW
100
AcDbLine
 10
304.5378698583923
 20
73.37184196390798
 30
0.0
 11
304.3628698583923
 21
77.17184196390816
 31
0.0
  0
LINE
  5
4BAE
330
1F
100
AcDbEntity
  8
KANAMONO_SCREW
100
AcDbLine
 10
306.4128701645542
 20
66.07184196390825
 30
0.0
 11
305.0165578638398
 21
67.88704795483626
 31
0.0
  0
ARC
  5
4BAF
330
1F
100
AcDbEntity
  8
KANAMONO_SCREW
100
AcDbCircle
 10
305.4128698583923
 20
68.19190333526115
 30
0.0
 40
0.5
100
AcDbArc
 50
180.0
 51
217.5685920288021
  0
LINE
  5
4BB0
330
1F
100
AcDbEntity
  8
KANAMONO_SCREW
100
AcDbLine
 10
304.9128698583924
 20
68.37483626458414
 30
0.0
 11
304.9128698583924
 21
68.19190333526093
 31
0.0
  0
LINE
  5
4BB1
330
1F
100
AcDbEntity
  8
KANAMONO_SCREW
100
AcDbLine
 10
306.4128701645542
 20
66.57184196390803
 30
0.0
 11
305.0025010578476
 21
68.40532180262643
 31
0.0
  0
ARC
  5
4BB2
330
1F
100
AcDbEntity
  8
KANAMONO_SCREW
100
AcDbCircle
 10
304.9628698583922
 20
68.37483626458414
 30
0.0
 40
0.05
100
AcDbArc
 50
37.56859202884572
 51
180.0
  0
LINE
  5
4BB3
330
1F
100
AcDbEntity
  8
KANAMONO_SCREW
100
AcDbLine
 10
307.9128701645542
 20
68.37483626458414
 30
0.0
 11
307.9128701645542
 21
68.19190333526115
 31
0.0
  0
LINE
  5
4BB4
330
1F
100
AcDbEntity
  8
KANAMONO_SCREW
100
AcDbLine
 10
306.412869858392
 20
66.57184196390803
 30
0.0
 11
307.823238965099
 21
68.40532180262666
 31
0.0
  0
ARC
  5
4BB5
330
1F
100
AcDbEntity
  8
KANAMONO_SCREW
100
AcDbCircle
 10
307.8628701645539
 20
68.37483626458414
 30
0.0
 40
0.05
100
AcDbArc
 50
0.0
 51
142.4314079710051
  0
LINE
  5
4BB6
330
1F
100
AcDbEntity
  8
KANAMONO_SCREW
100
AcDbLine
 10
306.4128698583922
 20
66.07184196390825
 30
0.0
 11
307.8091821591063
 21
67.88704795483626
 31
0.0
  0
ARC
  5
4BB7
330
1F
100
AcDbEntity
  8
KANAMONO_SCREW
100
AcDbCircle
 10
307.4128701645542
 20
68.19190333526115
 30
0.0
 40
0.5
100
AcDbArc
 50
322.4314079711771
 51
0.0
  0
LINE
  5
4BB8
330
1F
100
AcDbEntity
  8
KANAMONO_SCREW
100
AcDbLine
 10
304.9128698583924
 20
70.6748362645841
 30
0.0
 11
304.9128698583924
 21
70.49190333526157
 31
0.0
  0
LINE
  5
4BB9
330
1F
100
AcDbEntity
  8
KANAMONO_SCREW
100
AcDbLine
 10
307.9128701645542
 20
70.6748362645841
 30
0.0
 11
307.9128701645542
 21
70.49190333526157
 31
0.0
  0
LINE
  5
4BBA
330
1F
100
AcDbEntity
  8
KANAMONO_SCREW
100
AcDbLine
 10
306.4128701645542
 20
68.87184196390798
 30
0.0
 11
305.0025010578476
 21
70.70532180262684
 31
0.0
  0
ARC
  5
4BBB
330
1F
100
AcDbEntity
  8
KANAMONO_SCREW
100
AcDbCircle
 10
304.9628698583922
 20
70.6748362645841
 30
0.0
 40
0.05
100
AcDbArc
 50
37.56859202884572
 51
180.0
  0
LINE
  5
4BBC
330
1F
100
AcDbEntity
  8
KANAMONO_SCREW
100
AcDbLine
 10
306.4128701645542
 20
68.37184196390798
 30
0.0
 11
305.0165578638398
 21
70.18704795483667
 31
0.0
  0
ARC
  5
4BBD
330
1F
100
AcDbEntity
  8
KANAMONO_SCREW
100
AcDbCircle
 10
305.4128698583923
 20
70.49190333526157
 30
0.0
 40
0.5
100
AcDbArc
 50
180.0
 51
217.5685920288229
  0
LINE
  5
4BBE
330
1F
100
AcDbEntity
  8
KANAMONO_SCREW
100
AcDbLine
 10
306.4128698583922
 20
68.87184196390798
 30
0.0
 11
307.823238965099
 21
70.70532180262684
 31
0.0
  0
ARC
  5
4BBF
330
1F
100
AcDbEntity
  8
KANAMONO_SCREW
100
AcDbCircle
 10
307.8628701645539
 20
70.6748362645841
 30
0.0
 40
0.05
100
AcDbArc
 50
0.0
 51
142.4314079710051
  0
LINE
  5
4BC0
330
1F
100
AcDbEntity
  8
KANAMONO_SCREW
100
AcDbLine
 10
306.4128698583922
 20
68.37184196390798
 30
0.0
 11
307.8091821591065
 21
70.18704795483644
 31
0.0
  0
ARC
  5
4BC1
330
1F
100
AcDbEntity
  8
KANAMONO_SCREW
100
AcDbCircle
 10
307.4128701645542
 20
70.49190333526157
 30
0.0
 40
0.5
100
AcDbArc
 50
322.4314079711556
 51
0.0
  0
LINE
  5
4BC2
330
1F
100
AcDbEntity
  8
KANAMONO_SCREW
100
AcDbLine
 10
304.5378698583923
 20
73.37184196390798
 30
0.0
 11
303.4128698583923
 21
73.37184196390798
 31
0.0
  0
LINE
  5
4BC3
330
1F
100
AcDbEntity
  8
KANAMONO_SCREW
100
AcDbLine
 10
304.5378698583923
 20
71.57184196390826
 30
0.0
 11
303.4128698583923
 21
71.57184196390826
 31
0.0
  0
LINE
  5
4BC4
330
1F
100
AcDbEntity
  8
KANAMONO_SCREW
100
AcDbLine
 10
309.4128698583923
 20
71.57184196390826
 30
0.0
 11
308.2878698583922
 21
71.57184196390826
 31
0.0
  0
LINE
  5
4BC5
330
1F
100
AcDbEntity
  8
KANAMONO_SCREW
100
AcDbLine
 10
304.5378698583923
 20
68.97184196390812
 30
0.0
 11
303.4128698583923
 21
68.97184196390812
 31
0.0
  0
LINE
  5
4BC6
330
1F
100
AcDbEntity
  8
KANAMONO_SCREW
100
AcDbLine
 10
309.412028197773
 20
68.97184196390835
 30
0.0
 11
308.2878698583922
 21
68.97184196390835
 31
0.0
  0
LINE
  5
4BC7
330
1F
100
AcDbEntity
  8
KANAMONO_SCREW
100
AcDbLine
 10
304.5378698583923
 20
70.52184196390808
 30
0.0
 11
303.4878698583923
 21
70.52184196390808
 31
0.0
  0
LINE
  5
4BC8
330
1F
100
AcDbEntity
  8
KANAMONO_SCREW
100
AcDbLine
 10
308.2878698583922
 20
68.97184196390835
 30
0.0
 11
308.2878698583922
 21
71.57184196390826
 31
0.0
  0
LINE
  5
4BC9
330
1F
100
AcDbEntity
  8
KANAMONO_SCREW
100
AcDbLine
 10
304.5378698583923
 20
68.97184196390812
 30
0.0
 11
304.5378698583923
 21
71.57184196390826
 31
0.0
  0
LINE
  5
4BCA
330
1F
100
AcDbEntity
  8
KANAMONO_SCREW
100
AcDbLine
 10
304.5378698583923
 20
69.52184196390807
 30
0.0
 11
303.4878698583923
 21
69.52184196390807
 31
0.0
  0
LINE
  5
4BCB
330
1F
100
AcDbEntity
  8
KANAMONO_SCREW
100
AcDbLine
 10
309.3378698583922
 20
69.52184196390807
 30
0.0
 11
308.2878698583922
 21
69.52184196390807
 31
0.0
  0
LINE
  5
4BCC
330
1F
100
AcDbEntity
  8
KANAMONO_SCREW
100
AcDbLine
 10
304.5378698583923
 20
70.02184196390807
 30
0.0
 11
303.4878698583923
 21
70.02184196390807
 31
0.0
  0
LINE
  5
4BCD
330
1F
100
AcDbEntity
  8
KANAMONO_SCREW
100
AcDbLine
 10
309.3378698583922
 20
70.02184196390807
 30
0.0
 11
308.2878698583922
 21
70.02184196390807
 31
0.0
  0
LINE
  5
4BCE
330
1F
100
AcDbEntity
  8
KANAMONO_SCREW
100
AcDbLine
 10
309.3378698583922
 20
70.52184196390808
 30
0.0
 11
308.2878698583922
 21
70.52184196390808
 31
0.0
  0
LINE
  5
4BCF
330
1F
100
AcDbEntity
  8
KANAMONO_SCREW
100
AcDbLine
 10
304.5378698583923
 20
71.02184196390807
 30
0.0
 11
303.4878698583923
 21
71.02184196390807
 31
0.0
  0
LINE
  5
4BD0
330
1F
100
AcDbEntity
  8
KANAMONO_SCREW
100
AcDbLine
 10
309.3378698583922
 20
71.02184196390807
 30
0.0
 11
308.2878698583922
 21
71.02184196390807
 31
0.0
  0
LINE
  5
4BD1
330
1F
100
AcDbEntity
  8
KANAMONO_SCREW
100
AcDbLine
 10
303.4128698583923
 20
71.57184196390826
 30
0.0
 11
303.4128698583923
 21
73.37184196390798
 31
0.0
  0
LINE
  5
4BD2
330
1F
100
AcDbEntity
  8
KANAMONO_SCREW
100
AcDbLine
 10
309.4128698583923
 20
71.57184196390826
 30
0.0
 11
309.4128698583923
 21
73.37184196390798
 31
0.0
  0
LINE
  5
4BD3
330
1F
100
AcDbEntity
  8
KANAMONO_SCREW
100
AcDbLine
 10
308.5128698583921
 20
65.57184196390825
 30
0.0
 11
309.4128698583923
 21
68.97184196390835
 31
0.0
  0
LINE
  5
4BD4
330
1F
100
AcDbEntity
  8
KANAMONO_SCREW
100
AcDbLine
 10
308.5128698583921
 20
65.57184196390825
 30
0.0
 11
304.3128698583923
 21
65.57184196390825
 31
0.0
  0
LINE
  5
4BD5
330
1F
100
AcDbEntity
  8
KANAMONO_SCREW
100
AcDbLine
 10
304.3128698583923
 20
65.57184196390825
 30
0.0
 11
303.4128698583923
 21
68.97184196390812
 31
0.0
  0
LINE
  5
4BD6
330
1F
100
AcDbEntity
  8
KANAMONO_SCREW
100
AcDbLine
 10
309.8028698583923
 20
90.57184196390826
 30
0.0
 11
309.3028698583923
 21
88.67184196390839
 31
0.0
  0
LINE
  5
4BD7
330
1F
100
AcDbEntity
  8
KANAMONO_SCREW
100
AcDbLine
 10
303.5228698583924
 20
88.67184196390839
 30
0.0
 11
303.0228698583924
 21
90.57184196390803
 31
0.0
  0
ARC
  5
4BD8
330
1F
100
AcDbEntity
  8
KANAMONO_SCREW
100
AcDbCircle
 10
314.1959993292325
 20
67.37685779400376
 30
0.0
 40
9.382689926641683
100
AcDbArc
 50
191.0915488138293
 51
213.9505323537963
  0
ARC
  5
4BD9
330
1F
100
AcDbEntity
  8
KANAMONO_SCREW
100
AcDbCircle
 10
298.6297403875523
 20
67.37685779400376
 30
0.0
 40
9.382689926641683
100
AcDbArc
 50
326.0494676462037
 51
348.9084511861707
  0
LINE
  5
4BDA
330
1F
100
AcDbEntity
  8
KANAMONO_SCREW
100
AcDbLine
 10
310.9128698583926
 20
127.1368419639076
 30
0.0
 11
301.9128698583925
 21
127.1368419639076
 31
0.0
  0
LINE
  5
4BDB
330
1F
100
AcDbEntity
  8
KANAMONO_SCREW
100
AcDbLine
 10
310.9128698583926
 20
126.3968419639078
 30
0.0
 11
301.9128698583925
 21
126.3968419639078
 31
0.0
  0
LINE
  5
4BDC
330
1F
100
AcDbEntity
  8
KANAMONO_SCREW
100
AcDbLine
 10
310.9128698583926
 20
127.1368419639076
 30
0.0
 11
310.9128698583926
 21
126.3968419639078
 31
0.0
  0
LINE
  5
4BDD
330
1F
100
AcDbEntity
  8
KANAMONO_SCREW
100
AcDbLine
 10
301.9128698583925
 20
127.1368419639076
 30
0.0
 11
301.9128698583925
 21
126.3968419639078
 31
0.0
  0
LINE
  5
4BDE
330
1F
100
AcDbEntity
  8
KANAMONO_SCREW
100
AcDbLine
 10
310.0878698583926
 20
125.5718419639078
 30
0.0
 11
310.9128698583926
 21
126.3968419639078
 31
0.0
  0
LINE
  5
4BDF
330
1F
100
AcDbEntity
  8
KANAMONO_SCREW
100
AcDbLine
 10
302.7378698583922
 20
125.5718419639082
 30
0.0
 11
301.9128698583925
 21
126.3968419639078
 31
0.0
  0
LINE
  5
4BE0
330
1F
100
AcDbEntity
  8
KANAMONO_SCREW
  6
DASHED1
100
AcDbLine
 10
326.9128698583924
 20
127.1368419639077
 30
0.0
 11
335.9128698583925
 21
127.1368419639077
 31
0.0
  0
LINE
  5
4BE1
330
1F
100
AcDbEntity
  8
KANAMONO_SCREW
  6
DASHED1
100
AcDbLine
 10
335.9128698583925
 20
127.1368419639077
 30
0.0
 11
335.9128698583924
 21
126.3968419639079
 31
0.0
  0
LINE
  5
4BE2
330
1F
100
AcDbEntity
  8
KANAMONO_SCREW
  6
DASHED1
100
AcDbLine
 10
335.9128698583924
 20
126.3968419639079
 30
0.0
 11
335.087869858393
 21
125.5718419639083
 31
0.0
  0
LINE
  5
4BE3
330
1F
100
AcDbEntity
  8
KANAMONO_SCREW
  6
DASHED1
100
AcDbLine
 10
335.087869858393
 20
125.5718419639083
 30
0.0
 11
335.0878698583925
 21
125.1218419639083
 31
0.0
  0
LINE
  5
4BE4
330
1F
100
AcDbEntity
  8
KANAMONO_SCREW
  6
DASHED1
100
AcDbLine
 10
335.0878698583925
 20
125.1218419639083
 30
0.0
 11
334.3028698583926
 21
124.2718419639084
 31
0.0
  0
LINE
  5
4BE5
330
1F
100
AcDbEntity
  8
KANAMONO_SCREW
  6
DASHED1
100
AcDbLine
 10
334.3028698583926
 20
124.2718419639084
 30
0.0
 11
334.202869858395
 21
124.2718419639084
 31
0.0
  0
LINE
  5
4BE6
330
1F
100
AcDbEntity
  8
KANAMONO_SCREW
  6
DASHED1
100
AcDbLine
 10
334.202869858395
 20
124.2718419639084
 30
0.0
 11
334.8028698583948
 21
123.7718419639086
 31
0.0
  0
LINE
  5
4BE7
330
1F
100
AcDbEntity
  8
KANAMONO_SCREW
  6
DASHED1
100
AcDbLine
 10
334.8028698583948
 20
123.7718419639086
 30
0.0
 11
334.8028698583932
 21
118.4718419639118
 31
0.0
  0
LINE
  5
4BE8
330
1F
100
AcDbEntity
  8
KANAMONO_SCREW
  6
DASHED1
100
AcDbLine
 10
334.8028698583932
 20
118.4718419639118
 30
0.0
 11
334.2028698583921
 21
116.5718419639083
 31
0.0
  0
LINE
  5
4BE9
330
1F
100
AcDbEntity
  8
KANAMONO_SCREW
  6
DASHED1
100
AcDbLine
 10
334.2028698583921
 20
116.5718419639083
 30
0.0
 11
334.2028698583921
 21
103.5718419639086
 31
0.0
  0
LINE
  5
4BEA
330
1F
100
AcDbEntity
  8
KANAMONO_SCREW
  6
DASHED1
100
AcDbLine
 10
334.2028698583921
 20
103.5718419639086
 30
0.0
 11
334.8028698583923
 21
103.0718419639086
 31
0.0
  0
LINE
  5
4BEB
330
1F
100
AcDbEntity
  8
KANAMONO_SCREW
  6
DASHED1
100
AcDbLine
 10
334.8028698583923
 20
103.0718419639086
 30
0.0
 11
334.8028698583923
 21
90.57184196390835
 31
0.0
  0
LINE
  5
4BEC
330
1F
100
AcDbEntity
  8
KANAMONO_SCREW
  6
DASHED1
100
AcDbLine
 10
334.8028698583923
 20
90.57184196390835
 30
0.0
 11
334.3028698583923
 21
88.6718419639085
 31
0.0
  0
LINE
  5
4BED
330
1F
100
AcDbEntity
  8
KANAMONO_SCREW
  6
DASHED1
100
AcDbLine
 10
334.3028698583923
 20
88.6718419639085
 30
0.0
 11
334.3028698583923
 21
88.37184196390808
 31
0.0
  0
LINE
  5
4BEE
330
1F
100
AcDbEntity
  8
KANAMONO_SCREW
  6
DASHED1
100
AcDbLine
 10
334.3028698583923
 20
88.37184196390808
 30
0.0
 11
334.1415065281904
 21
88.37184196390808
 31
0.0
  0
LINE
  5
4BEF
330
1F
100
AcDbEntity
  8
KANAMONO_SCREW
  6
DASHED1
100
AcDbLine
 10
334.1415065281904
 20
88.37184196390808
 30
0.0
 11
334.4765065281904
 21
84.57184196390858
 31
0.0
  0
LINE
  5
4BF0
330
1F
100
AcDbEntity
  8
KANAMONO_SCREW
  6
DASHED1
100
AcDbLine
 10
334.4765065281904
 20
84.57184196390858
 30
0.0
 11
334.6378698583922
 21
84.57184196390835
 31
0.0
  0
LINE
  5
4BF1
330
1F
100
AcDbEntity
  8
KANAMONO_SCREW
  6
DASHED1
100
AcDbLine
 10
334.6378698583922
 20
84.57184196390835
 30
0.0
 11
334.6378698583922
 21
82.87184196390809
 31
0.0
  0
LINE
  5
4BF2
330
1F
100
AcDbEntity
  8
KANAMONO_SCREW
  6
DASHED1
100
AcDbLine
 10
334.6378698583922
 20
82.87184196390809
 30
0.0
 11
334.4765058852482
 21
82.87184196390809
 31
0.0
  0
LINE
  5
4BF3
330
1F
100
AcDbEntity
  8
KANAMONO_SCREW
  6
DASHED1
100
AcDbLine
 10
334.4765058852482
 20
82.87184196390809
 30
0.0
 11
334.3765062220577
 21
78.87185543628857
 31
0.0
  0
LINE
  5
4BF4
330
1F
100
AcDbEntity
  8
KANAMONO_SCREW
  6
DASHED1
100
AcDbLine
 10
334.3765062220577
 20
78.87185543628857
 30
0.0
 11
334.5378701645538
 21
78.87184196390808
 31
0.0
  0
LINE
  5
4BF5
330
1F
100
AcDbEntity
  8
KANAMONO_SCREW
  6
DASHED1
100
AcDbLine
 10
334.5378701645538
 20
78.87184196390808
 30
0.0
 11
334.4992338009173
 21
77.17184196390826
 31
0.0
  0
LINE
  5
4BF6
330
1F
100
AcDbEntity
  8
KANAMONO_SCREW
  6
DASHED1
100
AcDbLine
 10
334.4992338009173
 20
77.17184196390826
 30
0.0
 11
334.2492334947558
 21
77.17184196390826
 31
0.0
  0
LINE
  5
4BF7
330
1F
100
AcDbEntity
  8
KANAMONO_SCREW
  6
DASHED1
100
AcDbLine
 10
334.2492334947558
 20
77.17184196390826
 30
0.0
 11
334.1628698583922
 21
73.37184196390808
 31
0.0
  0
LINE
  5
4BF8
330
1F
100
AcDbEntity
  8
KANAMONO_SCREW
  6
DASHED1
100
AcDbLine
 10
334.1628698583922
 20
73.37184196390808
 30
0.0
 11
334.4128698583922
 21
73.37184196390808
 31
0.0
  0
LINE
  5
4BF9
330
1F
100
AcDbEntity
  8
KANAMONO_SCREW
  6
DASHED1
100
AcDbLine
 10
334.4128698583922
 20
73.37184196390808
 30
0.0
 11
334.4128698583922
 21
71.57184196390847
 31
0.0
  0
LINE
  5
4BFA
330
1F
100
AcDbEntity
  8
KANAMONO_SCREW
  6
DASHED1
100
AcDbLine
 10
334.4128698583922
 20
71.57184196390847
 30
0.0
 11
334.1628698583922
 21
71.57184196390847
 31
0.0
  0
LINE
  5
4BFB
330
1F
100
AcDbEntity
  8
KANAMONO_SCREW
  6
DASHED1
100
AcDbLine
 10
334.1628698583922
 20
71.57184196390847
 30
0.0
 11
334.1628698583922
 21
68.97184196390856
 31
0.0
  0
LINE
  5
4BFC
330
1F
100
AcDbEntity
  8
KANAMONO_SCREW
  6
DASHED1
100
AcDbLine
 10
334.1628698583922
 20
68.97184196390856
 30
0.0
 11
334.4128698583922
 21
68.97184196390856
 31
0.0
  0
LINE
  5
4BFD
330
1F
100
AcDbEntity
  8
KANAMONO_SCREW
  6
DASHED1
100
AcDbLine
 10
334.4128698583922
 20
68.97184196390856
 30
0.0
 11
333.512869858392
 21
65.57184196390813
 31
0.0
  0
LINE
  5
4BFE
330
1F
100
AcDbEntity
  8
KANAMONO_SCREW
  6
DASHED1
100
AcDbLine
 10
333.512869858392
 20
65.57184196390813
 30
0.0
 11
332.8371715229236
 21
65.57184196390813
 31
0.0
  0
ARC
  5
4BFF
330
1F
100
AcDbEntity
  8
KANAMONO_SCREW
  6
DASHED1
100
AcDbCircle
 10
323.6297403875526
 20
67.37685779400532
 30
0.0
 40
9.382689926641541
100
AcDbArc
 50
326.0494676462092
 51
348.9084511861626
  0
ARC
  5
4C00
330
1F
100
AcDbEntity
  8
KANAMONO_SCREW
  6
DASHED1
100
AcDbCircle
 10
339.195999329231
 20
67.37685779400362
 30
0.0
 40
9.382689926640878
100
AcDbArc
 50
191.0915488138277
 51
213.950532353781
  0
LINE
  5
4C01
330
1F
100
AcDbEntity
  8
KANAMONO_SCREW
  6
DASHED1
100
AcDbLine
 10
329.9885681938603
 20
65.57184196390813
 30
0.0
 11
329.3128698583919
 21
65.57184196390813
 31
0.0
  0
LINE
  5
4C02
330
1F
100
AcDbEntity
  8
KANAMONO_SCREW
  6
DASHED1
100
AcDbLine
 10
329.3128698583919
 20
65.57184196390813
 30
0.0
 11
328.4128698583917
 21
68.97184196390856
 31
0.0
  0
LINE
  5
4C03
330
1F
100
AcDbEntity
  8
KANAMONO_SCREW
  6
DASHED1
100
AcDbLine
 10
328.4128698583917
 20
68.97184196390856
 30
0.0
 11
328.6628698583917
 21
68.97184196390856
 31
0.0
  0
LINE
  5
4C04
330
1F
100
AcDbEntity
  8
KANAMONO_SCREW
  6
DASHED1
100
AcDbLine
 10
328.6628698583917
 20
68.97184196390856
 30
0.0
 11
328.6628698583917
 21
71.57184196390847
 31
0.0
  0
LINE
  5
4C05
330
1F
100
AcDbEntity
  8
KANAMONO_SCREW
  6
DASHED1
100
AcDbLine
 10
328.6628698583917
 20
71.57184196390847
 30
0.0
 11
328.4128698583917
 21
71.57184196390847
 31
0.0
  0
LINE
  5
4C06
330
1F
100
AcDbEntity
  8
KANAMONO_SCREW
  6
DASHED1
100
AcDbLine
 10
328.4128698583917
 20
71.57184196390847
 30
0.0
 11
328.4128698583917
 21
73.37184196390808
 31
0.0
  0
LINE
  5
4C07
330
1F
100
AcDbEntity
  8
KANAMONO_SCREW
  6
DASHED1
100
AcDbLine
 10
328.4128698583917
 20
73.37184196390808
 30
0.0
 11
328.6628698583917
 21
73.37184196390808
 31
0.0
  0
LINE
  5
4C08
330
1F
100
AcDbEntity
  8
KANAMONO_SCREW
  6
DASHED1
100
AcDbLine
 10
328.6628698583917
 20
73.37184196390808
 30
0.0
 11
328.5765062220282
 21
77.17184196390826
 31
0.0
  0
LINE
  5
4C09
330
1F
100
AcDbEntity
  8
KANAMONO_SCREW
  6
DASHED1
100
AcDbLine
 10
328.5765062220282
 20
77.17184196390826
 30
0.0
 11
328.3265059158666
 21
77.17184196390826
 31
0.0
  0
LINE
  5
4C0A
330
1F
100
AcDbEntity
  8
KANAMONO_SCREW
  6
DASHED1
100
AcDbLine
 10
328.3265059158666
 20
77.17184196390826
 30
0.0
 11
328.2878695522301
 21
78.87184196390808
 31
0.0
  0
LINE
  5
4C0B
330
1F
100
AcDbEntity
  8
KANAMONO_SCREW
  6
DASHED1
100
AcDbLine
 10
328.2878695522301
 20
78.87184196390808
 30
0.0
 11
328.4492334947263
 21
78.87185543628857
 31
0.0
  0
LINE
  5
4C0C
330
1F
100
AcDbEntity
  8
KANAMONO_SCREW
  6
DASHED1
100
AcDbLine
 10
328.4492334947263
 20
78.87185543628857
 30
0.0
 11
328.3492338315357
 21
82.87184196390809
 31
0.0
  0
LINE
  5
4C0D
330
1F
100
AcDbEntity
  8
KANAMONO_SCREW
  6
DASHED1
100
AcDbLine
 10
328.3492338315357
 20
82.87184196390809
 30
0.0
 11
328.1878698583917
 21
82.87184196390809
 31
0.0
  0
LINE
  5
4C0E
330
1F
100
AcDbEntity
  8
KANAMONO_SCREW
  6
DASHED1
100
AcDbLine
 10
328.1878698583917
 20
82.87184196390809
 30
0.0
 11
328.1878698583917
 21
84.57184196390835
 31
0.0
  0
LINE
  5
4C0F
330
1F
100
AcDbEntity
  8
KANAMONO_SCREW
  6
DASHED1
100
AcDbLine
 10
328.1878698583917
 20
84.57184196390835
 30
0.0
 11
328.3492331885935
 21
84.57184196390858
 31
0.0
  0
LINE
  5
4C10
330
1F
100
AcDbEntity
  8
KANAMONO_SCREW
  6
DASHED1
100
AcDbLine
 10
328.3492331885935
 20
84.57184196390858
 30
0.0
 11
328.6842331885935
 21
88.37184196390808
 31
0.0
  0
LINE
  5
4C11
330
1F
100
AcDbEntity
  8
KANAMONO_SCREW
  6
DASHED1
100
AcDbLine
 10
328.6842331885935
 20
88.37184196390808
 30
0.0
 11
328.5228698583916
 21
88.37184196390808
 31
0.0
  0
LINE
  5
4C12
330
1F
100
AcDbEntity
  8
KANAMONO_SCREW
  6
DASHED1
100
AcDbLine
 10
328.5228698583916
 20
88.37184196390808
 30
0.0
 11
328.5228698583916
 21
88.6718419639085
 31
0.0
  0
LINE
  5
4C13
330
1F
100
AcDbEntity
  8
KANAMONO_SCREW
  6
DASHED1
100
AcDbLine
 10
328.5228698583916
 20
88.6718419639085
 30
0.0
 11
328.0228698583916
 21
90.57184196390835
 31
0.0
  0
LINE
  5
4C14
330
1F
100
AcDbEntity
  8
KANAMONO_SCREW
  6
DASHED1
100
AcDbLine
 10
328.0228698583916
 20
90.57184196390835
 30
0.0
 11
328.0228698583916
 21
103.0718419639086
 31
0.0
  0
LINE
  5
4C15
330
1F
100
AcDbEntity
  8
KANAMONO_SCREW
  6
DASHED1
100
AcDbLine
 10
328.0228698583916
 20
103.0718419639086
 30
0.0
 11
328.6228698583918
 21
103.5718419639086
 31
0.0
  0
LINE
  5
4C16
330
1F
100
AcDbEntity
  8
KANAMONO_SCREW
  6
DASHED1
100
AcDbLine
 10
328.6228698583918
 20
103.5718419639086
 30
0.0
 11
328.6228698583918
 21
116.5718419639083
 31
0.0
  0
LINE
  5
4C17
330
1F
100
AcDbEntity
  8
KANAMONO_SCREW
  6
DASHED1
100
AcDbLine
 10
328.6228698583918
 20
116.5718419639083
 30
0.0
 11
328.0228698583907
 21
118.4718419639118
 31
0.0
  0
LINE
  5
4C18
330
1F
100
AcDbEntity
  8
KANAMONO_SCREW
  6
DASHED1
100
AcDbLine
 10
328.0228698583907
 20
118.4718419639118
 30
0.0
 11
328.0228698583891
 21
123.7718419639086
 31
0.0
  0
LINE
  5
4C19
330
1F
100
AcDbEntity
  8
KANAMONO_SCREW
  6
DASHED1
100
AcDbLine
 10
328.0228698583891
 20
123.7718419639086
 30
0.0
 11
328.6228698583889
 21
124.2718419639084
 31
0.0
  0
LINE
  5
4C1A
330
1F
100
AcDbEntity
  8
KANAMONO_SCREW
  6
DASHED1
100
AcDbLine
 10
328.6228698583889
 20
124.2718419639084
 30
0.0
 11
328.5228698583913
 21
124.2718419639084
 31
0.0
  0
LINE
  5
4C1B
330
1F
100
AcDbEntity
  8
KANAMONO_SCREW
  6
DASHED1
100
AcDbLine
 10
328.5228698583913
 20
124.2718419639084
 30
0.0
 11
327.7378698583914
 21
125.1218419639083
 31
0.0
  0
LINE
  5
4C1C
330
1F
100
AcDbEntity
  8
KANAMONO_SCREW
  6
DASHED1
100
AcDbLine
 10
327.7378698583914
 20
125.1218419639083
 30
0.0
 11
327.737869858391
 21
125.5718419639083
 31
0.0
  0
LINE
  5
4C1D
330
1F
100
AcDbEntity
  8
KANAMONO_SCREW
  6
DASHED1
100
AcDbLine
 10
327.737869858391
 20
125.5718419639083
 30
0.0
 11
326.9128698583915
 21
126.3968419639079
 31
0.0
  0
LINE
  5
4C1E
330
1F
100
AcDbEntity
  8
KANAMONO_SCREW
  6
DASHED1
100
AcDbLine
 10
326.9128698583915
 20
126.3968419639079
 30
0.0
 11
326.9128698583924
 21
127.1368419639077
 31
0.0
  0
ENDSEC
  0
SECTION
  2
OBJECTS
  0
DICTIONARY
  5
C
330
0
100
AcDbDictionary
281
     1
  3
ACAD_CIP_PREVIOUS_PRODUCT_INFO
350
469D
  3
ACAD_COLOR
350
452B
  3
ACAD_DETAILVIEWSTYLE
350
4698
  3
ACAD_GROUP
350
D
  3
ACAD_LAYOUT
350
1A
  3
ACAD_MATERIAL
350
44FE
  3
ACAD_MLEADERSTYLE
350
4540
  3
ACAD_MLINESTYLE
350
17
  3
ACAD_PLOTSETTINGS
350
19
  3
ACAD_PLOTSTYLENAME
350
E
  3
ACAD_SCALELIST
350
452E
  3
ACAD_SECTIONVIEWSTYLE
350
4696
  3
ACAD_TABLESTYLE
350
452C
  3
ACAD_VISUALSTYLE
350
4517
  3
ACDB_RECOMPOSE_DATA
350
4C21
  3
AcDbVariableDictionary
350
1835
  3
AEC_PROPERTY_SET_DEFS
350
4572
  3
DWGPROPS
350
4C22
  0
DICTIONARY
  5
45AF
330
8
100
AcDbDictionary
280
     1
281
     1
  0
DICTIONARY
  5
2D
330
2
100
AcDbDictionary
280
     1
281
     1
  3
ACAD_LAYERFILTERS
360
2E
  3
ACAD_LAYERSTATES
360
918
  0
DICTIONARY
  5
45A1
330
10
100
AcDbDictionary
280
     1
281
     1
  3
ADSK_XREC_LAYER_RECONCILED
360
45A2
  0
DICTIONARY
  5
45A3
330
2388
100
AcDbDictionary
280
     1
281
     1
  3
ADSK_XREC_LAYER_RECONCILED
360
45A4
  0
DICTIONARY
  5
45A5
330
238A
100
AcDbDictionary
280
     1
281
     1
  3
ADSK_XREC_LAYER_RECONCILED
360
45A6
  0
DICTIONARY
  5
45A7
330
2757
100
AcDbDictionary
280
     1
281
     1
  3
ADSK_XREC_LAYER_RECONCILED
360
45A8
  0
DICTIONARY
  5
45A9
330
2758
100
AcDbDictionary
280
     1
281
     1
  3
ADSK_XREC_LAYER_RECONCILED
360
45AA
  0
DICTIONARY
  5
469F
330
469E
100
AcDbDictionary
280
     1
281
     1
  0
DICTIONARY
  5
49DD
330
49DC
100
AcDbDictionary
280
     1
281
     1
  0
DICTIONARY
  5
1C62
330
1F
100
AcDbDictionary
280
     1
281
     1
  3
ACAD_SORTENTS
360
1C63
  0
XRECORD
  5
469D
102
{ACAD_REACTORS
330
C
102
}
330
C
100
AcDbXrecord
280
     1
300
ACD
300
2022
300

  0
DICTIONARY
  5
452B
102
{ACAD_REACTORS
330
C
102
}
330
C
100
AcDbDictionary
281
     1
  0
DICTIONARY
  5
4698
102
{ACAD_REACTORS
330
C
102
}
330
C
100
AcDbDictionary
281
     1
  3
Metric50
350
4699
  0
DICTIONARY
  5
D
102
{ACAD_REACTORS
330
C
102
}
330
C
100
AcDbDictionary
281
     1
  0
DICTIONARY
  5
1A
102
{ACAD_REACTORS
330
C
102
}
330
C
100
AcDbDictionary
281
     1
  3
Model
350
22
  3
\U+FF9A\U+FF72\U+FF71\U+FF73\U+FF841
350
1CD1
  0
DICTIONARY
  5
44FE
102
{ACAD_REACTORS
330
C
102
}
330
C
100
AcDbDictionary
281
     1
  3
ByBlock
350
4507
  3
ByLayer
350
44FF
  3
Global
350
450F
  0
DICTIONARY
  5
4540
102
{ACAD_REACTORS
330
C
102
}
330
C
100
AcDbDictionary
281
     1
  3
Standard
350
4541
  0
DICTIONARY
  5
17
102
{ACAD_REACTORS
330
C
102
}
330
C
100
AcDbDictionary
281
     1
  3
Standard
350
18
  0
DICTIONARY
  5
19
102
{ACAD_REACTORS
330
C
102
}
330
C
100
AcDbDictionary
281
     1
  0
ACDBDICTIONARYWDFLT
  5
E
102
{ACAD_REACTORS
330
C
102
}
330
C
100
AcDbDictionary
281
     1
  3
Normal
350
F
  3
通常
350
29
100
AcDbDictionaryWithDefault
340
F
  0
DICTIONARY
  5
452E
102
{ACAD_REACTORS
330
C
102
}
330
C
100
AcDbDictionary
281
     1
  3
A0
350
452F
  3
A1
350
4530
  3
A2
350
4531
  3
A3
350
4532
  3
A4
350
4533
  3
A5
350
4534
  3
A6
350
4535
  3
A7
350
4536
  3
A8
350
4537
  3
A9
350
4538
  3
B0
350
4539
  3
B1
350
453A
  3
B2
350
453B
  3
B3
350
453C
  3
B4
350
453D
  3
B5
350
453E
  3
B6
350
453F
  0
DICTIONARY
  5
4696
102
{ACAD_REACTORS
330
C
102
}
330
C
100
AcDbDictionary
281
     1
  3
Metric50
350
4697
  0
DICTIONARY
  5
452C
102
{ACAD_REACTORS
330
C
102
}
330
C
100
AcDbDictionary
281
     1
  3
Standard
350
452D
  0
DICTIONARY
  5
4517
102
{ACAD_REACTORS
330
C
102
}
330
C
100
AcDbDictionary
281
     1
  3
2dWireframe
350
451D
  3
3D Hidden
350
451F
  3
3dWireframe
350
451E
  3
Basic
350
451C
  3
Brighten
350
4523
  3
ColorChange
350
4527
  3
Conceptual
350
4520
  3
Dim
350
4522
  3
EdgeColorOff
350
452A
  3
Facepattern
350
4526
  3
Flat
350
4518
  3
FlatWithEdges
350
4519
  3
Gouraud
350
451A
  3
GouraudWithEdges
350
451B
  3
Hidden
350
4690
  3
JitterOff
350
4528
  3
Linepattern
350
4525
  3
OverhangOff
350
4529
  3
Realistic
350
4521
  3
Shaded
350
4695
  3
Shaded with edges
350
4694
  3
Shades of Gray
350
4691
  3
Sketchy
350
4692
  3
Thicken
350
4524
  3
Wireframe
350
468F
  3
X-Ray
350
4693
  0
XRECORD
  5
4C21
102
{ACAD_REACTORS
330
C
102
}
330
C
100
AcDbXrecord
280
     1
 90
        1
330
452D
  0
DICTIONARY
  5
1835
102
{ACAD_REACTORS
330
C
102
}
330
C
100
AcDbDictionary
281
     1
  3
CANNOSCALE
350
45E2
  3
CMLEADERSTYLE
350
45E1
  3
CTABLESTYLE
350
45E0
  3
CVIEWDETAILSTYLE
350
4737
  3
CVIEWSECTIONSTYLE
350
4738
  3
DIMASSOC
350
45E4
  3
INDEXCTL
350
45E3
  3
SORTENTS
350
1836
  3
XCLIPFRAME
350
4C1F
  0
DICTIONARY
  5
4572
102
{ACAD_REACTORS
330
C
102
}
330
C
100
AcDbDictionary
281
     1
  0
XRECORD
  5
4C22
102
{ACAD_REACTORS
330
C
102
}
330
C
100
AcDbXrecord
280
     1
  1
DWGPROPS COOKIE
  2

  3

  4

  6

  7

  8
2020009
  9

300
=
301
=
302
=
303
=
304
=
305
=
306
=
307
=
308
=
309
=
 40
0.3056740046296296
 41
2453276.413761574
 42
2459989.483125
  1

 90
        0
  0
DICTIONARY
  5
2E
102
{ACAD_REACTORS
330
2D
102
}
330
2D
100
AcDbDictionary
280
     1
281
     1
  0
DICTIONARY
  5
918
102
{ACAD_REACTORS
330
2D
102
}
330
2D
100
AcDbDictionary
281
     1
  0
XRECORD
  5
45A2
102
{ACAD_REACTORS
330
45A1
102
}
330
45A1
100
AcDbXrecord
280
     1
290
     1
  0
XRECORD
  5
45A4
102
{ACAD_REACTORS
330
45A3
102
}
330
45A3
100
AcDbXrecord
280
     1
290
     1
  0
XRECORD
  5
45A6
102
{ACAD_REACTORS
330
45A5
102
}
330
45A5
100
AcDbXrecord
280
     1
290
     1
  0
XRECORD
  5
45A8
102
{ACAD_REACTORS
330
45A7
102
}
330
45A7
100
AcDbXrecord
280
     1
290
     1
  0
XRECORD
  5
45AA
102
{ACAD_REACTORS
330
45A9
102
}
330
45A9
100
AcDbXrecord
280
     1
290
     1
  0
SORTENTSTABLE
  5
1C63
102
{ACAD_REACTORS
330
1C62
102
}
330
1C62
100
AcDbSortentsTable
330
1F
331
3660
  5
3665
331
3661
  5
3667
331
3662
  5
3668
331
3663
  5
3669
331
3665
  5
366A
331
3667
  5
366B
331
3668
  5
366D
331
3669
  5
366E
331
366A
  5
366F
331
366B
  5
3670
331
366D
  5
3671
331
366E
  5
3672
331
366F
  5
3673
331
3670
  5
3674
331
3671
  5
3675
331
3672
  5
3676
331
3673
  5
3677
331
3674
  5
3678
331
3675
  5
3679
331
3676
  5
367A
331
3677
  5
367B
331
3678
  5
367C
331
3679
  5
367D
331
367A
  5
367E
331
367B
  5
367F
331
367C
  5
3680
331
367D
  5
3681
331
367E
  5
3682
331
367F
  5
3683
331
3680
  5
459E
331
3681
  5
459F
331
3682
  5
45A0
331
3683
  5
46B5
331
459E
  5
4AEE
331
459F
  5
4AEF
331
45A0
  5
4AF0
331
46B5
  5
4AF5
331
46B6
  5
4AF6
331
46B8
  5
4AFB
331
46B9
  5
4AFC
331
46BA
  5
4AFD
331
4A77
  5
3660
331
4A78
  5
3661
331
4A79
  5
3662
331
4A7A
  5
3663
331
4A7B
  5
46B6
331
4A7C
  5
46B8
331
4A7D
  5
46B9
331
4A7E
  5
46BA
331
4A7F
  5
4A77
331
4A80
  5
4A78
331
4A81
  5
4A79
331
4A82
  5
4A7A
331
4A83
  5
4A7B
331
4A84
  5
4A7C
331
4A85
  5
4A7D
331
4A86
  5
4A7E
331
4A87
  5
4A7F
331
4A88
  5
4A80
331
4A89
  5
4A81
331
4A8A
  5
4A82
331
4A8B
  5
4A83
331
4A8C
  5
4A84
331
4A8D
  5
4A85
331
4A8E
  5
4A86
331
4A8F
  5
4A87
331
4A90
  5
4A88
331
4A91
  5
4A89
331
4A92
  5
4A8A
331
4A93
  5
4A8B
331
4A94
  5
4A8C
331
4A95
  5
4A8D
331
4A96
  5
4A8E
331
4A97
  5
4A8F
331
4A98
  5
4A90
331
4A99
  5
4A91
331
4A9A
  5
4A92
331
4A9B
  5
4A93
331
4A9C
  5
4A94
331
4A9D
  5
4A95
331
4A9E
  5
4A96
331
4A9F
  5
4A97
331
4AA0
  5
4A98
331
4AA1
  5
4A99
331
4AA2
  5
4A9A
331
4AA3
  5
4A9B
331
4AA4
  5
4A9C
331
4AA5
  5
4A9D
331
4AA6
  5
4A9E
331
4AA7
  5
4A9F
331
4AA8
  5
4AA0
331
4AA9
  5
4AA1
331
4AAA
  5
4AA2
331
4AAB
  5
4AA3
331
4AAC
  5
4AA4
331
4AAD
  5
4AA5
331
4AAE
  5
4AA6
331
4AAF
  5
4AA7
331
4AB0
  5
4AA8
331
4AB1
  5
4AA9
331
4AB2
  5
4AAA
331
4AB3
  5
4AAB
331
4AB4
  5
4AAC
331
4AB5
  5
4AAD
331
4AB6
  5
4AAE
331
4AB7
  5
4AAF
331
4AB8
  5
4AB0
331
4AB9
  5
4AB1
331
4ABA
  5
4AB2
331
4ABB
  5
4AB3
331
4ABC
  5
4AB4
331
4ABD
  5
4AB5
331
4ABE
  5
4AB6
331
4ABF
  5
4AB7
331
4AC0
  5
4AB8
331
4AC1
  5
4AB9
331
4AC2
  5
4ABA
331
4AC3
  5
4ABB
331
4AC4
  5
4ABC
331
4AC5
  5
4ABD
331
4AC6
  5
4ABE
331
4AC7
  5
4ABF
331
4AC8
  5
4AC0
331
4AC9
  5
4AC1
331
4ACA
  5
4AC2
331
4ACB
  5
4AC3
331
4ACC
  5
4AC4
331
4ACD
  5
4AC5
331
4ACE
  5
4AC6
331
4ACF
  5
4AC7
331
4AD0
  5
4AC8
331
4AD1
  5
4AC9
331
4AD2
  5
4ACA
331
4AD3
  5
4ACB
331
4AD4
  5
4ACC
331
4AD5
  5
4ACD
331
4AD6
  5
4ACE
331
4AD7
  5
4ACF
331
4AD8
  5
4AD0
331
4AD9
  5
4AD1
331
4ADA
  5
4AD2
331
4ADB
  5
4AD3
331
4ADC
  5
4AD4
331
4ADD
  5
4AD5
331
4ADE
  5
4AD6
331
4ADF
  5
4AD7
331
4AE0
  5
4AD8
331
4AE1
  5
4AD9
331
4AE2
  5
4ADA
331
4AE3
  5
4ADB
331
4AE4
  5
4ADC
331
4AE5
  5
4ADD
331
4AE6
  5
4ADE
331
4AE7
  5
4ADF
331
4AE8
  5
4AE0
331
4AE9
  5
4AE1
331
4AEA
  5
4AE2
331
4AEB
  5
4AE3
331
4AEC
  5
4AE4
331
4AED
  5
4AE5
331
4AEE
  5
4AE6
331
4AEF
  5
4AE7
331
4AF0
  5
4AE8
331
4AF1
  5
4AE9
331
4AF2
  5
4AEA
331
4AF3
  5
4AEB
331
4AF4
  5
4AEC
331
4AF5
  5
4AED
331
4AF6
  5
4AF1
331
4AF7
  5
4AF2
331
4AF8
  5
4AF3
331
4AF9
  5
4AF4
331
4AFA
  5
4AF7
331
4AFB
  5
4AF8
331
4AFC
  5
4AF9
331
4AFD
  5
4AFA
  0
ACDBDETAILVIEWSTYLE
  5
4699
102
{ACAD_XDICTIONARY
360
4C61
102
}
102
{ACAD_REACTORS
330
4698
102
}
330
4698
100
AcDbModelDocViewStyle
 70
     0
  3
Metric50
290
     0
100
AcDbDetailViewStyle
 70
     0
 71
     0
 90
        3
 71
     1
340
11
 40
5.0
340
0
 40
5.0
300

 40
0.0
280
     1
 71
     2
340
16
 90
       25
 71
     3
340
11
 40
5.0
 90
        0
 40
15.0
 90
        1
300
%<\AcVar ViewDetailId>% (%<\AcVar ViewScale \f "%sn">%)
 71
     4
340
16
 90
       25
340
16
 90
       25
280
     0
1001
ACAD
1000
AcRTDxfName
1000
ACDBDETAILVIEWSTYLE
  0
LAYOUT
  5
22
102
{ACAD_XDICTIONARY
360
4C23
102
}
102
{ACAD_REACTORS
330
1A
102
}
330
1A
100
AcDbPlotSettings
  1

  2
Canon LBP3800 LIPSLX
  4
A4
  6

 40
5.873749732971191
 41
5.873747825622558
 42
5.873748779296875
 43
5.873748779296875
 44
209.9733276367187
 45
296.9259948730469
 46
0.61
 47
0.59
 48
444.9983463649091
 49
-1090.000000918417
140
2395.001653364909
141
1659.999999081583
142
1.0
143
10.0
 70
 11940
 72
     1
 73
     1
 74
     2
  7
monochrome.ctb
 75
     0
147
0.1
148
0.0
149
0.0
100
AcDbLayout
  1
Model
 70
     1
 71
     0
 10
0.0
 20
0.0
 11
12.0
 21
9.0
 12
0.0
 22
0.0
 32
0.0
 14
0.0
 24
0.0
 34
0.0
 15
0.0
 25
0.0
 35
0.0
146
0.0
 13
0.0
 23
0.0
 33
0.0
 16
1.0
 26
0.0
 36
0.0
 17
0.0
 27
1.0
 37
0.0
 76
     0
330
1F
331
44FC
  0
LAYOUT
  5
1CD1
102
{ACAD_XDICTIONARY
360
4C25
102
}
102
{ACAD_REACTORS
330
1A
102
}
330
1A
100
AcDbPlotSettings
  1

  2
\\ek_srv\Canon LBP-880 LIPS4
  4

  6

 40
0.0
 41
0.0
 42
0.0
 43
0.0
 44
0.0
 45
0.0
 46
0.0
 47
0.0
 48
0.0
 49
0.0
140
0.0
141
0.0
142
1.0
143
1.0
 70
   688
 72
     0
 73
     0
 74
     5
  7
monochrome.ctb
 75
    16
147
1.0
148
0.0
149
0.0
100
AcDbLayout
  1
\U+FF9A\U+FF72\U+FF71\U+FF73\U+FF841
 70
     1
 71
     1
 10
0.0
 20
0.0
 11
12.0
 21
9.0
 12
0.0
 22
0.0
 32
0.0
 14
0.0
 24
0.0
 34
0.0
 15
0.0
 25
0.0
 35
0.0
146
0.0
 13
0.0
 23
0.0
 33
0.0
 16
1.0
 26
0.0
 36
0.0
 17
0.0
 27
1.0
 37
0.0
 76
     0
330
1CD0
  0
MATERIAL
  5
4507
102
{ACAD_XDICTIONARY
360
4508
102
}
102
{ACAD_REACTORS
330
44FE
102
}
330
44FE
100
AcDbMaterial
  1
ByBlock
 72
     0
 43
0.0008202099737533
 43
0.0
 43
0.0
 43
0.0
 43
0.0
 43
0.0008202099737533
 43
0.0
 43
0.0
 43
0.0
 43
0.0
 43
1.0
 43
0.0
 43
0.0
 43
0.0
 43
0.0
 43
1.0
 77
     0
 47
0.0008202099737533
 47
0.0
 47
0.0
 47
0.0
 47
0.0
 47
0.0008202099737533
 47
0.0
 47
0.0
 47
0.0
 47
0.0
 47
1.0
 47
0.0
 47
0.0
 47
0.0
 47
0.0
 47
1.0
171
     0
 49
0.0008202099737533
 49
0.0
 49
0.0
 49
0.0
 49
0.0
 49
0.0008202099737533
 49
0.0
 49
0.0
 49
0.0
 49
0.0
 49
1.0
 49
0.0
 49
0.0
 49
0.0
 49
0.0
 49
1.0
175
     0
142
0.0008202099737533
142
0.0
142
0.0
142
0.0
142
0.0
142
0.0008202099737533
142
0.0
142
0.0
142
0.0
142
0.0
142
1.0
142
0.0
142
0.0
142
0.0
142
0.0
142
1.0
179
     0
144
0.0008202099737533
144
0.0
144
0.0
144
0.0
144
0.0
144
0.0008202099737533
144
0.0
144
0.0
144
0.0
144
0.0
144
1.0
144
0.0
144
0.0
144
0.0
144
0.0
144
1.0
147
0.0008202099737533
147
0.0
147
0.0
147
0.0
147
0.0
147
0.0008202099737533
147
0.0
147
0.0
147
0.0
147
0.0
147
1.0
147
0.0
147
0.0
147
0.0
147
0.0
147
1.0
  0
MATERIAL
  5
44FF
102
{ACAD_XDICTIONARY
360
4500
102
}
102
{ACAD_REACTORS
330
44FE
102
}
330
44FE
100
AcDbMaterial
  1
ByLayer
 72
     0
 43
0.0008202099737533
 43
0.0
 43
0.0
 43
0.0
 43
0.0
 43
0.0008202099737533
 43
0.0
 43
0.0
 43
0.0
 43
0.0
 43
1.0
 43
0.0
 43
0.0
 43
0.0
 43
0.0
 43
1.0
 77
     0
 47
0.0008202099737533
 47
0.0
 47
0.0
 47
0.0
 47
0.0
 47
0.0008202099737533
 47
0.0
 47
0.0
 47
0.0
 47
0.0
 47
1.0
 47
0.0
 47
0.0
 47
0.0
 47
0.0
 47
1.0
171
     0
 49
0.0008202099737533
 49
0.0
 49
0.0
 49
0.0
 49
0.0
 49
0.0008202099737533
 49
0.0
 49
0.0
 49
0.0
 49
0.0
 49
1.0
 49
0.0
 49
0.0
 49
0.0
 49
0.0
 49
1.0
175
     0
142
0.0008202099737533
142
0.0
142
0.0
142
0.0
142
0.0
142
0.0008202099737533
142
0.0
142
0.0
142
0.0
142
0.0
142
1.0
142
0.0
142
0.0
142
0.0
142
0.0
142
1.0
179
     0
144
0.0008202099737533
144
0.0
144
0.0
144
0.0
144
0.0
144
0.0008202099737533
144
0.0
144
0.0
144
0.0
144
0.0
144
1.0
144
0.0
144
0.0
144
0.0
144
0.0
144
1.0
147
0.0008202099737533
147
0.0
147
0.0
147
0.0
147
0.0
147
0.0008202099737533
147
0.0
147
0.0
147
0.0
147
0.0
147
1.0
147
0.0
147
0.0
147
0.0
147
0.0
147
1.0
  0
MATERIAL
  5
450F
102
{ACAD_XDICTIONARY
360
4510
102
}
102
{ACAD_REACTORS
330
44FE
102
}
330
44FE
100
AcDbMaterial
  1
Global
 72
     0
 43
0.0008202099737533
 43
0.0
 43
0.0
 43
0.0
 43
0.0
 43
0.0008202099737533
 43
0.0
 43
0.0
 43
0.0
 43
0.0
 43
1.0
 43
0.0
 43
0.0
 43
0.0
 43
0.0
 43
1.0
 77
     0
 47
0.0008202099737533
 47
0.0
 47
0.0
 47
0.0
 47
0.0
 47
0.0008202099737533
 47
0.0
 47
0.0
 47
0.0
 47
0.0
 47
1.0
 47
0.0
 47
0.0
 47
0.0
 47
0.0
 47
1.0
171
     0
 49
0.0008202099737533
 49
0.0
 49
0.0
 49
0.0
 49
0.0
 49
0.0008202099737533
 49
0.0
 49
0.0
 49
0.0
 49
0.0
 49
1.0
 49
0.0
 49
0.0
 49
0.0
 49
0.0
 49
1.0
175
     0
142
0.0008202099737533
142
0.0
142
0.0
142
0.0
142
0.0
142
0.0008202099737533
142
0.0
142
0.0
142
0.0
142
0.0
142
1.0
142
0.0
142
0.0
142
0.0
142
0.0
142
1.0
179
     0
144
0.0008202099737533
144
0.0
144
0.0
144
0.0
144
0.0
144
0.0008202099737533
144
0.0
144
0.0
144
0.0
144
0.0
144
1.0
144
0.0
144
0.0
144
0.0
144
0.0
144
1.0
147
0.0008202099737533
147
0.0
147
0.0
147
0.0
147
0.0
147
0.0008202099737533
147
0.0
147
0.0
147
0.0
147
0.0
147
1.0
147
0.0
147
0.0
147
0.0
147
0.0
147
1.0
  0
MLEADERSTYLE
  5
4541
102
{ACAD_REACTORS
330
4540
102
}
330
4540
100
AcDbMLeaderStyle
170
     2
171
     1
172
     0
 90
        2
 40
0.0
 41
0.0
173
     1
 91
-1056964608
340
14
 92
       -2
290
     1
 42
2.0
291
     1
 43
0.36
  3
Standard
 44
4.0
300

342
11
174
     1
178
     6
175
     1
176
     0
 93
-1056964608
 45
4.0
292
     0
297
     0
 46
4.0
 94
-1056964608
 47
1.0
 49
1.0
140
1.0
293
     1
141
0.0
294
     1
177
     0
142
1.0
295
     0
296
     0
143
0.125
1001
ACAD_MLEADERVER
1070
     2
  0
MLINESTYLE
  5
18
102
{ACAD_REACTORS
330
17
102
}
330
17
100
AcDbMlineStyle
  2
STANDARD
 70
     0
  3

 62
   256
 51
90.0
 52
90.0
 71
     2
 49
0.5
 62
   256
  6
BYLAYER
 49
-0.5
 62
   256
  6
BYLAYER
  0
ACDBPLACEHOLDER
  5
F
102
{ACAD_REACTORS
330
E
102
}
330
E
  0
ACDBPLACEHOLDER
  5
29
102
{ACAD_REACTORS
330
E
102
}
330
E
  0
SCALE
  5
452F
102
{ACAD_REACTORS
330
452E
102
}
330
452E
100
AcDbScale
 70
     0
300
1:1
140
1.0
141
1.0
290
     1
  0
SCALE
  5
4530
102
{ACAD_REACTORS
330
452E
102
}
330
452E
100
AcDbScale
 70
     0
300
1:2
140
1.0
141
2.0
290
     0
  0
SCALE
  5
4531
102
{ACAD_REACTORS
330
452E
102
}
330
452E
100
AcDbScale
 70
     0
300
1:4
140
1.0
141
4.0
290
     0
  0
SCALE
  5
4532
102
{ACAD_REACTORS
330
452E
102
}
330
452E
100
AcDbScale
 70
     0
300
1:5
140
1.0
141
5.0
290
     0
  0
SCALE
  5
4533
102
{ACAD_REACTORS
330
452E
102
}
330
452E
100
AcDbScale
 70
     0
300
1:8
140
1.0
141
8.0
290
     0
  0
SCALE
  5
4534
102
{ACAD_REACTORS
330
452E
102
}
330
452E
100
AcDbScale
 70
     0
300
1:10
140
1.0
141
10.0
290
     0
  0
SCALE
  5
4535
102
{ACAD_REACTORS
330
452E
102
}
330
452E
100
AcDbScale
 70
     0
300
1:16
140
1.0
141
16.0
290
     0
  0
SCALE
  5
4536
102
{ACAD_REACTORS
330
452E
102
}
330
452E
100
AcDbScale
 70
     0
300
1:20
140
1.0
141
20.0
290
     0
  0
SCALE
  5
4537
102
{ACAD_REACTORS
330
452E
102
}
330
452E
100
AcDbScale
 70
     0
300
1:30
140
1.0
141
30.0
290
     0
  0
SCALE
  5
4538
102
{ACAD_REACTORS
330
452E
102
}
330
452E
100
AcDbScale
 70
     0
300
1:40
140
1.0
141
40.0
290
     0
  0
SCALE
  5
4539
102
{ACAD_REACTORS
330
452E
102
}
330
452E
100
AcDbScale
 70
     0
300
1:50
140
1.0
141
50.0
290
     0
  0
SCALE
  5
453A
102
{ACAD_REACTORS
330
452E
102
}
330
452E
100
AcDbScale
 70
     0
300
1:100
140
1.0
141
100.0
290
     0
  0
SCALE
  5
453B
102
{ACAD_REACTORS
330
452E
102
}
330
452E
100
AcDbScale
 70
     0
300
2:1
140
2.0
141
1.0
290
     0
  0
SCALE
  5
453C
102
{ACAD_REACTORS
330
452E
102
}
330
452E
100
AcDbScale
 70
     0
300
4:1
140
4.0
141
1.0
290
     0
  0
SCALE
  5
453D
102
{ACAD_REACTORS
330
452E
102
}
330
452E
100
AcDbScale
 70
     0
300
8:1
140
8.0
141
1.0
290
     0
  0
SCALE
  5
453E
102
{ACAD_REACTORS
330
452E
102
}
330
452E
100
AcDbScale
 70
     0
300
10:1
140
10.0
141
1.0
290
     0
  0
SCALE
  5
453F
102
{ACAD_REACTORS
330
452E
102
}
330
452E
100
AcDbScale
 70
     0
300
100:1
140
100.0
141
1.0
290
     0
  0
ACDBSECTIONVIEWSTYLE
  5
4697
102
{ACAD_XDICTIONARY
360
4C5F
102
}
102
{ACAD_REACTORS
330
4696
102
}
330
4696
100
AcDbModelDocViewStyle
 70
     0
  3
Metric50
290
     0
100
AcDbSectionViewStyle
 70
     0
 71
     0
 90
      102
 71
     1
340
11
 40
5.0
340
0
340
0
 40
5.0
300
I, O, Q, S, X, Z
 40
10.0
 90
        0
 40
2.5
 90
        0
 71
     2
340
16
 90
       25
340
16
 90
       50
 40
5.0
 40
2.5
 40
5.0
 71
     3
340
11
 40
5.0
 90
        0
 40
15.0
 90
        1
300
%<\AcVar ViewSectionStartId>%-%<\AcVar ViewSectionEndId>% (%<\AcVar ViewScale \f "%sn">%)
 71
     4
300
ANSI31
 40
1.0
 90
        0
290
     0
290
     0
 90
        6
 40
0.0
 40
1.570796326794896
 40
0.2617993877991494
 40
1.308996938995747
 40
-0.2617993877991494
 40
1.832595714594046
1001
ACAD
1000
AcRTDxfName
1000
ACDBSECTIONVIEWSTYLE
  0
TABLESTYLE
  5
452D
102
{ACAD_XDICTIONARY
360
45AB
102
}
102
{ACAD_REACTORS
330
452C
102
}
330
452C
100
AcDbTableStyle
  3
Standard
 70
     0
 71
     0
 40
1.5
 41
1.5
280
     0
281
     0
  7
Standard
140
4.5
170
     2
 62
     0
 63
     7
283
     0
274
    -2
284
     1
 64
     0
275
    -2
285
     1
 65
     0
276
    -2
286
     1
 66
     0
277
    -2
287
     1
 67
     0
278
    -2
288
     1
 68
     0
279
    -2
289
     1
 69
     0
  7
Standard
140
6.0
170
     5
 62
     0
 63
     7
283
     0
274
    -2
284
     1
 64
     0
275
    -2
285
     1
 65
     0
276
    -2
286
     1
 66
     0
277
    -2
287
     1
 67
     0
278
    -2
288
     1
 68
     0
279
    -2
289
     1
 69
     0
  7
Standard
140
4.5
170
     5
 62
     0
 63
     7
283
     0
274
    -2
284
     1
 64
     0
275
    -2
285
     1
 65
     0
276
    -2
286
     1
 66
     0
277
    -2
287
     1
 67
     0
278
    -2
288
     1
 68
     0
279
    -2
289
     1
 69
     0
  0
VISUALSTYLE
  5
451D
102
{ACAD_XDICTIONARY
360
4C34
102
}
102
{ACAD_REACTORS
330
4517
102
}
330
4517
100
AcDbVisualStyle
  2
2dWireframe
 70
     4
 71
     0
 72
     2
 73
     0
 90
        0
 40
-0.6
 41
-30.0
 62
     5
 63
     7
 74
     1
 91
        4
 64
     7
 65
   257
 75
     1
175
     1
 42
1.0
 92
        0
 66
   257
 43
1.0
 76
     1
 77
     6
 78
     2
 67
     7
 79
     5
170
     0
171
     0
290
     0
174
     0
 93
        1
 44
0.0
173
     0
291
     0
 45
0.0
1001
ACAD
1000
AcDbSavedByObjectVersion
1070
     0
  0
VISUALSTYLE
  5
451F
102
{ACAD_XDICTIONARY
360
4C38
102
}
102
{ACAD_REACTORS
330
4517
102
}
330
4517
100
AcDbVisualStyle
  2
3D Hidden
 70
     6
 71
     1
 72
     2
 73
     2
 90
        0
 40
-0.6
 41
-30.0
 62
     5
 63
     7
 74
     2
 91
        2
 64
     7
 65
   257
 75
     2
175
     1
 42
179.0
 92
        0
 66
   257
 43
1.0
 76
     1
 77
     6
 78
     2
 67
     7
 79
     3
170
     0
171
     0
290
     0
174
     0
 93
        1
 44
0.0
173
     0
291
     0
 45
0.0
1001
ACAD
1000
AcDbSavedByObjectVersion
1070
     0
  0
VISUALSTYLE
  5
451E
102
{ACAD_XDICTIONARY
360
4C36
102
}
102
{ACAD_REACTORS
330
4517
102
}
330
4517
100
AcDbVisualStyle
  2
3dWireframe
 70
     5
 71
     0
 72
     2
 73
     0
 90
        0
 40
-0.6
 41
-30.0
 62
     5
 63
     7
 74
     1
 91
        4
 64
     7
 65
   257
 75
     1
175
     1
 42
1.0
 92
        0
 66
   257
 43
1.0
 76
     1
 77
     6
 78
     2
 67
     7
 79
     5
170
     0
171
     0
290
     0
174
     0
 93
        1
 44
0.0
173
     0
291
     0
 45
0.0
1001
ACAD
1000
AcDbSavedByObjectVersion
1070
     0
  0
VISUALSTYLE
  5
451C
102
{ACAD_XDICTIONARY
360
4C32
102
}
102
{ACAD_REACTORS
330
4517
102
}
330
4517
100
AcDbVisualStyle
  2
Basic
 70
     7
 71
     1
 72
     0
 73
     1
 90
        0
 40
-0.6
 41
-30.0
 62
     5
 63
     7
 74
     0
 91
        4
 64
     7
 65
   257
 75
     1
175
     1
 42
1.0
 92
        8
 66
     7
 43
1.0
 76
     1
 77
     6
 78
     2
 67
     7
 79
     5
170
     0
171
     0
290
     0
174
     0
 93
        1
 44
0.0
173
     0
291
     1
 45
0.0
1001
ACAD
1000
AcDbSavedByObjectVersion
1070
     0
  0
VISUALSTYLE
  5
4523
102
{ACAD_XDICTIONARY
360
4C40
102
}
102
{ACAD_REACTORS
330
4517
102
}
330
4517
100
AcDbVisualStyle
  2
Brighten
 70
    12
 71
     2
 72
     2
 73
     0
 90
        0
 40
-0.6
 41
-30.0
 62
     5
 63
     7
 74
     1
 91
        4
 64
     7
 65
   257
 75
     1
175
     1
 42
1.0
 92
        8
 66
     7
 43
1.0
 76
     1
 77
     6
 78
     2
 67
     7
 79
     5
170
     0
171
     0
290
     0
174
     0
 93
        1
 44
50.0
173
     0
291
     1
 45
0.0
1001
ACAD
1000
AcDbSavedByObjectVersion
1070
     0
  0
VISUALSTYLE
  5
4527
102
{ACAD_XDICTIONARY
360
4C48
102
}
102
{ACAD_REACTORS
330
4517
102
}
330
4517
100
AcDbVisualStyle
  2
ColorChange
 70
    16
 71
     2
 72
     2
 73
     3
 90
        0
 40
-0.6
 41
-30.0
 62
     5
 63
     8
 74
     1
 91
        4
 64
     7
 65
   257
 75
     1
175
     1
 42
1.0
 92
        8
 66
     8
 43
1.0
 76
     1
 77
     6
 78
     2
 67
     7
 79
     5
170
     0
171
     0
290
     0
174
     0
 93
        1
 44
0.0
173
     0
291
     1
 45
0.0
1001
ACAD
1000
AcDbSavedByObjectVersion
1070
     0
  0
VISUALSTYLE
  5
4520
102
{ACAD_XDICTIONARY
360
4C3A
102
}
102
{ACAD_REACTORS
330
4517
102
}
330
4517
100
AcDbVisualStyle
  2
Conceptual
 70
     9
 71
     3
 72
     2
 73
     0
 90
        0
 40
-0.6
 41
-30.0
 62
     5
 63
     7
 74
     2
 91
        2
 64
     7
 65
   257
 75
     1
175
     1
 42
179.0
 92
        8
 66
     7
 43
1.0
 76
     1
 77
     6
 78
     2
 67
     7
 79
     3
170
     0
171
     0
290
     0
174
     0
 93
        1
 44
0.0
173
     0
291
     0
 45
0.0
1001
ACAD
1000
AcDbSavedByObjectVersion
1070
     0
  0
VISUALSTYLE
  5
4522
102
{ACAD_XDICTIONARY
360
4C3E
102
}
102
{ACAD_REACTORS
330
4517
102
}
330
4517
100
AcDbVisualStyle
  2
Dim
 70
    11
 71
     2
 72
     2
 73
     0
 90
        0
 40
-0.6
 41
-30.0
 62
     5
 63
     7
 74
     1
 91
        4
 64
     7
 65
   257
 75
     1
175
     1
 42
1.0
 92
        8
 66
     7
 43
1.0
 76
     1
 77
     6
 78
     2
 67
     7
 79
     5
170
     0
171
     0
290
     0
174
     0
 93
        1
 44
-50.0
173
     0
291
     1
 45
0.0
1001
ACAD
1000
AcDbSavedByObjectVersion
1070
     0
  0
VISUALSTYLE
  5
452A
102
{ACAD_XDICTIONARY
360
4C4E
102
}
102
{ACAD_REACTORS
330
4517
102
}
330
4517
100
AcDbVisualStyle
  2
EdgeColorOff
 70
    22
 71
     2
 72
     2
 73
     0
 90
        0
 40
-0.6
 41
-30.0
 62
     5
 63
     7
 74
     1
 91
        4
 64
     7
 65
   257
 75
     1
175
     1
 42
1.0
 92
        8
 66
     7
 43
1.0
 76
     1
 77
     6
 78
     2
 67
     7
 79
     5
170
     0
171
     0
290
     0
174
     0
 93
        1
 44
0.0
173
     0
291
     1
 45
0.0
1001
ACAD
1000
AcDbSavedByObjectVersion
1070
     0
  0
VISUALSTYLE
  5
4526
102
{ACAD_XDICTIONARY
360
4C46
102
}
102
{ACAD_REACTORS
330
4517
102
}
330
4517
100
AcDbVisualStyle
  2
Facepattern
 70
    15
 71
     2
 72
     2
 73
     0
 90
        0
 40
-0.6
 41
-30.0
 62
     5
 63
     7
 74
     1
 91
        4
 64
     7
 65
   257
 75
     1
175
     1
 42
1.0
 92
        8
 66
     7
 43
1.0
 76
     1
 77
     6
 78
     2
 67
     7
 79
     5
170
     0
171
     0
290
     0
174
     0
 93
        1
 44
0.0
173
     0
291
     1
 45
0.0
1001
ACAD
1000
AcDbSavedByObjectVersion
1070
     0
  0
VISUALSTYLE
  5
4518
102
{ACAD_XDICTIONARY
360
4C2A
102
}
102
{ACAD_REACTORS
330
4517
102
}
330
4517
100
AcDbVisualStyle
  2
Flat
 70
     0
 71
     2
 72
     1
 73
     1
 90
        2
 40
-0.6
 41
30.0
 62
     5
 63
     7
 74
     0
 91
        4
 64
     7
 65
   257
 75
     1
175
     1
 42
1.0
 92
        8
 66
     7
 43
1.0
 76
     1
 77
     6
 78
     2
 67
     7
 79
     5
170
     0
171
     0
290
     0
174
     0
 93
       13
 44
0.0
173
     0
291
     1
 45
0.0
1001
ACAD
1000
AcDbSavedByObjectVersion
1070
     0
  0
VISUALSTYLE
  5
4519
102
{ACAD_XDICTIONARY
360
4C2C
102
}
102
{ACAD_REACTORS
330
4517
102
}
330
4517
100
AcDbVisualStyle
  2
FlatWithEdges
 70
     1
 71
     2
 72
     1
 73
     1
 90
        2
 40
-0.6
 41
30.0
 62
     5
 63
     7
 74
     1
 91
        4
 64
     7
 65
   257
 75
     1
175
     1
 42
1.0
 92
        0
 66
   257
 43
1.0
 76
     1
 77
     6
 78
     2
 67
     7
 79
     5
170
     0
171
     0
290
     0
174
     0
 93
       13
 44
0.0
173
     0
291
     1
 45
0.0
1001
ACAD
1000
AcDbSavedByObjectVersion
1070
     0
  0
VISUALSTYLE
  5
451A
102
{ACAD_XDICTIONARY
360
4C2E
102
}
102
{ACAD_REACTORS
330
4517
102
}
330
4517
100
AcDbVisualStyle
  2
Gouraud
 70
     2
 71
     2
 72
     2
 73
     1
 90
        2
 40
-0.6
 41
30.0
 62
     5
 63
     7
 74
     0
 91
        4
 64
     7
 65
   257
 75
     1
175
     1
 42
1.0
 92
        0
 66
     7
 43
1.0
 76
     1
 77
     6
 78
     2
 67
     7
 79
     5
170
     0
171
     0
290
     0
174
     0
 93
       13
 44
0.0
173
     0
291
     1
 45
0.0
1001
ACAD
1000
AcDbSavedByObjectVersion
1070
     0
  0
VISUALSTYLE
  5
451B
102
{ACAD_XDICTIONARY
360
4C30
102
}
102
{ACAD_REACTORS
330
4517
102
}
330
4517
100
AcDbVisualStyle
  2
GouraudWithEdges
 70
     3
 71
     2
 72
     2
 73
     1
 90
        2
 40
-0.6
 41
30.0
 62
     5
 63
     7
 74
     1
 91
        4
 64
     7
 65
   257
 75
     1
175
     1
 42
1.0
 92
        0
 66
   257
 43
1.0
 76
     1
 77
     6
 78
     2
 67
     7
 79
     5
170
     0
171
     0
290
     0
174
     0
 93
       13
 44
0.0
173
     0
291
     1
 45
0.0
1001
ACAD
1000
AcDbSavedByObjectVersion
1070
     0
  0
VISUALSTYLE
  5
4690
102
{ACAD_XDICTIONARY
360
4C53
102
}
102
{ACAD_REACTORS
330
4517
102
}
330
4517
100
AcDbVisualStyle
  2
Hidden
 70
     6
 71
     1
 72
     2
 73
     2
 90
        0
 40
-0.6
 41
-30.0
 62
     5
 63
     7
 74
     2
 91
        2
 64
     7
 65
   257
 75
     2
175
     1
 42
40.0
 92
        0
 66
   257
 43
1.0
 76
     1
 77
     6
 78
     2
 67
     7
 79
     3
170
     0
171
     0
290
     0
174
     0
 93
        1
 44
0.0
173
     0
291
     0
 45
0.0
1001
ACAD
1000
AcDbSavedByObjectVersion
1070
     0
  0
VISUALSTYLE
  5
4528
102
{ACAD_XDICTIONARY
360
4C4A
102
}
102
{ACAD_REACTORS
330
4517
102
}
330
4517
100
AcDbVisualStyle
  2
JitterOff
 70
    20
 71
     2
 72
     2
 73
     0
 90
        0
 40
-0.6
 41
-30.0
 62
     5
 63
     7
 74
     1
 91
        4
 64
     7
 65
   257
 75
     1
175
     1
 42
1.0
 92
       10
 66
     7
 43
1.0
 76
     1
 77
     6
 78
     2
 67
     7
 79
     5
170
     0
171
     0
290
     0
174
     0
 93
        1
 44
0.0
173
     0
291
     1
 45
0.0
1001
ACAD
1000
AcDbSavedByObjectVersion
1070
     0
  0
VISUALSTYLE
  5
4525
102
{ACAD_XDICTIONARY
360
4C44
102
}
102
{ACAD_REACTORS
330
4517
102
}
330
4517
100
AcDbVisualStyle
  2
Linepattern
 70
    14
 71
     2
 72
     2
 73
     0
 90
        0
 40
-0.6
 41
-30.0
 62
     5
 63
     7
 74
     1
 91
        4
 64
     7
 65
   257
 75
     7
175
     7
 42
1.0
 92
        8
 66
     7
 43
1.0
 76
     1
 77
     6
 78
     2
 67
     7
 79
     5
170
     0
171
     0
290
     0
174
     0
 93
        1
 44
0.0
173
     0
291
     1
 45
0.0
1001
ACAD
1000
AcDbSavedByObjectVersion
1070
     0
  0
VISUALSTYLE
  5
4529
102
{ACAD_XDICTIONARY
360
4C4C
102
}
102
{ACAD_REACTORS
330
4517
102
}
330
4517
100
AcDbVisualStyle
  2
OverhangOff
 70
    21
 71
     2
 72
     2
 73
     0
 90
        0
 40
-0.6
 41
-30.0
 62
     5
 63
     7
 74
     1
 91
        4
 64
     7
 65
   257
 75
     1
175
     1
 42
1.0
 92
        9
 66
     7
 43
1.0
 76
     1
 77
     6
 78
     2
 67
     7
 79
     5
170
     0
171
     0
290
     0
174
     0
 93
        1
 44
0.0
173
     0
291
     1
 45
0.0
1001
ACAD
1000
AcDbSavedByObjectVersion
1070
     0
  0
VISUALSTYLE
  5
4521
102
{ACAD_XDICTIONARY
360
4C3C
102
}
102
{ACAD_REACTORS
330
4517
102
}
330
4517
100
AcDbVisualStyle
  2
Realistic
 70
     8
 71
     2
 72
     2
 73
     0
 90
        0
 40
-0.6
 41
-30.0
 62
     5
 63
     7
 74
     1
 91
        0
 64
     7
 65
   257
 75
     1
175
     1
 42
1.0
 92
        8
 66
     8
 43
1.0
 76
     1
 77
     6
 78
     2
 67
     7
 79
     5
170
     0
171
     0
290
     0
174
     0
 93
       13
 44
0.0
173
     0
291
     0
 45
0.0
1001
ACAD
1000
AcDbSavedByObjectVersion
1070
     0
  0
VISUALSTYLE
  5
4695
102
{ACAD_XDICTIONARY
360
4C5D
102
}
102
{ACAD_REACTORS
330
4517
102
}
330
4517
100
AcDbVisualStyle
  2
Shaded
 70
    27
 71
     2
 72
     2
 73
     1
 90
        2
 40
-0.6
 41
30.0
 62
     5
 63
     7
 74
     0
 91
        4
 64
     7
 65
   257
 75
     1
175
     1
 42
1.0
 92
        8
 66
   257
 43
1.0
 76
     1
 77
     6
 78
     2
 67
     8
 79
     3
170
     0
171
     0
290
     0
174
     0
 93
        5
 44
0.0
173
     0
291
     0
 45
0.0
1001
ACAD
1000
AcDbSavedByObjectVersion
1070
     0
  0
VISUALSTYLE
  5
4694
102
{ACAD_XDICTIONARY
360
4C5B
102
}
102
{ACAD_REACTORS
330
4517
102
}
330
4517
100
AcDbVisualStyle
  2
Shaded with edges
 70
    26
 71
     2
 72
     2
 73
     1
 90
        2
 40
-0.6
 41
30.0
 62
     5
 63
     7
 74
     1
 91
        2
 64
     7
 65
   257
 75
     2
175
     1
 42
1.0
 92
        8
 66
   257
 43
1.0
 76
     1
 77
     6
 78
     2
 67
     7
 79
     3
170
     0
171
     0
290
     0
174
     0
 93
        5
 44
0.0
173
     0
291
     0
 45
0.0
1001
ACAD
1000
AcDbSavedByObjectVersion
1070
     0
  0
VISUALSTYLE
  5
4691
102
{ACAD_XDICTIONARY
360
4C55
102
}
102
{ACAD_REACTORS
330
4517
102
}
330
4517
100
AcDbVisualStyle
  2
Shades of Gray
 70
    23
 71
     2
 72
     2
 73
     3
 90
        0
 40
-0.6
 41
-30.0
 62
     5
 63
     7
 74
     2
 91
        2
 64
     7
 65
     7
 75
     1
175
     1
 42
40.0
 92
        8
 66
     7
 43
1.0
 76
     1
 77
     6
 78
     2
 67
     7
 79
     3
170
     0
171
     0
290
     0
174
     0
 93
        1
 44
0.0
173
     0
291
     0
 45
0.0
1001
ACAD
1000
AcDbSavedByObjectVersion
1070
     0
  0
VISUALSTYLE
  5
4692
102
{ACAD_XDICTIONARY
360
4C57
102
}
102
{ACAD_REACTORS
330
4517
102
}
330
4517
100
AcDbVisualStyle
  2
Sketchy
 70
    24
 71
     1
 72
     2
 73
     2
 90
        0
 40
-0.6
 41
-30.0
 62
     5
 63
     7
 74
     2
 91
        2
 64
     7
 65
     7
 75
     1
175
     1
 42
40.0
 92
       11
 66
     7
 43
1.0
 76
     1
 77
     6
 78
     2
 67
     7
 79
     6
170
     0
171
     0
290
     0
174
     0
 93
        1
 44
0.0
173
     0
291
     0
 45
0.0
1001
ACAD
1000
AcDbSavedByObjectVersion
1070
     0
  0
VISUALSTYLE
  5
4524
102
{ACAD_XDICTIONARY
360
4C42
102
}
102
{ACAD_REACTORS
330
4517
102
}
330
4517
100
AcDbVisualStyle
  2
Thicken
 70
    13
 71
     2
 72
     2
 73
     0
 90
        0
 40
-0.6
 41
-30.0
 62
     5
 63
     7
 74
     1
 91
        4
 64
     7
 65
   257
 75
     1
175
     1
 42
1.0
 92
       12
 66
     7
 43
1.0
 76
     1
 77
     6
 78
     2
 67
     7
 79
     5
170
     0
171
     0
290
     0
174
     0
 93
        1
 44
0.0
173
     0
291
     1
 45
0.0
1001
ACAD
1000
AcDbSavedByObjectVersion
1070
     0
  0
VISUALSTYLE
  5
468F
102
{ACAD_XDICTIONARY
360
4C51
102
}
102
{ACAD_REACTORS
330
4517
102
}
330
4517
100
AcDbVisualStyle
  2
Wireframe
 70
     5
 71
     0
 72
     2
 73
     0
 90
        0
 40
-0.6
 41
-30.0
 62
     5
 63
     7
 74
     1
 91
        4
 64
     7
 65
   257
 75
     1
175
     1
 42
1.0
 92
        0
 66
   257
 43
1.0
 76
     1
 77
     6
 78
     2
 67
     7
 79
     3
170
     0
171
     0
290
     0
174
     0
 93
        1
 44
0.0
173
     0
291
     0
 45
0.0
1001
ACAD
1000
AcDbSavedByObjectVersion
1070
     0
  0
VISUALSTYLE
  5
4693
102
{ACAD_XDICTIONARY
360
4C59
102
}
102
{ACAD_REACTORS
330
4517
102
}
330
4517
100
AcDbVisualStyle
  2
X-Ray
 70
    25
 71
     2
 72
     2
 73
     1
 90
        1
 40
0.5
 41
-30.0
 62
     5
 63
     7
 74
     1
 91
        0
 64
     7
 65
   257
 75
     1
175
     1
 42
1.0
 92
        8
 66
     7
 43
1.0
 76
     1
 77
     6
 78
     2
 67
     7
 79
     3
170
     0
171
     0
290
     0
174
     0
 93
       13
 44
0.0
173
     0
291
     0
 45
0.0
1001
ACAD
1000
AcDbSavedByObjectVersion
1070
     0
  0
DICTIONARYVAR
  5
45E2
102
{ACAD_REACTORS
330
1835
102
}
330
1835
100
DictionaryVariables
280
     0
  1
1:1
  0
DICTIONARYVAR
  5
45E1
102
{ACAD_REACTORS
330
1835
102
}
330
1835
100
DictionaryVariables
280
     0
  1
STANDARD
  0
DICTIONARYVAR
  5
45E0
102
{ACAD_REACTORS
330
1835
102
}
330
1835
100
DictionaryVariables
280
     0
  1
STANDARD
  0
DICTIONARYVAR
  5
4737
102
{ACAD_REACTORS
330
1835
102
}
330
1835
100
DictionaryVariables
280
     0
  1
Metric50
  0
DICTIONARYVAR
  5
4738
102
{ACAD_REACTORS
330
1835
102
}
330
1835
100
DictionaryVariables
280
     0
  1
Metric50
  0
DICTIONARYVAR
  5
45E4
102
{ACAD_REACTORS
330
1835
102
}
330
1835
100
DictionaryVariables
280
     0
  1
1
  0
DICTIONARYVAR
  5
45E3
102
{ACAD_REACTORS
330
1835
102
}
330
1835
100
DictionaryVariables
280
     0
  1
0
  0
DICTIONARYVAR
  5
1836
102
{ACAD_REACTORS
330
1835
102
}
330
1835
100
DictionaryVariables
280
     0
  1
127
  0
DICTIONARYVAR
  5
4C1F
102
{ACAD_REACTORS
330
1835
102
}
330
1835
100
DictionaryVariables
280
     0
  1
2
  0
DICTIONARY
  5
4C61
330
4699
100
AcDbDictionary
280
     1
281
     1
  3
ACAD_XREC_ROUNDTRIP
360
4C62
  0
DICTIONARY
  5
4C23
330
22
100
AcDbDictionary
280
     1
281
     1
  3
ACAD_XREC_ROUNDTRIP
360
4C24
  0
DICTIONARY
  5
4C25
330
1CD1
100
AcDbDictionary
280
     1
281
     1
  3
ACAD_XREC_ROUNDTRIP
360
4C26
  0
DICTIONARY
  5
4508
330
4507
100
AcDbDictionary
280
     1
281
     1
  3
ACAD_XREC_ROUNDTRIP
360
4C28
  3
BUMPTILE
360
450A
  3
DIFFUSETILE
360
4509
  3
OPACITYTILE
360
450D
  3
REFLECTIONTILE
360
450C
  3
REFRACTIONTILE
360
450E
  3
SPECULARTILE
360
450B
  0
DICTIONARY
  5
4500
330
44FF
100
AcDbDictionary
280
     1
281
     1
  3
ACAD_XREC_ROUNDTRIP
360
4C27
  3
BUMPTILE
360
4502
  3
DIFFUSETILE
360
4501
  3
OPACITYTILE
360
4505
  3
REFLECTIONTILE
360
4504
  3
REFRACTIONTILE
360
4506
  3
SPECULARTILE
360
4503
  0
DICTIONARY
  5
4510
330
450F
100
AcDbDictionary
280
     1
281
     1
  3
ACAD_XREC_ROUNDTRIP
360
4C29
  3
BUMPTILE
360
4512
  3
DIFFUSETILE
360
4511
  3
OPACITYTILE
360
4515
  3
REFLECTIONTILE
360
4514
  3
REFRACTIONTILE
360
4516
  3
SPECULARTILE
360
4513
  0
DICTIONARY
  5
4C5F
330
4697
100
AcDbDictionary
280
     1
281
     1
  3
ACAD_XREC_ROUNDTRIP
360
4C60
  0
DICTIONARY
  5
45AB
330
452D
100
AcDbDictionary
280
     1
281
     1
  3
ACAD_ROUNDTRIP_2008_TABLESTYLE_CELLSTYLEMAP
360
4C20
  3
ACAD_XREC_ROUNDTRIP
360
4C50
  0
DICTIONARY
  5
4C34
330
451D
100
AcDbDictionary
280
     1
281
     1
  3
ACAD_XREC_ROUNDTRIP
360
4C35
  0
DICTIONARY
  5
4C38
330
451F
100
AcDbDictionary
280
     1
281
     1
  3
ACAD_XREC_ROUNDTRIP
360
4C39
  0
DICTIONARY
  5
4C36
330
451E
100
AcDbDictionary
280
     1
281
     1
  3
ACAD_XREC_ROUNDTRIP
360
4C37
  0
DICTIONARY
  5
4C32
330
451C
100
AcDbDictionary
280
     1
281
     1
  3
ACAD_XREC_ROUNDTRIP
360
4C33
  0
DICTIONARY
  5
4C40
330
4523
100
AcDbDictionary
280
     1
281
     1
  3
ACAD_XREC_ROUNDTRIP
360
4C41
  0
DICTIONARY
  5
4C48
330
4527
100
AcDbDictionary
280
     1
281
     1
  3
ACAD_XREC_ROUNDTRIP
360
4C49
  0
DICTIONARY
  5
4C3A
330
4520
100
AcDbDictionary
280
     1
281
     1
  3
ACAD_XREC_ROUNDTRIP
360
4C3B
  0
DICTIONARY
  5
4C3E
330
4522
100
AcDbDictionary
280
     1
281
     1
  3
ACAD_XREC_ROUNDTRIP
360
4C3F
  0
DICTIONARY
  5
4C4E
330
452A
100
AcDbDictionary
280
     1
281
     1
  3
ACAD_XREC_ROUNDTRIP
360
4C4F
  0
DICTIONARY
  5
4C46
330
4526
100
AcDbDictionary
280
     1
281
     1
  3
ACAD_XREC_ROUNDTRIP
360
4C47
  0
DICTIONARY
  5
4C2A
330
4518
100
AcDbDictionary
280
     1
281
     1
  3
ACAD_XREC_ROUNDTRIP
360
4C2B
  0
DICTIONARY
  5
4C2C
330
4519
100
AcDbDictionary
280
     1
281
     1
  3
ACAD_XREC_ROUNDTRIP
360
4C2D
  0
DICTIONARY
  5
4C2E
330
451A
100
AcDbDictionary
280
     1
281
     1
  3
ACAD_XREC_ROUNDTRIP
360
4C2F
  0
DICTIONARY
  5
4C30
330
451B
100
AcDbDictionary
280
     1
281
     1
  3
ACAD_XREC_ROUNDTRIP
360
4C31
  0
DICTIONARY
  5
4C53
330
4690
100
AcDbDictionary
280
     1
281
     1
  3
ACAD_XREC_ROUNDTRIP
360
4C54
  0
DICTIONARY
  5
4C4A
330
4528
100
AcDbDictionary
280
     1
281
     1
  3
ACAD_XREC_ROUNDTRIP
360
4C4B
  0
DICTIONARY
  5
4C44
330
4525
100
AcDbDictionary
280
     1
281
     1
  3
ACAD_XREC_ROUNDTRIP
360
4C45
  0
DICTIONARY
  5
4C4C
330
4529
100
AcDbDictionary
280
     1
281
     1
  3
ACAD_XREC_ROUNDTRIP
360
4C4D
  0
DICTIONARY
  5
4C3C
330
4521
100
AcDbDictionary
280
     1
281
     1
  3
ACAD_XREC_ROUNDTRIP
360
4C3D
  0
DICTIONARY
  5
4C5D
330
4695
100
AcDbDictionary
280
     1
281
     1
  3
ACAD_XREC_ROUNDTRIP
360
4C5E
  0
DICTIONARY
  5
4C5B
330
4694
100
AcDbDictionary
280
     1
281
     1
  3
ACAD_XREC_ROUNDTRIP
360
4C5C
  0
DICTIONARY
  5
4C55
330
4691
100
AcDbDictionary
280
     1
281
     1
  3
ACAD_XREC_ROUNDTRIP
360
4C56
  0
DICTIONARY
  5
4C57
330
4692
100
AcDbDictionary
280
     1
281
     1
  3
ACAD_XREC_ROUNDTRIP
360
4C58
  0
DICTIONARY
  5
4C42
330
4524
100
AcDbDictionary
280
     1
281
     1
  3
ACAD_XREC_ROUNDTRIP
360
4C43
  0
DICTIONARY
  5
4C51
330
468F
100
AcDbDictionary
280
     1
281
     1
  3
ACAD_XREC_ROUNDTRIP
360
4C52
  0
DICTIONARY
  5
4C59
330
4693
100
AcDbDictionary
280
     1
281
     1
  3
ACAD_XREC_ROUNDTRIP
360
4C5A
  0
XRECORD
  5
4C62
102
{ACAD_REACTORS
330
4C61
102
}
330
4C61
100
AcDbXrecord
280
     1
102
DISPLAYNAME
  1
Metric50
102
FLAGS
 90
        0
  0
XRECORD
  5
4C24
102
{ACAD_REACTORS
330
4C23
102
}
330
4C23
100
AcDbXrecord
280
     1
102
SHADEPLOT
 70
     0
102
SHADEPLOTRESLEVEL
 70
     2
102
SHADEPLOTCUSTOMDPI
 70
   300
  0
XRECORD
  5
4C26
102
{ACAD_REACTORS
330
4C25
102
}
330
4C25
100
AcDbXrecord
280
     1
102
SHADEPLOT
 70
     0
102
SHADEPLOTRESLEVEL
 70
     2
102
SHADEPLOTCUSTOMDPI
 70
   300
  0
XRECORD
  5
4C28
102
{ACAD_REACTORS
330
4508
102
}
330
4508
100
AcDbXrecord
280
     1
102
MATERIAL
148
0.0
149
0.0
149
0.0
 93
        0
 94
      127
282
     0
 72
     0
 77
     0
171
     0
175
     0
179
     0
273
     0
  0
XRECORD
  5
450A
102
{ACAD_REACTORS
330
4508
102
}
330
4508
100
AcDbXrecord
280
     1
270
     1
271
     1
  0
XRECORD
  5
4509
102
{ACAD_REACTORS
330
4508
102
}
330
4508
100
AcDbXrecord
280
     1
270
     1
271
     1
  0
XRECORD
  5
450D
102
{ACAD_REACTORS
330
4508
102
}
330
4508
100
AcDbXrecord
280
     1
270
     1
271
     1
  0
XRECORD
  5
450C
102
{ACAD_REACTORS
330
4508
102
}
330
4508
100
AcDbXrecord
280
     1
270
     1
271
     1
  0
XRECORD
  5
450E
102
{ACAD_REACTORS
330
4508
102
}
330
4508
100
AcDbXrecord
280
     1
270
     1
271
     1
  0
XRECORD
  5
450B
102
{ACAD_REACTORS
330
4508
102
}
330
4508
100
AcDbXrecord
280
     1
270
     1
271
     1
  0
XRECORD
  5
4C27
102
{ACAD_REACTORS
330
4500
102
}
330
4500
100
AcDbXrecord
280
     1
102
MATERIAL
148
0.0
149
0.0
149
0.0
 93
        0
 94
      127
282
     0
 72
     0
 77
     0
171
     0
175
     0
179
     0
273
     0
  0
XRECORD
  5
4502
102
{ACAD_REACTORS
330
4500
102
}
330
4500
100
AcDbXrecord
280
     1
270
     1
271
     1
  0
XRECORD
  5
4501
102
{ACAD_REACTORS
330
4500
102
}
330
4500
100
AcDbXrecord
280
     1
270
     1
271
     1
  0
XRECORD
  5
4505
102
{ACAD_REACTORS
330
4500
102
}
330
4500
100
AcDbXrecord
280
     1
270
     1
271
     1
  0
XRECORD
  5
4504
102
{ACAD_REACTORS
330
4500
102
}
330
4500
100
AcDbXrecord
280
     1
270
     1
271
     1
  0
XRECORD
  5
4506
102
{ACAD_REACTORS
330
4500
102
}
330
4500
100
AcDbXrecord
280
     1
270
     1
271
     1
  0
XRECORD
  5
4503
102
{ACAD_REACTORS
330
4500
102
}
330
4500
100
AcDbXrecord
280
     1
270
     1
271
     1
  0
XRECORD
  5
4C29
102
{ACAD_REACTORS
330
4510
102
}
330
4510
100
AcDbXrecord
280
     1
102
MATERIAL
148
0.0
149
0.0
149
0.0
 93
        0
 94
      127
282
     0
 72
     0
 77
     0
171
     0
175
     0
179
     0
273
     0
  0
XRECORD
  5
4512
102
{ACAD_REACTORS
330
4510
102
}
330
4510
100
AcDbXrecord
280
     1
270
     1
271
     1
  0
XRECORD
  5
4511
102
{ACAD_REACTORS
330
4510
102
}
330
4510
100
AcDbXrecord
280
     1
270
     1
271
     1
  0
XRECORD
  5
4515
102
{ACAD_REACTORS
330
4510
102
}
330
4510
100
AcDbXrecord
280
     1
270
     1
271
     1
  0
XRECORD
  5
4514
102
{ACAD_REACTORS
330
4510
102
}
330
4510
100
AcDbXrecord
280
     1
270
     1
271
     1
  0
XRECORD
  5
4516
102
{ACAD_REACTORS
330
4510
102
}
330
4510
100
AcDbXrecord
280
     1
270
     1
271
     1
  0
XRECORD
  5
4513
102
{ACAD_REACTORS
330
4510
102
}
330
4510
100
AcDbXrecord
280
     1
270
     1
271
     1
  0
XRECORD
  5
4C60
102
{ACAD_REACTORS
330
4C5F
102
}
330
4C5F
100
AcDbXrecord
280
     1
102
DISPLAYNAME
  1
Metric50
102
FLAGS
 90
        0
  0
CELLSTYLEMAP
  5
4C20
102
{ACAD_REACTORS
330
45AB
102
}
330
45AB
100
AcDbCellStyleMap
 90
        3
300
CELLSTYLE
  1
TABLEFORMAT_BEGIN
 90
        5
170
     1
 91
        0
 92
    32768
 62
   257
 93
        1
300
CONTENTFORMAT
  1
CONTENTFORMAT_BEGIN
 90
        0
 91
        0
 92
      512
 93
        0
300

 40
0.0
140
1.0
 94
        5
 62
     0
340
11
144
6.0
309
CONTENTFORMAT_END
171
     1
301
MARGIN
  1
CELLMARGIN_BEGIN
 40
1.5
 40
1.5
 40
1.5
 40
1.5
 40
4.5
 40
4.5
309
CELLMARGIN_END
 94
        6
 95
        1
302
GRIDFORMAT
  1
GRIDFORMAT_BEGIN
 90
        0
 91
        1
 62
     0
 92
       -2
340
0
 93
        0
 40
1.125
309
GRIDFORMAT_END
 95
        2
302
GRIDFORMAT
  1
GRIDFORMAT_BEGIN
 90
        0
 91
        1
 62
     0
 92
       -2
340
0
 93
        0
 40
1.125
309
GRIDFORMAT_END
 95
        4
302
GRIDFORMAT
  1
GRIDFORMAT_BEGIN
 90
        0
 91
        1
 62
     0
 92
       -2
340
0
 93
        0
 40
1.125
309
GRIDFORMAT_END
 95
        8
302
GRIDFORMAT
  1
GRIDFORMAT_BEGIN
 90
        0
 91
        1
 62
     0
 92
       -2
340
0
 93
        0
 40
1.125
309
GRIDFORMAT_END
 95
       16
302
GRIDFORMAT
  1
GRIDFORMAT_BEGIN
 90
        0
 91
        1
 62
     0
 92
       -2
340
0
 93
        0
 40
1.125
309
GRIDFORMAT_END
 95
       32
302
GRIDFORMAT
  1
GRIDFORMAT_BEGIN
 90
        0
 91
        1
 62
     0
 92
       -2
340
0
 93
        0
 40
1.125
309
GRIDFORMAT_END
309
TABLEFORMAT_END
  1
CELLSTYLE_BEGIN
 90
        1
 91
        1
300
_TITLE
309
CELLSTYLE_END
300
CELLSTYLE
  1
TABLEFORMAT_BEGIN
 90
        5
170
     1
 91
        0
 92
        0
 62
   257
 93
        1
300
CONTENTFORMAT
  1
CONTENTFORMAT_BEGIN
 90
        0
 91
        0
 92
      512
 93
        0
300

 40
0.0
140
1.0
 94
        5
 62
     0
340
11
144
4.5
309
CONTENTFORMAT_END
171
     1
301
MARGIN
  1
CELLMARGIN_BEGIN
 40
1.5
 40
1.5
 40
1.5
 40
1.5
 40
4.5
 40
4.5
309
CELLMARGIN_END
 94
        6
 95
        1
302
GRIDFORMAT
  1
GRIDFORMAT_BEGIN
 90
        0
 91
        1
 62
     0
 92
       -2
340
0
 93
        0
 40
1.125
309
GRIDFORMAT_END
 95
        2
302
GRIDFORMAT
  1
GRIDFORMAT_BEGIN
 90
        0
 91
        1
 62
     0
 92
       -2
340
0
 93
        0
 40
1.125
309
GRIDFORMAT_END
 95
        4
302
GRIDFORMAT
  1
GRIDFORMAT_BEGIN
 90
        0
 91
        1
 62
     0
 92
       -2
340
0
 93
        0
 40
1.125
309
GRIDFORMAT_END
 95
        8
302
GRIDFORMAT
  1
GRIDFORMAT_BEGIN
 90
        0
 91
        1
 62
     0
 92
       -2
340
0
 93
        0
 40
1.125
309
GRIDFORMAT_END
 95
       16
302
GRIDFORMAT
  1
GRIDFORMAT_BEGIN
 90
        0
 91
        1
 62
     0
 92
       -2
340
0
 93
        0
 40
1.125
309
GRIDFORMAT_END
 95
       32
302
GRIDFORMAT
  1
GRIDFORMAT_BEGIN
 90
        0
 91
        1
 62
     0
 92
       -2
340
0
 93
        0
 40
1.125
309
GRIDFORMAT_END
309
TABLEFORMAT_END
  1
CELLSTYLE_BEGIN
 90
        2
 91
        1
300
_HEADER
309
CELLSTYLE_END
300
CELLSTYLE
  1
TABLEFORMAT_BEGIN
 90
        5
170
     1
 91
        0
 92
        0
 62
   257
 93
        1
300
CONTENTFORMAT
  1
CONTENTFORMAT_BEGIN
 90
        0
 91
        0
 92
      512
 93
        0
300

 40
0.0
140
1.0
 94
        2
 62
     0
340
11
144
4.5
309
CONTENTFORMAT_END
171
     1
301
MARGIN
  1
CELLMARGIN_BEGIN
 40
1.5
 40
1.5
 40
1.5
 40
1.5
 40
4.5
 40
4.5
309
CELLMARGIN_END
 94
        6
 95
        1
302
GRIDFORMAT
  1
GRIDFORMAT_BEGIN
 90
        0
 91
        1
 62
     0
 92
       -2
340
0
 93
        0
 40
1.125
309
GRIDFORMAT_END
 95
        2
302
GRIDFORMAT
  1
GRIDFORMAT_BEGIN
 90
        0
 91
        1
 62
     0
 92
       -2
340
0
 93
        0
 40
1.125
309
GRIDFORMAT_END
 95
        4
302
GRIDFORMAT
  1
GRIDFORMAT_BEGIN
 90
        0
 91
        1
 62
     0
 92
       -2
340
0
 93
        0
 40
1.125
309
GRIDFORMAT_END
 95
        8
302
GRIDFORMAT
  1
GRIDFORMAT_BEGIN
 90
        0
 91
        1
 62
     0
 92
       -2
340
0
 93
        0
 40
1.125
309
GRIDFORMAT_END
 95
       16
302
GRIDFORMAT
  1
GRIDFORMAT_BEGIN
 90
        0
 91
        1
 62
     0
 92
       -2
340
0
 93
        0
 40
1.125
309
GRIDFORMAT_END
 95
       32
302
GRIDFORMAT
  1
GRIDFORMAT_BEGIN
 90
        0
 91
        1
 62
     0
 92
       -2
340
0
 93
        0
 40
1.125
309
GRIDFORMAT_END
309
TABLEFORMAT_END
  1
CELLSTYLE_BEGIN
 90
        3
 91
        2
300
_DATA
309
CELLSTYLE_END
  0
XRECORD
  5
4C50
102
{ACAD_REACTORS
330
45AB
102
}
330
45AB
100
AcDbXrecord
280
     1
102
ACAD_ROUNDTRIP_PRE2007_TABLESTYLE
 90
      512
 91
        0
  1

 92
      512
 93
        0
  2

 94
      512
 95
        0
  3

  0
XRECORD
  5
4C35
102
{ACAD_REACTORS
330
4C34
102
}
330
4C34
100
AcDbXrecord
280
     1
102
RTVSPost2010Prop28
280
     1
102
RTVSPost2010PropOp28
 70
     1
102
RTVSPost2010Prop29
280
     1
102
RTVSPost2010PropOp29
 70
     1
102
RTVSPost2010Prop30
280
     0
102
RTVSPost2010PropOp30
 70
     1
102
RTVSPost2010Prop31
280
     0
102
RTVSPost2010PropOp31
 70
     1
102
RTVSPost2010Prop32
280
     0
102
RTVSPost2010PropOp32
 70
     1
102
RTVSPost2010Prop33
280
     0
102
RTVSPost2010PropOp33
 70
     1
102
RTVSPost2010Prop34
280
     0
102
RTVSPost2010PropOp34
 70
     1
102
RTVSPost2010Prop35
280
     0
102
RTVSPost2010PropOp35
 70
     1
102
RTVSPost2010Prop36
280
     0
102
RTVSPost2010PropOp36
 70
     1
102
RTVSPost2010Prop37
 90
       50
102
RTVSPost2010PropOp37
 70
     1
102
RTVSPost2010Prop38
140
0.0
102
RTVSPost2010PropOp38
 70
     1
102
RTVSPost2010Prop39
140
1.0
102
RTVSPost2010PropOp39
 70
     1
102
RTVSPost2010Prop40
 90
        0
102
RTVSPost2010PropOp40
 70
     1
102
RTVSPost2010Prop41ColorIndex
 90
       18
102
RTVSPost2010Prop41ColorRGB
 90
        0
102
RTVSPost2010PropOp41
 70
     1
102
RTVSPost2010Prop42
 90
       50
102
RTVSPost2010PropOp42
 70
     1
102
RTVSPost2010Prop43
 90
        3
102
RTVSPost2010PropOp43
 70
     1
102
RTVSPost2010Prop44ColorIndex
 90
        5
102
RTVSPost2010Prop44ColorRGB
 90
      255
102
RTVSPost2010PropOp44
 70
     1
102
RTVSPost2010Prop45
280
     0
102
RTVSPost2010PropOp45
 70
     1
102
RTVSPost2010Prop46
 90
       50
102
RTVSPost2010PropOp46
 70
     1
102
RTVSPost2010Prop47
 90
       50
102
RTVSPost2010PropOp47
 70
     1
102
RTVSPost2010Prop48
 90
       50
102
RTVSPost2010PropOp48
 70
     1
102
RTVSPost2010Prop49
280
     0
102
RTVSPost2010PropOp49
 70
     1
102
RTVSPost2010Prop50
 90
       50
102
RTVSPost2010PropOp50
 70
     1
102
RTVSPost2010Prop51ColorIndex
 90
      256
102
RTVSPost2010Prop51ColorRGB
 90
-16777216
102
RTVSPost2010PropOp51
 70
     0
102
RTVSPost2010Prop52
140
1.0
102
RTVSPost2010PropOp52
 70
     0
102
RTVSPost2010Prop53
 90
        2
102
RTVSPost2010PropOp53
 70
     1
102
RTVSPost2010Prop54
  1
strokes_ogs.tif
102
RTVSPost2010PropOp54
 70
     1
102
RTVSPost2010Prop55
280
     0
102
RTVSPost2010PropOp55
 70
     1
102
RTVSPost2010Prop56
140
1.0
102
RTVSPost2010PropOp56
 70
     1
102
RTVSPost2010Prop57
140
1.0
102
RTVSPost2010PropOp57
 70
     1
102
RTVSPropertyOp0
 70
     1
102
RTVSPropertyOp1
 70
     1
102
RTVSPropertyOp2
 70
     1
102
RTVSPropertyOp3
 70
     1
102
RTVSPropertyOp4
 70
     1
102
RTVSPropertyOp5
 70
     1
102
RTVSPropertyOp6
 70
     1
102
RTVSPropertyOp7
 70
     1
102
RTVSPropertyOp8
 70
     1
102
RTVSPropertyOp9
 70
     1
102
RTVSPropertyOp10
 70
     1
102
RTVSPropertyOp11
 70
     1
102
RTVSPropertyOp12
 70
     1
102
RTVSPropertyOp13
 70
     1
102
RTVSPropertyOp14
 70
     1
102
RTVSPropertyOp15
 70
     1
102
RTVSPropertyOp16
 70
     1
102
RTVSPropertyOp17
 70
     1
102
RTVSPropertyOp18
 70
     1
102
RTVSPropertyOp19
 70
     1
102
RTVSPropertyOp20
 70
     1
102
RTVSPropertyOp21
 70
     1
102
RTVSPropertyOp22
 70
     1
102
RTVSPropertyOp23
 70
     1
102
RTVSPropertyOp24
 70
     1
102
RTVSPropertyOp25
 70
     1
102
RTVSPropertyOp26
 70
     1
102
RTVSPropertyOp27
 70
     1
102
RTVSPropertyOp28
 70
     1
102
RTVSPropertyOp29
 70
     1
102
RTVSPropertyOp30
 70
     1
102
RTVSPropertyOp31
 70
     1
102
RTVSPropertyOp32
 70
     1
102
RTVSPropertyOp33
 70
     1
102
RTVSPropertyOp34
 70
     1
102
RTVSPropertyOp35
 70
     1
102
RTVSPropertyOp36
 70
     1
102
RTVSPropertyOp37
 70
     1
102
RTVSPropertyOp38
 70
     1
102
RTVSPropertyOp39
 70
     1
102
RTVSPropertyOp40
 70
     1
102
RTVSPropertyOp41
 70
     1
102
RTVSPropertyOp42
 70
     1
102
RTVSPropertyOp43
 70
     1
102
RTVSPropertyOp44
 70
     1
102
RTVSPropertyOp45
 70
     1
102
RTVSPropertyOp46
 70
     1
102
RTVSPropertyOp47
 70
     1
102
RTVSPropertyOp48
 70
     1
102
RTVSPropertyOp49
 70
     1
102
RTVSPropertyOp50
 70
     1
102
RTVSPropertyOp51
 70
     0
102
RTVSPropertyOp52
 70
     0
102
RTVSPropertyOp53
 70
     1
102
RTVSPropertyOp54
 70
     1
102
RTVSPropertyOp55
 70
     1
102
RTVSPropertyOp56
 70
     1
102
RTVSPropertyOp57
 70
     1
102
RTVSPropertyOp58
 70
     1
102
RTVSPropertyOp59
 70
     1
102
RTVSPropertyOp60
 70
     1
102
RTVSPropertyOp61
 70
     1
102
RTVSPropertyOp62
 70
     1
  0
XRECORD
  5
4C39
102
{ACAD_REACTORS
330
4C38
102
}
330
4C38
100
AcDbXrecord
280
     1
102
RTVSPost2010Prop28
280
     0
102
RTVSPost2010PropOp28
 70
     1
102
RTVSPost2010Prop29
280
     1
102
RTVSPost2010PropOp29
 70
     1
102
RTVSPost2010Prop30
280
     1
102
RTVSPost2010PropOp30
 70
     1
102
RTVSPost2010Prop31
280
     0
102
RTVSPost2010PropOp31
 70
     1
102
RTVSPost2010Prop32
280
     0
102
RTVSPost2010PropOp32
 70
     1
102
RTVSPost2010Prop33
280
     0
102
RTVSPost2010PropOp33
 70
     1
102
RTVSPost2010Prop34
280
     0
102
RTVSPost2010PropOp34
 70
     1
102
RTVSPost2010Prop35
280
     0
102
RTVSPost2010PropOp35
 70
     1
102
RTVSPost2010Prop36
280
     0
102
RTVSPost2010PropOp36
 70
     1
102
RTVSPost2010Prop37
 90
       50
102
RTVSPost2010PropOp37
 70
     1
102
RTVSPost2010Prop38
140
0.0
102
RTVSPost2010PropOp38
 70
     1
102
RTVSPost2010Prop39
140
1.0
102
RTVSPost2010PropOp39
 70
     1
102
RTVSPost2010Prop40
 90
        0
102
RTVSPost2010PropOp40
 70
     1
102
RTVSPost2010Prop41ColorIndex
 90
       18
102
RTVSPost2010Prop41ColorRGB
 90
        0
102
RTVSPost2010PropOp41
 70
     1
102
RTVSPost2010Prop42
 90
       50
102
RTVSPost2010PropOp42
 70
     1
102
RTVSPost2010Prop43
 90
        3
102
RTVSPost2010PropOp43
 70
     1
102
RTVSPost2010Prop44ColorIndex
 90
        5
102
RTVSPost2010Prop44ColorRGB
 90
      255
102
RTVSPost2010PropOp44
 70
     1
102
RTVSPost2010Prop45
280
     0
102
RTVSPost2010PropOp45
 70
     1
102
RTVSPost2010Prop46
 90
       50
102
RTVSPost2010PropOp46
 70
     1
102
RTVSPost2010Prop47
 90
       50
102
RTVSPost2010PropOp47
 70
     1
102
RTVSPost2010Prop48
 90
       50
102
RTVSPost2010PropOp48
 70
     1
102
RTVSPost2010Prop49
280
     0
102
RTVSPost2010PropOp49
 70
     1
102
RTVSPost2010Prop50
 90
       50
102
RTVSPost2010PropOp50
 70
     1
102
RTVSPost2010Prop51ColorIndex
 90
      256
102
RTVSPost2010Prop51ColorRGB
 90
-16777216
102
RTVSPost2010PropOp51
 70
     0
102
RTVSPost2010Prop52
140
1.0
102
RTVSPost2010PropOp52
 70
     0
102
RTVSPost2010Prop53
 90
        2
102
RTVSPost2010PropOp53
 70
     1
102
RTVSPost2010Prop54
  1
strokes_ogs.tif
102
RTVSPost2010PropOp54
 70
     1
102
RTVSPost2010Prop55
280
     0
102
RTVSPost2010PropOp55
 70
     1
102
RTVSPost2010Prop56
140
1.0
102
RTVSPost2010PropOp56
 70
     1
102
RTVSPost2010Prop57
140
1.0
102
RTVSPost2010PropOp57
 70
     1
102
RTVSPropertyOp0
 70
     1
102
RTVSPropertyOp1
 70
     1
102
RTVSPropertyOp2
 70
     1
102
RTVSPropertyOp3
 70
     1
102
RTVSPropertyOp4
 70
     1
102
RTVSPropertyOp5
 70
     1
102
RTVSPropertyOp6
 70
     1
102
RTVSPropertyOp7
 70
     1
102
RTVSPropertyOp8
 70
     1
102
RTVSPropertyOp9
 70
     1
102
RTVSPropertyOp10
 70
     1
102
RTVSPropertyOp11
 70
     1
102
RTVSPropertyOp12
 70
     1
102
RTVSPropertyOp13
 70
     1
102
RTVSPropertyOp14
 70
     1
102
RTVSPropertyOp15
 70
     1
102
RTVSPropertyOp16
 70
     1
102
RTVSPropertyOp17
 70
     1
102
RTVSPropertyOp18
 70
     1
102
RTVSPropertyOp19
 70
     1
102
RTVSPropertyOp20
 70
     1
102
RTVSPropertyOp21
 70
     1
102
RTVSPropertyOp22
 70
     1
102
RTVSPropertyOp23
 70
     1
102
RTVSPropertyOp24
 70
     1
102
RTVSPropertyOp25
 70
     1
102
RTVSPropertyOp26
 70
     1
102
RTVSPropertyOp27
 70
     1
102
RTVSPropertyOp28
 70
     1
102
RTVSPropertyOp29
 70
     1
102
RTVSPropertyOp30
 70
     1
102
RTVSPropertyOp31
 70
     1
102
RTVSPropertyOp32
 70
     1
102
RTVSPropertyOp33
 70
     1
102
RTVSPropertyOp34
 70
     1
102
RTVSPropertyOp35
 70
     1
102
RTVSPropertyOp36
 70
     1
102
RTVSPropertyOp37
 70
     1
102
RTVSPropertyOp38
 70
     1
102
RTVSPropertyOp39
 70
     1
102
RTVSPropertyOp40
 70
     1
102
RTVSPropertyOp41
 70
     1
102
RTVSPropertyOp42
 70
     1
102
RTVSPropertyOp43
 70
     1
102
RTVSPropertyOp44
 70
     1
102
RTVSPropertyOp45
 70
     1
102
RTVSPropertyOp46
 70
     1
102
RTVSPropertyOp47
 70
     1
102
RTVSPropertyOp48
 70
     1
102
RTVSPropertyOp49
 70
     1
102
RTVSPropertyOp50
 70
     1
102
RTVSPropertyOp51
 70
     0
102
RTVSPropertyOp52
 70
     0
102
RTVSPropertyOp53
 70
     1
102
RTVSPropertyOp54
 70
     1
102
RTVSPropertyOp55
 70
     1
102
RTVSPropertyOp56
 70
     1
102
RTVSPropertyOp57
 70
     1
102
RTVSPropertyOp58
 70
     1
102
RTVSPropertyOp59
 70
     1
102
RTVSPropertyOp60
 70
     1
102
RTVSPropertyOp61
 70
     1
102
RTVSPropertyOp62
 70
     1
  0
XRECORD
  5
4C37
102
{ACAD_REACTORS
330
4C36
102
}
330
4C36
100
AcDbXrecord
280
     1
102
RTVSPost2010Prop28
280
     0
102
RTVSPost2010PropOp28
 70
     1
102
RTVSPost2010Prop29
280
     1
102
RTVSPost2010PropOp29
 70
     1
102
RTVSPost2010Prop30
280
     1
102
RTVSPost2010PropOp30
 70
     1
102
RTVSPost2010Prop31
280
     0
102
RTVSPost2010PropOp31
 70
     1
102
RTVSPost2010Prop32
280
     0
102
RTVSPost2010PropOp32
 70
     1
102
RTVSPost2010Prop33
280
     0
102
RTVSPost2010PropOp33
 70
     1
102
RTVSPost2010Prop34
280
     0
102
RTVSPost2010PropOp34
 70
     1
102
RTVSPost2010Prop35
280
     0
102
RTVSPost2010PropOp35
 70
     1
102
RTVSPost2010Prop36
280
     0
102
RTVSPost2010PropOp36
 70
     1
102
RTVSPost2010Prop37
 90
       50
102
RTVSPost2010PropOp37
 70
     1
102
RTVSPost2010Prop38
140
0.0
102
RTVSPost2010PropOp38
 70
     1
102
RTVSPost2010Prop39
140
1.0
102
RTVSPost2010PropOp39
 70
     1
102
RTVSPost2010Prop40
 90
        0
102
RTVSPost2010PropOp40
 70
     1
102
RTVSPost2010Prop41ColorIndex
 90
       18
102
RTVSPost2010Prop41ColorRGB
 90
        0
102
RTVSPost2010PropOp41
 70
     1
102
RTVSPost2010Prop42
 90
       50
102
RTVSPost2010PropOp42
 70
     1
102
RTVSPost2010Prop43
 90
        3
102
RTVSPost2010PropOp43
 70
     1
102
RTVSPost2010Prop44ColorIndex
 90
        5
102
RTVSPost2010Prop44ColorRGB
 90
      255
102
RTVSPost2010PropOp44
 70
     1
102
RTVSPost2010Prop45
280
     0
102
RTVSPost2010PropOp45
 70
     1
102
RTVSPost2010Prop46
 90
       50
102
RTVSPost2010PropOp46
 70
     1
102
RTVSPost2010Prop47
 90
       50
102
RTVSPost2010PropOp47
 70
     1
102
RTVSPost2010Prop48
 90
       50
102
RTVSPost2010PropOp48
 70
     1
102
RTVSPost2010Prop49
280
     0
102
RTVSPost2010PropOp49
 70
     1
102
RTVSPost2010Prop50
 90
       50
102
RTVSPost2010PropOp50
 70
     1
102
RTVSPost2010Prop51ColorIndex
 90
      256
102
RTVSPost2010Prop51ColorRGB
 90
-16777216
102
RTVSPost2010PropOp51
 70
     0
102
RTVSPost2010Prop52
140
1.0
102
RTVSPost2010PropOp52
 70
     0
102
RTVSPost2010Prop53
 90
        2
102
RTVSPost2010PropOp53
 70
     1
102
RTVSPost2010Prop54
  1
strokes_ogs.tif
102
RTVSPost2010PropOp54
 70
     1
102
RTVSPost2010Prop55
280
     0
102
RTVSPost2010PropOp55
 70
     1
102
RTVSPost2010Prop56
140
1.0
102
RTVSPost2010PropOp56
 70
     1
102
RTVSPost2010Prop57
140
1.0
102
RTVSPost2010PropOp57
 70
     1
102
RTVSPropertyOp0
 70
     1
102
RTVSPropertyOp1
 70
     1
102
RTVSPropertyOp2
 70
     1
102
RTVSPropertyOp3
 70
     1
102
RTVSPropertyOp4
 70
     1
102
RTVSPropertyOp5
 70
     1
102
RTVSPropertyOp6
 70
     1
102
RTVSPropertyOp7
 70
     1
102
RTVSPropertyOp8
 70
     1
102
RTVSPropertyOp9
 70
     1
102
RTVSPropertyOp10
 70
     1
102
RTVSPropertyOp11
 70
     1
102
RTVSPropertyOp12
 70
     1
102
RTVSPropertyOp13
 70
     1
102
RTVSPropertyOp14
 70
     1
102
RTVSPropertyOp15
 70
     1
102
RTVSPropertyOp16
 70
     1
102
RTVSPropertyOp17
 70
     1
102
RTVSPropertyOp18
 70
     1
102
RTVSPropertyOp19
 70
     1
102
RTVSPropertyOp20
 70
     1
102
RTVSPropertyOp21
 70
     1
102
RTVSPropertyOp22
 70
     1
102
RTVSPropertyOp23
 70
     1
102
RTVSPropertyOp24
 70
     1
102
RTVSPropertyOp25
 70
     1
102
RTVSPropertyOp26
 70
     1
102
RTVSPropertyOp27
 70
     1
102
RTVSPropertyOp28
 70
     1
102
RTVSPropertyOp29
 70
     1
102
RTVSPropertyOp30
 70
     1
102
RTVSPropertyOp31
 70
     1
102
RTVSPropertyOp32
 70
     1
102
RTVSPropertyOp33
 70
     1
102
RTVSPropertyOp34
 70
     1
102
RTVSPropertyOp35
 70
     1
102
RTVSPropertyOp36
 70
     1
102
RTVSPropertyOp37
 70
     1
102
RTVSPropertyOp38
 70
     1
102
RTVSPropertyOp39
 70
     1
102
RTVSPropertyOp40
 70
     1
102
RTVSPropertyOp41
 70
     1
102
RTVSPropertyOp42
 70
     1
102
RTVSPropertyOp43
 70
     1
102
RTVSPropertyOp44
 70
     1
102
RTVSPropertyOp45
 70
     1
102
RTVSPropertyOp46
 70
     1
102
RTVSPropertyOp47
 70
     1
102
RTVSPropertyOp48
 70
     1
102
RTVSPropertyOp49
 70
     1
102
RTVSPropertyOp50
 70
     1
102
RTVSPropertyOp51
 70
     0
102
RTVSPropertyOp52
 70
     0
102
RTVSPropertyOp53
 70
     1
102
RTVSPropertyOp54
 70
     1
102
RTVSPropertyOp55
 70
     1
102
RTVSPropertyOp56
 70
     1
102
RTVSPropertyOp57
 70
     1
102
RTVSPropertyOp58
 70
     1
102
RTVSPropertyOp59
 70
     1
102
RTVSPropertyOp60
 70
     1
102
RTVSPropertyOp61
 70
     1
102
RTVSPropertyOp62
 70
     1
  0
XRECORD
  5
4C33
102
{ACAD_REACTORS
330
4C32
102
}
330
4C32
100
AcDbXrecord
280
     1
102
RTVSPost2010Prop28
280
     0
102
RTVSPost2010PropOp28
 70
     1
102
RTVSPost2010Prop29
280
     1
102
RTVSPost2010PropOp29
 70
     1
102
RTVSPost2010Prop30
280
     1
102
RTVSPost2010PropOp30
 70
     1
102
RTVSPost2010Prop31
280
     0
102
RTVSPost2010PropOp31
 70
     1
102
RTVSPost2010Prop32
280
     0
102
RTVSPost2010PropOp32
 70
     1
102
RTVSPost2010Prop33
280
     0
102
RTVSPost2010PropOp33
 70
     1
102
RTVSPost2010Prop34
280
     0
102
RTVSPost2010PropOp34
 70
     1
102
RTVSPost2010Prop35
280
     0
102
RTVSPost2010PropOp35
 70
     1
102
RTVSPost2010Prop36
280
     0
102
RTVSPost2010PropOp36
 70
     1
102
RTVSPost2010Prop37
 90
       50
102
RTVSPost2010PropOp37
 70
     1
102
RTVSPost2010Prop38
140
0.0
102
RTVSPost2010PropOp38
 70
     1
102
RTVSPost2010Prop39
140
1.0
102
RTVSPost2010PropOp39
 70
     1
102
RTVSPost2010Prop40
 90
        0
102
RTVSPost2010PropOp40
 70
     1
102
RTVSPost2010Prop41ColorIndex
 90
       18
102
RTVSPost2010Prop41ColorRGB
 90
        0
102
RTVSPost2010PropOp41
 70
     1
102
RTVSPost2010Prop42
 90
       50
102
RTVSPost2010PropOp42
 70
     1
102
RTVSPost2010Prop43
 90
        3
102
RTVSPost2010PropOp43
 70
     1
102
RTVSPost2010Prop44ColorIndex
 90
        5
102
RTVSPost2010Prop44ColorRGB
 90
      255
102
RTVSPost2010PropOp44
 70
     1
102
RTVSPost2010Prop45
280
     0
102
RTVSPost2010PropOp45
 70
     1
102
RTVSPost2010Prop46
 90
       50
102
RTVSPost2010PropOp46
 70
     1
102
RTVSPost2010Prop47
 90
       50
102
RTVSPost2010PropOp47
 70
     1
102
RTVSPost2010Prop48
 90
       50
102
RTVSPost2010PropOp48
 70
     1
102
RTVSPost2010Prop49
280
     0
102
RTVSPost2010PropOp49
 70
     1
102
RTVSPost2010Prop50
 90
       50
102
RTVSPost2010PropOp50
 70
     1
102
RTVSPost2010Prop51ColorIndex
 90
      256
102
RTVSPost2010Prop51ColorRGB
 90
-16777216
102
RTVSPost2010PropOp51
 70
     0
102
RTVSPost2010Prop52
140
1.0
102
RTVSPost2010PropOp52
 70
     0
102
RTVSPost2010Prop53
 90
        2
102
RTVSPost2010PropOp53
 70
     1
102
RTVSPost2010Prop54
  1
strokes_ogs.tif
102
RTVSPost2010PropOp54
 70
     1
102
RTVSPost2010Prop55
280
     0
102
RTVSPost2010PropOp55
 70
     1
102
RTVSPost2010Prop56
140
1.0
102
RTVSPost2010PropOp56
 70
     1
102
RTVSPost2010Prop57
140
1.0
102
RTVSPost2010PropOp57
 70
     1
102
RTVSPropertyOp0
 70
     1
102
RTVSPropertyOp1
 70
     1
102
RTVSPropertyOp2
 70
     1
102
RTVSPropertyOp3
 70
     1
102
RTVSPropertyOp4
 70
     1
102
RTVSPropertyOp5
 70
     1
102
RTVSPropertyOp6
 70
     1
102
RTVSPropertyOp7
 70
     1
102
RTVSPropertyOp8
 70
     1
102
RTVSPropertyOp9
 70
     1
102
RTVSPropertyOp10
 70
     1
102
RTVSPropertyOp11
 70
     1
102
RTVSPropertyOp12
 70
     1
102
RTVSPropertyOp13
 70
     1
102
RTVSPropertyOp14
 70
     1
102
RTVSPropertyOp15
 70
     1
102
RTVSPropertyOp16
 70
     1
102
RTVSPropertyOp17
 70
     1
102
RTVSPropertyOp18
 70
     1
102
RTVSPropertyOp19
 70
     1
102
RTVSPropertyOp20
 70
     1
102
RTVSPropertyOp21
 70
     1
102
RTVSPropertyOp22
 70
     1
102
RTVSPropertyOp23
 70
     1
102
RTVSPropertyOp24
 70
     1
102
RTVSPropertyOp25
 70
     1
102
RTVSPropertyOp26
 70
     1
102
RTVSPropertyOp27
 70
     1
102
RTVSPropertyOp28
 70
     1
102
RTVSPropertyOp29
 70
     1
102
RTVSPropertyOp30
 70
     1
102
RTVSPropertyOp31
 70
     1
102
RTVSPropertyOp32
 70
     1
102
RTVSPropertyOp33
 70
     1
102
RTVSPropertyOp34
 70
     1
102
RTVSPropertyOp35
 70
     1
102
RTVSPropertyOp36
 70
     1
102
RTVSPropertyOp37
 70
     1
102
RTVSPropertyOp38
 70
     1
102
RTVSPropertyOp39
 70
     1
102
RTVSPropertyOp40
 70
     1
102
RTVSPropertyOp41
 70
     1
102
RTVSPropertyOp42
 70
     1
102
RTVSPropertyOp43
 70
     1
102
RTVSPropertyOp44
 70
     1
102
RTVSPropertyOp45
 70
     1
102
RTVSPropertyOp46
 70
     1
102
RTVSPropertyOp47
 70
     1
102
RTVSPropertyOp48
 70
     1
102
RTVSPropertyOp49
 70
     1
102
RTVSPropertyOp50
 70
     1
102
RTVSPropertyOp51
 70
     0
102
RTVSPropertyOp52
 70
     0
102
RTVSPropertyOp53
 70
     1
102
RTVSPropertyOp54
 70
     1
102
RTVSPropertyOp55
 70
     1
102
RTVSPropertyOp56
 70
     1
102
RTVSPropertyOp57
 70
     1
102
RTVSPropertyOp58
 70
     1
102
RTVSPropertyOp59
 70
     1
102
RTVSPropertyOp60
 70
     1
102
RTVSPropertyOp61
 70
     1
102
RTVSPropertyOp62
 70
     1
  0
XRECORD
  5
4C41
102
{ACAD_REACTORS
330
4C40
102
}
330
4C40
100
AcDbXrecord
280
     1
102
RTVSPost2010Prop28
280
     0
102
RTVSPost2010PropOp28
 70
     1
102
RTVSPost2010Prop29
280
     1
102
RTVSPost2010PropOp29
 70
     1
102
RTVSPost2010Prop30
280
     1
102
RTVSPost2010PropOp30
 70
     1
102
RTVSPost2010Prop31
280
     0
102
RTVSPost2010PropOp31
 70
     1
102
RTVSPost2010Prop32
280
     0
102
RTVSPost2010PropOp32
 70
     1
102
RTVSPost2010Prop33
280
     0
102
RTVSPost2010PropOp33
 70
     1
102
RTVSPost2010Prop34
280
     0
102
RTVSPost2010PropOp34
 70
     1
102
RTVSPost2010Prop35
280
     0
102
RTVSPost2010PropOp35
 70
     1
102
RTVSPost2010Prop36
280
     0
102
RTVSPost2010PropOp36
 70
     1
102
RTVSPost2010Prop37
 90
       50
102
RTVSPost2010PropOp37
 70
     1
102
RTVSPost2010Prop38
140
0.0
102
RTVSPost2010PropOp38
 70
     1
102
RTVSPost2010Prop39
140
1.0
102
RTVSPost2010PropOp39
 70
     1
102
RTVSPost2010Prop40
 90
        0
102
RTVSPost2010PropOp40
 70
     1
102
RTVSPost2010Prop41ColorIndex
 90
       18
102
RTVSPost2010Prop41ColorRGB
 90
        0
102
RTVSPost2010PropOp41
 70
     1
102
RTVSPost2010Prop42
 90
       50
102
RTVSPost2010PropOp42
 70
     1
102
RTVSPost2010Prop43
 90
        3
102
RTVSPost2010PropOp43
 70
     1
102
RTVSPost2010Prop44ColorIndex
 90
        5
102
RTVSPost2010Prop44ColorRGB
 90
      255
102
RTVSPost2010PropOp44
 70
     1
102
RTVSPost2010Prop45
280
     0
102
RTVSPost2010PropOp45
 70
     1
102
RTVSPost2010Prop46
 90
       50
102
RTVSPost2010PropOp46
 70
     1
102
RTVSPost2010Prop47
 90
       50
102
RTVSPost2010PropOp47
 70
     1
102
RTVSPost2010Prop48
 90
       50
102
RTVSPost2010PropOp48
 70
     1
102
RTVSPost2010Prop49
280
     0
102
RTVSPost2010PropOp49
 70
     1
102
RTVSPost2010Prop50
 90
       50
102
RTVSPost2010PropOp50
 70
     1
102
RTVSPost2010Prop51ColorIndex
 90
      256
102
RTVSPost2010Prop51ColorRGB
 90
-16777216
102
RTVSPost2010PropOp51
 70
     0
102
RTVSPost2010Prop52
140
1.0
102
RTVSPost2010PropOp52
 70
     0
102
RTVSPost2010Prop53
 90
        2
102
RTVSPost2010PropOp53
 70
     1
102
RTVSPost2010Prop54
  1
strokes_ogs.tif
102
RTVSPost2010PropOp54
 70
     1
102
RTVSPost2010Prop55
280
     0
102
RTVSPost2010PropOp55
 70
     1
102
RTVSPost2010Prop56
140
1.0
102
RTVSPost2010PropOp56
 70
     1
102
RTVSPost2010Prop57
140
1.0
102
RTVSPost2010PropOp57
 70
     1
102
RTVSPropertyOp0
 70
     1
102
RTVSPropertyOp1
 70
     1
102
RTVSPropertyOp2
 70
     1
102
RTVSPropertyOp3
 70
     1
102
RTVSPropertyOp4
 70
     1
102
RTVSPropertyOp5
 70
     1
102
RTVSPropertyOp6
 70
     1
102
RTVSPropertyOp7
 70
     1
102
RTVSPropertyOp8
 70
     1
102
RTVSPropertyOp9
 70
     1
102
RTVSPropertyOp10
 70
     1
102
RTVSPropertyOp11
 70
     1
102
RTVSPropertyOp12
 70
     1
102
RTVSPropertyOp13
 70
     1
102
RTVSPropertyOp14
 70
     1
102
RTVSPropertyOp15
 70
     1
102
RTVSPropertyOp16
 70
     1
102
RTVSPropertyOp17
 70
     1
102
RTVSPropertyOp18
 70
     1
102
RTVSPropertyOp19
 70
     1
102
RTVSPropertyOp20
 70
     1
102
RTVSPropertyOp21
 70
     1
102
RTVSPropertyOp22
 70
     1
102
RTVSPropertyOp23
 70
     1
102
RTVSPropertyOp24
 70
     1
102
RTVSPropertyOp25
 70
     1
102
RTVSPropertyOp26
 70
     1
102
RTVSPropertyOp27
 70
     1
102
RTVSPropertyOp28
 70
     1
102
RTVSPropertyOp29
 70
     1
102
RTVSPropertyOp30
 70
     1
102
RTVSPropertyOp31
 70
     1
102
RTVSPropertyOp32
 70
     1
102
RTVSPropertyOp33
 70
     1
102
RTVSPropertyOp34
 70
     1
102
RTVSPropertyOp35
 70
     1
102
RTVSPropertyOp36
 70
     1
102
RTVSPropertyOp37
 70
     1
102
RTVSPropertyOp38
 70
     1
102
RTVSPropertyOp39
 70
     1
102
RTVSPropertyOp40
 70
     1
102
RTVSPropertyOp41
 70
     1
102
RTVSPropertyOp42
 70
     1
102
RTVSPropertyOp43
 70
     1
102
RTVSPropertyOp44
 70
     1
102
RTVSPropertyOp45
 70
     1
102
RTVSPropertyOp46
 70
     1
102
RTVSPropertyOp47
 70
     1
102
RTVSPropertyOp48
 70
     1
102
RTVSPropertyOp49
 70
     1
102
RTVSPropertyOp50
 70
     1
102
RTVSPropertyOp51
 70
     0
102
RTVSPropertyOp52
 70
     0
102
RTVSPropertyOp53
 70
     1
102
RTVSPropertyOp54
 70
     1
102
RTVSPropertyOp55
 70
     1
102
RTVSPropertyOp56
 70
     1
102
RTVSPropertyOp57
 70
     1
102
RTVSPropertyOp58
 70
     1
102
RTVSPropertyOp59
 70
     1
102
RTVSPropertyOp60
 70
     1
102
RTVSPropertyOp61
 70
     1
102
RTVSPropertyOp62
 70
     1
  0
XRECORD
  5
4C49
102
{ACAD_REACTORS
330
4C48
102
}
330
4C48
100
AcDbXrecord
280
     1
102
RTVSPost2010Prop28
280
     0
102
RTVSPost2010PropOp28
 70
     1
102
RTVSPost2010Prop29
280
     1
102
RTVSPost2010PropOp29
 70
     1
102
RTVSPost2010Prop30
280
     1
102
RTVSPost2010PropOp30
 70
     1
102
RTVSPost2010Prop31
280
     0
102
RTVSPost2010PropOp31
 70
     1
102
RTVSPost2010Prop32
280
     0
102
RTVSPost2010PropOp32
 70
     1
102
RTVSPost2010Prop33
280
     0
102
RTVSPost2010PropOp33
 70
     1
102
RTVSPost2010Prop34
280
     0
102
RTVSPost2010PropOp34
 70
     1
102
RTVSPost2010Prop35
280
     0
102
RTVSPost2010PropOp35
 70
     1
102
RTVSPost2010Prop36
280
     0
102
RTVSPost2010PropOp36
 70
     1
102
RTVSPost2010Prop37
 90
       50
102
RTVSPost2010PropOp37
 70
     1
102
RTVSPost2010Prop38
140
0.0
102
RTVSPost2010PropOp38
 70
     1
102
RTVSPost2010Prop39
140
1.0
102
RTVSPost2010PropOp39
 70
     1
102
RTVSPost2010Prop40
 90
        0
102
RTVSPost2010PropOp40
 70
     1
102
RTVSPost2010Prop41ColorIndex
 90
       18
102
RTVSPost2010Prop41ColorRGB
 90
        0
102
RTVSPost2010PropOp41
 70
     1
102
RTVSPost2010Prop42
 90
       50
102
RTVSPost2010PropOp42
 70
     1
102
RTVSPost2010Prop43
 90
        3
102
RTVSPost2010PropOp43
 70
     1
102
RTVSPost2010Prop44ColorIndex
 90
        5
102
RTVSPost2010Prop44ColorRGB
 90
      255
102
RTVSPost2010PropOp44
 70
     1
102
RTVSPost2010Prop45
280
     0
102
RTVSPost2010PropOp45
 70
     1
102
RTVSPost2010Prop46
 90
       50
102
RTVSPost2010PropOp46
 70
     1
102
RTVSPost2010Prop47
 90
       50
102
RTVSPost2010PropOp47
 70
     1
102
RTVSPost2010Prop48
 90
       50
102
RTVSPost2010PropOp48
 70
     1
102
RTVSPost2010Prop49
280
     0
102
RTVSPost2010PropOp49
 70
     1
102
RTVSPost2010Prop50
 90
       50
102
RTVSPost2010PropOp50
 70
     1
102
RTVSPost2010Prop51ColorIndex
 90
      256
102
RTVSPost2010Prop51ColorRGB
 90
-16777216
102
RTVSPost2010PropOp51
 70
     0
102
RTVSPost2010Prop52
140
1.0
102
RTVSPost2010PropOp52
 70
     0
102
RTVSPost2010Prop53
 90
        2
102
RTVSPost2010PropOp53
 70
     1
102
RTVSPost2010Prop54
  1
strokes_ogs.tif
102
RTVSPost2010PropOp54
 70
     1
102
RTVSPost2010Prop55
280
     0
102
RTVSPost2010PropOp55
 70
     1
102
RTVSPost2010Prop56
140
1.0
102
RTVSPost2010PropOp56
 70
     1
102
RTVSPost2010Prop57
140
1.0
102
RTVSPost2010PropOp57
 70
     1
102
RTVSPropertyOp0
 70
     1
102
RTVSPropertyOp1
 70
     1
102
RTVSPropertyOp2
 70
     1
102
RTVSPropertyOp3
 70
     1
102
RTVSPropertyOp4
 70
     1
102
RTVSPropertyOp5
 70
     1
102
RTVSPropertyOp6
 70
     1
102
RTVSPropertyOp7
 70
     1
102
RTVSPropertyOp8
 70
     1
102
RTVSPropertyOp9
 70
     1
102
RTVSPropertyOp10
 70
     1
102
RTVSPropertyOp11
 70
     1
102
RTVSPropertyOp12
 70
     1
102
RTVSPropertyOp13
 70
     1
102
RTVSPropertyOp14
 70
     1
102
RTVSPropertyOp15
 70
     1
102
RTVSPropertyOp16
 70
     1
102
RTVSPropertyOp17
 70
     1
102
RTVSPropertyOp18
 70
     1
102
RTVSPropertyOp19
 70
     1
102
RTVSPropertyOp20
 70
     1
102
RTVSPropertyOp21
 70
     1
102
RTVSPropertyOp22
 70
     1
102
RTVSPropertyOp23
 70
     1
102
RTVSPropertyOp24
 70
     1
102
RTVSPropertyOp25
 70
     1
102
RTVSPropertyOp26
 70
     1
102
RTVSPropertyOp27
 70
     1
102
RTVSPropertyOp28
 70
     1
102
RTVSPropertyOp29
 70
     1
102
RTVSPropertyOp30
 70
     1
102
RTVSPropertyOp31
 70
     1
102
RTVSPropertyOp32
 70
     1
102
RTVSPropertyOp33
 70
     1
102
RTVSPropertyOp34
 70
     1
102
RTVSPropertyOp35
 70
     1
102
RTVSPropertyOp36
 70
     1
102
RTVSPropertyOp37
 70
     1
102
RTVSPropertyOp38
 70
     1
102
RTVSPropertyOp39
 70
     1
102
RTVSPropertyOp40
 70
     1
102
RTVSPropertyOp41
 70
     1
102
RTVSPropertyOp42
 70
     1
102
RTVSPropertyOp43
 70
     1
102
RTVSPropertyOp44
 70
     1
102
RTVSPropertyOp45
 70
     1
102
RTVSPropertyOp46
 70
     1
102
RTVSPropertyOp47
 70
     1
102
RTVSPropertyOp48
 70
     1
102
RTVSPropertyOp49
 70
     1
102
RTVSPropertyOp50
 70
     1
102
RTVSPropertyOp51
 70
     0
102
RTVSPropertyOp52
 70
     0
102
RTVSPropertyOp53
 70
     1
102
RTVSPropertyOp54
 70
     1
102
RTVSPropertyOp55
 70
     1
102
RTVSPropertyOp56
 70
     1
102
RTVSPropertyOp57
 70
     1
102
RTVSPropertyOp58
 70
     1
102
RTVSPropertyOp59
 70
     1
102
RTVSPropertyOp60
 70
     1
102
RTVSPropertyOp61
 70
     1
102
RTVSPropertyOp62
 70
     1
  0
XRECORD
  5
4C3B
102
{ACAD_REACTORS
330
4C3A
102
}
330
4C3A
100
AcDbXrecord
280
     1
102
RTVSPost2010Prop28
280
     0
102
RTVSPost2010PropOp28
 70
     1
102
RTVSPost2010Prop29
280
     1
102
RTVSPost2010PropOp29
 70
     1
102
RTVSPost2010Prop30
280
     1
102
RTVSPost2010PropOp30
 70
     1
102
RTVSPost2010Prop31
280
     0
102
RTVSPost2010PropOp31
 70
     1
102
RTVSPost2010Prop32
280
     0
102
RTVSPost2010PropOp32
 70
     1
102
RTVSPost2010Prop33
280
     0
102
RTVSPost2010PropOp33
 70
     1
102
RTVSPost2010Prop34
280
     0
102
RTVSPost2010PropOp34
 70
     1
102
RTVSPost2010Prop35
280
     0
102
RTVSPost2010PropOp35
 70
     1
102
RTVSPost2010Prop36
280
     0
102
RTVSPost2010PropOp36
 70
     1
102
RTVSPost2010Prop37
 90
       50
102
RTVSPost2010PropOp37
 70
     1
102
RTVSPost2010Prop38
140
0.0
102
RTVSPost2010PropOp38
 70
     1
102
RTVSPost2010Prop39
140
1.0
102
RTVSPost2010PropOp39
 70
     1
102
RTVSPost2010Prop40
 90
        0
102
RTVSPost2010PropOp40
 70
     1
102
RTVSPost2010Prop41ColorIndex
 90
       18
102
RTVSPost2010Prop41ColorRGB
 90
        0
102
RTVSPost2010PropOp41
 70
     1
102
RTVSPost2010Prop42
 90
       50
102
RTVSPost2010PropOp42
 70
     1
102
RTVSPost2010Prop43
 90
        3
102
RTVSPost2010PropOp43
 70
     1
102
RTVSPost2010Prop44ColorIndex
 90
        5
102
RTVSPost2010Prop44ColorRGB
 90
      255
102
RTVSPost2010PropOp44
 70
     1
102
RTVSPost2010Prop45
280
     0
102
RTVSPost2010PropOp45
 70
     1
102
RTVSPost2010Prop46
 90
       50
102
RTVSPost2010PropOp46
 70
     1
102
RTVSPost2010Prop47
 90
       50
102
RTVSPost2010PropOp47
 70
     1
102
RTVSPost2010Prop48
 90
       50
102
RTVSPost2010PropOp48
 70
     1
102
RTVSPost2010Prop49
280
     0
102
RTVSPost2010PropOp49
 70
     1
102
RTVSPost2010Prop50
 90
       50
102
RTVSPost2010PropOp50
 70
     1
102
RTVSPost2010Prop51ColorIndex
 90
      256
102
RTVSPost2010Prop51ColorRGB
 90
-16777216
102
RTVSPost2010PropOp51
 70
     0
102
RTVSPost2010Prop52
140
1.0
102
RTVSPost2010PropOp52
 70
     0
102
RTVSPost2010Prop53
 90
        2
102
RTVSPost2010PropOp53
 70
     1
102
RTVSPost2010Prop54
  1
strokes_ogs.tif
102
RTVSPost2010PropOp54
 70
     1
102
RTVSPost2010Prop55
280
     0
102
RTVSPost2010PropOp55
 70
     1
102
RTVSPost2010Prop56
140
1.0
102
RTVSPost2010PropOp56
 70
     1
102
RTVSPost2010Prop57
140
1.0
102
RTVSPost2010PropOp57
 70
     1
102
RTVSPropertyOp0
 70
     1
102
RTVSPropertyOp1
 70
     1
102
RTVSPropertyOp2
 70
     1
102
RTVSPropertyOp3
 70
     1
102
RTVSPropertyOp4
 70
     1
102
RTVSPropertyOp5
 70
     1
102
RTVSPropertyOp6
 70
     1
102
RTVSPropertyOp7
 70
     1
102
RTVSPropertyOp8
 70
     1
102
RTVSPropertyOp9
 70
     1
102
RTVSPropertyOp10
 70
     1
102
RTVSPropertyOp11
 70
     1
102
RTVSPropertyOp12
 70
     1
102
RTVSPropertyOp13
 70
     1
102
RTVSPropertyOp14
 70
     1
102
RTVSPropertyOp15
 70
     1
102
RTVSPropertyOp16
 70
     1
102
RTVSPropertyOp17
 70
     1
102
RTVSPropertyOp18
 70
     1
102
RTVSPropertyOp19
 70
     1
102
RTVSPropertyOp20
 70
     1
102
RTVSPropertyOp21
 70
     1
102
RTVSPropertyOp22
 70
     1
102
RTVSPropertyOp23
 70
     1
102
RTVSPropertyOp24
 70
     1
102
RTVSPropertyOp25
 70
     1
102
RTVSPropertyOp26
 70
     1
102
RTVSPropertyOp27
 70
     1
102
RTVSPropertyOp28
 70
     1
102
RTVSPropertyOp29
 70
     1
102
RTVSPropertyOp30
 70
     1
102
RTVSPropertyOp31
 70
     1
102
RTVSPropertyOp32
 70
     1
102
RTVSPropertyOp33
 70
     1
102
RTVSPropertyOp34
 70
     1
102
RTVSPropertyOp35
 70
     1
102
RTVSPropertyOp36
 70
     1
102
RTVSPropertyOp37
 70
     1
102
RTVSPropertyOp38
 70
     1
102
RTVSPropertyOp39
 70
     1
102
RTVSPropertyOp40
 70
     1
102
RTVSPropertyOp41
 70
     1
102
RTVSPropertyOp42
 70
     1
102
RTVSPropertyOp43
 70
     1
102
RTVSPropertyOp44
 70
     1
102
RTVSPropertyOp45
 70
     1
102
RTVSPropertyOp46
 70
     1
102
RTVSPropertyOp47
 70
     1
102
RTVSPropertyOp48
 70
     1
102
RTVSPropertyOp49
 70
     1
102
RTVSPropertyOp50
 70
     1
102
RTVSPropertyOp51
 70
     0
102
RTVSPropertyOp52
 70
     0
102
RTVSPropertyOp53
 70
     1
102
RTVSPropertyOp54
 70
     1
102
RTVSPropertyOp55
 70
     1
102
RTVSPropertyOp56
 70
     1
102
RTVSPropertyOp57
 70
     1
102
RTVSPropertyOp58
 70
     1
102
RTVSPropertyOp59
 70
     1
102
RTVSPropertyOp60
 70
     1
102
RTVSPropertyOp61
 70
     1
102
RTVSPropertyOp62
 70
     1
  0
XRECORD
  5
4C3F
102
{ACAD_REACTORS
330
4C3E
102
}
330
4C3E
100
AcDbXrecord
280
     1
102
RTVSPost2010Prop28
280
     0
102
RTVSPost2010PropOp28
 70
     1
102
RTVSPost2010Prop29
280
     1
102
RTVSPost2010PropOp29
 70
     1
102
RTVSPost2010Prop30
280
     1
102
RTVSPost2010PropOp30
 70
     1
102
RTVSPost2010Prop31
280
     0
102
RTVSPost2010PropOp31
 70
     1
102
RTVSPost2010Prop32
280
     0
102
RTVSPost2010PropOp32
 70
     1
102
RTVSPost2010Prop33
280
     0
102
RTVSPost2010PropOp33
 70
     1
102
RTVSPost2010Prop34
280
     0
102
RTVSPost2010PropOp34
 70
     1
102
RTVSPost2010Prop35
280
     0
102
RTVSPost2010PropOp35
 70
     1
102
RTVSPost2010Prop36
280
     0
102
RTVSPost2010PropOp36
 70
     1
102
RTVSPost2010Prop37
 90
       50
102
RTVSPost2010PropOp37
 70
     1
102
RTVSPost2010Prop38
140
0.0
102
RTVSPost2010PropOp38
 70
     1
102
RTVSPost2010Prop39
140
1.0
102
RTVSPost2010PropOp39
 70
     1
102
RTVSPost2010Prop40
 90
        0
102
RTVSPost2010PropOp40
 70
     1
102
RTVSPost2010Prop41ColorIndex
 90
       18
102
RTVSPost2010Prop41ColorRGB
 90
        0
102
RTVSPost2010PropOp41
 70
     1
102
RTVSPost2010Prop42
 90
       50
102
RTVSPost2010PropOp42
 70
     1
102
RTVSPost2010Prop43
 90
        3
102
RTVSPost2010PropOp43
 70
     1
102
RTVSPost2010Prop44ColorIndex
 90
        5
102
RTVSPost2010Prop44ColorRGB
 90
      255
102
RTVSPost2010PropOp44
 70
     1
102
RTVSPost2010Prop45
280
     0
102
RTVSPost2010PropOp45
 70
     1
102
RTVSPost2010Prop46
 90
       50
102
RTVSPost2010PropOp46
 70
     1
102
RTVSPost2010Prop47
 90
       50
102
RTVSPost2010PropOp47
 70
     1
102
RTVSPost2010Prop48
 90
       50
102
RTVSPost2010PropOp48
 70
     1
102
RTVSPost2010Prop49
280
     0
102
RTVSPost2010PropOp49
 70
     1
102
RTVSPost2010Prop50
 90
       50
102
RTVSPost2010PropOp50
 70
     1
102
RTVSPost2010Prop51ColorIndex
 90
      256
102
RTVSPost2010Prop51ColorRGB
 90
-16777216
102
RTVSPost2010PropOp51
 70
     0
102
RTVSPost2010Prop52
140
1.0
102
RTVSPost2010PropOp52
 70
     0
102
RTVSPost2010Prop53
 90
        2
102
RTVSPost2010PropOp53
 70
     1
102
RTVSPost2010Prop54
  1
strokes_ogs.tif
102
RTVSPost2010PropOp54
 70
     1
102
RTVSPost2010Prop55
280
     0
102
RTVSPost2010PropOp55
 70
     1
102
RTVSPost2010Prop56
140
1.0
102
RTVSPost2010PropOp56
 70
     1
102
RTVSPost2010Prop57
140
1.0
102
RTVSPost2010PropOp57
 70
     1
102
RTVSPropertyOp0
 70
     1
102
RTVSPropertyOp1
 70
     1
102
RTVSPropertyOp2
 70
     1
102
RTVSPropertyOp3
 70
     1
102
RTVSPropertyOp4
 70
     1
102
RTVSPropertyOp5
 70
     1
102
RTVSPropertyOp6
 70
     1
102
RTVSPropertyOp7
 70
     1
102
RTVSPropertyOp8
 70
     1
102
RTVSPropertyOp9
 70
     1
102
RTVSPropertyOp10
 70
     1
102
RTVSPropertyOp11
 70
     1
102
RTVSPropertyOp12
 70
     1
102
RTVSPropertyOp13
 70
     1
102
RTVSPropertyOp14
 70
     1
102
RTVSPropertyOp15
 70
     1
102
RTVSPropertyOp16
 70
     1
102
RTVSPropertyOp17
 70
     1
102
RTVSPropertyOp18
 70
     1
102
RTVSPropertyOp19
 70
     1
102
RTVSPropertyOp20
 70
     1
102
RTVSPropertyOp21
 70
     1
102
RTVSPropertyOp22
 70
     1
102
RTVSPropertyOp23
 70
     1
102
RTVSPropertyOp24
 70
     1
102
RTVSPropertyOp25
 70
     1
102
RTVSPropertyOp26
 70
     1
102
RTVSPropertyOp27
 70
     1
102
RTVSPropertyOp28
 70
     1
102
RTVSPropertyOp29
 70
     1
102
RTVSPropertyOp30
 70
     1
102
RTVSPropertyOp31
 70
     1
102
RTVSPropertyOp32
 70
     1
102
RTVSPropertyOp33
 70
     1
102
RTVSPropertyOp34
 70
     1
102
RTVSPropertyOp35
 70
     1
102
RTVSPropertyOp36
 70
     1
102
RTVSPropertyOp37
 70
     1
102
RTVSPropertyOp38
 70
     1
102
RTVSPropertyOp39
 70
     1
102
RTVSPropertyOp40
 70
     1
102
RTVSPropertyOp41
 70
     1
102
RTVSPropertyOp42
 70
     1
102
RTVSPropertyOp43
 70
     1
102
RTVSPropertyOp44
 70
     1
102
RTVSPropertyOp45
 70
     1
102
RTVSPropertyOp46
 70
     1
102
RTVSPropertyOp47
 70
     1
102
RTVSPropertyOp48
 70
     1
102
RTVSPropertyOp49
 70
     1
102
RTVSPropertyOp50
 70
     1
102
RTVSPropertyOp51
 70
     0
102
RTVSPropertyOp52
 70
     0
102
RTVSPropertyOp53
 70
     1
102
RTVSPropertyOp54
 70
     1
102
RTVSPropertyOp55
 70
     1
102
RTVSPropertyOp56
 70
     1
102
RTVSPropertyOp57
 70
     1
102
RTVSPropertyOp58
 70
     1
102
RTVSPropertyOp59
 70
     1
102
RTVSPropertyOp60
 70
     1
102
RTVSPropertyOp61
 70
     1
102
RTVSPropertyOp62
 70
     1
  0
XRECORD
  5
4C4F
102
{ACAD_REACTORS
330
4C4E
102
}
330
4C4E
100
AcDbXrecord
280
     1
102
RTVSPost2010Prop28
280
     0
102
RTVSPost2010PropOp28
 70
     1
102
RTVSPost2010Prop29
280
     1
102
RTVSPost2010PropOp29
 70
     1
102
RTVSPost2010Prop30
280
     1
102
RTVSPost2010PropOp30
 70
     1
102
RTVSPost2010Prop31
280
     0
102
RTVSPost2010PropOp31
 70
     1
102
RTVSPost2010Prop32
280
     0
102
RTVSPost2010PropOp32
 70
     1
102
RTVSPost2010Prop33
280
     0
102
RTVSPost2010PropOp33
 70
     1
102
RTVSPost2010Prop34
280
     0
102
RTVSPost2010PropOp34
 70
     1
102
RTVSPost2010Prop35
280
     0
102
RTVSPost2010PropOp35
 70
     1
102
RTVSPost2010Prop36
280
     0
102
RTVSPost2010PropOp36
 70
     1
102
RTVSPost2010Prop37
 90
       50
102
RTVSPost2010PropOp37
 70
     1
102
RTVSPost2010Prop38
140
0.0
102
RTVSPost2010PropOp38
 70
     1
102
RTVSPost2010Prop39
140
1.0
102
RTVSPost2010PropOp39
 70
     1
102
RTVSPost2010Prop40
 90
        0
102
RTVSPost2010PropOp40
 70
     1
102
RTVSPost2010Prop41ColorIndex
 90
       18
102
RTVSPost2010Prop41ColorRGB
 90
        0
102
RTVSPost2010PropOp41
 70
     1
102
RTVSPost2010Prop42
 90
       50
102
RTVSPost2010PropOp42
 70
     1
102
RTVSPost2010Prop43
 90
        3
102
RTVSPost2010PropOp43
 70
     1
102
RTVSPost2010Prop44ColorIndex
 90
        5
102
RTVSPost2010Prop44ColorRGB
 90
      255
102
RTVSPost2010PropOp44
 70
     1
102
RTVSPost2010Prop45
280
     0
102
RTVSPost2010PropOp45
 70
     1
102
RTVSPost2010Prop46
 90
       50
102
RTVSPost2010PropOp46
 70
     1
102
RTVSPost2010Prop47
 90
       50
102
RTVSPost2010PropOp47
 70
     1
102
RTVSPost2010Prop48
 90
       50
102
RTVSPost2010PropOp48
 70
     1
102
RTVSPost2010Prop49
280
     0
102
RTVSPost2010PropOp49
 70
     1
102
RTVSPost2010Prop50
 90
       50
102
RTVSPost2010PropOp50
 70
     1
102
RTVSPost2010Prop51ColorIndex
 90
      256
102
RTVSPost2010Prop51ColorRGB
 90
-16777216
102
RTVSPost2010PropOp51
 70
     0
102
RTVSPost2010Prop52
140
1.0
102
RTVSPost2010PropOp52
 70
     0
102
RTVSPost2010Prop53
 90
        2
102
RTVSPost2010PropOp53
 70
     1
102
RTVSPost2010Prop54
  1
strokes_ogs.tif
102
RTVSPost2010PropOp54
 70
     1
102
RTVSPost2010Prop55
280
     0
102
RTVSPost2010PropOp55
 70
     1
102
RTVSPost2010Prop56
140
1.0
102
RTVSPost2010PropOp56
 70
     1
102
RTVSPost2010Prop57
140
1.0
102
RTVSPost2010PropOp57
 70
     1
102
RTVSPropertyOp0
 70
     0
102
RTVSPropertyOp1
 70
     0
102
RTVSPropertyOp2
 70
     0
102
RTVSPropertyOp3
 70
     0
102
RTVSPropertyOp4
 70
     0
102
RTVSPropertyOp5
 70
     0
102
RTVSPropertyOp6
 70
     0
102
RTVSPropertyOp7
 70
     0
102
RTVSPropertyOp8
 70
     0
102
RTVSPropertyOp9
 70
     0
102
RTVSPropertyOp10
 70
     0
102
RTVSPropertyOp11
 70
     0
102
RTVSPropertyOp12
 70
     0
102
RTVSPropertyOp13
 70
     0
102
RTVSPropertyOp14
 70
     2
102
RTVSPropertyOp15
 70
     0
102
RTVSPropertyOp16
 70
     0
102
RTVSPropertyOp17
 70
     0
102
RTVSPropertyOp18
 70
     0
102
RTVSPropertyOp19
 70
     0
102
RTVSPropertyOp20
 70
     0
102
RTVSPropertyOp21
 70
     0
102
RTVSPropertyOp22
 70
     0
102
RTVSPropertyOp23
 70
     0
102
RTVSPropertyOp24
 70
     0
102
RTVSPropertyOp25
 70
     0
102
RTVSPropertyOp26
 70
     0
102
RTVSPropertyOp27
 70
     0
102
RTVSPropertyOp28
 70
     1
102
RTVSPropertyOp29
 70
     1
102
RTVSPropertyOp30
 70
     1
102
RTVSPropertyOp31
 70
     1
102
RTVSPropertyOp32
 70
     1
102
RTVSPropertyOp33
 70
     1
102
RTVSPropertyOp34
 70
     1
102
RTVSPropertyOp35
 70
     1
102
RTVSPropertyOp36
 70
     1
102
RTVSPropertyOp37
 70
     1
102
RTVSPropertyOp38
 70
     1
102
RTVSPropertyOp39
 70
     1
102
RTVSPropertyOp40
 70
     1
102
RTVSPropertyOp41
 70
     1
102
RTVSPropertyOp42
 70
     1
102
RTVSPropertyOp43
 70
     1
102
RTVSPropertyOp44
 70
     1
102
RTVSPropertyOp45
 70
     1
102
RTVSPropertyOp46
 70
     1
102
RTVSPropertyOp47
 70
     1
102
RTVSPropertyOp48
 70
     1
102
RTVSPropertyOp49
 70
     1
102
RTVSPropertyOp50
 70
     1
102
RTVSPropertyOp51
 70
     0
102
RTVSPropertyOp52
 70
     0
102
RTVSPropertyOp53
 70
     1
102
RTVSPropertyOp54
 70
     1
102
RTVSPropertyOp55
 70
     1
102
RTVSPropertyOp56
 70
     1
102
RTVSPropertyOp57
 70
     1
102
RTVSPropertyOp58
 70
     1
102
RTVSPropertyOp59
 70
     1
102
RTVSPropertyOp60
 70
     1
102
RTVSPropertyOp61
 70
     1
102
RTVSPropertyOp62
 70
     1
  0
XRECORD
  5
4C47
102
{ACAD_REACTORS
330
4C46
102
}
330
4C46
100
AcDbXrecord
280
     1
102
RTVSPost2010Prop28
280
     0
102
RTVSPost2010PropOp28
 70
     1
102
RTVSPost2010Prop29
280
     1
102
RTVSPost2010PropOp29
 70
     1
102
RTVSPost2010Prop30
280
     1
102
RTVSPost2010PropOp30
 70
     1
102
RTVSPost2010Prop31
280
     0
102
RTVSPost2010PropOp31
 70
     1
102
RTVSPost2010Prop32
280
     0
102
RTVSPost2010PropOp32
 70
     1
102
RTVSPost2010Prop33
280
     0
102
RTVSPost2010PropOp33
 70
     1
102
RTVSPost2010Prop34
280
     0
102
RTVSPost2010PropOp34
 70
     1
102
RTVSPost2010Prop35
280
     0
102
RTVSPost2010PropOp35
 70
     1
102
RTVSPost2010Prop36
280
     0
102
RTVSPost2010PropOp36
 70
     1
102
RTVSPost2010Prop37
 90
       50
102
RTVSPost2010PropOp37
 70
     1
102
RTVSPost2010Prop38
140
0.0
102
RTVSPost2010PropOp38
 70
     1
102
RTVSPost2010Prop39
140
1.0
102
RTVSPost2010PropOp39
 70
     1
102
RTVSPost2010Prop40
 90
        0
102
RTVSPost2010PropOp40
 70
     1
102
RTVSPost2010Prop41ColorIndex
 90
       18
102
RTVSPost2010Prop41ColorRGB
 90
        0
102
RTVSPost2010PropOp41
 70
     1
102
RTVSPost2010Prop42
 90
       50
102
RTVSPost2010PropOp42
 70
     1
102
RTVSPost2010Prop43
 90
        3
102
RTVSPost2010PropOp43
 70
     1
102
RTVSPost2010Prop44ColorIndex
 90
        5
102
RTVSPost2010Prop44ColorRGB
 90
      255
102
RTVSPost2010PropOp44
 70
     1
102
RTVSPost2010Prop45
280
     0
102
RTVSPost2010PropOp45
 70
     1
102
RTVSPost2010Prop46
 90
       50
102
RTVSPost2010PropOp46
 70
     1
102
RTVSPost2010Prop47
 90
       50
102
RTVSPost2010PropOp47
 70
     1
102
RTVSPost2010Prop48
 90
       50
102
RTVSPost2010PropOp48
 70
     1
102
RTVSPost2010Prop49
280
     0
102
RTVSPost2010PropOp49
 70
     1
102
RTVSPost2010Prop50
 90
       50
102
RTVSPost2010PropOp50
 70
     1
102
RTVSPost2010Prop51ColorIndex
 90
      256
102
RTVSPost2010Prop51ColorRGB
 90
-16777216
102
RTVSPost2010PropOp51
 70
     0
102
RTVSPost2010Prop52
140
1.0
102
RTVSPost2010PropOp52
 70
     0
102
RTVSPost2010Prop53
 90
        2
102
RTVSPost2010PropOp53
 70
     1
102
RTVSPost2010Prop54
  1
strokes_ogs.tif
102
RTVSPost2010PropOp54
 70
     1
102
RTVSPost2010Prop55
280
     0
102
RTVSPost2010PropOp55
 70
     1
102
RTVSPost2010Prop56
140
1.0
102
RTVSPost2010PropOp56
 70
     1
102
RTVSPost2010Prop57
140
1.0
102
RTVSPost2010PropOp57
 70
     1
102
RTVSPropertyOp0
 70
     1
102
RTVSPropertyOp1
 70
     1
102
RTVSPropertyOp2
 70
     1
102
RTVSPropertyOp3
 70
     1
102
RTVSPropertyOp4
 70
     1
102
RTVSPropertyOp5
 70
     1
102
RTVSPropertyOp6
 70
     1
102
RTVSPropertyOp7
 70
     1
102
RTVSPropertyOp8
 70
     1
102
RTVSPropertyOp9
 70
     1
102
RTVSPropertyOp10
 70
     1
102
RTVSPropertyOp11
 70
     1
102
RTVSPropertyOp12
 70
     1
102
RTVSPropertyOp13
 70
     1
102
RTVSPropertyOp14
 70
     1
102
RTVSPropertyOp15
 70
     1
102
RTVSPropertyOp16
 70
     1
102
RTVSPropertyOp17
 70
     1
102
RTVSPropertyOp18
 70
     1
102
RTVSPropertyOp19
 70
     1
102
RTVSPropertyOp20
 70
     1
102
RTVSPropertyOp21
 70
     1
102
RTVSPropertyOp22
 70
     1
102
RTVSPropertyOp23
 70
     1
102
RTVSPropertyOp24
 70
     1
102
RTVSPropertyOp25
 70
     1
102
RTVSPropertyOp26
 70
     1
102
RTVSPropertyOp27
 70
     1
102
RTVSPropertyOp28
 70
     1
102
RTVSPropertyOp29
 70
     1
102
RTVSPropertyOp30
 70
     1
102
RTVSPropertyOp31
 70
     1
102
RTVSPropertyOp32
 70
     1
102
RTVSPropertyOp33
 70
     1
102
RTVSPropertyOp34
 70
     1
102
RTVSPropertyOp35
 70
     1
102
RTVSPropertyOp36
 70
     1
102
RTVSPropertyOp37
 70
     1
102
RTVSPropertyOp38
 70
     1
102
RTVSPropertyOp39
 70
     1
102
RTVSPropertyOp40
 70
     1
102
RTVSPropertyOp41
 70
     1
102
RTVSPropertyOp42
 70
     1
102
RTVSPropertyOp43
 70
     1
102
RTVSPropertyOp44
 70
     1
102
RTVSPropertyOp45
 70
     1
102
RTVSPropertyOp46
 70
     1
102
RTVSPropertyOp47
 70
     1
102
RTVSPropertyOp48
 70
     1
102
RTVSPropertyOp49
 70
     1
102
RTVSPropertyOp50
 70
     1
102
RTVSPropertyOp51
 70
     0
102
RTVSPropertyOp52
 70
     0
102
RTVSPropertyOp53
 70
     1
102
RTVSPropertyOp54
 70
     1
102
RTVSPropertyOp55
 70
     1
102
RTVSPropertyOp56
 70
     1
102
RTVSPropertyOp57
 70
     1
102
RTVSPropertyOp58
 70
     1
102
RTVSPropertyOp59
 70
     1
102
RTVSPropertyOp60
 70
     1
102
RTVSPropertyOp61
 70
     1
102
RTVSPropertyOp62
 70
     1
  0
XRECORD
  5
4C2B
102
{ACAD_REACTORS
330
4C2A
102
}
330
4C2A
100
AcDbXrecord
280
     1
102
RTVSPost2010Prop28
280
     0
102
RTVSPost2010PropOp28
 70
     1
102
RTVSPost2010Prop29
280
     1
102
RTVSPost2010PropOp29
 70
     1
102
RTVSPost2010Prop30
280
     1
102
RTVSPost2010PropOp30
 70
     1
102
RTVSPost2010Prop31
280
     0
102
RTVSPost2010PropOp31
 70
     1
102
RTVSPost2010Prop32
280
     0
102
RTVSPost2010PropOp32
 70
     1
102
RTVSPost2010Prop33
280
     0
102
RTVSPost2010PropOp33
 70
     1
102
RTVSPost2010Prop34
280
     0
102
RTVSPost2010PropOp34
 70
     1
102
RTVSPost2010Prop35
280
     0
102
RTVSPost2010PropOp35
 70
     1
102
RTVSPost2010Prop36
280
     0
102
RTVSPost2010PropOp36
 70
     1
102
RTVSPost2010Prop37
 90
       50
102
RTVSPost2010PropOp37
 70
     1
102
RTVSPost2010Prop38
140
0.0
102
RTVSPost2010PropOp38
 70
     1
102
RTVSPost2010Prop39
140
1.0
102
RTVSPost2010PropOp39
 70
     1
102
RTVSPost2010Prop40
 90
        0
102
RTVSPost2010PropOp40
 70
     1
102
RTVSPost2010Prop41ColorIndex
 90
       18
102
RTVSPost2010Prop41ColorRGB
 90
        0
102
RTVSPost2010PropOp41
 70
     1
102
RTVSPost2010Prop42
 90
       50
102
RTVSPost2010PropOp42
 70
     1
102
RTVSPost2010Prop43
 90
        3
102
RTVSPost2010PropOp43
 70
     1
102
RTVSPost2010Prop44ColorIndex
 90
        5
102
RTVSPost2010Prop44ColorRGB
 90
      255
102
RTVSPost2010PropOp44
 70
     1
102
RTVSPost2010Prop45
280
     0
102
RTVSPost2010PropOp45
 70
     1
102
RTVSPost2010Prop46
 90
       50
102
RTVSPost2010PropOp46
 70
     1
102
RTVSPost2010Prop47
 90
       50
102
RTVSPost2010PropOp47
 70
     1
102
RTVSPost2010Prop48
 90
       50
102
RTVSPost2010PropOp48
 70
     1
102
RTVSPost2010Prop49
280
     0
102
RTVSPost2010PropOp49
 70
     1
102
RTVSPost2010Prop50
 90
       50
102
RTVSPost2010PropOp50
 70
     1
102
RTVSPost2010Prop51ColorIndex
 90
      256
102
RTVSPost2010Prop51ColorRGB
 90
-16777216
102
RTVSPost2010PropOp51
 70
     0
102
RTVSPost2010Prop52
140
1.0
102
RTVSPost2010PropOp52
 70
     0
102
RTVSPost2010Prop53
 90
        2
102
RTVSPost2010PropOp53
 70
     1
102
RTVSPost2010Prop54
  1
strokes_ogs.tif
102
RTVSPost2010PropOp54
 70
     1
102
RTVSPost2010Prop55
280
     0
102
RTVSPost2010PropOp55
 70
     1
102
RTVSPost2010Prop56
140
1.0
102
RTVSPost2010PropOp56
 70
     1
102
RTVSPost2010Prop57
140
1.0
102
RTVSPost2010PropOp57
 70
     1
102
RTVSPropertyOp0
 70
     1
102
RTVSPropertyOp1
 70
     1
102
RTVSPropertyOp2
 70
     1
102
RTVSPropertyOp3
 70
     1
102
RTVSPropertyOp4
 70
     1
102
RTVSPropertyOp5
 70
     1
102
RTVSPropertyOp6
 70
     1
102
RTVSPropertyOp7
 70
     1
102
RTVSPropertyOp8
 70
     1
102
RTVSPropertyOp9
 70
     1
102
RTVSPropertyOp10
 70
     1
102
RTVSPropertyOp11
 70
     1
102
RTVSPropertyOp12
 70
     1
102
RTVSPropertyOp13
 70
     1
102
RTVSPropertyOp14
 70
     1
102
RTVSPropertyOp15
 70
     1
102
RTVSPropertyOp16
 70
     1
102
RTVSPropertyOp17
 70
     1
102
RTVSPropertyOp18
 70
     1
102
RTVSPropertyOp19
 70
     1
102
RTVSPropertyOp20
 70
     1
102
RTVSPropertyOp21
 70
     1
102
RTVSPropertyOp22
 70
     1
102
RTVSPropertyOp23
 70
     1
102
RTVSPropertyOp24
 70
     1
102
RTVSPropertyOp25
 70
     1
102
RTVSPropertyOp26
 70
     1
102
RTVSPropertyOp27
 70
     1
102
RTVSPropertyOp28
 70
     1
102
RTVSPropertyOp29
 70
     1
102
RTVSPropertyOp30
 70
     1
102
RTVSPropertyOp31
 70
     1
102
RTVSPropertyOp32
 70
     1
102
RTVSPropertyOp33
 70
     1
102
RTVSPropertyOp34
 70
     1
102
RTVSPropertyOp35
 70
     1
102
RTVSPropertyOp36
 70
     1
102
RTVSPropertyOp37
 70
     1
102
RTVSPropertyOp38
 70
     1
102
RTVSPropertyOp39
 70
     1
102
RTVSPropertyOp40
 70
     1
102
RTVSPropertyOp41
 70
     1
102
RTVSPropertyOp42
 70
     1
102
RTVSPropertyOp43
 70
     1
102
RTVSPropertyOp44
 70
     1
102
RTVSPropertyOp45
 70
     1
102
RTVSPropertyOp46
 70
     1
102
RTVSPropertyOp47
 70
     1
102
RTVSPropertyOp48
 70
     1
102
RTVSPropertyOp49
 70
     1
102
RTVSPropertyOp50
 70
     1
102
RTVSPropertyOp51
 70
     0
102
RTVSPropertyOp52
 70
     0
102
RTVSPropertyOp53
 70
     1
102
RTVSPropertyOp54
 70
     1
102
RTVSPropertyOp55
 70
     1
102
RTVSPropertyOp56
 70
     1
102
RTVSPropertyOp57
 70
     1
102
RTVSPropertyOp58
 70
     1
102
RTVSPropertyOp59
 70
     1
102
RTVSPropertyOp60
 70
     1
102
RTVSPropertyOp61
 70
     1
102
RTVSPropertyOp62
 70
     1
  0
XRECORD
  5
4C2D
102
{ACAD_REACTORS
330
4C2C
102
}
330
4C2C
100
AcDbXrecord
280
     1
102
RTVSPost2010Prop28
280
     0
102
RTVSPost2010PropOp28
 70
     1
102
RTVSPost2010Prop29
280
     1
102
RTVSPost2010PropOp29
 70
     1
102
RTVSPost2010Prop30
280
     1
102
RTVSPost2010PropOp30
 70
     1
102
RTVSPost2010Prop31
280
     0
102
RTVSPost2010PropOp31
 70
     1
102
RTVSPost2010Prop32
280
     0
102
RTVSPost2010PropOp32
 70
     1
102
RTVSPost2010Prop33
280
     0
102
RTVSPost2010PropOp33
 70
     1
102
RTVSPost2010Prop34
280
     0
102
RTVSPost2010PropOp34
 70
     1
102
RTVSPost2010Prop35
280
     0
102
RTVSPost2010PropOp35
 70
     1
102
RTVSPost2010Prop36
280
     0
102
RTVSPost2010PropOp36
 70
     1
102
RTVSPost2010Prop37
 90
       50
102
RTVSPost2010PropOp37
 70
     1
102
RTVSPost2010Prop38
140
0.0
102
RTVSPost2010PropOp38
 70
     1
102
RTVSPost2010Prop39
140
1.0
102
RTVSPost2010PropOp39
 70
     1
102
RTVSPost2010Prop40
 90
        0
102
RTVSPost2010PropOp40
 70
     1
102
RTVSPost2010Prop41ColorIndex
 90
       18
102
RTVSPost2010Prop41ColorRGB
 90
        0
102
RTVSPost2010PropOp41
 70
     1
102
RTVSPost2010Prop42
 90
       50
102
RTVSPost2010PropOp42
 70
     1
102
RTVSPost2010Prop43
 90
        3
102
RTVSPost2010PropOp43
 70
     1
102
RTVSPost2010Prop44ColorIndex
 90
        5
102
RTVSPost2010Prop44ColorRGB
 90
      255
102
RTVSPost2010PropOp44
 70
     1
102
RTVSPost2010Prop45
280
     0
102
RTVSPost2010PropOp45
 70
     1
102
RTVSPost2010Prop46
 90
       50
102
RTVSPost2010PropOp46
 70
     1
102
RTVSPost2010Prop47
 90
       50
102
RTVSPost2010PropOp47
 70
     1
102
RTVSPost2010Prop48
 90
       50
102
RTVSPost2010PropOp48
 70
     1
102
RTVSPost2010Prop49
280
     0
102
RTVSPost2010PropOp49
 70
     1
102
RTVSPost2010Prop50
 90
       50
102
RTVSPost2010PropOp50
 70
     1
102
RTVSPost2010Prop51ColorIndex
 90
      256
102
RTVSPost2010Prop51ColorRGB
 90
-16777216
102
RTVSPost2010PropOp51
 70
     0
102
RTVSPost2010Prop52
140
1.0
102
RTVSPost2010PropOp52
 70
     0
102
RTVSPost2010Prop53
 90
        2
102
RTVSPost2010PropOp53
 70
     1
102
RTVSPost2010Prop54
  1
strokes_ogs.tif
102
RTVSPost2010PropOp54
 70
     1
102
RTVSPost2010Prop55
280
     0
102
RTVSPost2010PropOp55
 70
     1
102
RTVSPost2010Prop56
140
1.0
102
RTVSPost2010PropOp56
 70
     1
102
RTVSPost2010Prop57
140
1.0
102
RTVSPost2010PropOp57
 70
     1
102
RTVSPropertyOp0
 70
     1
102
RTVSPropertyOp1
 70
     1
102
RTVSPropertyOp2
 70
     1
102
RTVSPropertyOp3
 70
     1
102
RTVSPropertyOp4
 70
     1
102
RTVSPropertyOp5
 70
     1
102
RTVSPropertyOp6
 70
     1
102
RTVSPropertyOp7
 70
     1
102
RTVSPropertyOp8
 70
     1
102
RTVSPropertyOp9
 70
     1
102
RTVSPropertyOp10
 70
     1
102
RTVSPropertyOp11
 70
     1
102
RTVSPropertyOp12
 70
     1
102
RTVSPropertyOp13
 70
     1
102
RTVSPropertyOp14
 70
     1
102
RTVSPropertyOp15
 70
     1
102
RTVSPropertyOp16
 70
     1
102
RTVSPropertyOp17
 70
     1
102
RTVSPropertyOp18
 70
     1
102
RTVSPropertyOp19
 70
     1
102
RTVSPropertyOp20
 70
     1
102
RTVSPropertyOp21
 70
     1
102
RTVSPropertyOp22
 70
     1
102
RTVSPropertyOp23
 70
     1
102
RTVSPropertyOp24
 70
     1
102
RTVSPropertyOp25
 70
     1
102
RTVSPropertyOp26
 70
     1
102
RTVSPropertyOp27
 70
     1
102
RTVSPropertyOp28
 70
     1
102
RTVSPropertyOp29
 70
     1
102
RTVSPropertyOp30
 70
     1
102
RTVSPropertyOp31
 70
     1
102
RTVSPropertyOp32
 70
     1
102
RTVSPropertyOp33
 70
     1
102
RTVSPropertyOp34
 70
     1
102
RTVSPropertyOp35
 70
     1
102
RTVSPropertyOp36
 70
     1
102
RTVSPropertyOp37
 70
     1
102
RTVSPropertyOp38
 70
     1
102
RTVSPropertyOp39
 70
     1
102
RTVSPropertyOp40
 70
     1
102
RTVSPropertyOp41
 70
     1
102
RTVSPropertyOp42
 70
     1
102
RTVSPropertyOp43
 70
     1
102
RTVSPropertyOp44
 70
     1
102
RTVSPropertyOp45
 70
     1
102
RTVSPropertyOp46
 70
     1
102
RTVSPropertyOp47
 70
     1
102
RTVSPropertyOp48
 70
     1
102
RTVSPropertyOp49
 70
     1
102
RTVSPropertyOp50
 70
     1
102
RTVSPropertyOp51
 70
     0
102
RTVSPropertyOp52
 70
     0
102
RTVSPropertyOp53
 70
     1
102
RTVSPropertyOp54
 70
     1
102
RTVSPropertyOp55
 70
     1
102
RTVSPropertyOp56
 70
     1
102
RTVSPropertyOp57
 70
     1
102
RTVSPropertyOp58
 70
     1
102
RTVSPropertyOp59
 70
     1
102
RTVSPropertyOp60
 70
     1
102
RTVSPropertyOp61
 70
     1
102
RTVSPropertyOp62
 70
     1
  0
XRECORD
  5
4C2F
102
{ACAD_REACTORS
330
4C2E
102
}
330
4C2E
100
AcDbXrecord
280
     1
102
RTVSPost2010Prop28
280
     0
102
RTVSPost2010PropOp28
 70
     1
102
RTVSPost2010Prop29
280
     1
102
RTVSPost2010PropOp29
 70
     1
102
RTVSPost2010Prop30
280
     1
102
RTVSPost2010PropOp30
 70
     1
102
RTVSPost2010Prop31
280
     0
102
RTVSPost2010PropOp31
 70
     1
102
RTVSPost2010Prop32
280
     0
102
RTVSPost2010PropOp32
 70
     1
102
RTVSPost2010Prop33
280
     0
102
RTVSPost2010PropOp33
 70
     1
102
RTVSPost2010Prop34
280
     0
102
RTVSPost2010PropOp34
 70
     1
102
RTVSPost2010Prop35
280
     0
102
RTVSPost2010PropOp35
 70
     1
102
RTVSPost2010Prop36
280
     0
102
RTVSPost2010PropOp36
 70
     1
102
RTVSPost2010Prop37
 90
       50
102
RTVSPost2010PropOp37
 70
     1
102
RTVSPost2010Prop38
140
0.0
102
RTVSPost2010PropOp38
 70
     1
102
RTVSPost2010Prop39
140
1.0
102
RTVSPost2010PropOp39
 70
     1
102
RTVSPost2010Prop40
 90
        0
102
RTVSPost2010PropOp40
 70
     1
102
RTVSPost2010Prop41ColorIndex
 90
       18
102
RTVSPost2010Prop41ColorRGB
 90
        0
102
RTVSPost2010PropOp41
 70
     1
102
RTVSPost2010Prop42
 90
       50
102
RTVSPost2010PropOp42
 70
     1
102
RTVSPost2010Prop43
 90
        3
102
RTVSPost2010PropOp43
 70
     1
102
RTVSPost2010Prop44ColorIndex
 90
        5
102
RTVSPost2010Prop44ColorRGB
 90
      255
102
RTVSPost2010PropOp44
 70
     1
102
RTVSPost2010Prop45
280
     0
102
RTVSPost2010PropOp45
 70
     1
102
RTVSPost2010Prop46
 90
       50
102
RTVSPost2010PropOp46
 70
     1
102
RTVSPost2010Prop47
 90
       50
102
RTVSPost2010PropOp47
 70
     1
102
RTVSPost2010Prop48
 90
       50
102
RTVSPost2010PropOp48
 70
     1
102
RTVSPost2010Prop49
280
     0
102
RTVSPost2010PropOp49
 70
     1
102
RTVSPost2010Prop50
 90
       50
102
RTVSPost2010PropOp50
 70
     1
102
RTVSPost2010Prop51ColorIndex
 90
      256
102
RTVSPost2010Prop51ColorRGB
 90
-16777216
102
RTVSPost2010PropOp51
 70
     0
102
RTVSPost2010Prop52
140
1.0
102
RTVSPost2010PropOp52
 70
     0
102
RTVSPost2010Prop53
 90
        2
102
RTVSPost2010PropOp53
 70
     1
102
RTVSPost2010Prop54
  1
strokes_ogs.tif
102
RTVSPost2010PropOp54
 70
     1
102
RTVSPost2010Prop55
280
     0
102
RTVSPost2010PropOp55
 70
     1
102
RTVSPost2010Prop56
140
1.0
102
RTVSPost2010PropOp56
 70
     1
102
RTVSPost2010Prop57
140
1.0
102
RTVSPost2010PropOp57
 70
     1
102
RTVSPropertyOp0
 70
     1
102
RTVSPropertyOp1
 70
     1
102
RTVSPropertyOp2
 70
     1
102
RTVSPropertyOp3
 70
     1
102
RTVSPropertyOp4
 70
     1
102
RTVSPropertyOp5
 70
     1
102
RTVSPropertyOp6
 70
     1
102
RTVSPropertyOp7
 70
     1
102
RTVSPropertyOp8
 70
     1
102
RTVSPropertyOp9
 70
     1
102
RTVSPropertyOp10
 70
     1
102
RTVSPropertyOp11
 70
     1
102
RTVSPropertyOp12
 70
     1
102
RTVSPropertyOp13
 70
     1
102
RTVSPropertyOp14
 70
     1
102
RTVSPropertyOp15
 70
     1
102
RTVSPropertyOp16
 70
     1
102
RTVSPropertyOp17
 70
     1
102
RTVSPropertyOp18
 70
     1
102
RTVSPropertyOp19
 70
     1
102
RTVSPropertyOp20
 70
     1
102
RTVSPropertyOp21
 70
     1
102
RTVSPropertyOp22
 70
     1
102
RTVSPropertyOp23
 70
     1
102
RTVSPropertyOp24
 70
     1
102
RTVSPropertyOp25
 70
     1
102
RTVSPropertyOp26
 70
     1
102
RTVSPropertyOp27
 70
     1
102
RTVSPropertyOp28
 70
     1
102
RTVSPropertyOp29
 70
     1
102
RTVSPropertyOp30
 70
     1
102
RTVSPropertyOp31
 70
     1
102
RTVSPropertyOp32
 70
     1
102
RTVSPropertyOp33
 70
     1
102
RTVSPropertyOp34
 70
     1
102
RTVSPropertyOp35
 70
     1
102
RTVSPropertyOp36
 70
     1
102
RTVSPropertyOp37
 70
     1
102
RTVSPropertyOp38
 70
     1
102
RTVSPropertyOp39
 70
     1
102
RTVSPropertyOp40
 70
     1
102
RTVSPropertyOp41
 70
     1
102
RTVSPropertyOp42
 70
     1
102
RTVSPropertyOp43
 70
     1
102
RTVSPropertyOp44
 70
     1
102
RTVSPropertyOp45
 70
     1
102
RTVSPropertyOp46
 70
     1
102
RTVSPropertyOp47
 70
     1
102
RTVSPropertyOp48
 70
     1
102
RTVSPropertyOp49
 70
     1
102
RTVSPropertyOp50
 70
     1
102
RTVSPropertyOp51
 70
     0
102
RTVSPropertyOp52
 70
     0
102
RTVSPropertyOp53
 70
     1
102
RTVSPropertyOp54
 70
     1
102
RTVSPropertyOp55
 70
     1
102
RTVSPropertyOp56
 70
     1
102
RTVSPropertyOp57
 70
     1
102
RTVSPropertyOp58
 70
     1
102
RTVSPropertyOp59
 70
     1
102
RTVSPropertyOp60
 70
     1
102
RTVSPropertyOp61
 70
     1
102
RTVSPropertyOp62
 70
     1
  0
XRECORD
  5
4C31
102
{ACAD_REACTORS
330
4C30
102
}
330
4C30
100
AcDbXrecord
280
     1
102
RTVSPost2010Prop28
280
     0
102
RTVSPost2010PropOp28
 70
     1
102
RTVSPost2010Prop29
280
     1
102
RTVSPost2010PropOp29
 70
     1
102
RTVSPost2010Prop30
280
     1
102
RTVSPost2010PropOp30
 70
     1
102
RTVSPost2010Prop31
280
     0
102
RTVSPost2010PropOp31
 70
     1
102
RTVSPost2010Prop32
280
     0
102
RTVSPost2010PropOp32
 70
     1
102
RTVSPost2010Prop33
280
     0
102
RTVSPost2010PropOp33
 70
     1
102
RTVSPost2010Prop34
280
     0
102
RTVSPost2010PropOp34
 70
     1
102
RTVSPost2010Prop35
280
     0
102
RTVSPost2010PropOp35
 70
     1
102
RTVSPost2010Prop36
280
     0
102
RTVSPost2010PropOp36
 70
     1
102
RTVSPost2010Prop37
 90
       50
102
RTVSPost2010PropOp37
 70
     1
102
RTVSPost2010Prop38
140
0.0
102
RTVSPost2010PropOp38
 70
     1
102
RTVSPost2010Prop39
140
1.0
102
RTVSPost2010PropOp39
 70
     1
102
RTVSPost2010Prop40
 90
        0
102
RTVSPost2010PropOp40
 70
     1
102
RTVSPost2010Prop41ColorIndex
 90
       18
102
RTVSPost2010Prop41ColorRGB
 90
        0
102
RTVSPost2010PropOp41
 70
     1
102
RTVSPost2010Prop42
 90
       50
102
RTVSPost2010PropOp42
 70
     1
102
RTVSPost2010Prop43
 90
        3
102
RTVSPost2010PropOp43
 70
     1
102
RTVSPost2010Prop44ColorIndex
 90
        5
102
RTVSPost2010Prop44ColorRGB
 90
      255
102
RTVSPost2010PropOp44
 70
     1
102
RTVSPost2010Prop45
280
     0
102
RTVSPost2010PropOp45
 70
     1
102
RTVSPost2010Prop46
 90
       50
102
RTVSPost2010PropOp46
 70
     1
102
RTVSPost2010Prop47
 90
       50
102
RTVSPost2010PropOp47
 70
     1
102
RTVSPost2010Prop48
 90
       50
102
RTVSPost2010PropOp48
 70
     1
102
RTVSPost2010Prop49
280
     0
102
RTVSPost2010PropOp49
 70
     1
102
RTVSPost2010Prop50
 90
       50
102
RTVSPost2010PropOp50
 70
     1
102
RTVSPost2010Prop51ColorIndex
 90
      256
102
RTVSPost2010Prop51ColorRGB
 90
-16777216
102
RTVSPost2010PropOp51
 70
     0
102
RTVSPost2010Prop52
140
1.0
102
RTVSPost2010PropOp52
 70
     0
102
RTVSPost2010Prop53
 90
        2
102
RTVSPost2010PropOp53
 70
     1
102
RTVSPost2010Prop54
  1
strokes_ogs.tif
102
RTVSPost2010PropOp54
 70
     1
102
RTVSPost2010Prop55
280
     0
102
RTVSPost2010PropOp55
 70
     1
102
RTVSPost2010Prop56
140
1.0
102
RTVSPost2010PropOp56
 70
     1
102
RTVSPost2010Prop57
140
1.0
102
RTVSPost2010PropOp57
 70
     1
102
RTVSPropertyOp0
 70
     1
102
RTVSPropertyOp1
 70
     1
102
RTVSPropertyOp2
 70
     1
102
RTVSPropertyOp3
 70
     1
102
RTVSPropertyOp4
 70
     1
102
RTVSPropertyOp5
 70
     1
102
RTVSPropertyOp6
 70
     1
102
RTVSPropertyOp7
 70
     1
102
RTVSPropertyOp8
 70
     1
102
RTVSPropertyOp9
 70
     1
102
RTVSPropertyOp10
 70
     1
102
RTVSPropertyOp11
 70
     1
102
RTVSPropertyOp12
 70
     1
102
RTVSPropertyOp13
 70
     1
102
RTVSPropertyOp14
 70
     1
102
RTVSPropertyOp15
 70
     1
102
RTVSPropertyOp16
 70
     1
102
RTVSPropertyOp17
 70
     1
102
RTVSPropertyOp18
 70
     1
102
RTVSPropertyOp19
 70
     1
102
RTVSPropertyOp20
 70
     1
102
RTVSPropertyOp21
 70
     1
102
RTVSPropertyOp22
 70
     1
102
RTVSPropertyOp23
 70
     1
102
RTVSPropertyOp24
 70
     1
102
RTVSPropertyOp25
 70
     1
102
RTVSPropertyOp26
 70
     1
102
RTVSPropertyOp27
 70
     1
102
RTVSPropertyOp28
 70
     1
102
RTVSPropertyOp29
 70
     1
102
RTVSPropertyOp30
 70
     1
102
RTVSPropertyOp31
 70
     1
102
RTVSPropertyOp32
 70
     1
102
RTVSPropertyOp33
 70
     1
102
RTVSPropertyOp34
 70
     1
102
RTVSPropertyOp35
 70
     1
102
RTVSPropertyOp36
 70
     1
102
RTVSPropertyOp37
 70
     1
102
RTVSPropertyOp38
 70
     1
102
RTVSPropertyOp39
 70
     1
102
RTVSPropertyOp40
 70
     1
102
RTVSPropertyOp41
 70
     1
102
RTVSPropertyOp42
 70
     1
102
RTVSPropertyOp43
 70
     1
102
RTVSPropertyOp44
 70
     1
102
RTVSPropertyOp45
 70
     1
102
RTVSPropertyOp46
 70
     1
102
RTVSPropertyOp47
 70
     1
102
RTVSPropertyOp48
 70
     1
102
RTVSPropertyOp49
 70
     1
102
RTVSPropertyOp50
 70
     1
102
RTVSPropertyOp51
 70
     0
102
RTVSPropertyOp52
 70
     0
102
RTVSPropertyOp53
 70
     1
102
RTVSPropertyOp54
 70
     1
102
RTVSPropertyOp55
 70
     1
102
RTVSPropertyOp56
 70
     1
102
RTVSPropertyOp57
 70
     1
102
RTVSPropertyOp58
 70
     1
102
RTVSPropertyOp59
 70
     1
102
RTVSPropertyOp60
 70
     1
102
RTVSPropertyOp61
 70
     1
102
RTVSPropertyOp62
 70
     1
  0
XRECORD
  5
4C54
102
{ACAD_REACTORS
330
4C53
102
}
330
4C53
100
AcDbXrecord
280
     1
102
RTVSPost2010Prop28
280
     0
102
RTVSPost2010PropOp28
 70
     1
102
RTVSPost2010Prop29
280
     1
102
RTVSPost2010PropOp29
 70
     1
102
RTVSPost2010Prop30
280
     1
102
RTVSPost2010PropOp30
 70
     1
102
RTVSPost2010Prop31
280
     0
102
RTVSPost2010PropOp31
 70
     1
102
RTVSPost2010Prop32
280
     0
102
RTVSPost2010PropOp32
 70
     1
102
RTVSPost2010Prop33
280
     0
102
RTVSPost2010PropOp33
 70
     1
102
RTVSPost2010Prop34
280
     0
102
RTVSPost2010PropOp34
 70
     1
102
RTVSPost2010Prop35
280
     0
102
RTVSPost2010PropOp35
 70
     1
102
RTVSPost2010Prop36
280
     0
102
RTVSPost2010PropOp36
 70
     1
102
RTVSPost2010Prop37
 90
       50
102
RTVSPost2010PropOp37
 70
     1
102
RTVSPost2010Prop38
140
0.0
102
RTVSPost2010PropOp38
 70
     1
102
RTVSPost2010Prop39
140
1.0
102
RTVSPost2010PropOp39
 70
     1
102
RTVSPost2010Prop40
 90
        0
102
RTVSPost2010PropOp40
 70
     1
102
RTVSPost2010Prop41ColorIndex
 90
       18
102
RTVSPost2010Prop41ColorRGB
 90
        0
102
RTVSPost2010PropOp41
 70
     1
102
RTVSPost2010Prop42
 90
       50
102
RTVSPost2010PropOp42
 70
     1
102
RTVSPost2010Prop43
 90
        3
102
RTVSPost2010PropOp43
 70
     1
102
RTVSPost2010Prop44ColorIndex
 90
        5
102
RTVSPost2010Prop44ColorRGB
 90
      255
102
RTVSPost2010PropOp44
 70
     1
102
RTVSPost2010Prop45
280
     0
102
RTVSPost2010PropOp45
 70
     1
102
RTVSPost2010Prop46
 90
       50
102
RTVSPost2010PropOp46
 70
     1
102
RTVSPost2010Prop47
 90
       50
102
RTVSPost2010PropOp47
 70
     1
102
RTVSPost2010Prop48
 90
       50
102
RTVSPost2010PropOp48
 70
     1
102
RTVSPost2010Prop49
280
     0
102
RTVSPost2010PropOp49
 70
     1
102
RTVSPost2010Prop50
 90
       50
102
RTVSPost2010PropOp50
 70
     1
102
RTVSPost2010Prop51ColorIndex
 90
      256
102
RTVSPost2010Prop51ColorRGB
 90
-16777216
102
RTVSPost2010PropOp51
 70
     0
102
RTVSPost2010Prop52
140
1.0
102
RTVSPost2010PropOp52
 70
     0
102
RTVSPost2010Prop53
 90
        2
102
RTVSPost2010PropOp53
 70
     1
102
RTVSPost2010Prop54
  1
strokes_ogs.tif
102
RTVSPost2010PropOp54
 70
     1
102
RTVSPost2010Prop55
280
     0
102
RTVSPost2010PropOp55
 70
     1
102
RTVSPost2010Prop56
140
1.0
102
RTVSPost2010PropOp56
 70
     1
102
RTVSPost2010Prop57
140
1.0
102
RTVSPost2010PropOp57
 70
     1
102
RTVSPropertyOp0
 70
     1
102
RTVSPropertyOp1
 70
     1
102
RTVSPropertyOp2
 70
     1
102
RTVSPropertyOp3
 70
     1
102
RTVSPropertyOp4
 70
     1
102
RTVSPropertyOp5
 70
     1
102
RTVSPropertyOp6
 70
     1
102
RTVSPropertyOp7
 70
     1
102
RTVSPropertyOp8
 70
     1
102
RTVSPropertyOp9
 70
     1
102
RTVSPropertyOp10
 70
     1
102
RTVSPropertyOp11
 70
     1
102
RTVSPropertyOp12
 70
     1
102
RTVSPropertyOp13
 70
     1
102
RTVSPropertyOp14
 70
     1
102
RTVSPropertyOp15
 70
     1
102
RTVSPropertyOp16
 70
     1
102
RTVSPropertyOp17
 70
     1
102
RTVSPropertyOp18
 70
     1
102
RTVSPropertyOp19
 70
     1
102
RTVSPropertyOp20
 70
     1
102
RTVSPropertyOp21
 70
     1
102
RTVSPropertyOp22
 70
     1
102
RTVSPropertyOp23
 70
     1
102
RTVSPropertyOp24
 70
     1
102
RTVSPropertyOp25
 70
     1
102
RTVSPropertyOp26
 70
     1
102
RTVSPropertyOp27
 70
     1
102
RTVSPropertyOp28
 70
     1
102
RTVSPropertyOp29
 70
     1
102
RTVSPropertyOp30
 70
     1
102
RTVSPropertyOp31
 70
     1
102
RTVSPropertyOp32
 70
     1
102
RTVSPropertyOp33
 70
     1
102
RTVSPropertyOp34
 70
     1
102
RTVSPropertyOp35
 70
     1
102
RTVSPropertyOp36
 70
     1
102
RTVSPropertyOp37
 70
     1
102
RTVSPropertyOp38
 70
     1
102
RTVSPropertyOp39
 70
     1
102
RTVSPropertyOp40
 70
     1
102
RTVSPropertyOp41
 70
     1
102
RTVSPropertyOp42
 70
     1
102
RTVSPropertyOp43
 70
     1
102
RTVSPropertyOp44
 70
     1
102
RTVSPropertyOp45
 70
     1
102
RTVSPropertyOp46
 70
     1
102
RTVSPropertyOp47
 70
     1
102
RTVSPropertyOp48
 70
     1
102
RTVSPropertyOp49
 70
     1
102
RTVSPropertyOp50
 70
     1
102
RTVSPropertyOp51
 70
     0
102
RTVSPropertyOp52
 70
     0
102
RTVSPropertyOp53
 70
     1
102
RTVSPropertyOp54
 70
     1
102
RTVSPropertyOp55
 70
     1
102
RTVSPropertyOp56
 70
     1
102
RTVSPropertyOp57
 70
     1
102
RTVSPropertyOp58
 70
     1
102
RTVSPropertyOp59
 70
     1
102
RTVSPropertyOp60
 70
     1
102
RTVSPropertyOp61
 70
     1
102
RTVSPropertyOp62
 70
     1
  0
XRECORD
  5
4C4B
102
{ACAD_REACTORS
330
4C4A
102
}
330
4C4A
100
AcDbXrecord
280
     1
102
RTVSPost2010Prop28
280
     0
102
RTVSPost2010PropOp28
 70
     1
102
RTVSPost2010Prop29
280
     1
102
RTVSPost2010PropOp29
 70
     1
102
RTVSPost2010Prop30
280
     1
102
RTVSPost2010PropOp30
 70
     1
102
RTVSPost2010Prop31
280
     0
102
RTVSPost2010PropOp31
 70
     1
102
RTVSPost2010Prop32
280
     0
102
RTVSPost2010PropOp32
 70
     1
102
RTVSPost2010Prop33
280
     0
102
RTVSPost2010PropOp33
 70
     1
102
RTVSPost2010Prop34
280
     0
102
RTVSPost2010PropOp34
 70
     1
102
RTVSPost2010Prop35
280
     0
102
RTVSPost2010PropOp35
 70
     1
102
RTVSPost2010Prop36
280
     0
102
RTVSPost2010PropOp36
 70
     1
102
RTVSPost2010Prop37
 90
       50
102
RTVSPost2010PropOp37
 70
     1
102
RTVSPost2010Prop38
140
0.0
102
RTVSPost2010PropOp38
 70
     1
102
RTVSPost2010Prop39
140
1.0
102
RTVSPost2010PropOp39
 70
     1
102
RTVSPost2010Prop40
 90
        0
102
RTVSPost2010PropOp40
 70
     1
102
RTVSPost2010Prop41ColorIndex
 90
       18
102
RTVSPost2010Prop41ColorRGB
 90
        0
102
RTVSPost2010PropOp41
 70
     1
102
RTVSPost2010Prop42
 90
       50
102
RTVSPost2010PropOp42
 70
     1
102
RTVSPost2010Prop43
 90
        3
102
RTVSPost2010PropOp43
 70
     1
102
RTVSPost2010Prop44ColorIndex
 90
        5
102
RTVSPost2010Prop44ColorRGB
 90
      255
102
RTVSPost2010PropOp44
 70
     1
102
RTVSPost2010Prop45
280
     0
102
RTVSPost2010PropOp45
 70
     1
102
RTVSPost2010Prop46
 90
       50
102
RTVSPost2010PropOp46
 70
     1
102
RTVSPost2010Prop47
 90
       50
102
RTVSPost2010PropOp47
 70
     1
102
RTVSPost2010Prop48
 90
       50
102
RTVSPost2010PropOp48
 70
     1
102
RTVSPost2010Prop49
280
     0
102
RTVSPost2010PropOp49
 70
     1
102
RTVSPost2010Prop50
 90
       50
102
RTVSPost2010PropOp50
 70
     1
102
RTVSPost2010Prop51ColorIndex
 90
      256
102
RTVSPost2010Prop51ColorRGB
 90
-16777216
102
RTVSPost2010PropOp51
 70
     0
102
RTVSPost2010Prop52
140
1.0
102
RTVSPost2010PropOp52
 70
     0
102
RTVSPost2010Prop53
 90
        2
102
RTVSPost2010PropOp53
 70
     1
102
RTVSPost2010Prop54
  1
strokes_ogs.tif
102
RTVSPost2010PropOp54
 70
     1
102
RTVSPost2010Prop55
280
     0
102
RTVSPost2010PropOp55
 70
     1
102
RTVSPost2010Prop56
140
1.0
102
RTVSPost2010PropOp56
 70
     1
102
RTVSPost2010Prop57
140
1.0
102
RTVSPost2010PropOp57
 70
     1
102
RTVSPropertyOp0
 70
     0
102
RTVSPropertyOp1
 70
     0
102
RTVSPropertyOp2
 70
     0
102
RTVSPropertyOp3
 70
     0
102
RTVSPropertyOp4
 70
     0
102
RTVSPropertyOp5
 70
     0
102
RTVSPropertyOp6
 70
     0
102
RTVSPropertyOp7
 70
     0
102
RTVSPropertyOp8
 70
     0
102
RTVSPropertyOp9
 70
     0
102
RTVSPropertyOp10
 70
     0
102
RTVSPropertyOp11
 70
     0
102
RTVSPropertyOp12
 70
     0
102
RTVSPropertyOp13
 70
     0
102
RTVSPropertyOp14
 70
     2
102
RTVSPropertyOp15
 70
     0
102
RTVSPropertyOp16
 70
     0
102
RTVSPropertyOp17
 70
     0
102
RTVSPropertyOp18
 70
     0
102
RTVSPropertyOp19
 70
     0
102
RTVSPropertyOp20
 70
     0
102
RTVSPropertyOp21
 70
     0
102
RTVSPropertyOp22
 70
     0
102
RTVSPropertyOp23
 70
     0
102
RTVSPropertyOp24
 70
     0
102
RTVSPropertyOp25
 70
     0
102
RTVSPropertyOp26
 70
     0
102
RTVSPropertyOp27
 70
     0
102
RTVSPropertyOp28
 70
     1
102
RTVSPropertyOp29
 70
     1
102
RTVSPropertyOp30
 70
     1
102
RTVSPropertyOp31
 70
     1
102
RTVSPropertyOp32
 70
     1
102
RTVSPropertyOp33
 70
     1
102
RTVSPropertyOp34
 70
     1
102
RTVSPropertyOp35
 70
     1
102
RTVSPropertyOp36
 70
     1
102
RTVSPropertyOp37
 70
     1
102
RTVSPropertyOp38
 70
     1
102
RTVSPropertyOp39
 70
     1
102
RTVSPropertyOp40
 70
     1
102
RTVSPropertyOp41
 70
     1
102
RTVSPropertyOp42
 70
     1
102
RTVSPropertyOp43
 70
     1
102
RTVSPropertyOp44
 70
     1
102
RTVSPropertyOp45
 70
     1
102
RTVSPropertyOp46
 70
     1
102
RTVSPropertyOp47
 70
     1
102
RTVSPropertyOp48
 70
     1
102
RTVSPropertyOp49
 70
     1
102
RTVSPropertyOp50
 70
     1
102
RTVSPropertyOp51
 70
     0
102
RTVSPropertyOp52
 70
     0
102
RTVSPropertyOp53
 70
     1
102
RTVSPropertyOp54
 70
     1
102
RTVSPropertyOp55
 70
     1
102
RTVSPropertyOp56
 70
     1
102
RTVSPropertyOp57
 70
     1
102
RTVSPropertyOp58
 70
     1
102
RTVSPropertyOp59
 70
     1
102
RTVSPropertyOp60
 70
     1
102
RTVSPropertyOp61
 70
     1
102
RTVSPropertyOp62
 70
     1
  0
XRECORD
  5
4C45
102
{ACAD_REACTORS
330
4C44
102
}
330
4C44
100
AcDbXrecord
280
     1
102
RTVSPost2010Prop28
280
     0
102
RTVSPost2010PropOp28
 70
     1
102
RTVSPost2010Prop29
280
     1
102
RTVSPost2010PropOp29
 70
     1
102
RTVSPost2010Prop30
280
     1
102
RTVSPost2010PropOp30
 70
     1
102
RTVSPost2010Prop31
280
     0
102
RTVSPost2010PropOp31
 70
     1
102
RTVSPost2010Prop32
280
     0
102
RTVSPost2010PropOp32
 70
     1
102
RTVSPost2010Prop33
280
     0
102
RTVSPost2010PropOp33
 70
     1
102
RTVSPost2010Prop34
280
     0
102
RTVSPost2010PropOp34
 70
     1
102
RTVSPost2010Prop35
280
     0
102
RTVSPost2010PropOp35
 70
     1
102
RTVSPost2010Prop36
280
     0
102
RTVSPost2010PropOp36
 70
     1
102
RTVSPost2010Prop37
 90
       50
102
RTVSPost2010PropOp37
 70
     1
102
RTVSPost2010Prop38
140
0.0
102
RTVSPost2010PropOp38
 70
     1
102
RTVSPost2010Prop39
140
1.0
102
RTVSPost2010PropOp39
 70
     1
102
RTVSPost2010Prop40
 90
        0
102
RTVSPost2010PropOp40
 70
     1
102
RTVSPost2010Prop41ColorIndex
 90
       18
102
RTVSPost2010Prop41ColorRGB
 90
        0
102
RTVSPost2010PropOp41
 70
     1
102
RTVSPost2010Prop42
 90
       50
102
RTVSPost2010PropOp42
 70
     1
102
RTVSPost2010Prop43
 90
        3
102
RTVSPost2010PropOp43
 70
     1
102
RTVSPost2010Prop44ColorIndex
 90
        5
102
RTVSPost2010Prop44ColorRGB
 90
      255
102
RTVSPost2010PropOp44
 70
     1
102
RTVSPost2010Prop45
280
     0
102
RTVSPost2010PropOp45
 70
     1
102
RTVSPost2010Prop46
 90
       50
102
RTVSPost2010PropOp46
 70
     1
102
RTVSPost2010Prop47
 90
       50
102
RTVSPost2010PropOp47
 70
     1
102
RTVSPost2010Prop48
 90
       50
102
RTVSPost2010PropOp48
 70
     1
102
RTVSPost2010Prop49
280
     0
102
RTVSPost2010PropOp49
 70
     1
102
RTVSPost2010Prop50
 90
       50
102
RTVSPost2010PropOp50
 70
     1
102
RTVSPost2010Prop51ColorIndex
 90
      256
102
RTVSPost2010Prop51ColorRGB
 90
-16777216
102
RTVSPost2010PropOp51
 70
     0
102
RTVSPost2010Prop52
140
1.0
102
RTVSPost2010PropOp52
 70
     0
102
RTVSPost2010Prop53
 90
        2
102
RTVSPost2010PropOp53
 70
     1
102
RTVSPost2010Prop54
  1
strokes_ogs.tif
102
RTVSPost2010PropOp54
 70
     1
102
RTVSPost2010Prop55
280
     0
102
RTVSPost2010PropOp55
 70
     1
102
RTVSPost2010Prop56
140
1.0
102
RTVSPost2010PropOp56
 70
     1
102
RTVSPost2010Prop57
140
1.0
102
RTVSPost2010PropOp57
 70
     1
102
RTVSPropertyOp0
 70
     1
102
RTVSPropertyOp1
 70
     1
102
RTVSPropertyOp2
 70
     1
102
RTVSPropertyOp3
 70
     1
102
RTVSPropertyOp4
 70
     1
102
RTVSPropertyOp5
 70
     1
102
RTVSPropertyOp6
 70
     1
102
RTVSPropertyOp7
 70
     1
102
RTVSPropertyOp8
 70
     1
102
RTVSPropertyOp9
 70
     1
102
RTVSPropertyOp10
 70
     1
102
RTVSPropertyOp11
 70
     1
102
RTVSPropertyOp12
 70
     1
102
RTVSPropertyOp13
 70
     1
102
RTVSPropertyOp14
 70
     1
102
RTVSPropertyOp15
 70
     1
102
RTVSPropertyOp16
 70
     1
102
RTVSPropertyOp17
 70
     1
102
RTVSPropertyOp18
 70
     1
102
RTVSPropertyOp19
 70
     1
102
RTVSPropertyOp20
 70
     1
102
RTVSPropertyOp21
 70
     1
102
RTVSPropertyOp22
 70
     1
102
RTVSPropertyOp23
 70
     1
102
RTVSPropertyOp24
 70
     1
102
RTVSPropertyOp25
 70
     1
102
RTVSPropertyOp26
 70
     1
102
RTVSPropertyOp27
 70
     1
102
RTVSPropertyOp28
 70
     1
102
RTVSPropertyOp29
 70
     1
102
RTVSPropertyOp30
 70
     1
102
RTVSPropertyOp31
 70
     1
102
RTVSPropertyOp32
 70
     1
102
RTVSPropertyOp33
 70
     1
102
RTVSPropertyOp34
 70
     1
102
RTVSPropertyOp35
 70
     1
102
RTVSPropertyOp36
 70
     1
102
RTVSPropertyOp37
 70
     1
102
RTVSPropertyOp38
 70
     1
102
RTVSPropertyOp39
 70
     1
102
RTVSPropertyOp40
 70
     1
102
RTVSPropertyOp41
 70
     1
102
RTVSPropertyOp42
 70
     1
102
RTVSPropertyOp43
 70
     1
102
RTVSPropertyOp44
 70
     1
102
RTVSPropertyOp45
 70
     1
102
RTVSPropertyOp46
 70
     1
102
RTVSPropertyOp47
 70
     1
102
RTVSPropertyOp48
 70
     1
102
RTVSPropertyOp49
 70
     1
102
RTVSPropertyOp50
 70
     1
102
RTVSPropertyOp51
 70
     0
102
RTVSPropertyOp52
 70
     0
102
RTVSPropertyOp53
 70
     1
102
RTVSPropertyOp54
 70
     1
102
RTVSPropertyOp55
 70
     1
102
RTVSPropertyOp56
 70
     1
102
RTVSPropertyOp57
 70
     1
102
RTVSPropertyOp58
 70
     1
102
RTVSPropertyOp59
 70
     1
102
RTVSPropertyOp60
 70
     1
102
RTVSPropertyOp61
 70
     1
102
RTVSPropertyOp62
 70
     1
  0
XRECORD
  5
4C4D
102
{ACAD_REACTORS
330
4C4C
102
}
330
4C4C
100
AcDbXrecord
280
     1
102
RTVSPost2010Prop28
280
     0
102
RTVSPost2010PropOp28
 70
     1
102
RTVSPost2010Prop29
280
     1
102
RTVSPost2010PropOp29
 70
     1
102
RTVSPost2010Prop30
280
     1
102
RTVSPost2010PropOp30
 70
     1
102
RTVSPost2010Prop31
280
     0
102
RTVSPost2010PropOp31
 70
     1
102
RTVSPost2010Prop32
280
     0
102
RTVSPost2010PropOp32
 70
     1
102
RTVSPost2010Prop33
280
     0
102
RTVSPost2010PropOp33
 70
     1
102
RTVSPost2010Prop34
280
     0
102
RTVSPost2010PropOp34
 70
     1
102
RTVSPost2010Prop35
280
     0
102
RTVSPost2010PropOp35
 70
     1
102
RTVSPost2010Prop36
280
     0
102
RTVSPost2010PropOp36
 70
     1
102
RTVSPost2010Prop37
 90
       50
102
RTVSPost2010PropOp37
 70
     1
102
RTVSPost2010Prop38
140
0.0
102
RTVSPost2010PropOp38
 70
     1
102
RTVSPost2010Prop39
140
1.0
102
RTVSPost2010PropOp39
 70
     1
102
RTVSPost2010Prop40
 90
        0
102
RTVSPost2010PropOp40
 70
     1
102
RTVSPost2010Prop41ColorIndex
 90
       18
102
RTVSPost2010Prop41ColorRGB
 90
        0
102
RTVSPost2010PropOp41
 70
     1
102
RTVSPost2010Prop42
 90
       50
102
RTVSPost2010PropOp42
 70
     1
102
RTVSPost2010Prop43
 90
        3
102
RTVSPost2010PropOp43
 70
     1
102
RTVSPost2010Prop44ColorIndex
 90
        5
102
RTVSPost2010Prop44ColorRGB
 90
      255
102
RTVSPost2010PropOp44
 70
     1
102
RTVSPost2010Prop45
280
     0
102
RTVSPost2010PropOp45
 70
     1
102
RTVSPost2010Prop46
 90
       50
102
RTVSPost2010PropOp46
 70
     1
102
RTVSPost2010Prop47
 90
       50
102
RTVSPost2010PropOp47
 70
     1
102
RTVSPost2010Prop48
 90
       50
102
RTVSPost2010PropOp48
 70
     1
102
RTVSPost2010Prop49
280
     0
102
RTVSPost2010PropOp49
 70
     1
102
RTVSPost2010Prop50
 90
       50
102
RTVSPost2010PropOp50
 70
     1
102
RTVSPost2010Prop51ColorIndex
 90
      256
102
RTVSPost2010Prop51ColorRGB
 90
-16777216
102
RTVSPost2010PropOp51
 70
     0
102
RTVSPost2010Prop52
140
1.0
102
RTVSPost2010PropOp52
 70
     0
102
RTVSPost2010Prop53
 90
        2
102
RTVSPost2010PropOp53
 70
     1
102
RTVSPost2010Prop54
  1
strokes_ogs.tif
102
RTVSPost2010PropOp54
 70
     1
102
RTVSPost2010Prop55
280
     0
102
RTVSPost2010PropOp55
 70
     1
102
RTVSPost2010Prop56
140
1.0
102
RTVSPost2010PropOp56
 70
     1
102
RTVSPost2010Prop57
140
1.0
102
RTVSPost2010PropOp57
 70
     1
102
RTVSPropertyOp0
 70
     0
102
RTVSPropertyOp1
 70
     0
102
RTVSPropertyOp2
 70
     0
102
RTVSPropertyOp3
 70
     0
102
RTVSPropertyOp4
 70
     0
102
RTVSPropertyOp5
 70
     0
102
RTVSPropertyOp6
 70
     0
102
RTVSPropertyOp7
 70
     0
102
RTVSPropertyOp8
 70
     0
102
RTVSPropertyOp9
 70
     0
102
RTVSPropertyOp10
 70
     0
102
RTVSPropertyOp11
 70
     0
102
RTVSPropertyOp12
 70
     0
102
RTVSPropertyOp13
 70
     0
102
RTVSPropertyOp14
 70
     2
102
RTVSPropertyOp15
 70
     0
102
RTVSPropertyOp16
 70
     0
102
RTVSPropertyOp17
 70
     0
102
RTVSPropertyOp18
 70
     0
102
RTVSPropertyOp19
 70
     0
102
RTVSPropertyOp20
 70
     0
102
RTVSPropertyOp21
 70
     0
102
RTVSPropertyOp22
 70
     0
102
RTVSPropertyOp23
 70
     0
102
RTVSPropertyOp24
 70
     0
102
RTVSPropertyOp25
 70
     0
102
RTVSPropertyOp26
 70
     0
102
RTVSPropertyOp27
 70
     0
102
RTVSPropertyOp28
 70
     1
102
RTVSPropertyOp29
 70
     1
102
RTVSPropertyOp30
 70
     1
102
RTVSPropertyOp31
 70
     1
102
RTVSPropertyOp32
 70
     1
102
RTVSPropertyOp33
 70
     1
102
RTVSPropertyOp34
 70
     1
102
RTVSPropertyOp35
 70
     1
102
RTVSPropertyOp36
 70
     1
102
RTVSPropertyOp37
 70
     1
102
RTVSPropertyOp38
 70
     1
102
RTVSPropertyOp39
 70
     1
102
RTVSPropertyOp40
 70
     1
102
RTVSPropertyOp41
 70
     1
102
RTVSPropertyOp42
 70
     1
102
RTVSPropertyOp43
 70
     1
102
RTVSPropertyOp44
 70
     1
102
RTVSPropertyOp45
 70
     1
102
RTVSPropertyOp46
 70
     1
102
RTVSPropertyOp47
 70
     1
102
RTVSPropertyOp48
 70
     1
102
RTVSPropertyOp49
 70
     1
102
RTVSPropertyOp50
 70
     1
102
RTVSPropertyOp51
 70
     0
102
RTVSPropertyOp52
 70
     0
102
RTVSPropertyOp53
 70
     1
102
RTVSPropertyOp54
 70
     1
102
RTVSPropertyOp55
 70
     1
102
RTVSPropertyOp56
 70
     1
102
RTVSPropertyOp57
 70
     1
102
RTVSPropertyOp58
 70
     1
102
RTVSPropertyOp59
 70
     1
102
RTVSPropertyOp60
 70
     1
102
RTVSPropertyOp61
 70
     1
102
RTVSPropertyOp62
 70
     1
  0
XRECORD
  5
4C3D
102
{ACAD_REACTORS
330
4C3C
102
}
330
4C3C
100
AcDbXrecord
280
     1
102
RTVSPost2010Prop28
280
     0
102
RTVSPost2010PropOp28
 70
     1
102
RTVSPost2010Prop29
280
     1
102
RTVSPost2010PropOp29
 70
     1
102
RTVSPost2010Prop30
280
     1
102
RTVSPost2010PropOp30
 70
     1
102
RTVSPost2010Prop31
280
     0
102
RTVSPost2010PropOp31
 70
     1
102
RTVSPost2010Prop32
280
     0
102
RTVSPost2010PropOp32
 70
     1
102
RTVSPost2010Prop33
280
     0
102
RTVSPost2010PropOp33
 70
     1
102
RTVSPost2010Prop34
280
     0
102
RTVSPost2010PropOp34
 70
     1
102
RTVSPost2010Prop35
280
     0
102
RTVSPost2010PropOp35
 70
     1
102
RTVSPost2010Prop36
280
     0
102
RTVSPost2010PropOp36
 70
     1
102
RTVSPost2010Prop37
 90
       50
102
RTVSPost2010PropOp37
 70
     1
102
RTVSPost2010Prop38
140
0.0
102
RTVSPost2010PropOp38
 70
     1
102
RTVSPost2010Prop39
140
1.0
102
RTVSPost2010PropOp39
 70
     1
102
RTVSPost2010Prop40
 90
        0
102
RTVSPost2010PropOp40
 70
     1
102
RTVSPost2010Prop41ColorIndex
 90
       18
102
RTVSPost2010Prop41ColorRGB
 90
        0
102
RTVSPost2010PropOp41
 70
     1
102
RTVSPost2010Prop42
 90
       50
102
RTVSPost2010PropOp42
 70
     1
102
RTVSPost2010Prop43
 90
        3
102
RTVSPost2010PropOp43
 70
     1
102
RTVSPost2010Prop44ColorIndex
 90
        5
102
RTVSPost2010Prop44ColorRGB
 90
      255
102
RTVSPost2010PropOp44
 70
     1
102
RTVSPost2010Prop45
280
     0
102
RTVSPost2010PropOp45
 70
     1
102
RTVSPost2010Prop46
 90
       50
102
RTVSPost2010PropOp46
 70
     1
102
RTVSPost2010Prop47
 90
       50
102
RTVSPost2010PropOp47
 70
     1
102
RTVSPost2010Prop48
 90
       50
102
RTVSPost2010PropOp48
 70
     1
102
RTVSPost2010Prop49
280
     0
102
RTVSPost2010PropOp49
 70
     1
102
RTVSPost2010Prop50
 90
       50
102
RTVSPost2010PropOp50
 70
     1
102
RTVSPost2010Prop51ColorIndex
 90
      256
102
RTVSPost2010Prop51ColorRGB
 90
-16777216
102
RTVSPost2010PropOp51
 70
     0
102
RTVSPost2010Prop52
140
1.0
102
RTVSPost2010PropOp52
 70
     0
102
RTVSPost2010Prop53
 90
        2
102
RTVSPost2010PropOp53
 70
     1
102
RTVSPost2010Prop54
  1
strokes_ogs.tif
102
RTVSPost2010PropOp54
 70
     1
102
RTVSPost2010Prop55
280
     0
102
RTVSPost2010PropOp55
 70
     1
102
RTVSPost2010Prop56
140
1.0
102
RTVSPost2010PropOp56
 70
     1
102
RTVSPost2010Prop57
140
1.0
102
RTVSPost2010PropOp57
 70
     1
102
RTVSPropertyOp0
 70
     1
102
RTVSPropertyOp1
 70
     1
102
RTVSPropertyOp2
 70
     1
102
RTVSPropertyOp3
 70
     1
102
RTVSPropertyOp4
 70
     1
102
RTVSPropertyOp5
 70
     1
102
RTVSPropertyOp6
 70
     1
102
RTVSPropertyOp7
 70
     1
102
RTVSPropertyOp8
 70
     1
102
RTVSPropertyOp9
 70
     1
102
RTVSPropertyOp10
 70
     1
102
RTVSPropertyOp11
 70
     1
102
RTVSPropertyOp12
 70
     1
102
RTVSPropertyOp13
 70
     1
102
RTVSPropertyOp14
 70
     1
102
RTVSPropertyOp15
 70
     1
102
RTVSPropertyOp16
 70
     1
102
RTVSPropertyOp17
 70
     1
102
RTVSPropertyOp18
 70
     1
102
RTVSPropertyOp19
 70
     1
102
RTVSPropertyOp20
 70
     1
102
RTVSPropertyOp21
 70
     1
102
RTVSPropertyOp22
 70
     1
102
RTVSPropertyOp23
 70
     1
102
RTVSPropertyOp24
 70
     1
102
RTVSPropertyOp25
 70
     1
102
RTVSPropertyOp26
 70
     1
102
RTVSPropertyOp27
 70
     1
102
RTVSPropertyOp28
 70
     1
102
RTVSPropertyOp29
 70
     1
102
RTVSPropertyOp30
 70
     1
102
RTVSPropertyOp31
 70
     1
102
RTVSPropertyOp32
 70
     1
102
RTVSPropertyOp33
 70
     1
102
RTVSPropertyOp34
 70
     1
102
RTVSPropertyOp35
 70
     1
102
RTVSPropertyOp36
 70
     1
102
RTVSPropertyOp37
 70
     1
102
RTVSPropertyOp38
 70
     1
102
RTVSPropertyOp39
 70
     1
102
RTVSPropertyOp40
 70
     1
102
RTVSPropertyOp41
 70
     1
102
RTVSPropertyOp42
 70
     1
102
RTVSPropertyOp43
 70
     1
102
RTVSPropertyOp44
 70
     1
102
RTVSPropertyOp45
 70
     1
102
RTVSPropertyOp46
 70
     1
102
RTVSPropertyOp47
 70
     1
102
RTVSPropertyOp48
 70
     1
102
RTVSPropertyOp49
 70
     1
102
RTVSPropertyOp50
 70
     1
102
RTVSPropertyOp51
 70
     0
102
RTVSPropertyOp52
 70
     0
102
RTVSPropertyOp53
 70
     1
102
RTVSPropertyOp54
 70
     1
102
RTVSPropertyOp55
 70
     1
102
RTVSPropertyOp56
 70
     1
102
RTVSPropertyOp57
 70
     1
102
RTVSPropertyOp58
 70
     1
102
RTVSPropertyOp59
 70
     1
102
RTVSPropertyOp60
 70
     1
102
RTVSPropertyOp61
 70
     1
102
RTVSPropertyOp62
 70
     1
  0
XRECORD
  5
4C5E
102
{ACAD_REACTORS
330
4C5D
102
}
330
4C5D
100
AcDbXrecord
280
     1
102
RTVSPost2010Prop28
280
     0
102
RTVSPost2010PropOp28
 70
     1
102
RTVSPost2010Prop29
280
     1
102
RTVSPost2010PropOp29
 70
     1
102
RTVSPost2010Prop30
280
     1
102
RTVSPost2010PropOp30
 70
     1
102
RTVSPost2010Prop31
280
     0
102
RTVSPost2010PropOp31
 70
     1
102
RTVSPost2010Prop32
280
     0
102
RTVSPost2010PropOp32
 70
     1
102
RTVSPost2010Prop33
280
     0
102
RTVSPost2010PropOp33
 70
     1
102
RTVSPost2010Prop34
280
     0
102
RTVSPost2010PropOp34
 70
     1
102
RTVSPost2010Prop35
280
     0
102
RTVSPost2010PropOp35
 70
     1
102
RTVSPost2010Prop36
280
     0
102
RTVSPost2010PropOp36
 70
     1
102
RTVSPost2010Prop37
 90
       50
102
RTVSPost2010PropOp37
 70
     1
102
RTVSPost2010Prop38
140
0.0
102
RTVSPost2010PropOp38
 70
     1
102
RTVSPost2010Prop39
140
1.0
102
RTVSPost2010PropOp39
 70
     1
102
RTVSPost2010Prop40
 90
        0
102
RTVSPost2010PropOp40
 70
     1
102
RTVSPost2010Prop41ColorIndex
 90
       18
102
RTVSPost2010Prop41ColorRGB
 90
        0
102
RTVSPost2010PropOp41
 70
     1
102
RTVSPost2010Prop42
 90
       50
102
RTVSPost2010PropOp42
 70
     1
102
RTVSPost2010Prop43
 90
        3
102
RTVSPost2010PropOp43
 70
     1
102
RTVSPost2010Prop44ColorIndex
 90
        5
102
RTVSPost2010Prop44ColorRGB
 90
      255
102
RTVSPost2010PropOp44
 70
     1
102
RTVSPost2010Prop45
280
     0
102
RTVSPost2010PropOp45
 70
     1
102
RTVSPost2010Prop46
 90
       50
102
RTVSPost2010PropOp46
 70
     1
102
RTVSPost2010Prop47
 90
       50
102
RTVSPost2010PropOp47
 70
     1
102
RTVSPost2010Prop48
 90
       50
102
RTVSPost2010PropOp48
 70
     1
102
RTVSPost2010Prop49
280
     0
102
RTVSPost2010PropOp49
 70
     1
102
RTVSPost2010Prop50
 90
       50
102
RTVSPost2010PropOp50
 70
     1
102
RTVSPost2010Prop51ColorIndex
 90
      256
102
RTVSPost2010Prop51ColorRGB
 90
-16777216
102
RTVSPost2010PropOp51
 70
     0
102
RTVSPost2010Prop52
140
1.0
102
RTVSPost2010PropOp52
 70
     0
102
RTVSPost2010Prop53
 90
        2
102
RTVSPost2010PropOp53
 70
     1
102
RTVSPost2010Prop54
  1
strokes_ogs.tif
102
RTVSPost2010PropOp54
 70
     1
102
RTVSPost2010Prop55
280
     0
102
RTVSPost2010PropOp55
 70
     1
102
RTVSPost2010Prop56
140
1.0
102
RTVSPost2010PropOp56
 70
     1
102
RTVSPost2010Prop57
140
1.0
102
RTVSPost2010PropOp57
 70
     1
102
RTVSPropertyOp0
 70
     1
102
RTVSPropertyOp1
 70
     1
102
RTVSPropertyOp2
 70
     1
102
RTVSPropertyOp3
 70
     1
102
RTVSPropertyOp4
 70
     1
102
RTVSPropertyOp5
 70
     1
102
RTVSPropertyOp6
 70
     1
102
RTVSPropertyOp7
 70
     1
102
RTVSPropertyOp8
 70
     1
102
RTVSPropertyOp9
 70
     1
102
RTVSPropertyOp10
 70
     1
102
RTVSPropertyOp11
 70
     1
102
RTVSPropertyOp12
 70
     1
102
RTVSPropertyOp13
 70
     1
102
RTVSPropertyOp14
 70
     1
102
RTVSPropertyOp15
 70
     1
102
RTVSPropertyOp16
 70
     1
102
RTVSPropertyOp17
 70
     1
102
RTVSPropertyOp18
 70
     1
102
RTVSPropertyOp19
 70
     1
102
RTVSPropertyOp20
 70
     1
102
RTVSPropertyOp21
 70
     1
102
RTVSPropertyOp22
 70
     1
102
RTVSPropertyOp23
 70
     1
102
RTVSPropertyOp24
 70
     1
102
RTVSPropertyOp25
 70
     1
102
RTVSPropertyOp26
 70
     1
102
RTVSPropertyOp27
 70
     1
102
RTVSPropertyOp28
 70
     1
102
RTVSPropertyOp29
 70
     1
102
RTVSPropertyOp30
 70
     1
102
RTVSPropertyOp31
 70
     1
102
RTVSPropertyOp32
 70
     1
102
RTVSPropertyOp33
 70
     1
102
RTVSPropertyOp34
 70
     1
102
RTVSPropertyOp35
 70
     1
102
RTVSPropertyOp36
 70
     1
102
RTVSPropertyOp37
 70
     1
102
RTVSPropertyOp38
 70
     1
102
RTVSPropertyOp39
 70
     1
102
RTVSPropertyOp40
 70
     1
102
RTVSPropertyOp41
 70
     1
102
RTVSPropertyOp42
 70
     1
102
RTVSPropertyOp43
 70
     1
102
RTVSPropertyOp44
 70
     1
102
RTVSPropertyOp45
 70
     1
102
RTVSPropertyOp46
 70
     1
102
RTVSPropertyOp47
 70
     1
102
RTVSPropertyOp48
 70
     1
102
RTVSPropertyOp49
 70
     1
102
RTVSPropertyOp50
 70
     1
102
RTVSPropertyOp51
 70
     0
102
RTVSPropertyOp52
 70
     0
102
RTVSPropertyOp53
 70
     1
102
RTVSPropertyOp54
 70
     1
102
RTVSPropertyOp55
 70
     1
102
RTVSPropertyOp56
 70
     1
102
RTVSPropertyOp57
 70
     1
102
RTVSPropertyOp58
 70
     1
102
RTVSPropertyOp59
 70
     1
102
RTVSPropertyOp60
 70
     1
102
RTVSPropertyOp61
 70
     1
102
RTVSPropertyOp62
 70
     1
  0
XRECORD
  5
4C5C
102
{ACAD_REACTORS
330
4C5B
102
}
330
4C5B
100
AcDbXrecord
280
     1
102
RTVSPost2010Prop28
280
     0
102
RTVSPost2010PropOp28
 70
     1
102
RTVSPost2010Prop29
280
     1
102
RTVSPost2010PropOp29
 70
     1
102
RTVSPost2010Prop30
280
     1
102
RTVSPost2010PropOp30
 70
     1
102
RTVSPost2010Prop31
280
     0
102
RTVSPost2010PropOp31
 70
     1
102
RTVSPost2010Prop32
280
     0
102
RTVSPost2010PropOp32
 70
     1
102
RTVSPost2010Prop33
280
     0
102
RTVSPost2010PropOp33
 70
     1
102
RTVSPost2010Prop34
280
     0
102
RTVSPost2010PropOp34
 70
     1
102
RTVSPost2010Prop35
280
     0
102
RTVSPost2010PropOp35
 70
     1
102
RTVSPost2010Prop36
280
     0
102
RTVSPost2010PropOp36
 70
     1
102
RTVSPost2010Prop37
 90
       50
102
RTVSPost2010PropOp37
 70
     1
102
RTVSPost2010Prop38
140
0.0
102
RTVSPost2010PropOp38
 70
     1
102
RTVSPost2010Prop39
140
1.0
102
RTVSPost2010PropOp39
 70
     1
102
RTVSPost2010Prop40
 90
        0
102
RTVSPost2010PropOp40
 70
     1
102
RTVSPost2010Prop41ColorIndex
 90
       18
102
RTVSPost2010Prop41ColorRGB
 90
        0
102
RTVSPost2010PropOp41
 70
     1
102
RTVSPost2010Prop42
 90
       50
102
RTVSPost2010PropOp42
 70
     1
102
RTVSPost2010Prop43
 90
        3
102
RTVSPost2010PropOp43
 70
     1
102
RTVSPost2010Prop44ColorIndex
 90
        5
102
RTVSPost2010Prop44ColorRGB
 90
      255
102
RTVSPost2010PropOp44
 70
     1
102
RTVSPost2010Prop45
280
     0
102
RTVSPost2010PropOp45
 70
     1
102
RTVSPost2010Prop46
 90
       50
102
RTVSPost2010PropOp46
 70
     1
102
RTVSPost2010Prop47
 90
       50
102
RTVSPost2010PropOp47
 70
     1
102
RTVSPost2010Prop48
 90
       50
102
RTVSPost2010PropOp48
 70
     1
102
RTVSPost2010Prop49
280
     0
102
RTVSPost2010PropOp49
 70
     1
102
RTVSPost2010Prop50
 90
       50
102
RTVSPost2010PropOp50
 70
     1
102
RTVSPost2010Prop51ColorIndex
 90
      256
102
RTVSPost2010Prop51ColorRGB
 90
-16777216
102
RTVSPost2010PropOp51
 70
     0
102
RTVSPost2010Prop52
140
1.0
102
RTVSPost2010PropOp52
 70
     0
102
RTVSPost2010Prop53
 90
        2
102
RTVSPost2010PropOp53
 70
     1
102
RTVSPost2010Prop54
  1
strokes_ogs.tif
102
RTVSPost2010PropOp54
 70
     1
102
RTVSPost2010Prop55
280
     0
102
RTVSPost2010PropOp55
 70
     1
102
RTVSPost2010Prop56
140
1.0
102
RTVSPost2010PropOp56
 70
     1
102
RTVSPost2010Prop57
140
1.0
102
RTVSPost2010PropOp57
 70
     1
102
RTVSPropertyOp0
 70
     1
102
RTVSPropertyOp1
 70
     1
102
RTVSPropertyOp2
 70
     1
102
RTVSPropertyOp3
 70
     1
102
RTVSPropertyOp4
 70
     1
102
RTVSPropertyOp5
 70
     1
102
RTVSPropertyOp6
 70
     1
102
RTVSPropertyOp7
 70
     1
102
RTVSPropertyOp8
 70
     1
102
RTVSPropertyOp9
 70
     1
102
RTVSPropertyOp10
 70
     1
102
RTVSPropertyOp11
 70
     1
102
RTVSPropertyOp12
 70
     1
102
RTVSPropertyOp13
 70
     1
102
RTVSPropertyOp14
 70
     1
102
RTVSPropertyOp15
 70
     1
102
RTVSPropertyOp16
 70
     1
102
RTVSPropertyOp17
 70
     1
102
RTVSPropertyOp18
 70
     1
102
RTVSPropertyOp19
 70
     1
102
RTVSPropertyOp20
 70
     1
102
RTVSPropertyOp21
 70
     1
102
RTVSPropertyOp22
 70
     1
102
RTVSPropertyOp23
 70
     1
102
RTVSPropertyOp24
 70
     1
102
RTVSPropertyOp25
 70
     1
102
RTVSPropertyOp26
 70
     1
102
RTVSPropertyOp27
 70
     1
102
RTVSPropertyOp28
 70
     1
102
RTVSPropertyOp29
 70
     1
102
RTVSPropertyOp30
 70
     1
102
RTVSPropertyOp31
 70
     1
102
RTVSPropertyOp32
 70
     1
102
RTVSPropertyOp33
 70
     1
102
RTVSPropertyOp34
 70
     1
102
RTVSPropertyOp35
 70
     1
102
RTVSPropertyOp36
 70
     1
102
RTVSPropertyOp37
 70
     1
102
RTVSPropertyOp38
 70
     1
102
RTVSPropertyOp39
 70
     1
102
RTVSPropertyOp40
 70
     1
102
RTVSPropertyOp41
 70
     1
102
RTVSPropertyOp42
 70
     1
102
RTVSPropertyOp43
 70
     1
102
RTVSPropertyOp44
 70
     1
102
RTVSPropertyOp45
 70
     1
102
RTVSPropertyOp46
 70
     1
102
RTVSPropertyOp47
 70
     1
102
RTVSPropertyOp48
 70
     1
102
RTVSPropertyOp49
 70
     1
102
RTVSPropertyOp50
 70
     1
102
RTVSPropertyOp51
 70
     0
102
RTVSPropertyOp52
 70
     0
102
RTVSPropertyOp53
 70
     1
102
RTVSPropertyOp54
 70
     1
102
RTVSPropertyOp55
 70
     1
102
RTVSPropertyOp56
 70
     1
102
RTVSPropertyOp57
 70
     1
102
RTVSPropertyOp58
 70
     1
102
RTVSPropertyOp59
 70
     1
102
RTVSPropertyOp60
 70
     1
102
RTVSPropertyOp61
 70
     1
102
RTVSPropertyOp62
 70
     1
  0
XRECORD
  5
4C56
102
{ACAD_REACTORS
330
4C55
102
}
330
4C55
100
AcDbXrecord
280
     1
102
RTVSPost2010Prop28
280
     0
102
RTVSPost2010PropOp28
 70
     1
102
RTVSPost2010Prop29
280
     1
102
RTVSPost2010PropOp29
 70
     1
102
RTVSPost2010Prop30
280
     1
102
RTVSPost2010PropOp30
 70
     1
102
RTVSPost2010Prop31
280
     0
102
RTVSPost2010PropOp31
 70
     1
102
RTVSPost2010Prop32
280
     0
102
RTVSPost2010PropOp32
 70
     1
102
RTVSPost2010Prop33
280
     0
102
RTVSPost2010PropOp33
 70
     1
102
RTVSPost2010Prop34
280
     0
102
RTVSPost2010PropOp34
 70
     1
102
RTVSPost2010Prop35
280
     0
102
RTVSPost2010PropOp35
 70
     1
102
RTVSPost2010Prop36
280
     0
102
RTVSPost2010PropOp36
 70
     1
102
RTVSPost2010Prop37
 90
       50
102
RTVSPost2010PropOp37
 70
     1
102
RTVSPost2010Prop38
140
0.0
102
RTVSPost2010PropOp38
 70
     1
102
RTVSPost2010Prop39
140
1.0
102
RTVSPost2010PropOp39
 70
     1
102
RTVSPost2010Prop40
 90
        0
102
RTVSPost2010PropOp40
 70
     1
102
RTVSPost2010Prop41ColorIndex
 90
       18
102
RTVSPost2010Prop41ColorRGB
 90
        0
102
RTVSPost2010PropOp41
 70
     1
102
RTVSPost2010Prop42
 90
       50
102
RTVSPost2010PropOp42
 70
     1
102
RTVSPost2010Prop43
 90
        3
102
RTVSPost2010PropOp43
 70
     1
102
RTVSPost2010Prop44ColorIndex
 90
        5
102
RTVSPost2010Prop44ColorRGB
 90
      255
102
RTVSPost2010PropOp44
 70
     1
102
RTVSPost2010Prop45
280
     0
102
RTVSPost2010PropOp45
 70
     1
102
RTVSPost2010Prop46
 90
       50
102
RTVSPost2010PropOp46
 70
     1
102
RTVSPost2010Prop47
 90
       50
102
RTVSPost2010PropOp47
 70
     1
102
RTVSPost2010Prop48
 90
       50
102
RTVSPost2010PropOp48
 70
     1
102
RTVSPost2010Prop49
280
     0
102
RTVSPost2010PropOp49
 70
     1
102
RTVSPost2010Prop50
 90
       50
102
RTVSPost2010PropOp50
 70
     1
102
RTVSPost2010Prop51ColorIndex
 90
      256
102
RTVSPost2010Prop51ColorRGB
 90
-16777216
102
RTVSPost2010PropOp51
 70
     0
102
RTVSPost2010Prop52
140
1.0
102
RTVSPost2010PropOp52
 70
     0
102
RTVSPost2010Prop53
 90
        2
102
RTVSPost2010PropOp53
 70
     1
102
RTVSPost2010Prop54
  1
strokes_ogs.tif
102
RTVSPost2010PropOp54
 70
     1
102
RTVSPost2010Prop55
280
     0
102
RTVSPost2010PropOp55
 70
     1
102
RTVSPost2010Prop56
140
1.0
102
RTVSPost2010PropOp56
 70
     1
102
RTVSPost2010Prop57
140
1.0
102
RTVSPost2010PropOp57
 70
     1
102
RTVSPropertyOp0
 70
     1
102
RTVSPropertyOp1
 70
     1
102
RTVSPropertyOp2
 70
     1
102
RTVSPropertyOp3
 70
     1
102
RTVSPropertyOp4
 70
     1
102
RTVSPropertyOp5
 70
     1
102
RTVSPropertyOp6
 70
     1
102
RTVSPropertyOp7
 70
     1
102
RTVSPropertyOp8
 70
     1
102
RTVSPropertyOp9
 70
     1
102
RTVSPropertyOp10
 70
     1
102
RTVSPropertyOp11
 70
     1
102
RTVSPropertyOp12
 70
     1
102
RTVSPropertyOp13
 70
     1
102
RTVSPropertyOp14
 70
     1
102
RTVSPropertyOp15
 70
     1
102
RTVSPropertyOp16
 70
     1
102
RTVSPropertyOp17
 70
     1
102
RTVSPropertyOp18
 70
     1
102
RTVSPropertyOp19
 70
     1
102
RTVSPropertyOp20
 70
     1
102
RTVSPropertyOp21
 70
     1
102
RTVSPropertyOp22
 70
     1
102
RTVSPropertyOp23
 70
     1
102
RTVSPropertyOp24
 70
     1
102
RTVSPropertyOp25
 70
     1
102
RTVSPropertyOp26
 70
     1
102
RTVSPropertyOp27
 70
     1
102
RTVSPropertyOp28
 70
     1
102
RTVSPropertyOp29
 70
     1
102
RTVSPropertyOp30
 70
     1
102
RTVSPropertyOp31
 70
     1
102
RTVSPropertyOp32
 70
     1
102
RTVSPropertyOp33
 70
     1
102
RTVSPropertyOp34
 70
     1
102
RTVSPropertyOp35
 70
     1
102
RTVSPropertyOp36
 70
     1
102
RTVSPropertyOp37
 70
     1
102
RTVSPropertyOp38
 70
     1
102
RTVSPropertyOp39
 70
     1
102
RTVSPropertyOp40
 70
     1
102
RTVSPropertyOp41
 70
     1
102
RTVSPropertyOp42
 70
     1
102
RTVSPropertyOp43
 70
     1
102
RTVSPropertyOp44
 70
     1
102
RTVSPropertyOp45
 70
     1
102
RTVSPropertyOp46
 70
     1
102
RTVSPropertyOp47
 70
     1
102
RTVSPropertyOp48
 70
     1
102
RTVSPropertyOp49
 70
     1
102
RTVSPropertyOp50
 70
     1
102
RTVSPropertyOp51
 70
     0
102
RTVSPropertyOp52
 70
     0
102
RTVSPropertyOp53
 70
     1
102
RTVSPropertyOp54
 70
     1
102
RTVSPropertyOp55
 70
     1
102
RTVSPropertyOp56
 70
     1
102
RTVSPropertyOp57
 70
     1
102
RTVSPropertyOp58
 70
     1
102
RTVSPropertyOp59
 70
     1
102
RTVSPropertyOp60
 70
     1
102
RTVSPropertyOp61
 70
     1
102
RTVSPropertyOp62
 70
     1
  0
XRECORD
  5
4C58
102
{ACAD_REACTORS
330
4C57
102
}
330
4C57
100
AcDbXrecord
280
     1
102
RTVSPost2010Prop28
280
     0
102
RTVSPost2010PropOp28
 70
     1
102
RTVSPost2010Prop29
280
     1
102
RTVSPost2010PropOp29
 70
     1
102
RTVSPost2010Prop30
280
     1
102
RTVSPost2010PropOp30
 70
     1
102
RTVSPost2010Prop31
280
     0
102
RTVSPost2010PropOp31
 70
     1
102
RTVSPost2010Prop32
280
     0
102
RTVSPost2010PropOp32
 70
     1
102
RTVSPost2010Prop33
280
     0
102
RTVSPost2010PropOp33
 70
     1
102
RTVSPost2010Prop34
280
     0
102
RTVSPost2010PropOp34
 70
     1
102
RTVSPost2010Prop35
280
     0
102
RTVSPost2010PropOp35
 70
     1
102
RTVSPost2010Prop36
280
     0
102
RTVSPost2010PropOp36
 70
     1
102
RTVSPost2010Prop37
 90
       50
102
RTVSPost2010PropOp37
 70
     1
102
RTVSPost2010Prop38
140
0.0
102
RTVSPost2010PropOp38
 70
     1
102
RTVSPost2010Prop39
140
1.0
102
RTVSPost2010PropOp39
 70
     1
102
RTVSPost2010Prop40
 90
        0
102
RTVSPost2010PropOp40
 70
     1
102
RTVSPost2010Prop41ColorIndex
 90
       18
102
RTVSPost2010Prop41ColorRGB
 90
        0
102
RTVSPost2010PropOp41
 70
     1
102
RTVSPost2010Prop42
 90
       50
102
RTVSPost2010PropOp42
 70
     1
102
RTVSPost2010Prop43
 90
        3
102
RTVSPost2010PropOp43
 70
     1
102
RTVSPost2010Prop44ColorIndex
 90
        5
102
RTVSPost2010Prop44ColorRGB
 90
      255
102
RTVSPost2010PropOp44
 70
     1
102
RTVSPost2010Prop45
280
     0
102
RTVSPost2010PropOp45
 70
     1
102
RTVSPost2010Prop46
 90
       50
102
RTVSPost2010PropOp46
 70
     1
102
RTVSPost2010Prop47
 90
       50
102
RTVSPost2010PropOp47
 70
     1
102
RTVSPost2010Prop48
 90
       50
102
RTVSPost2010PropOp48
 70
     1
102
RTVSPost2010Prop49
280
     0
102
RTVSPost2010PropOp49
 70
     1
102
RTVSPost2010Prop50
 90
       50
102
RTVSPost2010PropOp50
 70
     1
102
RTVSPost2010Prop51ColorIndex
 90
      256
102
RTVSPost2010Prop51ColorRGB
 90
-16777216
102
RTVSPost2010PropOp51
 70
     0
102
RTVSPost2010Prop52
140
1.0
102
RTVSPost2010PropOp52
 70
     0
102
RTVSPost2010Prop53
 90
        2
102
RTVSPost2010PropOp53
 70
     1
102
RTVSPost2010Prop54
  1
strokes_ogs.tif
102
RTVSPost2010PropOp54
 70
     1
102
RTVSPost2010Prop55
280
     0
102
RTVSPost2010PropOp55
 70
     1
102
RTVSPost2010Prop56
140
1.0
102
RTVSPost2010PropOp56
 70
     1
102
RTVSPost2010Prop57
140
1.0
102
RTVSPost2010PropOp57
 70
     1
102
RTVSPropertyOp0
 70
     1
102
RTVSPropertyOp1
 70
     1
102
RTVSPropertyOp2
 70
     1
102
RTVSPropertyOp3
 70
     1
102
RTVSPropertyOp4
 70
     1
102
RTVSPropertyOp5
 70
     1
102
RTVSPropertyOp6
 70
     1
102
RTVSPropertyOp7
 70
     1
102
RTVSPropertyOp8
 70
     1
102
RTVSPropertyOp9
 70
     1
102
RTVSPropertyOp10
 70
     1
102
RTVSPropertyOp11
 70
     1
102
RTVSPropertyOp12
 70
     1
102
RTVSPropertyOp13
 70
     1
102
RTVSPropertyOp14
 70
     1
102
RTVSPropertyOp15
 70
     1
102
RTVSPropertyOp16
 70
     1
102
RTVSPropertyOp17
 70
     1
102
RTVSPropertyOp18
 70
     1
102
RTVSPropertyOp19
 70
     1
102
RTVSPropertyOp20
 70
     1
102
RTVSPropertyOp21
 70
     1
102
RTVSPropertyOp22
 70
     1
102
RTVSPropertyOp23
 70
     1
102
RTVSPropertyOp24
 70
     1
102
RTVSPropertyOp25
 70
     1
102
RTVSPropertyOp26
 70
     1
102
RTVSPropertyOp27
 70
     1
102
RTVSPropertyOp28
 70
     1
102
RTVSPropertyOp29
 70
     1
102
RTVSPropertyOp30
 70
     1
102
RTVSPropertyOp31
 70
     1
102
RTVSPropertyOp32
 70
     1
102
RTVSPropertyOp33
 70
     1
102
RTVSPropertyOp34
 70
     1
102
RTVSPropertyOp35
 70
     1
102
RTVSPropertyOp36
 70
     1
102
RTVSPropertyOp37
 70
     1
102
RTVSPropertyOp38
 70
     1
102
RTVSPropertyOp39
 70
     1
102
RTVSPropertyOp40
 70
     1
102
RTVSPropertyOp41
 70
     1
102
RTVSPropertyOp42
 70
     1
102
RTVSPropertyOp43
 70
     1
102
RTVSPropertyOp44
 70
     1
102
RTVSPropertyOp45
 70
     1
102
RTVSPropertyOp46
 70
     1
102
RTVSPropertyOp47
 70
     1
102
RTVSPropertyOp48
 70
     1
102
RTVSPropertyOp49
 70
     1
102
RTVSPropertyOp50
 70
     1
102
RTVSPropertyOp51
 70
     0
102
RTVSPropertyOp52
 70
     0
102
RTVSPropertyOp53
 70
     1
102
RTVSPropertyOp54
 70
     1
102
RTVSPropertyOp55
 70
     1
102
RTVSPropertyOp56
 70
     1
102
RTVSPropertyOp57
 70
     1
102
RTVSPropertyOp58
 70
     1
102
RTVSPropertyOp59
 70
     1
102
RTVSPropertyOp60
 70
     1
102
RTVSPropertyOp61
 70
     1
102
RTVSPropertyOp62
 70
     1
  0
XRECORD
  5
4C43
102
{ACAD_REACTORS
330
4C42
102
}
330
4C42
100
AcDbXrecord
280
     1
102
RTVSPost2010Prop28
280
     0
102
RTVSPost2010PropOp28
 70
     1
102
RTVSPost2010Prop29
280
     1
102
RTVSPost2010PropOp29
 70
     1
102
RTVSPost2010Prop30
280
     1
102
RTVSPost2010PropOp30
 70
     1
102
RTVSPost2010Prop31
280
     0
102
RTVSPost2010PropOp31
 70
     1
102
RTVSPost2010Prop32
280
     0
102
RTVSPost2010PropOp32
 70
     1
102
RTVSPost2010Prop33
280
     0
102
RTVSPost2010PropOp33
 70
     1
102
RTVSPost2010Prop34
280
     0
102
RTVSPost2010PropOp34
 70
     1
102
RTVSPost2010Prop35
280
     0
102
RTVSPost2010PropOp35
 70
     1
102
RTVSPost2010Prop36
280
     0
102
RTVSPost2010PropOp36
 70
     1
102
RTVSPost2010Prop37
 90
       50
102
RTVSPost2010PropOp37
 70
     1
102
RTVSPost2010Prop38
140
0.0
102
RTVSPost2010PropOp38
 70
     1
102
RTVSPost2010Prop39
140
1.0
102
RTVSPost2010PropOp39
 70
     1
102
RTVSPost2010Prop40
 90
        0
102
RTVSPost2010PropOp40
 70
     1
102
RTVSPost2010Prop41ColorIndex
 90
       18
102
RTVSPost2010Prop41ColorRGB
 90
        0
102
RTVSPost2010PropOp41
 70
     1
102
RTVSPost2010Prop42
 90
       50
102
RTVSPost2010PropOp42
 70
     1
102
RTVSPost2010Prop43
 90
        3
102
RTVSPost2010PropOp43
 70
     1
102
RTVSPost2010Prop44ColorIndex
 90
        5
102
RTVSPost2010Prop44ColorRGB
 90
      255
102
RTVSPost2010PropOp44
 70
     1
102
RTVSPost2010Prop45
280
     0
102
RTVSPost2010PropOp45
 70
     1
102
RTVSPost2010Prop46
 90
       50
102
RTVSPost2010PropOp46
 70
     1
102
RTVSPost2010Prop47
 90
       50
102
RTVSPost2010PropOp47
 70
     1
102
RTVSPost2010Prop48
 90
       50
102
RTVSPost2010PropOp48
 70
     1
102
RTVSPost2010Prop49
280
     0
102
RTVSPost2010PropOp49
 70
     1
102
RTVSPost2010Prop50
 90
       50
102
RTVSPost2010PropOp50
 70
     1
102
RTVSPost2010Prop51ColorIndex
 90
      256
102
RTVSPost2010Prop51ColorRGB
 90
-16777216
102
RTVSPost2010PropOp51
 70
     0
102
RTVSPost2010Prop52
140
1.0
102
RTVSPost2010PropOp52
 70
     0
102
RTVSPost2010Prop53
 90
        2
102
RTVSPost2010PropOp53
 70
     1
102
RTVSPost2010Prop54
  1
strokes_ogs.tif
102
RTVSPost2010PropOp54
 70
     1
102
RTVSPost2010Prop55
280
     0
102
RTVSPost2010PropOp55
 70
     1
102
RTVSPost2010Prop56
140
1.0
102
RTVSPost2010PropOp56
 70
     1
102
RTVSPost2010Prop57
140
1.0
102
RTVSPost2010PropOp57
 70
     1
102
RTVSPropertyOp0
 70
     1
102
RTVSPropertyOp1
 70
     1
102
RTVSPropertyOp2
 70
     1
102
RTVSPropertyOp3
 70
     1
102
RTVSPropertyOp4
 70
     1
102
RTVSPropertyOp5
 70
     1
102
RTVSPropertyOp6
 70
     1
102
RTVSPropertyOp7
 70
     1
102
RTVSPropertyOp8
 70
     1
102
RTVSPropertyOp9
 70
     1
102
RTVSPropertyOp10
 70
     1
102
RTVSPropertyOp11
 70
     1
102
RTVSPropertyOp12
 70
     1
102
RTVSPropertyOp13
 70
     1
102
RTVSPropertyOp14
 70
     1
102
RTVSPropertyOp15
 70
     1
102
RTVSPropertyOp16
 70
     1
102
RTVSPropertyOp17
 70
     1
102
RTVSPropertyOp18
 70
     1
102
RTVSPropertyOp19
 70
     1
102
RTVSPropertyOp20
 70
     1
102
RTVSPropertyOp21
 70
     1
102
RTVSPropertyOp22
 70
     1
102
RTVSPropertyOp23
 70
     1
102
RTVSPropertyOp24
 70
     1
102
RTVSPropertyOp25
 70
     1
102
RTVSPropertyOp26
 70
     1
102
RTVSPropertyOp27
 70
     1
102
RTVSPropertyOp28
 70
     1
102
RTVSPropertyOp29
 70
     1
102
RTVSPropertyOp30
 70
     1
102
RTVSPropertyOp31
 70
     1
102
RTVSPropertyOp32
 70
     1
102
RTVSPropertyOp33
 70
     1
102
RTVSPropertyOp34
 70
     1
102
RTVSPropertyOp35
 70
     1
102
RTVSPropertyOp36
 70
     1
102
RTVSPropertyOp37
 70
     1
102
RTVSPropertyOp38
 70
     1
102
RTVSPropertyOp39
 70
     1
102
RTVSPropertyOp40
 70
     1
102
RTVSPropertyOp41
 70
     1
102
RTVSPropertyOp42
 70
     1
102
RTVSPropertyOp43
 70
     1
102
RTVSPropertyOp44
 70
     1
102
RTVSPropertyOp45
 70
     1
102
RTVSPropertyOp46
 70
     1
102
RTVSPropertyOp47
 70
     1
102
RTVSPropertyOp48
 70
     1
102
RTVSPropertyOp49
 70
     1
102
RTVSPropertyOp50
 70
     1
102
RTVSPropertyOp51
 70
     0
102
RTVSPropertyOp52
 70
     0
102
RTVSPropertyOp53
 70
     1
102
RTVSPropertyOp54
 70
     1
102
RTVSPropertyOp55
 70
     1
102
RTVSPropertyOp56
 70
     1
102
RTVSPropertyOp57
 70
     1
102
RTVSPropertyOp58
 70
     1
102
RTVSPropertyOp59
 70
     1
102
RTVSPropertyOp60
 70
     1
102
RTVSPropertyOp61
 70
     1
102
RTVSPropertyOp62
 70
     1
  0
XRECORD
  5
4C52
102
{ACAD_REACTORS
330
4C51
102
}
330
4C51
100
AcDbXrecord
280
     1
102
RTVSPost2010Prop28
280
     0
102
RTVSPost2010PropOp28
 70
     1
102
RTVSPost2010Prop29
280
     1
102
RTVSPost2010PropOp29
 70
     1
102
RTVSPost2010Prop30
280
     1
102
RTVSPost2010PropOp30
 70
     1
102
RTVSPost2010Prop31
280
     0
102
RTVSPost2010PropOp31
 70
     1
102
RTVSPost2010Prop32
280
     0
102
RTVSPost2010PropOp32
 70
     1
102
RTVSPost2010Prop33
280
     0
102
RTVSPost2010PropOp33
 70
     1
102
RTVSPost2010Prop34
280
     0
102
RTVSPost2010PropOp34
 70
     1
102
RTVSPost2010Prop35
280
     0
102
RTVSPost2010PropOp35
 70
     1
102
RTVSPost2010Prop36
280
     0
102
RTVSPost2010PropOp36
 70
     1
102
RTVSPost2010Prop37
 90
       50
102
RTVSPost2010PropOp37
 70
     1
102
RTVSPost2010Prop38
140
0.0
102
RTVSPost2010PropOp38
 70
     1
102
RTVSPost2010Prop39
140
1.0
102
RTVSPost2010PropOp39
 70
     1
102
RTVSPost2010Prop40
 90
        0
102
RTVSPost2010PropOp40
 70
     1
102
RTVSPost2010Prop41ColorIndex
 90
       18
102
RTVSPost2010Prop41ColorRGB
 90
        0
102
RTVSPost2010PropOp41
 70
     1
102
RTVSPost2010Prop42
 90
       50
102
RTVSPost2010PropOp42
 70
     1
102
RTVSPost2010Prop43
 90
        3
102
RTVSPost2010PropOp43
 70
     1
102
RTVSPost2010Prop44ColorIndex
 90
        5
102
RTVSPost2010Prop44ColorRGB
 90
      255
102
RTVSPost2010PropOp44
 70
     1
102
RTVSPost2010Prop45
280
     0
102
RTVSPost2010PropOp45
 70
     1
102
RTVSPost2010Prop46
 90
       50
102
RTVSPost2010PropOp46
 70
     1
102
RTVSPost2010Prop47
 90
       50
102
RTVSPost2010PropOp47
 70
     1
102
RTVSPost2010Prop48
 90
       50
102
RTVSPost2010PropOp48
 70
     1
102
RTVSPost2010Prop49
280
     0
102
RTVSPost2010PropOp49
 70
     1
102
RTVSPost2010Prop50
 90
       50
102
RTVSPost2010PropOp50
 70
     1
102
RTVSPost2010Prop51ColorIndex
 90
      256
102
RTVSPost2010Prop51ColorRGB
 90
-16777216
102
RTVSPost2010PropOp51
 70
     0
102
RTVSPost2010Prop52
140
1.0
102
RTVSPost2010PropOp52
 70
     0
102
RTVSPost2010Prop53
 90
        2
102
RTVSPost2010PropOp53
 70
     1
102
RTVSPost2010Prop54
  1
strokes_ogs.tif
102
RTVSPost2010PropOp54
 70
     1
102
RTVSPost2010Prop55
280
     0
102
RTVSPost2010PropOp55
 70
     1
102
RTVSPost2010Prop56
140
1.0
102
RTVSPost2010PropOp56
 70
     1
102
RTVSPost2010Prop57
140
1.0
102
RTVSPost2010PropOp57
 70
     1
102
RTVSPropertyOp0
 70
     1
102
RTVSPropertyOp1
 70
     1
102
RTVSPropertyOp2
 70
     1
102
RTVSPropertyOp3
 70
     1
102
RTVSPropertyOp4
 70
     1
102
RTVSPropertyOp5
 70
     1
102
RTVSPropertyOp6
 70
     1
102
RTVSPropertyOp7
 70
     1
102
RTVSPropertyOp8
 70
     1
102
RTVSPropertyOp9
 70
     1
102
RTVSPropertyOp10
 70
     1
102
RTVSPropertyOp11
 70
     1
102
RTVSPropertyOp12
 70
     1
102
RTVSPropertyOp13
 70
     1
102
RTVSPropertyOp14
 70
     1
102
RTVSPropertyOp15
 70
     1
102
RTVSPropertyOp16
 70
     1
102
RTVSPropertyOp17
 70
     1
102
RTVSPropertyOp18
 70
     1
102
RTVSPropertyOp19
 70
     1
102
RTVSPropertyOp20
 70
     1
102
RTVSPropertyOp21
 70
     1
102
RTVSPropertyOp22
 70
     1
102
RTVSPropertyOp23
 70
     1
102
RTVSPropertyOp24
 70
     1
102
RTVSPropertyOp25
 70
     1
102
RTVSPropertyOp26
 70
     1
102
RTVSPropertyOp27
 70
     1
102
RTVSPropertyOp28
 70
     1
102
RTVSPropertyOp29
 70
     1
102
RTVSPropertyOp30
 70
     1
102
RTVSPropertyOp31
 70
     1
102
RTVSPropertyOp32
 70
     1
102
RTVSPropertyOp33
 70
     1
102
RTVSPropertyOp34
 70
     1
102
RTVSPropertyOp35
 70
     1
102
RTVSPropertyOp36
 70
     1
102
RTVSPropertyOp37
 70
     1
102
RTVSPropertyOp38
 70
     1
102
RTVSPropertyOp39
 70
     1
102
RTVSPropertyOp40
 70
     1
102
RTVSPropertyOp41
 70
     1
102
RTVSPropertyOp42
 70
     1
102
RTVSPropertyOp43
 70
     1
102
RTVSPropertyOp44
 70
     1
102
RTVSPropertyOp45
 70
     1
102
RTVSPropertyOp46
 70
     1
102
RTVSPropertyOp47
 70
     1
102
RTVSPropertyOp48
 70
     1
102
RTVSPropertyOp49
 70
     1
102
RTVSPropertyOp50
 70
     1
102
RTVSPropertyOp51
 70
     0
102
RTVSPropertyOp52
 70
     0
102
RTVSPropertyOp53
 70
     1
102
RTVSPropertyOp54
 70
     1
102
RTVSPropertyOp55
 70
     1
102
RTVSPropertyOp56
 70
     1
102
RTVSPropertyOp57
 70
     1
102
RTVSPropertyOp58
 70
     1
102
RTVSPropertyOp59
 70
     1
102
RTVSPropertyOp60
 70
     1
102
RTVSPropertyOp61
 70
     1
102
RTVSPropertyOp62
 70
     1
  0
XRECORD
  5
4C5A
102
{ACAD_REACTORS
330
4C59
102
}
330
4C59
100
AcDbXrecord
280
     1
102
RTVSPost2010Prop28
280
     0
102
RTVSPost2010PropOp28
 70
     1
102
RTVSPost2010Prop29
280
     1
102
RTVSPost2010PropOp29
 70
     1
102
RTVSPost2010Prop30
280
     1
102
RTVSPost2010PropOp30
 70
     1
102
RTVSPost2010Prop31
280
     0
102
RTVSPost2010PropOp31
 70
     1
102
RTVSPost2010Prop32
280
     0
102
RTVSPost2010PropOp32
 70
     1
102
RTVSPost2010Prop33
280
     0
102
RTVSPost2010PropOp33
 70
     1
102
RTVSPost2010Prop34
280
     0
102
RTVSPost2010PropOp34
 70
     1
102
RTVSPost2010Prop35
280
     0
102
RTVSPost2010PropOp35
 70
     1
102
RTVSPost2010Prop36
280
     0
102
RTVSPost2010PropOp36
 70
     1
102
RTVSPost2010Prop37
 90
       50
102
RTVSPost2010PropOp37
 70
     1
102
RTVSPost2010Prop38
140
0.0
102
RTVSPost2010PropOp38
 70
     1
102
RTVSPost2010Prop39
140
1.0
102
RTVSPost2010PropOp39
 70
     1
102
RTVSPost2010Prop40
 90
        0
102
RTVSPost2010PropOp40
 70
     1
102
RTVSPost2010Prop41ColorIndex
 90
       18
102
RTVSPost2010Prop41ColorRGB
 90
        0
102
RTVSPost2010PropOp41
 70
     1
102
RTVSPost2010Prop42
 90
       50
102
RTVSPost2010PropOp42
 70
     1
102
RTVSPost2010Prop43
 90
        3
102
RTVSPost2010PropOp43
 70
     1
102
RTVSPost2010Prop44ColorIndex
 90
        5
102
RTVSPost2010Prop44ColorRGB
 90
      255
102
RTVSPost2010PropOp44
 70
     1
102
RTVSPost2010Prop45
280
     0
102
RTVSPost2010PropOp45
 70
     1
102
RTVSPost2010Prop46
 90
       50
102
RTVSPost2010PropOp46
 70
     1
102
RTVSPost2010Prop47
 90
       50
102
RTVSPost2010PropOp47
 70
     1
102
RTVSPost2010Prop48
 90
       50
102
RTVSPost2010PropOp48
 70
     1
102
RTVSPost2010Prop49
280
     0
102
RTVSPost2010PropOp49
 70
     1
102
RTVSPost2010Prop50
 90
       50
102
RTVSPost2010PropOp50
 70
     1
102
RTVSPost2010Prop51ColorIndex
 90
      256
102
RTVSPost2010Prop51ColorRGB
 90
-16777216
102
RTVSPost2010PropOp51
 70
     0
102
RTVSPost2010Prop52
140
1.0
102
RTVSPost2010PropOp52
 70
     0
102
RTVSPost2010Prop53
 90
        2
102
RTVSPost2010PropOp53
 70
     1
102
RTVSPost2010Prop54
  1
strokes_ogs.tif
102
RTVSPost2010PropOp54
 70
     1
102
RTVSPost2010Prop55
280
     0
102
RTVSPost2010PropOp55
 70
     1
102
RTVSPost2010Prop56
140
1.0
102
RTVSPost2010PropOp56
 70
     1
102
RTVSPost2010Prop57
140
1.0
102
RTVSPost2010PropOp57
 70
     1
102
RTVSPropertyOp0
 70
     1
102
RTVSPropertyOp1
 70
     1
102
RTVSPropertyOp2
 70
     1
102
RTVSPropertyOp3
 70
     1
102
RTVSPropertyOp4
 70
     1
102
RTVSPropertyOp5
 70
     1
102
RTVSPropertyOp6
 70
     1
102
RTVSPropertyOp7
 70
     1
102
RTVSPropertyOp8
 70
     1
102
RTVSPropertyOp9
 70
     1
102
RTVSPropertyOp10
 70
     1
102
RTVSPropertyOp11
 70
     1
102
RTVSPropertyOp12
 70
     1
102
RTVSPropertyOp13
 70
     1
102
RTVSPropertyOp14
 70
     1
102
RTVSPropertyOp15
 70
     1
102
RTVSPropertyOp16
 70
     1
102
RTVSPropertyOp17
 70
     1
102
RTVSPropertyOp18
 70
     1
102
RTVSPropertyOp19
 70
     1
102
RTVSPropertyOp20
 70
     1
102
RTVSPropertyOp21
 70
     1
102
RTVSPropertyOp22
 70
     1
102
RTVSPropertyOp23
 70
     1
102
RTVSPropertyOp24
 70
     1
102
RTVSPropertyOp25
 70
     1
102
RTVSPropertyOp26
 70
     1
102
RTVSPropertyOp27
 70
     1
102
RTVSPropertyOp28
 70
     1
102
RTVSPropertyOp29
 70
     1
102
RTVSPropertyOp30
 70
     1
102
RTVSPropertyOp31
 70
     1
102
RTVSPropertyOp32
 70
     1
102
RTVSPropertyOp33
 70
     1
102
RTVSPropertyOp34
 70
     1
102
RTVSPropertyOp35
 70
     1
102
RTVSPropertyOp36
 70
     1
102
RTVSPropertyOp37
 70
     1
102
RTVSPropertyOp38
 70
     1
102
RTVSPropertyOp39
 70
     1
102
RTVSPropertyOp40
 70
     1
102
RTVSPropertyOp41
 70
     1
102
RTVSPropertyOp42
 70
     1
102
RTVSPropertyOp43
 70
     1
102
RTVSPropertyOp44
 70
     1
102
RTVSPropertyOp45
 70
     1
102
RTVSPropertyOp46
 70
     1
102
RTVSPropertyOp47
 70
     1
102
RTVSPropertyOp48
 70
     1
102
RTVSPropertyOp49
 70
     1
102
RTVSPropertyOp50
 70
     1
102
RTVSPropertyOp51
 70
     0
102
RTVSPropertyOp52
 70
     0
102
RTVSPropertyOp53
 70
     1
102
RTVSPropertyOp54
 70
     1
102
RTVSPropertyOp55
 70
     1
102
RTVSPropertyOp56
 70
     1
102
RTVSPropertyOp57
 70
     1
102
RTVSPropertyOp58
 70
     1
102
RTVSPropertyOp59
 70
     1
102
RTVSPropertyOp60
 70
     1
102
RTVSPropertyOp61
 70
     1
102
RTVSPropertyOp62
 70
     1
  0
ENDSEC
  0
EOF
