  0
SECTION
  2
HEADER
  9
$ACADVER
  1
AC1015
  9
$ACADMAINTVER
 70
    20
  9
$DWGCODEPAGE
  3
ANSI_932
  9
$INSBASE
 10
0.0
 20
0.0
 30
0.0
  9
$EXTMIN
 10
-0.2166417405669563
 20
-0.1502761369429209
 30
-0.0015258207003583
  9
$EXTMAX
 10
552.1127093032601
 20
382.0777549023897
 30
0.0000000349246037
  9
$LIMMIN
 10
0.0
 20
0.0
  9
$LIMMAX
 10
2840.0
 20
1970.0
  9
$ORTHOMODE
 70
     0
  9
$REGENMODE
 70
     1
  9
$FILLMODE
 70
     1
  9
$QTEXTMODE
 70
     0
  9
$MIRRTEXT
 70
     1
  9
$LTSCALE
 40
1.0
  9
$ATTMODE
 70
     1
  9
$TEXTSIZE
 40
2.5
  9
$TRACEWID
 40
1.0
  9
$TEXTSTYLE
  7
Standard
  9
$CLAYER
  8
0
  9
$CELTYPE
  6
ByLayer
  9
$CECOLOR
 62
   256
  9
$CELTSCALE
 40
1.0
  9
$DISPSILH
 70
     0
  9
$DIMSCALE
 40
2.0
  9
$DIMASZ
 40
0.8
  9
$DIMEXO
 40
1.0
  9
$DIMDLI
 40
0.0
  9
$DIMRND
 40
0.0
  9
$DIMDLE
 40
0.0
  9
$DIMEXE
 40
0.0
  9
$DIMTP
 40
0.0
  9
$DIMTM
 40
0.0
  9
$DIMTXT
 40
2.0
  9
$DIMCEN
 40
2.5
  9
$DIMTSZ
 40
0.0
  9
$DIMTOL
 70
     0
  9
$DIMLIM
 70
     0
  9
$DIMTIH
 70
     0
  9
$DIMTOH
 70
     0
  9
$DIMSE1
 70
     0
  9
$DIMSE2
 70
     0
  9
$DIMTAD
 70
     2
  9
$DIMZIN
 70
     8
  9
$DIMBLK
  1

  9
$DIMASO
 70
     1
  9
$DIMSHO
 70
     1
  9
$DIMPOST
  1

  9
$DIMAPOST
  1

  9
$DIMALT
 70
     0
  9
$DIMALTD
 70
     4
  9
$DIMALTF
 40
0.0394
  9
$DIMLFAC
 40
1.0
  9
$DIMTOFL
 70
     1
  9
$DIMTVP
 40
0.0
  9
$DIMTIX
 70
     0
  9
$DIMSOXD
 70
     0
  9
$DIMSAH
 70
     1
  9
$DIMBLK1
  1
DOT
  9
$DIMBLK2
  1
DOT
  9
$DIMSTYLE
  2
STANDARD
  9
$DIMCLRD
 70
     0
  9
$DIMCLRE
 70
     0
  9
$DIMCLRT
 70
     0
  9
$DIMTFAC
 40
1.0
  9
$DIMGAP
 40
0.1
  9
$DIMJUST
 70
     0
  9
$DIMSD1
 70
     0
  9
$DIMSD2
 70
     0
  9
$DIMTOLJ
 70
     1
  9
$DIMTZIN
 70
     0
  9
$DIMALTZ
 70
     0
  9
$DIMALTTZ
 70
     0
  9
$DIMUPT
 70
     0
  9
$DIMDEC
 70
     4
  9
$DIMTDEC
 70
     4
  9
$DIMALTU
 70
     8
  9
$DIMALTTD
 70
     4
  9
$DIMTXSTY
  7
Standard
  9
$DIMAUNIT
 70
     0
  9
$DIMADEC
 70
     0
  9
$DIMALTRND
 40
0.0
  9
$DIMAZIN
 70
     0
  9
$DIMDSEP
 70
    46
  9
$DIMATFIT
 70
     3
  9
$DIMFRAC
 70
     0
  9
$DIMLDRBLK
  1
DOT
  9
$DIMLUNIT
 70
     2
  9
$DIMLWD
 70
    -2
  9
$DIMLWE
 70
    -2
  9
$DIMTMOVE
 70
     1
  9
$LUNITS
 70
     2
  9
$LUPREC
 70
     8
  9
$SKETCHINC
 40
1.0
  9
$FILLETRAD
 40
0.0
  9
$AUNITS
 70
     0
  9
$AUPREC
 70
     8
  9
$MENU
  1
.
  9
$ELEVATION
 40
0.0
  9
$PELEVATION
 40
0.0
  9
$THICKNESS
 40
0.0
  9
$LIMCHECK
 70
     0
  9
$CHAMFERA
 40
10.0
  9
$CHAMFERB
 40
10.0
  9
$CHAMFERC
 40
20.0
  9
$CHAMFERD
 40
0.0
  9
$SKPOLY
 70
     0
  9
$TDCREATE
 40
2453276.413761574
  9
$TDUCREATE
 40
2453276.038766620
  9
$TDUPDATE
 40
2459989.482222222
  9
$TDUUPDATE
 40
2459989.107222222
  9
$TDINDWG
 40
0.2799306944
  9
$TDUSRTIMER
 40
0.2799306944
  9
$USRTIMER
 70
     1
  9
$ANGBASE
 50
0.0
  9
$ANGDIR
 70
     0
  9
$PDMODE
 70
     0
  9
$PDSIZE
 40
0.0
  9
$PLINEWID
 40
0.0
  9
$SPLFRAME
 70
     0
  9
$SPLINETYPE
 70
     6
  9
$SPLINESEGS
 70
     8
  9
$HANDSEED
  5
4607
  9
$SURFTAB1
 70
     6
  9
$SURFTAB2
 70
     6
  9
$SURFTYPE
 70
     6
  9
$SURFU
 70
     6
  9
$SURFV
 70
     6
  9
$UCSBASE
  2

  9
$UCSNAME
  2

  9
$UCSORG
 10
0.0
 20
0.0
 30
0.0
  9
$UCSXDIR
 10
1.0
 20
0.0
 30
0.0
  9
$UCSYDIR
 10
0.0
 20
1.0
 30
0.0
  9
$UCSORTHOREF
  2

  9
$UCSORTHOVIEW
 70
     0
  9
$UCSORGTOP
 10
0.0
 20
0.0
 30
0.0
  9
$UCSORGBOTTOM
 10
0.0
 20
0.0
 30
0.0
  9
$UCSORGLEFT
 10
0.0
 20
0.0
 30
0.0
  9
$UCSORGRIGHT
 10
0.0
 20
0.0
 30
0.0
  9
$UCSORGFRONT
 10
0.0
 20
0.0
 30
0.0
  9
$UCSORGBACK
 10
0.0
 20
0.0
 30
0.0
  9
$PUCSBASE
  2

  9
$PUCSNAME
  2

  9
$PUCSORG
 10
0.0
 20
0.0
 30
0.0
  9
$PUCSXDIR
 10
1.0
 20
0.0
 30
0.0
  9
$PUCSYDIR
 10
0.0
 20
1.0
 30
0.0
  9
$PUCSORTHOREF
  2

  9
$PUCSORTHOVIEW
 70
     0
  9
$PUCSORGTOP
 10
0.0
 20
0.0
 30
0.0
  9
$PUCSORGBOTTOM
 10
0.0
 20
0.0
 30
0.0
  9
$PUCSORGLEFT
 10
0.0
 20
0.0
 30
0.0
  9
$PUCSORGRIGHT
 10
0.0
 20
0.0
 30
0.0
  9
$PUCSORGFRONT
 10
0.0
 20
0.0
 30
0.0
  9
$PUCSORGBACK
 10
0.0
 20
0.0
 30
0.0
  9
$USERI1
 70
     0
  9
$USERI2
 70
     0
  9
$USERI3
 70
     0
  9
$USERI4
 70
     0
  9
$USERI5
 70
     0
  9
$USERR1
 40
0.0
  9
$USERR2
 40
0.0
  9
$USERR3
 40
0.0
  9
$USERR4
 40
0.0
  9
$USERR5
 40
0.0
  9
$WORLDVIEW
 70
     1
  9
$SHADEDGE
 70
     2
  9
$SHADEDIF
 70
    70
  9
$TILEMODE
 70
     1
  9
$MAXACTVP
 70
    64
  9
$PINSBASE
 10
0.0
 20
0.0
 30
0.0
  9
$PLIMCHECK
 70
     0
  9
$PEXTMIN
 10
0.0
 20
0.0
 30
0.0
  9
$PEXTMAX
 10
0.0
 20
0.0
 30
0.0
  9
$PLIMMIN
 10
0.0
 20
0.0
  9
$PLIMMAX
 10
12.0
 20
9.0
  9
$UNITMODE
 70
     0
  9
$VISRETAIN
 70
     1
  9
$PLINEGEN
 70
     0
  9
$PSLTSCALE
 70
     1
  9
$TREEDEPTH
 70
  3020
  9
$CMLSTYLE
  2
Standard
  9
$CMLJUST
 70
     0
  9
$CMLSCALE
 40
20.0
  9
$PROXYGRAPHICS
 70
     1
  9
$MEASUREMENT
 70
     1
  9
$CELWEIGHT
370
    -1
  9
$ENDCAPS
280
     0
  9
$JOINSTYLE
280
     0
  9
$LWDISPLAY
290
     0
  9
$INSUNITS
 70
     4
  9
$HYPERLINKBASE
  1

  9
$STYLESHEET
  1
monochrome.stb
  9
$XEDIT
290
     1
  9
$CEPSNTYPE
380
     0
  9
$PSTYLEMODE
290
     1
  9
$FINGERPRINTGUID
  2
{B4E61C12-08AD-407D-A83C-7C7812CA1D8B}
  9
$VERSIONGUID
  2
{99C0CB69-2CEC-7A42-83CB-F203A366924D}
  9
$EXTNAMES
290
     1
  9
$PSVPSCALE
 40
0.0
  9
$OLESTARTUP
290
     0
  0
ENDSEC
  0
SECTION
  2
CLASSES
  0
CLASS
  1
ACDBDICTIONARYWDFLT
  2
AcDbDictionaryWithDefault
  3
ObjectDBX Classes
 90
        0
280
     0
281
     0
  0
CLASS
  1
ACDBPLACEHOLDER
  2
AcDbPlaceHolder
  3
ObjectDBX Classes
 90
        0
280
     0
281
     0
  0
CLASS
  1
LAYOUT
  2
AcDbLayout
  3
ObjectDBX Classes
 90
        0
280
     0
281
     0
  0
CLASS
  1
DICTIONARYVAR
  2
AcDbDictionaryVar
  3
ObjectDBX Classes
 90
        0
280
     0
281
     0
  0
CLASS
  1
SORTENTSTABLE
  2
AcDbSortentsTable
  3
ObjectDBX Classes
 90
        0
280
     0
281
     0
  0
CLASS
  1
MATERIAL
  2
AcDbMaterial
  3
ObjectDBX Classes
 90
     1153
280
     0
281
     0
  0
CLASS
  1
VISUALSTYLE
  2
AcDbVisualStyle
  3
ObjectDBX Classes
 90
     4095
280
     0
281
     0
  0
CLASS
  1
TABLESTYLE
  2
AcDbTableStyle
  3
ObjectDBX Classes
 90
     4095
280
     0
281
     0
  0
CLASS
  1
SCALE
  2
AcDbScale
  3
ObjectDBX Classes
 90
     1153
280
     0
281
     0
  0
CLASS
  1
MLEADERSTYLE
  2
AcDbMLeaderStyle
  3
ACDB_MLEADERSTYLE_CLASS
 90
     4095
280
     0
281
     0
  0
CLASS
  1
AEC_REFEDIT_STATUS_TRACKER
  2
AecDbRefEditStatusTracker
  3
AecArchBase80|Product Desc: Autodesk Architectural Desktop 2007 |Company: Autodesk,Inc. |WEB Address: www.autodesk.com
 90
    32897
280
     0
281
     0
  0
CLASS
  1
NPOCOLLECTION
  2
AcDbImpNonPersistentObjectsCollection
  3
ObjectDBX Classes
 90
    33921
280
     0
281
     0
  0
CLASS
  1
CELLSTYLEMAP
  2
AcDbCellStyleMap
  3
ObjectDBX Classes
 90
     1152
280
     0
281
     0
  0
CLASS
  1
ACDBSECTIONVIEWSTYLE
  2
AcDbSectionViewStyle
  3
ObjectDBX Classes
 90
     1025
280
     0
281
     0
  0
CLASS
  1
ACDBDETAILVIEWSTYLE
  2
AcDbDetailViewStyle
  3
ObjectDBX Classes
 90
     1025
280
     0
281
     0
  0
ENDSEC
  0
SECTION
  2
TABLES
  0
TABLE
  2
VPORT
  5
8
102
{ACAD_XDICTIONARY
360
3E7E
102
}
330
0
100
AcDbSymbolTable
 70
     1
  0
VPORT
  5
3DCE
330
8
100
AcDbSymbolTableRecord
100
AcDbViewportTableRecord
  2
*Active
 70
     0
 10
0.0
 20
0.0
 11
1.0
 21
1.0
 12
275.9480337813466
 22
190.9637393827233
 13
0.0
 23
0.0
 14
10.0
 24
10.0
 15
10.0
 25
10.0
 16
0.0
 26
0.0
 36
1.0
 17
0.0
 27
0.0
 37
0.0
 40
385.059349787772
 41
2.122373300370828
 42
50.0
 43
0.0
 44
0.0
 50
0.0
 51
0.0
 71
     0
 72
   100
 73
     1
 74
     3
 75
     0
 76
     0
 77
     0
 78
     0
281
     0
 65
     1
110
0.0
120
0.0
130
0.0
111
1.0
121
0.0
131
0.0
112
0.0
122
1.0
132
0.0
 79
     0
146
0.0
1001
ACAD_NAV_VCDISPLAY
1070
     3
  0
ENDTAB
  0
TABLE
  2
LTYPE
  5
5
330
0
100
AcDbSymbolTable
 70
     4
  0
LTYPE
  5
14
330
5
100
AcDbSymbolTableRecord
100
AcDbLinetypeTableRecord
  2
ByBlock
 70
     0
  3

 72
    65
 73
     0
 40
0.0
  0
LTYPE
  5
15
330
5
100
AcDbSymbolTableRecord
100
AcDbLinetypeTableRecord
  2
ByLayer
 70
     0
  3

 72
    65
 73
     0
 40
0.0
  0
LTYPE
  5
16
330
5
100
AcDbSymbolTableRecord
100
AcDbLinetypeTableRecord
  2
Continuous
 70
     0
  3
Solid line
 72
    65
 73
     0
 40
0.0
  0
LTYPE
  5
2B0B
330
5
100
AcDbSymbolTableRecord
100
AcDbLinetypeTableRecord
  2
DASHED
 70
     0
  3
__ __ __ __ __ __ __ __ __ __ __ __ __ __ __ __
 72
    65
 73
     2
 40
0.75
 49
0.5
 74
     0
 49
-0.25
 74
     0
  0
LTYPE
  5
4329
330
5
100
AcDbSymbolTableRecord
100
AcDbLinetypeTableRecord
  2
DASHED1
 70
     0
  3
--  --  --  --  --  --  --  --  
 72
    65
 73
     2
 40
2.5
 49
1.25
 74
     0
 49
-1.25
 74
     0
  0
ENDTAB
  0
TABLE
  2
LAYER
  5
2
102
{ACAD_XDICTIONARY
360
2D
102
}
330
0
100
AcDbSymbolTable
 70
     8
  0
LAYER
  5
10
102
{ACAD_XDICTIONARY
360
3E70
102
}
330
2
100
AcDbSymbolTableRecord
100
AcDbLayerTableRecord
  2
0
 70
     0
 62
     7
  6
Continuous
290
     0
370
    -3
390
29
  0
LAYER
  5
2301
330
2
100
AcDbSymbolTableRecord
100
AcDbLayerTableRecord
  2
Defpoints
 70
     0
 62
     7
  6
Continuous
290
     0
370
    -3
390
F
  0
LAYER
  5
2388
102
{ACAD_XDICTIONARY
360
3E72
102
}
330
2
100
AcDbSymbolTableRecord
100
AcDbLayerTableRecord
  2
moji
 70
     0
 62
     7
  6
Continuous
370
    -3
390
29
  0
LAYER
  5
238A
102
{ACAD_XDICTIONARY
360
3E74
102
}
330
2
100
AcDbSymbolTableRecord
100
AcDbLayerTableRecord
  2
SUNPO
 70
     0
 62
     7
  6
Continuous
370
    -3
390
29
  0
LAYER
  5
2757
102
{ACAD_XDICTIONARY
360
3E76
102
}
330
2
100
AcDbSymbolTableRecord
100
AcDbLayerTableRecord
  2
KANAMONO
 70
     0
 62
     5
  6
Continuous
370
    -3
390
29
  0
LAYER
  5
2758
102
{ACAD_XDICTIONARY
360
3E78
102
}
330
2
100
AcDbSymbolTableRecord
100
AcDbLayerTableRecord
  2
KANAMONO_SCREW
 70
     0
 62
     4
  6
Continuous
370
    -3
390
29
  0
LAYER
  5
3F6D
102
{ACAD_XDICTIONARY
360
3F6E
102
}
330
2
100
AcDbSymbolTableRecord
100
AcDbLayerTableRecord
  2
WAKU
 70
     0
 62
     7
  6
Continuous
370
    -3
390
29
  0
LAYER
  5
432A
102
{ACAD_XDICTIONARY
360
432B
102
}
330
2
100
AcDbSymbolTableRecord
100
AcDbLayerTableRecord
  2
single
 70
     0
 62
     6
  6
Continuous
370
    -3
390
F
  0
ENDTAB
  0
TABLE
  2
STYLE
  5
3
330
0
100
AcDbSymbolTable
 70
     2
  0
STYLE
  5
11
330
3
100
AcDbSymbolTableRecord
100
AcDbTextStyleTableRecord
  2
Standard
 70
     0
 40
0.0
 41
1.0
 50
0.0
 71
     0
 42
2.5
  3

  4

1001
ACAD
1000
MS Gothic
1071
    32817
  0
STYLE
  5
3F6F
330
3
100
AcDbSymbolTableRecord
100
AcDbTextStyleTableRecord
  2
MSゴシック
 70
     0
 40
0.0
 41
1.0
 50
0.0
 71
     0
 42
2.5
  3

  4

1001
ACAD
1000
MS Gothic
1071
    32817
  0
ENDTAB
  0
TABLE
  2
VIEW
  5
6
330
0
100
AcDbSymbolTable
 70
     0
  0
ENDTAB
  0
TABLE
  2
UCS
  5
7
330
0
100
AcDbSymbolTable
 70
     0
  0
ENDTAB
  0
TABLE
  2
APPID
  5
9
330
0
100
AcDbSymbolTable
 70
     6
  0
APPID
  5
12
330
9
100
AcDbSymbolTableRecord
100
AcDbRegAppTableRecord
  2
ACAD
 70
     0
  0
APPID
  5
3EAE
330
9
100
AcDbSymbolTableRecord
100
AcDbRegAppTableRecord
  2
ACAD_MLEADERVER
 70
     0
  0
APPID
  5
3EF0
330
9
100
AcDbSymbolTableRecord
100
AcDbRegAppTableRecord
  2
ACAD_EXEMPT_FROM_CAD_STANDARDS
 70
     0
  0
APPID
  5
3F70
330
9
100
AcDbSymbolTableRecord
100
AcDbRegAppTableRecord
  2
ACAD_PSEXT
 70
     0
  0
APPID
  5
3F71
330
9
100
AcDbSymbolTableRecord
100
AcDbRegAppTableRecord
  2
ACAD_NAV_VCDISPLAY
 70
     0
  0
APPID
  5
41F6
330
9
100
AcDbSymbolTableRecord
100
AcDbRegAppTableRecord
  2
AcadAnnoPO
 70
     0
  0
ENDTAB
  0
TABLE
  2
DIMSTYLE
  5
A
330
0
100
AcDbSymbolTable
 70
     2
100
AcDbDimStyleTable
 71
     1
340
22E4
  0
DIMSTYLE
105
22E4
330
A
100
AcDbSymbolTableRecord
100
AcDbDimStyleTableRecord
  2
STANDARD
 70
     0
 40
2.0
 41
0.8
 42
1.0
 43
0.0
 44
0.0
 73
     0
 74
     0
 77
     2
 78
     8
140
2.0
141
2.5
143
0.0394
147
0.1
171
     4
172
     1
173
     1
273
     8
274
     4
279
     1
340
11
341
903
343
903
344
903
  0
ENDTAB
  0
TABLE
  2
BLOCK_RECORD
  5
1
330
0
100
AcDbSymbolTable
 70
    10
  0
BLOCK_RECORD
  5
1F
102
{ACAD_XDICTIONARY
360
1C62
102
}
330
1
100
AcDbSymbolTableRecord
100
AcDbBlockTableRecord
  2
*Model_Space
340
22
  0
BLOCK_RECORD
  5
1CD0
330
1
100
AcDbSymbolTableRecord
100
AcDbBlockTableRecord
  2
*Paper_Space
340
1CD1
  0
BLOCK_RECORD
  5
903
330
1
100
AcDbSymbolTableRecord
100
AcDbBlockTableRecord
  2
_DOT
340
0
102
{BLKREFS
331
3FEE
331
3FEF
331
3FF7
331
3FF8
331
4000
331
4001
331
4124
331
4125
331
412D
331
412E
331
413F
331
4140
331
43DA
331
43DB
331
43E0
331
43E1
331
43E6
331
43E7
331
43EC
331
43ED
331
43F2
331
43F3
331
43F8
331
43F9
102
}
  0
BLOCK_RECORD
  5
2A86
330
1
100
AcDbSymbolTableRecord
100
AcDbBlockTableRecord
  2
s6r-60
340
0
310
2800000020000000200000000100080000000000000400000000000000000000000000000000000000000000000080000080000000808000800000008000800080800000C0C0C000C0DCC000F0CAA6000020400000206000002080000020A0000020C0000020E00000400000004020000040400000406000004080000040A0
310
000040C0000040E00000600000006020000060400000606000006080000060A0000060C0000060E00000800000008020000080400000806000008080000080A0000080C0000080E00000A0000000A0200000A0400000A0600000A0800000A0A00000A0C00000A0E00000C0000000C0200000C0400000C0600000C0800000C0
310
A00000C0C00000C0E00000E0000000E0200000E0400000E0600000E0800000E0A00000E0C00000E0E00040000000400020004000400040006000400080004000A0004000C0004000E00040200000402020004020400040206000402080004020A0004020C0004020E000404000004040200040404000404060004040800040
310
40A0004040C0004040E00040600000406020004060400040606000406080004060A0004060C0004060E00040800000408020004080400040806000408080004080A0004080C0004080E00040A0000040A0200040A0400040A0600040A0800040A0A00040A0C00040A0E00040C0000040C0200040C0400040C0600040C08000
310
40C0A00040C0C00040C0E00040E0000040E0200040E0400040E0600040E0800040E0A00040E0C00040E0E00080000000800020008000400080006000800080008000A0008000C0008000E00080200000802020008020400080206000802080008020A0008020C0008020E00080400000804020008040400080406000804080
310
008040A0008040C0008040E00080600000806020008060400080606000806080008060A0008060C0008060E00080800000808020008080400080806000808080008080A0008080C0008080E00080A0000080A0200080A0400080A0600080A0800080A0A00080A0C00080A0E00080C0000080C0200080C0400080C0600080C0
310
800080C0A00080C0C00080C0E00080E0000080E0200080E0400080E0600080E0800080E0A00080E0C00080E0E000C0000000C0002000C0004000C0006000C0008000C000A000C000C000C000E000C0200000C0202000C0204000C0206000C0208000C020A000C020C000C020E000C0400000C0402000C0404000C0406000C0
310
408000C040A000C040C000C040E000C0600000C0602000C0604000C0606000C0608000C060A000C060C000C060E000C0800000C0802000C0804000C0806000C0808000C080A000C080C000C080E000C0A00000C0A02000C0A04000C0A06000C0A08000C0A0A000C0A0C000C0A0E000C0C00000C0C02000C0C04000C0C06000
310
C0C08000C0C0A000F0FBFF00A4A0A000808080000000FF0000FF000000FFFF00FF000000FF00FF00FFFF0000FFFFFF00FFFFFFFFFFFFFFFFFFFFFFFFFFFFFFFFFFFFFFFFFFFFFFFFFFFFFFFFFFFFFFFFFFFFFFFFFFFFFFFFFFFFFFFFFFFFFFFFFEFFFFFFFFFFFFFFFFFFFFFFFFFFFFFFFFFFFFFFFFFFFFFFFFFFFFFFFFFFFF
310
FEFEFFFFFFFFFFFFFFFFFFFFFFFFFFFFFFFFFFFFFFFFFFFFFFFFFFFFFFFFFFFEFEFEFEFFFFFFFFFFFFFFFFFFFFFFFFFFFFFFFFFFFFFFFFFFFFFFFFFFFFFFFEFEFEFEFEFEFFFFFFFFFFFFFFFFFFFFFFFFFFFFFFFFFFFFFFFFFFFFFFFFFFFFFEFEFEFEFEFEFFFFFFFFFFFFFFFFFFFFFFFFFFFFFFFFFFFFFFFFFFFFFFFFFFFFFE
310
FEFEFEFEFEFFFFFFFFFFFFFFFFFFFFFFFFFFFFFFFFFFFFFFFFFFFFFFFFFFFFFEFEFEFEFEFEFFFFFFFFFFFFFFFFFFFFFFFFFFFFFFFFFFFFFFFFFFFFFFFFFFFFFEFEFEFEFEFEFFFFFFFFFFFFFFFFFFFFFFFFFFFFFFFFFFFFFFFFFFFFFFFFFFFFFEFEFEFEFEFEFFFFFFFFFFFFFFFFFFFFFFFFFFFFFFFFFFFFFFFFFFFFFFFFFFFF
310
FEFEFEFEFEFEFFFFFFFFFFFFFFFFFFFFFFFFFFFFFFFFFFFFFFFFFFFFFFFFFFFFFEFFFEFEFFFEFFFFFFFFFFFFFFFFFFFFFFFFFFFFFFFFFFFFFFFFFFFFFFFFFFFFFEFFFEFEFFFEFFFFFFFFFFFFFFFFFFFFFFFFFFFFFFFFFFFFFFFFFFFFFFFFFFFFFEFFFEFEFFFEFFFFFFFFFFFFFFFFFFFFFFFFFFFFFFFFFFFFFFFFFFFFFFFFFF
310
FFFFFEFEFEFFFEFFFFFFFFFFFFFFFFFFFFFFFFFFFFFFFFFFFFFFFFFFFFFFFFFFFFFFFEFFFFFEFFFFFFFFFFFFFFFFFFFFFFFFFFFFFFFFFFFFFFFFFFFFFFFFFFFFFFFFFEFEFEFEFFFFFFFFFFFFFFFFFFFFFFFFFFFFFFFFFFFFFFFFFFFFFFFFFFFFFFFFFEFEFEFEFFFFFFFFFFFFFFFFFFFFFFFFFFFFFFFFFFFFFFFFFFFFFFFFFF
310
FFFFFFFEFFFFFEFFFFFFFFFFFFFFFFFFFFFFFFFFFFFFFFFFFFFFFFFFFFFFFFFFFFFFFFFEFFFFFEFFFFFFFFFFFFFFFFFFFFFFFFFFFFFFFFFFFFFFFFFFFFFFFFFFFFFFFFFEFFFFFEFFFFFFFFFFFFFFFFFFFFFFFFFFFFFFFFFFFFFFFFFFFFFFFFFFFFFFFFFEFFFFFEFFFFFFFFFFFFFFFFFFFFFFFFFFFFFFFFFFFFFFFFFFFFFFFF
310
FFFFFFFFFEFFFFFEFFFFFFFFFFFFFFFFFFFFFFFFFFFFFFFFFFFFFFFFFFFFFFFFFFFFFFFFFEFFFFFEFFFFFFFFFFFFFFFFFFFFFFFFFFFFFFFFFFFFFFFFFFFFFFFFFFFFFFFFFEFFFFFEFFFFFFFFFFFFFFFFFFFFFFFFFFFFFFFFFFFFFFFFFFFFFFFFFFFFFFFFFEFFFFFEFFFFFFFFFFFFFFFFFFFFFFFFFFFFFFFFFFFFFFFFFFFFFF
310
FFFFFFFFFFFEFFFFFEFFFFFFFFFFFFFFFFFFFFFFFFFFFFFFFFFFFFFFFFFFFFFFFFFFFFFFFFFEFFFFFEFFFFFFFFFFFFFFFFFFFFFFFFFFFFFFFFFFFFFFFFFFFFFFFFFFFFFFFFFEFEFEFEFFFFFFFFFFFFFFFFFFFFFFFFFFFFFFFFFFFFFFFFFFFFFFFFFFFFFFFFFEFEFEFEFFFFFFFFFFFFFFFFFFFFFFFFFFFFFFFFFFFFFFFFFFFF
310
FFFFFFFFFFFFFEFEFEFEFFFFFFFFFFFFFFFFFFFFFFFFFFFFFFFFFFFFFFFFFFFFFFFFFFFFFFFFFFFFFFFFFFFFFFFFFFFFFFFFFFFFFFFFFFFF
1001
ACAD
1000
DesignCenter Data
1002
{
1070
     1
1070
     4
1002
}
  0
BLOCK_RECORD
  5
3A72
330
1
100
AcDbSymbolTableRecord
100
AcDbBlockTableRecord
  2
*D2
340
0
  0
BLOCK_RECORD
  5
3A8B
330
1
100
AcDbSymbolTableRecord
100
AcDbBlockTableRecord
  2
*D3
340
0
  0
BLOCK_RECORD
  5
3A97
330
1
100
AcDbSymbolTableRecord
100
AcDbBlockTableRecord
  2
*D4
340
0
  0
BLOCK_RECORD
  5
3ACE
330
1
100
AcDbSymbolTableRecord
100
AcDbBlockTableRecord
  2
*D5
340
0
  0
BLOCK_RECORD
  5
3B05
330
1
100
AcDbSymbolTableRecord
100
AcDbBlockTableRecord
  2
*D6
340
0
  0
BLOCK_RECORD
  5
3BC1
330
1
100
AcDbSymbolTableRecord
100
AcDbBlockTableRecord
  2
*D7
340
0
  0
BLOCK_RECORD
  5
4244
330
1
100
AcDbSymbolTableRecord
100
AcDbBlockTableRecord
  2
up60_2020
340
0
310
28000000200000002000000001002000000000000010000001000000010000000000000000000000302821FF302821FF302821FF302821FF302821FF302821FF302821FF302821FF302821FF302821FF302821FF302821FF302821FF302821FF302821FF302821FF302821FF302821FF302821FF302821FF302821FF302821
310
FF302821FF302821FF302821FF302821FF302821FF302821FF302821FF302821FF302821FF302821FF302821FF302821FF302821FF302821FF302821FF302821FF302821FF302821FF302821FF302821FF302821FF302821FF302821FF302821FF302821FF302821FFFFFF00FF302821FF302821FF302821FF302821FF3028
310
21FF302821FF302821FF302821FF302821FF302821FF302821FF302821FF302821FF302821FF302821FF302821FF302821FF302821FF302821FF302821FF302821FF302821FF302821FF302821FF302821FF302821FF302821FF302821FF302821FF302821FFFFFF00FFFFFF00FF302821FF302821FF302821FF302821FF30
310
2821FF302821FF302821FF302821FF302821FF302821FF302821FF302821FF302821FF302821FF302821FF302821FF302821FF302821FF302821FF302821FF302821FF302821FF302821FF302821FF302821FF302821FF302821FF302821FF302821FF302821FFFFFF00FFFFFF00FF302821FF302821FF302821FF302821FF
310
302821FF302821FF302821FF302821FF302821FF302821FF302821FF302821FF302821FF302821FF302821FF302821FF302821FF302821FF302821FF302821FF302821FF302821FF302821FF302821FF302821FF302821FF302821FF302821FF302821FFFFFF00FFFFFF00FFFFFF00FFFFFF00FF302821FF302821FF302821
310
FF302821FF302821FF302821FF302821FF302821FF302821FF302821FF302821FF302821FF302821FF302821FF302821FF302821FF302821FF302821FF302821FF302821FF302821FF302821FF302821FF302821FF302821FF302821FF302821FF302821FFFFFF00FFFFFF00FFFFFF00FFFFFF00FF302821FF302821FF3028
310
21FF302821FF302821FF302821FF302821FF302821FF302821FF302821FF302821FF302821FF302821FF302821FF302821FF302821FF302821FF302821FF302821FF302821FF302821FF302821FF302821FF302821FF302821FF302821FF302821FF302821FFFFFF00FFFFFF00FFFFFF00FFFFFF00FF302821FF302821FF30
310
2821FF302821FF302821FF302821FF302821FF302821FF302821FF302821FF302821FF302821FF302821FF302821FF302821FF302821FF302821FF302821FF302821FF302821FF302821FF302821FF302821FF302821FF302821FF302821FF302821FF302821FFFFFF00FFFFFF00FFFFFF00FFFFFF00FF302821FF302821FF
310
302821FF302821FF302821FF302821FF302821FF302821FF302821FF302821FF302821FF302821FF302821FF302821FF302821FF302821FF302821FF302821FF302821FF302821FF302821FF302821FF302821FF302821FF302821FF302821FF302821FF302821FFFFFF00FFFFFF00FFFFFF00FFFFFF00FF302821FF302821
310
FF302821FF302821FF302821FF302821FF302821FF302821FF302821FF302821FF302821FF302821FF302821FF302821FF302821FF302821FF302821FF302821FF302821FF302821FF302821FF302821FF302821FF302821FF302821FF302821FF302821FF302821FFFFFF00FFFFFF00FFFFFF00FFFFFF00FF302821FF3028
310
21FF302821FF302821FF302821FF302821FF302821FF302821FF302821FF302821FF302821FF302821FF302821FF302821FF302821FF302821FF302821FF302821FF302821FF302821FF302821FF302821FF302821FF302821FF302821FF302821FF302821FF302821FFFFFF00FFFFFF00FFFFFF00FFFFFF00FF302821FF30
310
2821FF302821FF302821FF302821FF302821FF302821FF302821FF302821FF302821FF302821FF302821FF302821FF302821FF302821FF302821FF302821FF302821FF302821FF302821FF302821FF302821FF302821FF302821FF302821FF302821FF302821FF302821FFFFFF00FFFFFF00FFFFFF00FFFFFF00FF302821FF
310
302821FF302821FF302821FF302821FF302821FF302821FF302821FF302821FF302821FF302821FF302821FF302821FF302821FF302821FF302821FF302821FF302821FF302821FF302821FF302821FF302821FF302821FF302821FF302821FF302821FF302821FF302821FFFFFF00FFFFFF00FFFFFF00FFFFFF00FF302821
310
FF302821FF302821FF302821FF302821FF302821FF302821FF302821FF302821FF302821FF302821FF302821FF302821FF302821FF302821FF302821FF302821FF302821FF302821FF302821FF302821FF302821FF302821FF302821FF302821FF302821FF302821FF302821FFFFFF00FFFFFF00FFFFFF00FFFFFF00FF3028
310
21FF302821FF302821FF302821FF302821FF302821FF302821FF302821FF302821FF302821FF302821FF302821FF302821FF302821FF302821FF302821FF302821FF302821FF302821FF302821FF302821FF302821FF302821FF302821FF302821FF302821FF302821FF302821FFFFFF00FFFFFF00FFFFFF00FFFFFF00FF30
310
2821FF302821FF302821FF302821FF302821FF302821FF302821FF302821FF302821FF302821FF302821FF302821FF302821FF302821FF302821FF302821FF302821FF302821FF302821FF302821FF302821FF302821FF302821FF302821FF302821FF302821FF302821FF302821FFFFFF00FFFFFF00FFFFFF00FFFFFF00FF
310
302821FF302821FF302821FF302821FF302821FF302821FF302821FF302821FF302821FF302821FF302821FF302821FF302821FF302821FF302821FF302821FF302821FF302821FF302821FF302821FF302821FF302821FF302821FF302821FF302821FF302821FF302821FF302821FFFFFF00FFFFFF00FFFFFF00FFFFFF00
310
FF302821FF302821FF302821FF302821FF302821FF302821FF302821FF302821FF302821FF302821FF302821FF302821FF302821FF302821FF302821FF302821FF302821FF302821FF302821FF302821FF302821FF302821FF302821FF302821FF302821FF302821FF302821FF302821FFFFFF00FFFFFF00FFFFFF00FFFFFF
310
00FF302821FF302821FF302821FF302821FF302821FF302821FF302821FF302821FF302821FF302821FF302821FF302821FF302821FF302821FF302821FF302821FF302821FF302821FF302821FF302821FF302821FF302821FF302821FF302821FF302821FF302821FF302821FF302821FFFFFF00FFFFFF00FFFFFF00FFFF
310
FF00FF302821FF302821FF302821FF302821FF302821FF302821FF302821FF302821FF302821FF302821FF302821FF302821FF302821FF302821FF302821FF302821FF302821FF302821FF302821FF302821FF302821FF302821FF302821FF302821FF302821FF302821FF302821FF302821FFFFFF00FFFFFF00FFFFFF00FF
310
FFFF00FF302821FF302821FF302821FF302821FF302821FF302821FF302821FF302821FF302821FF302821FF302821FF302821FF302821FF302821FF302821FF302821FF302821FF302821FF302821FF302821FF302821FF302821FF302821FF302821FF302821FF302821FF302821FF302821FFFFFF00FFFFFF00FFFFFF00
310
FFFFFF00FF302821FF302821FF302821FF302821FF302821FF302821FF302821FF302821FF302821FF302821FF302821FF302821FF302821FF302821FF302821FF302821FF302821FF302821FF302821FF302821FF302821FF302821FF302821FF302821FF302821FF302821FF302821FF302821FFFFFF00FF302821FF3028
310
21FFFFFF00FF302821FF302821FF302821FF302821FF302821FF302821FF302821FF302821FF302821FF302821FF302821FF302821FF302821FF302821FF302821FF302821FF302821FF302821FF302821FF302821FF302821FF302821FF302821FF302821FF302821FF302821FF302821FF302821FFFFFF00FF302821FF30
310
2821FFFFFF00FF302821FF302821FF302821FF302821FF302821FF302821FF302821FF302821FF302821FF302821FF302821FF302821FF302821FF302821FF302821FF302821FF302821FF302821FF302821FF302821FF302821FF302821FF302821FF302821FF302821FF302821FF302821FF302821FFFFFF00FF302821FF
310
302821FFFFFF00FF302821FF302821FF302821FF302821FF302821FF302821FF302821FF302821FF302821FF302821FF302821FF302821FF302821FF302821FF302821FF302821FF302821FF302821FF302821FF302821FF302821FF302821FF302821FF302821FF302821FF302821FF302821FF302821FFFFFF00FF302821
310
FF302821FFFFFF00FF302821FF302821FF302821FF302821FF302821FF302821FF302821FF302821FF302821FF302821FF302821FF302821FF302821FF302821FF302821FF302821FF302821FF302821FF302821FF302821FF302821FF302821FF302821FF302821FF302821FF302821FF302821FF302821FFFFFF00FFFFFF
310
00FFFFFF00FFFFFF00FF302821FF302821FF302821FF302821FF302821FF302821FF302821FF302821FF302821FF302821FF302821FF302821FF302821FF302821FF302821FF302821FF302821FF302821FF302821FF302821FF302821FF302821FF302821FF302821FF302821FF302821FF302821FF302821FFFFFF00FFFF
310
FF00FFFFFF00FFFFFF00FF302821FF302821FF302821FF302821FF302821FF302821FF302821FF302821FF302821FF302821FF302821FF302821FF302821FF302821FF302821FF302821FF302821FF302821FF302821FF302821FF302821FF302821FF302821FF302821FF302821FF302821FF302821FF302821FFFFFF00FF
310
FFFF00FFFFFF00FFFFFF00FF302821FF302821FF302821FF302821FF302821FF302821FF302821FF302821FF302821FF302821FF302821FF302821FF302821FF302821FF302821FF302821FF302821FF302821FF302821FF302821FF302821FF302821FF302821FF302821FF302821FF302821FF302821FF302821FFFFFF00
310
FFFFFF00FFFFFF00FFFFFF00FF302821FF302821FF302821FF302821FF302821FF302821FF302821FF302821FF302821FF302821FF302821FF302821FF302821FF302821FF302821FF302821FF302821FF302821FF302821FF302821FF302821FF302821FF302821FF302821FF302821FF302821FF302821FF302821FFFFFF
310
00FFFFFF00FFFFFF00FFFFFF00FF302821FF302821FF302821FF302821FF302821FF302821FF302821FF302821FF302821FF302821FF302821FF302821FF302821FF302821FF302821FF302821FF302821FF302821FF302821FF302821FF302821FF302821FF302821FF302821FF302821FF302821FF302821FF302821FFFF
310
FF00FFFFFF00FFFFFF00FFFFFF00FF302821FF302821FF302821FF302821FF302821FF302821FF302821FF302821FF302821FF302821FF302821FF302821FF302821FF302821FF302821FF302821FF302821FF302821FF302821FF302821FF302821FF302821FF302821FF302821FF302821FF302821FF302821FF302821FF
310
302821FF302821FF302821FF302821FF302821FF302821FF302821FF302821FF302821FF302821FF302821FF302821FF302821FF302821FF302821FF302821FF302821FF302821FF
1001
ACAD
1000
DesignCenter Data
1002
{
1070
     1
1070
     4
1002
}
  0
ENDTAB
  0
ENDSEC
  0
SECTION
  2
BLOCKS
  0
BLOCK
  5
20
330
1F
100
AcDbEntity
  8
0
100
AcDbBlockBegin
  2
*Model_Space
 70
     0
 10
0.0
 20
0.0
 30
0.0
  3
*Model_Space
  1

  0
ENDBLK
  5
21
330
1F
100
AcDbEntity
  8
0
100
AcDbBlockEnd
  0
BLOCK
  5
1CD2
330
1CD0
100
AcDbEntity
 67
     1
  8
0
100
AcDbBlockBegin
  2
*Paper_Space
 70
     0
 10
0.0
 20
0.0
 30
0.0
  3
*Paper_Space
  1

  0
ENDBLK
  5
1CD3
330
1CD0
100
AcDbEntity
 67
     1
  8
0
100
AcDbBlockEnd
  0
BLOCK
  5
906
330
903
100
AcDbEntity
  8
0
100
AcDbBlockBegin
  2
_DOT
 70
     0
 10
0.0
 20
0.0
 30
0.0
  3
_DOT
  1

  0
LWPOLYLINE
  5
904
330
903
100
AcDbEntity
  8
0
  6
ByBlock
 62
     0
100
AcDbPolyline
 90
        2
 70
     1
 43
0.5
 10
-0.25
 20
0.0
 42
1.0
 10
0.25
 20
0.0
 42
1.0
  0
LINE
  5
905
330
903
100
AcDbEntity
  8
0
  6
ByBlock
 62
     0
100
AcDbLine
 10
-0.5
 20
0.0
 30
0.0
 11
-1.0
 21
0.0
 31
0.0
  0
ENDBLK
  5
907
330
903
100
AcDbEntity
  8
0
100
AcDbBlockEnd
  0
BLOCK
  5
2AD9
330
2A86
100
AcDbEntity
  8
0
 48
20.0
100
AcDbBlockBegin
  2
s6r-60
 70
     0
 10
0.0
 20
0.0
 30
0.0
  3
s6r-60
  1

  0
LWPOLYLINE
  5
2A87
330
2A86
100
AcDbEntity
  8
KANAMONO_SCREW
100
AcDbPolyline
 90
        7
 70
     0
 43
0.0
 10
3.0
 20
-29.5
 10
3.0
 20
-1.299999999999954
 10
4.0
 20
0.0
 10
4.0
 20
0.5
 10
-4.0
 20
0.5
 10
-4.0
 20
0.0
 10
4.0
 20
0.0
  0
LWPOLYLINE
  5
2A88
330
2A86
100
AcDbEntity
  8
KANAMONO_SCREW
100
AcDbPolyline
 90
        3
 70
     0
 43
0.0
 10
-4.0
 20
0.0
 10
-3.0
 20
-1.299999999999954
 10
-3.000000000000454
 20
-29.50000000000085
  0
LINE
  5
2A89
330
2A86
100
AcDbEntity
  8
KANAMONO_SCREW
100
AcDbLine
 10
0.0
 20
-63.29999999999995
 30
0.0
 11
-2.200000000000045
 21
-55.29999999999995
 31
0.0
  0
LINE
  5
2A8A
330
2A86
100
AcDbEntity
  8
KANAMONO_SCREW
100
AcDbLine
 10
2.200000000000045
 20
-55.29999999999995
 30
0.0
 11
0.0
 21
-63.29999999999995
 31
0.0
  0
LINE
  5
2A8B
330
2A86
100
AcDbEntity
  8
KANAMONO_SCREW
100
AcDbLine
 10
-0.2729385095193493
 20
-62.30749632902098
 30
0.0
 11
0.3532357144075604
 21
-62.01550649306478
 31
0.0
  0
ARC
  5
2A8C
330
2A86
100
AcDbEntity
  8
KANAMONO_SCREW
100
AcDbCircle
 10
-7.659849134879777
 20
-40.17943698590795
 30
0.0
 40
9.859876903588483
100
AcDbArc
 50
0.1359815000569386
 51
35.17074423212627
  0
LINE
  5
2A8D
330
2A86
100
AcDbEntity
  8
KANAMONO_SCREW
100
AcDbLine
 10
-2.199999999999931
 20
-40.43513805717942
 30
0.0
 11
1.608586036090741
 21
-38.65916522180817
 31
0.0
  0
ARC
  5
2A8E
330
2A86
100
AcDbEntity
  8
KANAMONO_SCREW
100
AcDbCircle
 10
7.65984913487955
 20
-40.17943698590795
 30
0.0
 40
9.859876903588483
100
AcDbArc
 50
144.8292557678737
 51
179.864018499943
  0
LINE
  5
2A8F
330
2A86
100
AcDbEntity
  8
KANAMONO_SCREW
100
AcDbLine
 10
-4.800000000000068
 20
-38.74999999999955
 30
0.0
 11
-4.800000000000068
 21
-42.99999999999989
 31
0.0
  0
LINE
  5
2A90
330
2A86
100
AcDbEntity
  8
KANAMONO_SCREW
100
AcDbLine
 10
4.799999999999954
 20
-42.99999999999989
 30
0.0
 11
4.799999999999954
 21
-38.74999999999977
 31
0.0
  0
LINE
  5
2A91
330
2A86
100
AcDbEntity
  8
KANAMONO_SCREW
100
AcDbLine
 10
2.200000000000045
 20
-59.5
 30
0.0
 11
3.800000000000181
 21
-59.50000000000011
 31
0.0
  0
LINE
  5
2A92
330
2A86
100
AcDbEntity
  8
KANAMONO_SCREW
100
AcDbLine
 10
-4.800000000000295
 20
-49.0
 30
0.0
 11
-4.800000000000181
 21
-50.99999999999977
 31
0.0
  0
LINE
  5
2A93
330
2A86
100
AcDbEntity
  8
KANAMONO_SCREW
100
AcDbLine
 10
-2.199999999999931
 20
-50.94481273529709
 30
0.0
 11
2.200000000000159
 21
-48.89305903941511
 31
0.0
  0
LINE
  5
2A94
330
2A86
100
AcDbEntity
  8
KANAMONO_SCREW
100
AcDbLine
 10
-2.200000000000045
 20
-59.49999999999988
 30
0.0
 11
-2.200000000000045
 21
-40.15603631653152
 31
0.0
  0
LINE
  5
2A95
330
2A86
100
AcDbEntity
  8
KANAMONO_SCREW
100
AcDbLine
 10
2.200000000000045
 20
-40.15603631653209
 30
0.0
 11
2.200000000000045
 21
-59.5
 31
0.0
  0
LINE
  5
2A96
330
2A86
100
AcDbEntity
  8
KANAMONO_SCREW
100
AcDbLine
 10
-1.980716023836066
 20
-56.09739627696012
 30
0.0
 11
2.200000000000045
 21
-54.147896378474
 31
0.0
  0
LINE
  5
2A97
330
2A86
100
AcDbEntity
  8
KANAMONO_SCREW
100
AcDbLine
 10
-3.299999999999954
 20
-55.49999999999989
 30
0.0
 11
-3.299999999999954
 21
-57.0
 31
0.0
  0
LINE
  5
2A98
330
2A86
100
AcDbEntity
  8
KANAMONO_SCREW
100
AcDbLine
 10
-1.126827266677764
 20
-59.20244630299066
 30
0.0
 11
1.45833446243796
 21
-57.99696559113477
 31
0.0
  0
LINE
  5
2A99
330
2A86
100
AcDbEntity
  8
KANAMONO_SCREW
100
AcDbLine
 10
-1.553771645256915
 20
-57.64992128997528
 30
0.0
 11
2.010883836453444
 21
-55.98769514016954
 31
0.0
  0
LINE
  5
2A9A
330
2A86
100
AcDbEntity
  8
KANAMONO_SCREW
100
AcDbLine
 10
-3.799999999999954
 20
-59.50000000000011
 30
0.0
 11
-2.200000000000045
 21
-59.49999999999988
 31
0.0
  0
LINE
  5
2A9B
330
2A86
100
AcDbEntity
  8
KANAMONO_SCREW
100
AcDbLine
 10
-4.800000000000068
 20
-57.0
 30
0.0
 11
-4.800000000000068
 21
-58.0
 31
0.0
  0
LINE
  5
2A9C
330
2A86
100
AcDbEntity
  8
KANAMONO_SCREW
100
AcDbLine
 10
-4.800000000000068
 20
-58.0
 30
0.0
 11
-3.799999999999954
 21
-59.50000000000011
 31
0.0
  0
LINE
  5
2A9D
330
2A86
100
AcDbEntity
  8
KANAMONO_SCREW
100
AcDbLine
 10
-3.299999999999954
 20
-57.0
 30
0.0
 11
-4.800000000000068
 21
-57.0
 31
0.0
  0
LINE
  5
2A9E
330
2A86
100
AcDbEntity
  8
KANAMONO_SCREW
100
AcDbLine
 10
-0.6998828880982729
 20
-60.75497131600582
 30
0.0
 11
0.9057850884225899
 21
-60.00623604209977
 31
0.0
  0
LINE
  5
2A9F
330
2A86
100
AcDbEntity
  8
KANAMONO_SCREW
100
AcDbLine
 10
-2.200000000000045
 20
-54.44803762800302
 30
0.0
 11
2.200000000000272
 21
-52.39628393212092
 31
0.0
  0
LINE
  5
2AA0
330
2A86
100
AcDbEntity
  8
KANAMONO_SCREW
100
AcDbLine
 10
-2.200000000000159
 20
-52.69642518165017
 30
0.0
 11
2.200000000000159
 21
-50.64467148576795
 31
0.0
  0
LINE
  5
2AA1
330
2A86
100
AcDbEntity
  8
KANAMONO_SCREW
100
AcDbLine
 10
-4.800000000000181
 20
-50.99999999999977
 30
0.0
 11
-3.300000000000068
 21
-51.49999999999988
 31
0.0
  0
LINE
  5
2AA2
330
2A86
100
AcDbEntity
  8
KANAMONO_SCREW
100
AcDbLine
 10
-4.800000000000181
 20
-53.0
 30
0.0
 11
-4.800000000000068
 21
-55.0
 31
0.0
  0
LINE
  5
2AA3
330
2A86
100
AcDbEntity
  8
KANAMONO_SCREW
100
AcDbLine
 10
-4.800000000000068
 20
-55.0
 30
0.0
 11
-3.299999999999954
 21
-55.49999999999989
 31
0.0
  0
LINE
  5
2AA4
330
2A86
100
AcDbEntity
  8
KANAMONO_SCREW
100
AcDbLine
 10
-3.300000000000068
 20
-53.0
 30
0.0
 11
-4.800000000000181
 21
-53.0
 31
0.0
  0
LINE
  5
2AA5
330
2A86
100
AcDbEntity
  8
KANAMONO_SCREW
100
AcDbLine
 10
-3.300000000000068
 20
-51.49999999999988
 30
0.0
 11
-3.300000000000068
 21
-53.0
 31
0.0
  0
LINE
  5
2AA6
330
2A86
100
AcDbEntity
  8
KANAMONO_SCREW
100
AcDbLine
 10
-4.800000000000181
 20
-40.00833404712671
 30
0.0
 11
-5.088567175761681
 21
-40.00833404712693
 31
0.0
  0
ARC
  5
2AA7
330
2A86
100
AcDbEntity
  8
KANAMONO_SCREW
100
AcDbCircle
 10
0.1473318668159891
 20
-42.20982178778513
 30
0.0
 40
5.679893225786392
100
AcDbArc
 50
157.1951788054447
 51
209.4219706231233
  0
LINE
  5
2AA8
330
2A86
100
AcDbEntity
  8
KANAMONO_SCREW
100
AcDbLine
 10
-4.800000000000068
 20
-45.0
 30
0.0
 11
-4.800000000000068
 21
-47.0
 31
0.0
  0
LINE
  5
2AA9
330
2A86
100
AcDbEntity
  8
KANAMONO_SCREW
100
AcDbLine
 10
-2.200000000000159
 20
-45.68997539623842
 30
0.0
 11
2.200000000000386
 21
-43.6382217003561
 31
0.0
  0
LINE
  5
2AAA
330
2A86
100
AcDbEntity
  8
KANAMONO_SCREW
100
AcDbLine
 10
-2.200000000000045
 20
-47.44158784259127
 30
0.0
 11
2.200000000000272
 21
-45.38983414670918
 31
0.0
  0
LINE
  5
2AAB
330
2A86
100
AcDbEntity
  8
KANAMONO_SCREW
100
AcDbLine
 10
-2.200000000000045
 20
-49.19320028894424
 30
0.0
 11
2.200000000000272
 21
-47.14144659306202
 31
0.0
  0
LINE
  5
2AAC
330
2A86
100
AcDbEntity
  8
KANAMONO_SCREW
100
AcDbLine
 10
-4.800000000000068
 20
-47.0
 30
0.0
 11
-3.300000000000181
 21
-47.49999999999988
 31
0.0
  0
LINE
  5
2AAD
330
2A86
100
AcDbEntity
  8
KANAMONO_SCREW
100
AcDbLine
 10
-3.300000000000181
 20
-49.0
 30
0.0
 11
-4.800000000000295
 21
-49.0
 31
0.0
  0
LINE
  5
2AAE
330
2A86
100
AcDbEntity
  8
KANAMONO_SCREW
100
AcDbLine
 10
-3.300000000000181
 20
-47.49999999999988
 30
0.0
 11
-3.300000000000181
 21
-49.0
 31
0.0
  0
LINE
  5
2AAF
330
2A86
100
AcDbEntity
  8
KANAMONO_SCREW
100
AcDbLine
 10
-2.200000000000045
 20
-43.93836294988534
 30
0.0
 11
2.200000000000272
 21
-41.88660925400324
 31
0.0
  0
LINE
  5
2AB0
330
2A86
100
AcDbEntity
  8
KANAMONO_SCREW
100
AcDbLine
 10
-2.200000000000045
 20
-42.18675050353249
 30
0.0
 11
2.200000000000272
 21
-40.13499680765028
 31
0.0
  0
LINE
  5
2AB1
330
2A86
100
AcDbEntity
  8
KANAMONO_SCREW
100
AcDbLine
 10
-3.300000000000181
 20
-44.99999999999988
 30
0.0
 11
-3.876239569296672
 21
-44.99999999999977
 31
0.0
  0
LINE
  5
2AB2
330
2A86
100
AcDbEntity
  8
KANAMONO_SCREW
100
AcDbLine
 10
-3.300000000000181
 20
-43.49999999999977
 30
0.0
 11
-3.300000000000181
 21
-44.99999999999988
 31
0.0
  0
LINE
  5
2AB3
330
2A86
100
AcDbEntity
  8
KANAMONO_SCREW
100
AcDbLine
 10
-4.800000000000068
 20
-42.99999999999989
 30
0.0
 11
-3.300000000000181
 21
-43.49999999999977
 31
0.0
  0
ARC
  5
2AB4
330
2A86
100
AcDbEntity
  8
KANAMONO_SCREW
100
AcDbCircle
 10
1.071092297519271
 20
-42.20982178778479
 30
0.0
 40
5.679893225786392
100
AcDbArc
 50
188.8781154175122
 51
209.4219706231233
  0
LINE
  5
2AB5
330
2A86
100
AcDbEntity
  8
KANAMONO_SCREW
100
AcDbLine
 10
4.800000000000068
 20
-51.00000000000012
 30
0.0
 11
4.799999999999954
 21
-49.00000000000011
 31
0.0
  0
LINE
  5
2AB6
330
2A86
100
AcDbEntity
  8
KANAMONO_SCREW
100
AcDbLine
 10
3.300000000000181
 20
-57.0
 30
0.0
 11
3.300000000000181
 21
-55.49999999999989
 31
0.0
  0
LINE
  5
2AB7
330
2A86
100
AcDbEntity
  8
KANAMONO_SCREW
100
AcDbLine
 10
4.800000000000181
 20
-58.00000000000011
 30
0.0
 11
4.800000000000181
 21
-57.00000000000011
 31
0.0
  0
LINE
  5
2AB8
330
2A86
100
AcDbEntity
  8
KANAMONO_SCREW
100
AcDbLine
 10
3.800000000000181
 20
-59.50000000000011
 30
0.0
 11
4.800000000000181
 21
-58.00000000000011
 31
0.0
  0
LINE
  5
2AB9
330
2A86
100
AcDbEntity
  8
KANAMONO_SCREW
100
AcDbLine
 10
4.800000000000181
 20
-57.00000000000011
 30
0.0
 11
3.300000000000181
 21
-57.0
 31
0.0
  0
LINE
  5
2ABA
330
2A86
100
AcDbEntity
  8
KANAMONO_SCREW
100
AcDbLine
 10
4.800000000000068
 20
-55.00000000000011
 30
0.0
 11
4.800000000000068
 21
-53.00000000000011
 31
0.0
  0
LINE
  5
2ABB
330
2A86
100
AcDbEntity
  8
KANAMONO_SCREW
100
AcDbLine
 10
3.300000000000068
 20
-53.0
 30
0.0
 11
3.300000000000068
 21
-51.49999999999988
 31
0.0
  0
LINE
  5
2ABC
330
2A86
100
AcDbEntity
  8
KANAMONO_SCREW
100
AcDbLine
 10
3.300000000000068
 20
-51.49999999999988
 30
0.0
 11
4.800000000000068
 21
-51.00000000000012
 31
0.0
  0
LINE
  5
2ABD
330
2A86
100
AcDbEntity
  8
KANAMONO_SCREW
100
AcDbLine
 10
4.800000000000068
 20
-53.00000000000011
 30
0.0
 11
3.300000000000068
 21
-53.0
 31
0.0
  0
LINE
  5
2ABE
330
2A86
100
AcDbEntity
  8
KANAMONO_SCREW
100
AcDbLine
 10
3.300000000000181
 20
-55.49999999999989
 30
0.0
 11
4.800000000000068
 21
-55.00000000000011
 31
0.0
  0
LINE
  5
2ABF
330
2A86
100
AcDbEntity
  8
KANAMONO_SCREW
100
AcDbLine
 10
4.799999999999954
 20
-47.0
 30
0.0
 11
4.799999999999954
 21
-45.0
 31
0.0
  0
LINE
  5
2AC0
330
2A86
100
AcDbEntity
  8
KANAMONO_SCREW
100
AcDbLine
 10
3.299999999999954
 20
-47.49999999999988
 30
0.0
 11
4.799999999999954
 21
-47.0
 31
0.0
  0
LINE
  5
2AC1
330
2A86
100
AcDbEntity
  8
KANAMONO_SCREW
100
AcDbLine
 10
4.799999999999954
 20
-49.00000000000011
 30
0.0
 11
3.299999999999954
 21
-49.0
 31
0.0
  0
LINE
  5
2AC2
330
2A86
100
AcDbEntity
  8
KANAMONO_SCREW
100
AcDbLine
 10
3.299999999999954
 20
-49.0
 30
0.0
 11
3.299999999999954
 21
-47.49999999999988
 31
0.0
  0
LINE
  5
2AC3
330
2A86
100
AcDbEntity
  8
KANAMONO_SCREW
100
AcDbLine
 10
4.799999999999954
 20
-40.00833404712671
 30
0.0
 11
5.088567175761454
 21
-40.00833404712693
 31
0.0
  0
ARC
  5
2AC4
330
2A86
100
AcDbEntity
  8
KANAMONO_SCREW
100
AcDbCircle
 10
-1.071092297519498
 20
-42.20982178778479
 30
0.0
 40
5.679893225786392
100
AcDbArc
 50
330.5780293768767
 51
351.1218845824877
  0
LINE
  5
2AC5
330
2A86
100
AcDbEntity
  8
KANAMONO_SCREW
100
AcDbLine
 10
3.299999999999954
 20
-44.99999999999988
 30
0.0
 11
3.299999999999954
 21
-43.49999999999977
 31
0.0
  0
LINE
  5
2AC6
330
2A86
100
AcDbEntity
  8
KANAMONO_SCREW
100
AcDbLine
 10
3.299999999999954
 20
-43.49999999999977
 30
0.0
 11
4.799999999999954
 21
-42.99999999999989
 31
0.0
  0
LINE
  5
2AC7
330
2A86
100
AcDbEntity
  8
KANAMONO_SCREW
100
AcDbLine
 10
3.876239569296672
 20
-44.99999999999977
 30
0.0
 11
3.299999999999954
 21
-44.99999999999988
 31
0.0
  0
ARC
  5
2AC8
330
2A86
100
AcDbEntity
  8
KANAMONO_SCREW
100
AcDbCircle
 10
-0.1473318668162165
 20
-42.20982178778513
 30
0.0
 40
5.679893225786392
100
AcDbArc
 50
330.5780293768767
 51
22.8048211945553
  0
LINE
  5
2AC9
330
2A86
100
AcDbEntity
  8
KANAMONO_SCREW
100
AcDbLine
 10
3.0
 20
-27.5
 30
0.0
 11
-3.0
 21
-27.5
 31
0.0
  0
LINE
  5
2ACA
330
2A86
100
AcDbEntity
  8
KANAMONO_SCREW
100
AcDbLine
 10
3.0
 20
-28.5
 30
0.0
 11
-3.0
 21
-28.5
 31
0.0
  0
LINE
  5
2ACB
330
2A86
100
AcDbEntity
  8
KANAMONO_SCREW
100
AcDbLine
 10
3.0
 20
-29.5
 30
0.0
 11
-3.0
 21
-29.5
 31
0.0
  0
ARC
  5
2ACC
330
2A86
100
AcDbEntity
  8
KANAMONO_SCREW
100
AcDbCircle
 10
26.87278604750498
 20
-40.11321782546042
 30
0.0
 40
31.70210937541362
100
AcDbArc
 50
160.44086710814
 51
177.535472548574
  0
LINE
  5
2ACD
330
2A86
100
AcDbEntity
  8
KANAMONO_SCREW
100
AcDbLine
 10
-1.499669838132945
 20
-38.35695629311101
 30
0.0
 11
1.097300952475279
 21
-37.14596892544558
 31
0.0
  0
LINE
  5
2ACE
330
2A86
100
AcDbEntity
  8
KANAMONO_SCREW
100
AcDbLine
 10
-0.400000000000091
 20
-34.49999999999989
 30
0.0
 11
0.3999999999998636
 21
-34.49999999999989
 31
0.0
  0
LINE
  5
2ACF
330
2A86
100
AcDbEntity
  8
KANAMONO_SCREW
100
AcDbLine
 10
-0.8481885289712636
 20
-36.30155312315106
 30
0.0
 11
0.6599209906190709
 21
-35.5983101048297
 31
0.0
  0
ARC
  5
2AD0
330
2A86
100
AcDbEntity
  8
KANAMONO_SCREW
100
AcDbCircle
 10
-26.8727860475052
 20
-40.11321782546042
 30
0.0
 40
31.70210937541362
100
AcDbArc
 50
2.464527451426015
 51
19.55913289186
  0
LINE
  5
2AD1
330
2A86
100
AcDbEntity
  8
KANAMONO_SCREW
100
AcDbLine
 10
-3.0
 20
-1.299999999999954
 30
0.0
 11
3.0
 21
-1.299999999999954
 31
0.0
  0
LINE
  5
2AD2
330
2A86
100
AcDbEntity
  8
KANAMONO_SCREW
100
AcDbLine
 10
-4.399999999999977
 20
1.200000000000045
 30
0.0
 11
4.399999999999977
 21
1.200000000000045
 31
0.0
  0
LINE
  5
2AD3
330
2A86
100
AcDbEntity
  8
KANAMONO_SCREW
100
AcDbLine
 10
-4.399999999999977
 20
1.700000000000045
 30
0.0
 11
4.399999999999977
 21
1.700000000000045
 31
0.0
  0
LINE
  5
2AD4
330
2A86
100
AcDbEntity
  8
KANAMONO_SCREW
100
AcDbLine
 10
-2.200000000000045
 20
-1.299999999999954
 30
0.0
 11
2.200000000000045
 21
-1.299999999999954
 31
0.0
  0
LINE
  5
2AD5
330
2A86
100
AcDbEntity
  8
KANAMONO_SCREW
100
AcDbLine
 10
-4.399999999999977
 20
1.200000000000045
 30
0.0
 11
-4.399999999999863
 21
1.700000000000045
 31
0.0
  0
LINE
  5
2AD6
330
2A86
100
AcDbEntity
  8
KANAMONO_SCREW
100
AcDbLine
 10
-3.783999999999991
 20
0.5
 30
0.0
 11
-4.399999999999977
 21
1.200000000000045
 31
0.0
  0
LINE
  5
2AD7
330
2A86
100
AcDbEntity
  8
KANAMONO_SCREW
100
AcDbLine
 10
4.399999999999977
 20
1.700000000000045
 30
0.0
 11
4.399999999999977
 21
1.200000000000045
 31
0.0
  0
LINE
  5
2AD8
330
2A86
100
AcDbEntity
  8
KANAMONO_SCREW
100
AcDbLine
 10
4.399999999999977
 20
1.200000000000045
 30
0.0
 11
3.783999999999991
 21
0.5
 31
0.0
  0
ENDBLK
  5
2ADA
330
2A86
100
AcDbEntity
  8
0
 48
20.0
100
AcDbBlockEnd
  0
BLOCK
  5
3A7C
330
3A72
100
AcDbEntity
  8
0
100
AcDbBlockBegin
  2
*D2
 70
     1
 10
0.0
 20
0.0
 30
0.0
  3
*D2
  1

  0
LINE
  5
4121
330
3A72
100
AcDbEntity
  8
SUNPO
  6
Continuous
 62
     0
370
    -2
100
AcDbLine
 10
346.4114068282685
 20
144.6198042869969
 30
0.0
 11
346.4114068282685
 21
123.5752843325264
 31
0.0
  0
LINE
  5
4122
330
3A72
100
AcDbEntity
  8
SUNPO
  6
Continuous
 62
     0
370
    -2
100
AcDbLine
 10
258.4114068282685
 20
144.1198042869969
 30
0.0
 11
258.4114068282685
 21
123.5752843325264
 31
0.0
  0
LINE
  5
4123
330
3A72
100
AcDbEntity
  8
SUNPO
  6
Continuous
 62
     0
370
    -2
100
AcDbLine
 10
344.8114068282685
 20
123.5752843325264
 30
0.0
 11
260.0114068282685
 21
123.5752843325264
 31
0.0
  0
INSERT
  5
4124
330
3A72
100
AcDbEntity
  8
SUNPO
  6
Continuous
 62
     0
370
    -2
100
AcDbBlockReference
  2
_DOT
 10
346.4114068282685
 20
123.5752843325264
 30
0.0
 41
1.6
 42
1.6
 43
1.6
  0
INSERT
  5
4125
330
3A72
100
AcDbEntity
  8
SUNPO
  6
Continuous
 62
     0
370
    -2
100
AcDbBlockReference
  2
_DOT
 10
258.4114068282685
 20
123.5752843325264
 30
0.0
 41
1.6
 42
1.6
 43
1.6
 50
180.0
  0
MTEXT
  5
4126
330
3A72
100
AcDbEntity
  8
SUNPO
  6
Continuous
 62
     0
100
AcDbMText
 10
302.4114068282685
 20
121.3752843325264
 30
0.0
 40
4.0
 41
0.0
 71
     5
 72
     1
  1
\A1;88
 73
     1
 44
1.0
1001
ACAD
1000
MTEXTBEGIN
1070
    73
1070
     1
1070
    44
1040
1.0
1070
    74
1070
     0
1000
MTEXTEND
  0
POINT
  5
4127
330
3A72
100
AcDbEntity
  8
Defpoints
  6
Continuous
 62
     0
100
AcDbPoint
 10
346.4114068282685
 20
146.6198042869969
 30
0.0
  0
POINT
  5
4128
330
3A72
100
AcDbEntity
  8
Defpoints
  6
Continuous
 62
     0
100
AcDbPoint
 10
258.4114068282685
 20
146.1198042869969
 30
0.0
  0
POINT
  5
4129
330
3A72
100
AcDbEntity
  8
Defpoints
  6
Continuous
 62
     0
100
AcDbPoint
 10
258.4114068282685
 20
123.5752843325264
 30
0.0
  0
ENDBLK
  5
3A7D
330
3A72
100
AcDbEntity
  8
0
100
AcDbBlockEnd
  0
BLOCK
  5
3A95
330
3A8B
100
AcDbEntity
  8
0
100
AcDbBlockBegin
  2
*D3
 70
     1
 10
0.0
 20
0.0
 30
0.0
  3
*D3
  1

  0
LINE
  5
412A
330
3A8B
100
AcDbEntity
  8
SUNPO
  6
Continuous
 62
     0
370
    -2
100
AcDbLine
 10
236.4128698583925
 20
93.05802587339476
 30
0.0
 11
236.4128698583925
 21
71.08795213356987
 31
0.0
  0
LINE
  5
412B
330
3A8B
100
AcDbEntity
  8
SUNPO
  6
Continuous
 62
     0
370
    -2
100
AcDbLine
 10
346.4128698583925
 20
144.6580258733949
 30
0.0
 11
346.4128698583925
 21
71.08795213356987
 31
0.0
  0
LINE
  5
412C
330
3A8B
100
AcDbEntity
  8
SUNPO
  6
Continuous
 62
     0
370
    -2
100
AcDbLine
 10
238.0128698583924
 20
71.08795213356987
 30
0.0
 11
344.8128698583925
 21
71.08795213356987
 31
0.0
  0
INSERT
  5
412D
330
3A8B
100
AcDbEntity
  8
SUNPO
  6
Continuous
 62
     0
370
    -2
100
AcDbBlockReference
  2
_DOT
 10
236.4128698583925
 20
71.08795213356987
 30
0.0
 41
1.6
 42
1.6
 43
1.6
 50
180.0
  0
INSERT
  5
412E
330
3A8B
100
AcDbEntity
  8
SUNPO
  6
Continuous
 62
     0
370
    -2
100
AcDbBlockReference
  2
_DOT
 10
346.4128698583925
 20
71.08795213356987
 30
0.0
 41
1.6
 42
1.6
 43
1.6
  0
MTEXT
  5
412F
330
3A8B
100
AcDbEntity
  8
SUNPO
  6
Continuous
 62
     0
100
AcDbMText
 10
291.4128698583925
 20
68.88795213356987
 30
0.0
 40
4.0
 41
0.0
 71
     5
 72
     1
  1
\A1;110
 73
     1
 44
1.0
1001
ACAD
1000
MTEXTBEGIN
1070
    73
1070
     1
1070
    44
1040
1.0
1070
    74
1070
     0
1000
MTEXTEND
  0
POINT
  5
4130
330
3A8B
100
AcDbEntity
  8
Defpoints
  6
Continuous
 62
     0
100
AcDbPoint
 10
236.4128698583925
 20
95.05802587339477
 30
0.0
  0
POINT
  5
4131
330
3A8B
100
AcDbEntity
  8
Defpoints
  6
Continuous
 62
     0
100
AcDbPoint
 10
346.4128698583925
 20
146.6580258733949
 30
0.0
  0
POINT
  5
4132
330
3A8B
100
AcDbEntity
  8
Defpoints
  6
Continuous
 62
     0
100
AcDbPoint
 10
346.4128698583925
 20
71.08795213356987
 30
0.0
  0
ENDBLK
  5
3A96
330
3A8B
100
AcDbEntity
  8
0
100
AcDbBlockEnd
  0
BLOCK
  5
3AA1
330
3A97
100
AcDbEntity
  8
0
100
AcDbBlockBegin
  2
*D4
 70
     1
 10
0.0
 20
0.0
 30
0.0
  3
*D4
  1

  0
LINE
  5
3FEB
330
3A97
100
AcDbEntity
  8
SUNPO
  6
Continuous
 62
     0
370
    -2
100
AcDbLine
 10
236.4128698583925
 20
202.0580258733948
 30
0.0
 11
236.4128698583925
 21
212.3973712014699
 31
0.0
  0
LINE
  5
3FEC
330
3A97
100
AcDbEntity
  8
SUNPO
  6
Continuous
 62
     0
370
    -2
100
AcDbLine
 10
321.4128698583925
 20
180.8580258733947
 30
0.0
 11
321.4128698583925
 21
212.3973712014699
 31
0.0
  0
LINE
  5
3FED
330
3A97
100
AcDbEntity
  8
SUNPO
  6
Continuous
 62
     0
370
    -2
100
AcDbLine
 10
238.0128698583924
 20
212.3973712014699
 30
0.0
 11
319.8128698583925
 21
212.3973712014699
 31
0.0
  0
INSERT
  5
3FEE
330
3A97
100
AcDbEntity
  8
SUNPO
  6
Continuous
 62
     0
370
    -2
100
AcDbBlockReference
  2
_DOT
 10
236.4128698583925
 20
212.3973712014699
 30
0.0
 41
1.6
 42
1.6
 43
1.6
 50
180.0
  0
INSERT
  5
3FEF
330
3A97
100
AcDbEntity
  8
SUNPO
  6
Continuous
 62
     0
370
    -2
100
AcDbBlockReference
  2
_DOT
 10
321.4128698583925
 20
212.3973712014699
 30
0.0
 41
1.6
 42
1.6
 43
1.6
  0
MTEXT
  5
3FF0
330
3A97
100
AcDbEntity
  8
SUNPO
  6
Continuous
 62
     0
100
AcDbMText
 10
278.9128698583925
 20
214.5973712014699
 30
0.0
 40
4.0
 41
0.0
 71
     5
 72
     1
  1
\A1;85
 73
     1
 44
1.0
1001
ACAD
1000
MTEXTBEGIN
1070
    73
1070
     1
1070
    44
1040
1.0
1070
    74
1070
     0
1000
MTEXTEND
  0
POINT
  5
3FF1
330
3A97
100
AcDbEntity
  8
Defpoints
  6
Continuous
 62
     0
100
AcDbPoint
 10
236.4128698583925
 20
200.0580258733948
 30
0.0
  0
POINT
  5
3FF2
330
3A97
100
AcDbEntity
  8
Defpoints
  6
Continuous
 62
     0
100
AcDbPoint
 10
321.4128698583925
 20
178.8580258733947
 30
0.0
  0
POINT
  5
3FF3
330
3A97
100
AcDbEntity
  8
Defpoints
  6
Continuous
 62
     0
100
AcDbPoint
 10
321.4128698583925
 20
212.3973712014699
 30
0.0
  0
ENDBLK
  5
3AA2
330
3A97
100
AcDbEntity
  8
0
100
AcDbBlockEnd
  0
BLOCK
  5
3AD8
330
3ACE
100
AcDbEntity
  8
0
100
AcDbBlockBegin
  2
*D5
 70
     1
 10
0.0
 20
0.0
 30
0.0
  3
*D5
  1

  0
LINE
  5
3FF4
330
3ACE
100
AcDbEntity
  8
SUNPO
  6
Continuous
 62
     0
370
    -2
100
AcDbLine
 10
234.4128698583925
 20
95.05802587339477
 30
0.0
 11
211.9947425036214
 21
95.05802587339479
 31
0.0
  0
LINE
  5
3FF5
330
3ACE
100
AcDbEntity
  8
SUNPO
  6
Continuous
 62
     0
370
    -2
100
AcDbLine
 10
234.4128698583925
 20
200.0580258733948
 30
0.0
 11
211.9947425036214
 21
200.0580258733948
 31
0.0
  0
LINE
  5
3FF6
330
3ACE
100
AcDbEntity
  8
SUNPO
  6
Continuous
 62
     0
370
    -2
100
AcDbLine
 10
211.9947425036214
 20
96.65802587339477
 30
0.0
 11
211.9947425036214
 21
198.4580258733948
 31
0.0
  0
INSERT
  5
3FF7
330
3ACE
100
AcDbEntity
  8
SUNPO
  6
Continuous
 62
     0
370
    -2
100
AcDbBlockReference
  2
_DOT
 10
211.9947425036214
 20
95.05802587339479
 30
0.0
 41
1.6
 42
1.6
 43
1.6
 50
270.0
  0
INSERT
  5
3FF8
330
3ACE
100
AcDbEntity
  8
SUNPO
  6
Continuous
 62
     0
370
    -2
100
AcDbBlockReference
  2
_DOT
 10
211.9947425036214
 20
200.0580258733948
 30
0.0
 41
1.6
 42
1.6
 43
1.6
 50
90.0
  0
MTEXT
  5
3FF9
330
3ACE
100
AcDbEntity
  8
SUNPO
  6
Continuous
 62
     0
100
AcDbMText
 10
209.7947425036214
 20
147.5580258733948
 30
0.0
 40
4.0
 41
0.0
 71
     5
 72
     1
  1
\A1;105
 11
0.0000000000000001
 21
1.0
 31
0.0
 73
     1
 44
1.0
1001
ACAD
1000
MTEXTBEGIN
1070
    73
1070
     1
1070
    44
1040
1.0
1070
    74
1070
     0
1000
MTEXTEND
  0
POINT
  5
3FFA
330
3ACE
100
AcDbEntity
  8
Defpoints
  6
Continuous
 62
     0
100
AcDbPoint
 10
236.4128698583925
 20
95.05802587339477
 30
0.0
  0
POINT
  5
3FFB
330
3ACE
100
AcDbEntity
  8
Defpoints
  6
Continuous
 62
     0
100
AcDbPoint
 10
236.4128698583925
 20
200.0580258733948
 30
0.0
  0
POINT
  5
3FFC
330
3ACE
100
AcDbEntity
  8
Defpoints
  6
Continuous
 62
     0
100
AcDbPoint
 10
211.9947425036214
 20
200.0580258733948
 30
0.0
  0
ENDBLK
  5
3AD9
330
3ACE
100
AcDbEntity
  8
0
100
AcDbBlockEnd
  0
BLOCK
  5
3B0F
330
3B05
100
AcDbEntity
  8
0
100
AcDbBlockBegin
  2
*D6
 70
     1
 10
0.0
 20
0.0
 30
0.0
  3
*D6
  1

  0
LINE
  5
3FFD
330
3B05
100
AcDbEntity
  8
SUNPO
  6
Continuous
 62
     0
370
    -2
100
AcDbLine
 10
236.4128698583925
 20
202.0580258733948
 30
0.0
 11
236.4128698583925
 21
205.8469044353915
 31
0.0
  0
LINE
  5
3FFE
330
3B05
100
AcDbEntity
  8
SUNPO
  6
Continuous
 62
     0
370
    -2
100
AcDbLine
 10
256.4128698583925
 20
202.0580258733948
 30
0.0
 11
256.4128698583925
 21
205.8469044353915
 31
0.0
  0
LINE
  5
3FFF
330
3B05
100
AcDbEntity
  8
SUNPO
  6
Continuous
 62
     0
370
    -2
100
AcDbLine
 10
238.0128698583924
 20
205.8469044353915
 30
0.0
 11
254.8128698583925
 21
205.8469044353915
 31
0.0
  0
INSERT
  5
4000
330
3B05
100
AcDbEntity
  8
SUNPO
  6
Continuous
 62
     0
370
    -2
100
AcDbBlockReference
  2
_DOT
 10
236.4128698583925
 20
205.8469044353915
 30
0.0
 41
1.6
 42
1.6
 43
1.6
 50
180.0
  0
INSERT
  5
4001
330
3B05
100
AcDbEntity
  8
SUNPO
  6
Continuous
 62
     0
370
    -2
100
AcDbBlockReference
  2
_DOT
 10
256.4128698583925
 20
205.8469044353915
 30
0.0
 41
1.6
 42
1.6
 43
1.6
  0
MTEXT
  5
4002
330
3B05
100
AcDbEntity
  8
SUNPO
  6
Continuous
 62
     0
100
AcDbMText
 10
246.4128698583925
 20
208.0469044353915
 30
0.0
 40
4.0
 41
0.0
 71
     5
 72
     1
  1
\A1;20
 73
     1
 44
1.0
1001
ACAD
1000
MTEXTBEGIN
1070
    73
1070
     1
1070
    44
1040
1.0
1070
    74
1070
     0
1000
MTEXTEND
  0
POINT
  5
4003
330
3B05
100
AcDbEntity
  8
Defpoints
  6
Continuous
 62
     0
100
AcDbPoint
 10
236.4128698583925
 20
200.0580258733948
 30
0.0
  0
POINT
  5
4004
330
3B05
100
AcDbEntity
  8
Defpoints
  6
Continuous
 62
     0
100
AcDbPoint
 10
256.4128698583925
 20
200.0580258733948
 30
0.0
  0
POINT
  5
4005
330
3B05
100
AcDbEntity
  8
Defpoints
  6
Continuous
 62
     0
100
AcDbPoint
 10
256.4128698583925
 20
205.8469044353915
 30
0.0
  0
ENDBLK
  5
3B10
330
3B05
100
AcDbEntity
  8
0
100
AcDbBlockEnd
  0
BLOCK
  5
3BCB
330
3BC1
100
AcDbEntity
  8
0
100
AcDbBlockBegin
  2
*D7
 70
     1
 10
0.0
 20
0.0
 30
0.0
  3
*D7
  1

  0
LINE
  5
413C
330
3BC1
100
AcDbEntity
  8
SUNPO
  6
Continuous
 62
     0
370
    -2
100
AcDbLine
 10
343.3898696064308
 20
147.8580258733948
 30
0.0
 11
356.6081913503114
 21
147.8580258733948
 31
0.0
  0
LINE
  5
413D
330
3BC1
100
AcDbEntity
  8
SUNPO
  6
Continuous
 62
     0
370
    -2
100
AcDbLine
 10
323.5420451028374
 20
178.3580258733947
 30
0.0
 11
356.6081913503114
 21
178.3580258733947
 31
0.0
  0
LINE
  5
413E
330
3BC1
100
AcDbEntity
  8
SUNPO
  6
Continuous
 62
     0
370
    -2
100
AcDbLine
 10
356.6081913503114
 20
149.4580258733948
 30
0.0
 11
356.6081913503114
 21
176.7580258733948
 31
0.0
  0
INSERT
  5
413F
330
3BC1
100
AcDbEntity
  8
SUNPO
  6
Continuous
 62
     0
370
    -2
100
AcDbBlockReference
  2
_DOT
 10
356.6081913503114
 20
147.8580258733948
 30
0.0
 41
1.6
 42
1.6
 43
1.6
 50
270.0
  0
INSERT
  5
4140
330
3BC1
100
AcDbEntity
  8
SUNPO
  6
Continuous
 62
     0
370
    -2
100
AcDbBlockReference
  2
_DOT
 10
356.6081913503114
 20
178.3580258733947
 30
0.0
 41
1.6
 42
1.6
 43
1.6
 50
90.0
  0
MTEXT
  5
4141
330
3BC1
100
AcDbEntity
  8
SUNPO
  6
Continuous
 62
     0
100
AcDbMText
 10
358.8081913503113
 20
163.1080258733947
 30
0.0
 40
4.0
 41
0.0
 71
     5
 72
     1
  1
\A1;30.5
 11
0.0000000000000001
 21
1.0
 31
0.0
 73
     1
 44
1.0
1001
ACAD
1000
MTEXTBEGIN
1070
    73
1070
     1
1070
    44
1040
1.0
1070
    74
1070
     0
1000
MTEXTEND
  0
POINT
  5
4142
330
3BC1
100
AcDbEntity
  8
Defpoints
  6
Continuous
 62
     0
100
AcDbPoint
 10
341.3898696064308
 20
147.8580258733948
 30
0.0
  0
POINT
  5
4143
330
3BC1
100
AcDbEntity
  8
Defpoints
  6
Continuous
 62
     0
100
AcDbPoint
 10
321.5420451028374
 20
178.3580258733947
 30
0.0
  0
POINT
  5
4144
330
3BC1
100
AcDbEntity
  8
Defpoints
  6
Continuous
 62
     0
100
AcDbPoint
 10
356.6081913503114
 20
178.3580258733947
 30
0.0
  0
ENDBLK
  5
3BCC
330
3BC1
100
AcDbEntity
  8
0
100
AcDbBlockEnd
  0
BLOCK
  5
4245
330
4244
100
AcDbEntity
  8
0
100
AcDbBlockBegin
  2
up60_2020
 70
     0
 10
0.0
 20
0.0
 30
0.0
  3
up60_2020
  1

  0
LINE
  5
4246
330
4244
100
AcDbEntity
  8
KANAMONO_SCREW
100
AcDbLine
 10
2.789999999999736
 20
-31.56499999999937
 30
0.0
 11
2.789999999999736
 21
-2.864999999999326
 31
0.0
  0
LINE
  5
4247
330
4244
100
AcDbEntity
  8
KANAMONO_SCREW
100
AcDbLine
 10
-2.790000000000077
 20
-31.56499999999937
 30
0.0
 11
-2.789999999995984
 21
-2.864999999999326
 31
0.0
  0
LINE
  5
4248
330
4244
100
AcDbEntity
  8
KANAMONO_SCREW
100
AcDbLine
 10
0.2499999999998863
 20
-10.56499999999937
 30
0.0
 11
0.2499999999998863
 21
-2.864999999999781
 31
0.0
  0
LINE
  5
4249
330
4244
100
AcDbEntity
  8
KANAMONO_SCREW
100
AcDbLine
 10
3.390000000000782
 20
-8.66499999999587
 30
0.0
 11
2.789999999999736
 21
-10.56499999999937
 31
0.0
  0
LINE
  5
424A
330
4244
100
AcDbEntity
  8
KANAMONO_SCREW
100
AcDbLine
 10
-2.790000000000077
 20
-10.56499999999937
 30
0.0
 11
-3.389999999999076
 21
-8.665000000003146
 31
0.0
  0
LINE
  5
424B
330
4244
100
AcDbEntity
  8
KANAMONO_SCREW
100
AcDbLine
 10
0.2499999999998863
 20
-10.56499999999937
 30
0.0
 11
-0.0000000000002274
 21
-8.665000000003146
 31
0.0
  0
LINE
  5
424C
330
4244
100
AcDbEntity
  8
KANAMONO_SCREW
100
AcDbLine
 10
-0.0000000000014779
 20
-8.665000000000645
 30
0.0
 11
-0.2499999999965894
 21
-10.56499999999528
 31
0.0
  0
LINE
  5
424D
330
4244
100
AcDbEntity
  8
KANAMONO_SCREW
100
AcDbLine
 10
-0.2499999999965894
 20
-10.56499999999528
 30
0.0
 11
-0.2499999999943157
 21
-2.86500000001115
 31
0.0
  0
LINE
  5
424E
330
4244
100
AcDbEntity
  8
KANAMONO_SCREW
100
AcDbLine
 10
-0.0000000000014779
 20
-8.665000000000645
 30
0.0
 11
0.0000000000001137
 21
-3.36500000001115
 31
0.0
  0
LINE
  5
424F
330
4244
100
AcDbEntity
  8
KANAMONO_SCREW
100
AcDbLine
 10
3.390000000000782
 20
-8.66499999999587
 30
0.0
 11
3.390000000002373
 21
-3.364999999999099
 31
0.0
  0
LINE
  5
4250
330
4244
100
AcDbEntity
  8
KANAMONO_SCREW
100
AcDbLine
 10
-3.389999999999076
 20
-8.665000000003146
 30
0.0
 11
-3.389999999997371
 21
-3.364999999999554
 31
0.0
  0
LINE
  5
4251
330
4244
100
AcDbEntity
  8
KANAMONO_SCREW
100
AcDbLine
 10
3.390000000002373
 20
-3.364999999999099
 30
0.0
 11
2.790000000002578
 21
-2.864999999999326
 31
0.0
  0
LINE
  5
4252
330
4244
100
AcDbEntity
  8
KANAMONO_SCREW
100
AcDbLine
 10
-2.789999999997462
 20
-2.864999999999326
 30
0.0
 11
-3.389999999997371
 21
-3.364999999999554
 31
0.0
  0
LINE
  5
4253
330
4244
100
AcDbEntity
  8
KANAMONO_SCREW
100
AcDbLine
 10
0.2499999999998863
 20
-2.864999999999781
 30
0.0
 11
0.0000000000001137
 21
-3.364999999999554
 31
0.0
  0
LINE
  5
4254
330
4244
100
AcDbEntity
  8
KANAMONO_SCREW
100
AcDbLine
 10
0.0000000000001137
 20
-3.364999999999554
 30
0.0
 11
-0.2499999999943157
 21
-2.86500000001115
 31
0.0
  0
LINE
  5
4255
330
4244
100
AcDbEntity
  8
KANAMONO_SCREW
100
AcDbLine
 10
2.890000000000213
 20
-2.864999999999326
 30
0.0
 11
-2.889999999999872
 21
-2.864999999999326
 31
0.0
  0
LINE
  5
4256
330
4244
100
AcDbEntity
  8
KANAMONO_SCREW
100
AcDbLine
 10
2.890000000000213
 20
-2.864999999999326
 30
0.0
 11
3.675000000000068
 21
-2.014999999999417
 31
0.0
  0
LINE
  5
4257
330
4244
100
AcDbEntity
  8
KANAMONO_SCREW
100
AcDbLine
 10
-2.889999999999872
 20
-2.864999999999326
 30
0.0
 11
-3.674999999999954
 21
-2.014999999999645
 31
0.0
  0
LINE
  5
4258
330
4244
100
AcDbEntity
  8
KANAMONO_SCREW
100
AcDbLine
 10
3.675000000000068
 20
-2.014999999999417
 30
0.0
 11
-3.674999999999954
 21
-2.014999999999645
 31
0.0
  0
LINE
  5
4259
330
4244
100
AcDbEntity
  8
KANAMONO_SCREW
100
AcDbLine
 10
3.675000000000068
 20
-2.014999999999417
 30
0.0
 11
3.675000000000068
 21
-1.564999999999372
 31
0.0
  0
LINE
  5
425A
330
4244
100
AcDbEntity
  8
KANAMONO_SCREW
100
AcDbLine
 10
3.675000000000068
 20
-1.564999999999372
 30
0.0
 11
-3.674999999999954
 21
-1.564999999999372
 31
0.0
  0
LINE
  5
425B
330
4244
100
AcDbEntity
  8
KANAMONO_SCREW
100
AcDbLine
 10
-3.674999999999954
 20
-2.014999999999645
 30
0.0
 11
-3.674999999999954
 21
-1.564999999999372
 31
0.0
  0
ARC
  5
425C
330
4244
100
AcDbEntity
  8
KANAMONO_SCREW
100
AcDbCircle
 10
1.249999999999772
 20
-30.86499999999956
 30
0.0
 40
0.5999999999999998
100
AcDbArc
 50
270.0
 51
0.0
  0
LINE
  5
425D
330
4244
100
AcDbEntity
  8
KANAMONO_SCREW
100
AcDbLine
 10
1.849999999999795
 20
-30.86499999999956
 30
0.0
 11
1.849999999999795
 21
-22.66499999999928
 31
0.0
  0
ARC
  5
425E
330
4244
100
AcDbEntity
  8
KANAMONO_SCREW
100
AcDbCircle
 10
-1.250000000000227
 20
-30.86499999999956
 30
0.0
 40
0.5999999999999998
100
AcDbArc
 50
180.0
 51
270.0
  0
LINE
  5
425F
330
4244
100
AcDbEntity
  8
KANAMONO_SCREW
100
AcDbLine
 10
-1.850000000000363
 20
-30.86499999999956
 30
0.0
 11
-1.850000000000363
 21
-22.66499999999928
 31
0.0
  0
LINE
  5
4260
330
4244
100
AcDbEntity
  8
KANAMONO_SCREW
100
AcDbLine
 10
-1.250000000000227
 20
-31.46499999999946
 30
0.0
 11
1.249999999999772
 21
-31.46499999999946
 31
0.0
  0
LINE
  5
4261
330
4244
100
AcDbEntity
  8
KANAMONO_SCREW
100
AcDbLine
 10
3.389999999999872
 20
-24.06499999999915
 30
0.0
 11
2.789999999999963
 21
-23.56499999999937
 31
0.0
  0
LINE
  5
4262
330
4244
100
AcDbEntity
  8
KANAMONO_SCREW
100
AcDbLine
 10
3.389999999999872
 20
-36.56499999999937
 30
0.0
 11
3.389999999999872
 21
-24.06499999999915
 31
0.0
  0
LINE
  5
4263
330
4244
100
AcDbEntity
  8
KANAMONO_SCREW
100
AcDbLine
 10
-2.789999999999963
 20
-23.56499999999937
 30
0.0
 11
-3.3900000000001
 21
-24.0649999999996
 31
0.0
  0
LINE
  5
4264
330
4244
100
AcDbEntity
  8
KANAMONO_SCREW
100
AcDbLine
 10
-3.3900000000001
 20
-36.5649999999996
 30
0.0
 11
-3.3900000000001
 21
-24.0649999999996
 31
0.0
  0
ARC
  5
4265
330
4244
100
AcDbEntity
  8
KANAMONO_SCREW
100
AcDbCircle
 10
1.249999999999772
 20
-22.66499999999928
 30
0.0
 40
0.5999999999999998
100
AcDbArc
 50
0.0
 51
90.0
  0
LINE
  5
4266
330
4244
100
AcDbEntity
  8
KANAMONO_SCREW
100
AcDbLine
 10
1.249999999999772
 20
-22.06499999999937
 30
0.0
 11
-1.250000000000227
 21
-22.06499999999937
 31
0.0
  0
ARC
  5
4267
330
4244
100
AcDbEntity
  8
KANAMONO_SCREW
100
AcDbCircle
 10
-1.250000000000227
 20
-22.66499999999928
 30
0.0
 40
0.5999999999999998
100
AcDbArc
 50
90.0
 51
180.0
  0
LINE
  5
4268
330
4244
100
AcDbEntity
  8
KANAMONO_SCREW
100
AcDbLine
 10
2.889999999999872
 20
-33.36499999999956
 30
0.0
 11
2.889999999999872
 21
-31.56499999999937
 31
0.0
  0
LINE
  5
4269
330
4244
100
AcDbEntity
  8
KANAMONO_SCREW
100
AcDbLine
 10
2.889999999999872
 20
-38.76499999999964
 30
0.0
 11
2.889999999999872
 21
-36.96499999999924
 31
0.0
  0
LINE
  5
426A
330
4244
100
AcDbEntity
  8
KANAMONO_SCREW
100
AcDbLine
 10
-2.8900000000001
 20
-33.36499999999956
 30
0.0
 11
-2.8900000000001
 21
-31.56499999999937
 31
0.0
  0
LINE
  5
426B
330
4244
100
AcDbEntity
  8
KANAMONO_SCREW
100
AcDbLine
 10
-2.8900000000001
 20
-38.76499999999964
 30
0.0
 11
-2.8900000000001
 21
-36.96499999999924
 31
0.0
  0
LINE
  5
426C
330
4244
100
AcDbEntity
  8
KANAMONO_SCREW
100
AcDbLine
 10
2.789999999999736
 20
-36.36499999999933
 30
0.0
 11
1.999999999999772
 21
-36.36499999999933
 31
0.0
  0
LINE
  5
426D
330
4244
100
AcDbEntity
  8
KANAMONO_SCREW
100
AcDbLine
 10
2.789999999999736
 20
-36.96499999999924
 30
0.0
 11
2.789999999999736
 21
-33.36499999999956
 31
0.0
  0
LINE
  5
426E
330
4244
100
AcDbEntity
  8
KANAMONO_SCREW
100
AcDbLine
 10
2.789999999999736
 20
-35.86499999999933
 30
0.0
 11
1.999999999999772
 21
-35.86499999999933
 31
0.0
  0
LINE
  5
426F
330
4244
100
AcDbEntity
  8
KANAMONO_SCREW
100
AcDbLine
 10
2.789999999999736
 20
-35.36499999999933
 30
0.0
 11
1.999999999999772
 21
-35.36499999999933
 31
0.0
  0
LINE
  5
4270
330
4244
100
AcDbEntity
  8
KANAMONO_SCREW
100
AcDbLine
 10
2.789999999999736
 20
-34.86499999999933
 30
0.0
 11
1.999999999999772
 21
-34.86499999999933
 31
0.0
  0
LINE
  5
4271
330
4244
100
AcDbEntity
  8
KANAMONO_SCREW
100
AcDbLine
 10
2.789999999999736
 20
-34.36499999999933
 30
0.0
 11
1.999999999999772
 21
-34.36499999999933
 31
0.0
  0
LINE
  5
4272
330
4244
100
AcDbEntity
  8
KANAMONO_SCREW
100
AcDbLine
 10
2.789999999999736
 20
-33.86499999999933
 30
0.0
 11
1.999999999999772
 21
-33.86499999999933
 31
0.0
  0
LINE
  5
4273
330
4244
100
AcDbEntity
  8
KANAMONO_SCREW
100
AcDbLine
 10
-2.000000000000227
 20
-36.36499999999933
 30
0.0
 11
-2.789999999999963
 21
-36.36499999999933
 31
0.0
  0
LINE
  5
4274
330
4244
100
AcDbEntity
  8
KANAMONO_SCREW
100
AcDbLine
 10
-2.000000000000227
 20
-35.86499999999933
 30
0.0
 11
-2.789999999999963
 21
-35.86499999999933
 31
0.0
  0
LINE
  5
4275
330
4244
100
AcDbEntity
  8
KANAMONO_SCREW
100
AcDbLine
 10
-2.789999999999963
 20
-36.96499999999924
 30
0.0
 11
-2.790000000000077
 21
-33.36499999999956
 31
0.0
  0
LINE
  5
4276
330
4244
100
AcDbEntity
  8
KANAMONO_SCREW
100
AcDbLine
 10
-2.000000000000227
 20
-35.36499999999933
 30
0.0
 11
-2.790000000000077
 21
-35.36499999999933
 31
0.0
  0
LINE
  5
4277
330
4244
100
AcDbEntity
  8
KANAMONO_SCREW
100
AcDbLine
 10
-2.000000000000227
 20
-34.86499999999933
 30
0.0
 11
-2.790000000000077
 21
-34.86499999999933
 31
0.0
  0
LINE
  5
4278
330
4244
100
AcDbEntity
  8
KANAMONO_SCREW
100
AcDbLine
 10
-2.000000000000227
 20
-34.36499999999933
 30
0.0
 11
-2.790000000000077
 21
-34.36499999999933
 31
0.0
  0
LINE
  5
4279
330
4244
100
AcDbEntity
  8
KANAMONO_SCREW
100
AcDbLine
 10
-2.000000000000227
 20
-33.86499999999933
 30
0.0
 11
-2.790000000000077
 21
-33.86499999999933
 31
0.0
  0
LINE
  5
427A
330
4244
100
AcDbEntity
  8
KANAMONO_SCREW
100
AcDbLine
 10
2.889999999999872
 20
-33.36499999999956
 30
0.0
 11
1.999999999999772
 21
-33.36499999999956
 31
0.0
  0
LINE
  5
427B
330
4244
100
AcDbEntity
  8
KANAMONO_SCREW
100
AcDbLine
 10
1.999999999999772
 20
-38.76499999999964
 30
0.0
 11
1.999999999999772
 21
-33.36499999999956
 31
0.0
  0
LINE
  5
427C
330
4244
100
AcDbEntity
  8
KANAMONO_SCREW
100
AcDbLine
 10
-2.000000000000227
 20
-38.76499999999806
 30
0.0
 11
-2.000000000000227
 21
-33.36499999999956
 31
0.0
  0
LINE
  5
427D
330
4244
100
AcDbEntity
  8
KANAMONO_SCREW
100
AcDbLine
 10
-2.000000000000227
 20
-33.36499999999956
 30
0.0
 11
-2.8900000000001
 21
-33.36499999999956
 31
0.0
  0
LINE
  5
427E
330
4244
100
AcDbEntity
  8
KANAMONO_SCREW
100
AcDbLine
 10
2.889999999999872
 20
-31.56499999999937
 30
0.0
 11
-2.8900000000001
 21
-31.56499999999937
 31
0.0
  0
LINE
  5
427F
330
4244
100
AcDbEntity
  8
KANAMONO_SCREW
100
AcDbLine
 10
1.350000306161518
 20
-32.56499999999937
 30
0.0
 11
-2.8900000000001
 21
-32.56499999999937
 31
0.0
  0
LINE
  5
4280
330
4244
100
AcDbEntity
  8
KANAMONO_SCREW
100
AcDbLine
 10
2.889999999999872
 20
-32.56499999999937
 30
0.0
 11
1.6500003061617
 21
-32.56499999999937
 31
0.0
  0
LINE
  5
4281
330
4244
100
AcDbEntity
  8
KANAMONO_SCREW
100
AcDbLine
 10
1.6500003061617
 20
-33.96991029241235
 30
0.0
 11
1.6500003061617
 21
-32.36499999999978
 31
0.0
  0
LINE
  5
4282
330
4244
100
AcDbEntity
  8
KANAMONO_SCREW
100
AcDbLine
 10
1.6500003061617
 20
-32.36499999999978
 30
0.0
 11
1.350000306161518
 21
-32.36499999999978
 31
0.0
  0
LINE
  5
4283
330
4244
100
AcDbEntity
  8
KANAMONO_SCREW
100
AcDbLine
 10
1.350000306161518
 20
-33.96991029241235
 30
0.0
 11
1.350000306161518
 21
-32.36499999999978
 31
0.0
  0
ARC
  5
4284
330
4244
100
AcDbEntity
  8
KANAMONO_SCREW
100
AcDbCircle
 10
-0.3500000000001364
 20
-37.16008960261365
 30
0.0
 40
1.3
100
AcDbArc
 50
122.858397292397
 51
180.0
  0
LINE
  5
4285
330
4244
100
AcDbEntity
  8
KANAMONO_SCREW
100
AcDbLine
 10
-1.650000000000204
 20
-37.56499999999937
 30
0.0
 11
-1.650000000000204
 21
-37.16008960261365
 31
0.0
  0
ARC
  5
4286
330
4244
100
AcDbEntity
  8
KANAMONO_SCREW
100
AcDbCircle
 10
-0.3500000000001364
 20
-37.16008960261365
 30
0.0
 40
1.0
100
AcDbArc
 50
122.8583972924123
 51
180.0
  0
LINE
  5
4287
330
4244
100
AcDbEntity
  8
KANAMONO_SCREW
100
AcDbLine
 10
-1.350000000000022
 20
-37.56499999999937
 30
0.0
 11
-1.350000000000022
 21
-37.16008960261365
 31
0.0
  0
ARC
  5
4288
330
4244
100
AcDbEntity
  8
KANAMONO_SCREW
100
AcDbCircle
 10
0.3500003061615189
 20
-33.96991029241235
 30
0.0
 40
1.0
100
AcDbArc
 50
302.8583972924124
 51
0.0
  0
LINE
  5
4289
330
4244
100
AcDbEntity
  8
KANAMONO_SCREW
100
AcDbLine
 10
-0.8925646552850139
 20
-36.32007555818586
 30
0.0
 11
1.055334358031473
 21
-35.06192855016843
 31
0.0
  0
ARC
  5
428A
330
4244
100
AcDbEntity
  8
KANAMONO_SCREW
100
AcDbCircle
 10
0.3500003061615189
 20
-33.96991029241235
 30
0.0
 40
1.3
100
AcDbArc
 50
302.858397292397
 51
0.0
  0
LINE
  5
428B
330
4244
100
AcDbEntity
  8
KANAMONO_SCREW
100
AcDbLine
 10
-1.055334051870204
 20
-36.06807134485757
 30
0.0
 11
0.8925649614463964
 21
-34.80992433684014
 31
0.0
  0
LINE
  5
428C
330
4244
100
AcDbEntity
  8
KANAMONO_SCREW
100
AcDbLine
 10
-1.350000000000022
 20
-37.56499999999937
 30
0.0
 11
-1.650000000000204
 21
-37.56499999999937
 31
0.0
  0
LINE
  5
428D
330
4244
100
AcDbEntity
  8
KANAMONO_SCREW
100
AcDbLine
 10
-1.650000000000204
 20
-38.66991039738514
 30
0.0
 11
-1.650000000000204
 21
-38.26499999999942
 31
0.0
  0
LINE
  5
428E
330
4244
100
AcDbEntity
  8
KANAMONO_SCREW
100
AcDbLine
 10
-1.350000000000022
 20
-38.26499999999942
 30
0.0
 11
-1.650000000000204
 21
-38.26499999999942
 31
0.0
  0
LINE
  5
428F
330
4244
100
AcDbEntity
  8
KANAMONO_SCREW
100
AcDbLine
 10
-1.350000000000022
 20
-38.66991039738514
 30
0.0
 11
-1.350000000000022
 21
-38.26499999999942
 31
0.0
  0
ARC
  5
4290
330
4244
100
AcDbEntity
  8
KANAMONO_SCREW
100
AcDbCircle
 10
0.1500003061614734
 20
-52.73090980663505
 30
0.0
 40
1.0
100
AcDbArc
 50
0.0
 51
57.141602707603
  0
LINE
  5
4291
330
4244
100
AcDbEntity
  8
KANAMONO_SCREW
100
AcDbLine
 10
1.150000306161473
 20
-55.2990901933631
 30
0.0
 11
1.150000306161473
 21
-52.73090980663505
 31
0.0
  0
LINE
  5
4292
330
4244
100
AcDbEntity
  8
KANAMONO_SCREW
100
AcDbLine
 10
-1.055334051870204
 20
-50.76192865514122
 30
0.0
 11
0.6925649614461236
 21
-51.89089576220749
 31
0.0
  0
ARC
  5
4293
330
4244
100
AcDbEntity
  8
KANAMONO_SCREW
100
AcDbCircle
 10
0.1500003061614734
 20
-55.2990901933631
 30
0.0
 40
1.0
100
AcDbArc
 50
302.858397292397
 51
0.0
  0
LINE
  5
4294
330
4244
100
AcDbEntity
  8
KANAMONO_SCREW
100
AcDbLine
 10
0.4446659481299094
 20
-56.29922208772177
 30
0.0
 11
0.6925649614461236
 21
-56.13910423779088
 31
0.0
  0
ARC
  5
4295
330
4244
100
AcDbEntity
  8
KANAMONO_SCREW
100
AcDbCircle
 10
0.1500003061614734
 20
-55.2990901933631
 30
0.0
 40
1.3
100
AcDbArc
 50
302.8583972924124
 51
0.0
  0
LINE
  5
4296
330
4244
100
AcDbEntity
  8
KANAMONO_SCREW
100
AcDbLine
 10
0.6074353447150998
 20
-56.55122630105006
 30
0.0
 11
0.8553343580317687
 21
-56.39110845111918
 31
0.0
  0
LINE
  5
4297
330
4244
100
AcDbEntity
  8
KANAMONO_SCREW
100
AcDbLine
 10
1.450000306161427
 20
-55.2990901933631
 30
0.0
 11
1.450000306161427
 21
-52.73090980663505
 31
0.0
  0
ARC
  5
4298
330
4244
100
AcDbEntity
  8
KANAMONO_SCREW
100
AcDbCircle
 10
0.1500003061614734
 20
-52.73090980663505
 30
0.0
 40
1.3
100
AcDbArc
 50
0.0
 51
57.141602707603
  0
LINE
  5
4299
330
4244
100
AcDbEntity
  8
KANAMONO_SCREW
100
AcDbLine
 10
-0.8925646552850139
 20
-50.50992444181315
 30
0.0
 11
0.8553343580315413
 21
-51.6388915488792
 31
0.0
  0
ARC
  5
429A
330
4244
100
AcDbEntity
  8
KANAMONO_SCREW
100
AcDbCircle
 10
-0.3500000000001364
 20
-38.66991039738514
 30
0.0
 40
1.3
100
AcDbArc
 50
180.0
 51
237.141602707603
  0
ARC
  5
429B
330
4244
100
AcDbEntity
  8
KANAMONO_SCREW
100
AcDbCircle
 10
-0.3500000000001364
 20
-38.66991039738514
 30
0.0
 40
1.0
100
AcDbArc
 50
180.0
 51
237.1416027075877
  0
ARC
  5
429C
330
4244
100
AcDbEntity
  8
KANAMONO_SCREW
100
AcDbCircle
 10
0.3500003061615189
 20
-44.16991029241194
 30
0.0
 40
1.0
100
AcDbArc
 50
302.858397292397
 51
0.0
  0
LINE
  5
429D
330
4244
100
AcDbEntity
  8
KANAMONO_SCREW
100
AcDbLine
 10
-1.055334051870204
 20
-39.76192865514122
 30
0.0
 11
0.892564961446169
 21
-41.02007566315887
 31
0.0
  0
LINE
  5
429E
330
4244
100
AcDbEntity
  8
KANAMONO_SCREW
100
AcDbLine
 10
1.350000306161518
 20
-44.16991029241194
 30
0.0
 11
1.350000306161518
 21
-41.86008970758644
 31
0.0
  0
ARC
  5
429F
330
4244
100
AcDbEntity
  8
KANAMONO_SCREW
100
AcDbCircle
 10
0.3500003061615189
 20
-41.86008970758644
 30
0.0
 40
1.0
100
AcDbArc
 50
0.0
 51
57.141602707603
  0
LINE
  5
42A0
330
4244
100
AcDbEntity
  8
KANAMONO_SCREW
100
AcDbLine
 10
-0.8925646552850139
 20
-39.50992444181293
 30
0.0
 11
1.055334358031473
 21
-40.76807144983058
 31
0.0
  0
ARC
  5
42A1
330
4244
100
AcDbEntity
  8
KANAMONO_SCREW
100
AcDbCircle
 10
0.3500003061615189
 20
-41.86008970758644
 30
0.0
 40
1.3
100
AcDbArc
 50
0.0
 51
57.141602707603
  0
LINE
  5
42A2
330
4244
100
AcDbEntity
  8
KANAMONO_SCREW
100
AcDbLine
 10
1.650000306161473
 20
-44.16991029241194
 30
0.0
 11
1.650000306161473
 21
-41.86008970758644
 31
0.0
  0
ARC
  5
42A3
330
4244
100
AcDbEntity
  8
KANAMONO_SCREW
100
AcDbCircle
 10
0.3500003061615189
 20
-44.16991029241194
 30
0.0
 40
1.3
100
AcDbArc
 50
302.858397292397
 51
0.0
  0
ARC
  5
42A4
330
4244
100
AcDbEntity
  8
KANAMONO_SCREW
100
AcDbCircle
 10
-0.3500000000001364
 20
-49.66991039738513
 30
0.0
 40
1.3
100
AcDbArc
 50
180.0
 51
237.141602707603
  0
ARC
  5
42A5
330
4244
100
AcDbEntity
  8
KANAMONO_SCREW
100
AcDbCircle
 10
-0.3500000000001364
 20
-49.66991039738513
 30
0.0
 40
1.0
100
AcDbArc
 50
180.0
 51
237.1416027075877
  0
LINE
  5
42A6
330
4244
100
AcDbEntity
  8
KANAMONO_SCREW
100
AcDbLine
 10
-1.650000000000204
 20
-49.66991039738513
 30
0.0
 11
-1.650000000000204
 21
-47.36008960261346
 31
0.0
  0
LINE
  5
42A7
330
4244
100
AcDbEntity
  8
KANAMONO_SCREW
100
AcDbLine
 10
-1.055334051870204
 20
-46.26807134485716
 30
0.0
 11
0.892564961446169
 21
-45.00992433683973
 31
0.0
  0
ARC
  5
42A8
330
4244
100
AcDbEntity
  8
KANAMONO_SCREW
100
AcDbCircle
 10
-0.3500000000001364
 20
-47.36008960261346
 30
0.0
 40
1.3
100
AcDbArc
 50
122.858397292397
 51
180.0
  0
LINE
  5
42A9
330
4244
100
AcDbEntity
  8
KANAMONO_SCREW
100
AcDbLine
 10
-1.350000000000022
 20
-49.66991039738513
 30
0.0
 11
-1.350000000000022
 21
-47.36008960261346
 31
0.0
  0
LINE
  5
42AA
330
4244
100
AcDbEntity
  8
KANAMONO_SCREW
100
AcDbLine
 10
-0.8925646552850139
 20
-46.52007555818545
 30
0.0
 11
1.055334358031473
 21
-45.26192855016802
 31
0.0
  0
ARC
  5
42AB
330
4244
100
AcDbEntity
  8
KANAMONO_SCREW
100
AcDbCircle
 10
-0.3500000000001364
 20
-47.36008960261346
 30
0.0
 40
1.0
100
AcDbArc
 50
122.8583972924123
 51
180.0
  0
ARC
  5
42AC
330
4244
100
AcDbEntity
  8
KANAMONO_SCREW
100
AcDbCircle
 10
1.149999999999863
 20
-57.39124034547785
 30
0.0
 40
1.0
100
AcDbArc
 50
122.8583972924123
 51
180.0
  0
ARC
  5
42AD
330
4244
100
AcDbEntity
  8
KANAMONO_SCREW
100
AcDbCircle
 10
1.149999999999863
 20
-57.39124034547785
 30
0.0
 40
1.3
100
AcDbArc
 50
122.858397292397
 51
180.0
  0
LINE
  5
42AE
330
4244
100
AcDbEntity
  8
KANAMONO_SCREW
100
AcDbLine
 10
-0.1500000000003183
 20
-57.56499999999937
 30
0.0
 11
-0.1500000000003183
 21
-57.39124034547785
 31
0.0
  0
LINE
  5
42AF
330
4244
100
AcDbEntity
  8
KANAMONO_SCREW
100
AcDbLine
 10
0.1499999999998636
 20
-57.56499999999937
 30
0.0
 11
0.1499999999998636
 21
-57.39124034547785
 31
0.0
  0
LINE
  5
42B0
330
4244
100
AcDbEntity
  8
KANAMONO_SCREW
100
AcDbLine
 10
0.1499999999998636
 20
-57.56499999999937
 30
0.0
 11
-0.1500000000003183
 21
-57.56499999999937
 31
0.0
  0
LINE
  5
42B1
330
4244
100
AcDbEntity
  8
KANAMONO_SCREW
100
AcDbLine
 10
3.224999999999795
 20
-42.56499999999937
 30
0.0
 11
2.140943284395007
 21
-42.56499999999937
 31
0.0
  0
LINE
  5
42B2
330
4244
100
AcDbEntity
  8
KANAMONO_SCREW
100
AcDbLine
 10
-2.1410526315791
 20
-42.56499999999937
 30
0.0
 11
-3.225000000000136
 21
-42.56499999999937
 31
0.0
  0
LINE
  5
42B3
330
4244
100
AcDbEntity
  8
KANAMONO_SCREW
100
AcDbLine
 10
3.163624561810024
 20
-41.96499999999923
 30
0.0
 11
2.118689081596016
 21
-41.96499999999923
 31
0.0
  0
LINE
  5
42B4
330
4244
100
AcDbEntity
  8
KANAMONO_SCREW
100
AcDbLine
 10
3.110729824967847
 20
-41.36499999999933
 30
0.0
 11
2.096434878796571
 21
-41.36499999999933
 31
0.0
  0
LINE
  5
42B5
330
4244
100
AcDbEntity
  8
KANAMONO_SCREW
100
AcDbLine
 10
3.057835088125898
 20
-40.76499999999964
 30
0.0
 11
2.07418067599724
 21
-40.76499999999964
 31
0.0
  0
LINE
  5
42B6
330
4244
100
AcDbEntity
  8
KANAMONO_SCREW
100
AcDbLine
 10
3.004940351283607
 20
-40.16499999999928
 30
0.0
 11
2.051926473198136
 21
-40.16499999999928
 31
0.0
  0
LINE
  5
42B7
330
4244
100
AcDbEntity
  8
KANAMONO_SCREW
100
AcDbLine
 10
2.952045614441317
 20
-39.56499999999937
 30
0.0
 11
2.029672270398805
 21
-39.56499999999937
 31
0.0
  0
LINE
  5
42B8
330
4244
100
AcDbEntity
  8
KANAMONO_SCREW
100
AcDbLine
 10
-2.007423822715054
 20
-38.96499999999924
 30
0.0
 11
-2.899150571437985
 21
-38.96499999999924
 31
0.0
  0
LINE
  5
42B9
330
4244
100
AcDbEntity
  8
KANAMONO_SCREW
100
AcDbLine
 10
-2.029695290859081
 20
-39.56499999999937
 30
0.0
 11
-2.952045308280048
 21
-39.56499999999937
 31
0.0
  0
LINE
  5
42BA
330
4244
100
AcDbEntity
  8
KANAMONO_SCREW
100
AcDbLine
 10
-2.051966759002993
 20
-40.16499999999928
 30
0.0
 11
-3.004940045122339
 21
-40.16499999999928
 31
0.0
  0
LINE
  5
42BB
330
4244
100
AcDbEntity
  8
KANAMONO_SCREW
100
AcDbLine
 10
-2.074238227147134
 20
-40.76499999999964
 30
0.0
 11
-3.057834781964288
 21
-40.76499999999964
 31
0.0
  0
LINE
  5
42BC
330
4244
100
AcDbEntity
  8
KANAMONO_SCREW
100
AcDbLine
 10
-2.09650969529116
 20
-41.36499999999933
 30
0.0
 11
-3.110729518806465
 21
-41.36499999999933
 31
0.0
  0
LINE
  5
42BD
330
4244
100
AcDbEntity
  8
KANAMONO_SCREW
100
AcDbLine
 10
-2.118781163435073
 20
-41.96499999999923
 30
0.0
 11
-3.163624255648528
 21
-41.96499999999923
 31
0.0
  0
LINE
  5
42BE
330
4244
100
AcDbEntity
  8
KANAMONO_SCREW
100
AcDbLine
 10
2.141070321496044
 20
-42.56842507261512
 30
0.0
 11
1.999999999999772
 21
-38.76499999999964
 31
0.0
  0
LINE
  5
42BF
330
4244
100
AcDbEntity
  8
KANAMONO_SCREW
100
AcDbLine
 10
-2.1410526315791
 20
-42.56499999999937
 30
0.0
 11
-2.000000000000227
 21
-38.76499999999964
 31
0.0
  0
LINE
  5
42C0
330
4244
100
AcDbEntity
  8
KANAMONO_SCREW
100
AcDbLine
 10
2.149999663219205
 20
-44.26499999999964
 30
0.0
 11
2.141070321496044
 21
-42.56842507261512
 31
0.0
  0
LINE
  5
42C1
330
4244
100
AcDbEntity
  8
KANAMONO_SCREW
100
AcDbLine
 10
-2.150000000000204
 20
-44.26499999999964
 30
0.0
 11
-2.141007727306259
 21
-42.55646818812965
 31
0.0
  0
LINE
  5
42C2
330
4244
100
AcDbEntity
  8
KANAMONO_SCREW
100
AcDbLine
 10
2.89915087759914
 20
-38.96499999999924
 30
0.0
 11
2.001052631578772
 21
-38.96499999999924
 31
0.0
  0
LINE
  5
42C3
330
4244
100
AcDbEntity
  8
KANAMONO_SCREW
100
AcDbLine
 10
-2.000000000000227
 20
-36.96499999999924
 30
0.0
 11
-2.8900000000001
 21
-36.96499999999924
 31
0.0
  0
LINE
  5
42C4
330
4244
100
AcDbEntity
  8
KANAMONO_SCREW
100
AcDbLine
 10
2.889999999999872
 20
-36.96499999999924
 30
0.0
 11
1.999999999999772
 21
-36.96499999999924
 31
0.0
  0
LINE
  5
42C5
330
4244
100
AcDbEntity
  8
KANAMONO_SCREW
100
AcDbLine
 10
-2.000000000000227
 20
-38.76499999999964
 30
0.0
 11
-2.8900000000001
 21
-38.76499999999964
 31
0.0
  0
LINE
  5
42C6
330
4244
100
AcDbEntity
  8
KANAMONO_SCREW
100
AcDbLine
 10
2.889999999999872
 20
-38.76499999999964
 30
0.0
 11
1.999999999999772
 21
-38.76499999999964
 31
0.0
  0
LINE
  5
42C7
330
4244
100
AcDbEntity
  8
KANAMONO_SCREW
100
AcDbLine
 10
3.063636669798029
 20
-42.56499999999914
 30
0.0
 11
2.728636669797992
 21
-38.76499999999919
 31
0.0
  0
LINE
  5
42C8
330
4244
100
AcDbEntity
  8
KANAMONO_SCREW
100
AcDbLine
 10
-3.063636363636533
 20
-42.56499999999914
 30
0.0
 11
-2.728636363636496
 21
-38.76499999999919
 31
0.0
  0
LINE
  5
42C9
330
4244
100
AcDbEntity
  8
KANAMONO_SCREW
100
AcDbLine
 10
-2.140000000000213
 20
-44.66499999999927
 30
0.0
 11
-3.206518992490828
 21
-44.66499999999951
 31
0.0
  0
LINE
  5
42CA
330
4244
100
AcDbEntity
  8
KANAMONO_SCREW
100
AcDbLine
 10
-2.125000000000227
 20
-45.26499999999964
 30
0.0
 11
-3.191518992490728
 21
-45.26499999999964
 31
0.0
  0
LINE
  5
42CB
330
4244
100
AcDbEntity
  8
KANAMONO_SCREW
100
AcDbLine
 10
-2.110000000000354
 20
-45.86499999999932
 30
0.0
 11
-3.176518992490628
 21
-45.86499999999932
 31
0.0
  0
LINE
  5
42CC
330
4244
100
AcDbEntity
  8
KANAMONO_SCREW
100
AcDbLine
 10
-2.095000000000254
 20
-46.46499999999924
 30
0.0
 11
-3.161518992490755
 21
-46.46499999999924
 31
0.0
  0
LINE
  5
42CD
330
4244
100
AcDbEntity
  8
KANAMONO_SCREW
100
AcDbLine
 10
-2.080000000000154
 20
-47.06499999999937
 30
0.0
 11
-3.146518992490655
 21
-47.06499999999937
 31
0.0
  0
LINE
  5
42CE
330
4244
100
AcDbEntity
  8
KANAMONO_SCREW
100
AcDbLine
 10
-2.065000000000281
 20
-47.6649999999995
 30
0.0
 11
-3.131518992490555
 21
-47.6649999999995
 31
0.0
  0
LINE
  5
42CF
330
4244
100
AcDbEntity
  8
KANAMONO_SCREW
100
AcDbLine
 10
3.206518961871324
 20
-44.66499999999927
 30
0.0
 11
2.139999663219327
 21
-44.66499999999927
 31
0.0
  0
LINE
  5
42D0
330
4244
100
AcDbEntity
  8
KANAMONO_SCREW
100
AcDbLine
 10
3.191518961871224
 20
-45.26499999999964
 30
0.0
 11
2.124999663219341
 21
-45.26499999999964
 31
0.0
  0
LINE
  5
42D1
330
4244
100
AcDbEntity
  8
KANAMONO_SCREW
100
AcDbLine
 10
3.176518961871352
 20
-45.86499999999932
 30
0.0
 11
2.109999663219241
 21
-45.86499999999932
 31
0.0
  0
LINE
  5
42D2
330
4244
100
AcDbEntity
  8
KANAMONO_SCREW
100
AcDbLine
 10
3.161518961871252
 20
-46.46499999999924
 30
0.0
 11
2.094999663219141
 21
-46.46499999999924
 31
0.0
  0
LINE
  5
42D3
330
4244
100
AcDbEntity
  8
KANAMONO_SCREW
100
AcDbLine
 10
3.146518961871379
 20
-47.06499999999937
 30
0.0
 11
2.096048853145816
 21
-47.06499999999937
 31
0.0
  0
LINE
  5
42D4
330
4244
100
AcDbEntity
  8
KANAMONO_SCREW
100
AcDbLine
 10
3.13151896187162
 20
-47.66499999999928
 30
0.0
 11
2.064999663219396
 21
-47.66499999999928
 31
0.0
  0
LINE
  5
42D5
330
4244
100
AcDbEntity
  8
KANAMONO_SCREW
100
AcDbLine
 10
2.963636363665273
 20
-48.26498652761916
 30
0.0
 11
3.063636363665295
 21
-44.26498652761916
 31
0.0
  0
LINE
  5
42D6
330
4244
100
AcDbEntity
  8
KANAMONO_SCREW
100
AcDbLine
 10
-2.96363636363651
 20
-48.26499999999964
 30
0.0
 11
-3.063636363636533
 21
-44.26499999999964
 31
0.0
  0
LINE
  5
42D7
330
4244
100
AcDbEntity
  8
KANAMONO_SCREW
100
AcDbLine
 10
2.749999999999772
 20
-53.76499999999964
 30
0.0
 11
2.83636363636333
 21
-49.96499999999946
 31
0.0
  0
LINE
  5
42D8
330
4244
100
AcDbEntity
  8
KANAMONO_SCREW
100
AcDbLine
 10
2.998636669797861
 20
-53.16499999999928
 30
0.0
 11
1.898026315789479
 21
-53.16499999999928
 31
0.0
  0
LINE
  5
42D9
330
4244
100
AcDbEntity
  8
KANAMONO_SCREW
100
AcDbLine
 10
3.012273033434325
 20
-52.56499999999937
 30
0.0
 11
1.921052631578731
 21
-52.56499999999937
 31
0.0
  0
LINE
  5
42DA
330
4244
100
AcDbEntity
  8
KANAMONO_SCREW
100
AcDbLine
 10
3.025909397070563
 20
-51.96499999999947
 30
0.0
 11
1.944078947368211
 21
-51.96499999999947
 31
0.0
  0
LINE
  5
42DB
330
4244
100
AcDbEntity
  8
KANAMONO_SCREW
100
AcDbLine
 10
3.039545760707028
 20
-51.36499999999955
 30
0.0
 11
1.967105263157691
 21
-51.36499999999955
 31
0.0
  0
LINE
  5
42DC
330
4244
100
AcDbEntity
  8
KANAMONO_SCREW
100
AcDbLine
 10
3.053182124343265
 20
-50.76499999999964
 30
0.0
 11
2.01315789473665
 21
-50.76499999999964
 31
0.0
  0
LINE
  5
42DD
330
4244
100
AcDbEntity
  8
KANAMONO_SCREW
100
AcDbLine
 10
-2.013157894736991
 20
-50.76499999999964
 30
0.0
 11
-3.055032972211165
 21
-50.76499999999964
 31
0.0
  0
LINE
  5
42DE
330
4244
100
AcDbEntity
  8
KANAMONO_SCREW
100
AcDbLine
 10
-1.967105263158146
 20
-51.36499999999955
 30
0.0
 11
-3.044192331607746
 21
-51.36499999999955
 31
0.0
  0
LINE
  5
42DF
330
4244
100
AcDbEntity
  8
KANAMONO_SCREW
100
AcDbLine
 10
-1.944078947368552
 20
-51.96499999999947
 30
0.0
 11
-3.033351691004213
 21
-51.96499999999947
 31
0.0
  0
LINE
  5
42E0
330
4244
100
AcDbEntity
  8
KANAMONO_SCREW
100
AcDbLine
 10
-1.921052631579073
 20
-52.56499999999937
 30
0.0
 11
-3.022511050401135
 21
-52.56499999999937
 31
0.0
  0
LINE
  5
42E1
330
4244
100
AcDbEntity
  8
KANAMONO_SCREW
100
AcDbLine
 10
-1.898026315789707
 20
-53.16499999999951
 30
0.0
 11
-3.011670409797716
 21
-53.16499999999951
 31
0.0
  0
LINE
  5
42E2
330
4244
100
AcDbEntity
  8
KANAMONO_SCREW
100
AcDbLine
 10
-2.150000000000204
 20
-44.26499999999964
 30
0.0
 11
-3.225000000000136
 21
-44.26499999999964
 31
0.0
  0
LINE
  5
42E3
330
4244
100
AcDbEntity
  8
KANAMONO_SCREW
100
AcDbLine
 10
3.224999999999795
 20
-44.26499999999964
 30
0.0
 11
2.149999663219205
 21
-44.26499999999964
 31
0.0
  0
LINE
  5
42E4
330
4244
100
AcDbEntity
  8
KANAMONO_SCREW
100
AcDbLine
 10
2.05000000002883
 20
-48.26498652761916
 30
0.0
 11
2.150000000028626
 21
-44.26498652761916
 31
0.0
  0
LINE
  5
42E5
330
4244
100
AcDbEntity
  8
KANAMONO_SCREW
100
AcDbLine
 10
-2.050000000000181
 20
-48.26499999999896
 30
0.0
 11
-2.150000000000204
 21
-44.26499999999896
 31
0.0
  0
LINE
  5
42E6
330
4244
100
AcDbEntity
  8
KANAMONO_SCREW
100
AcDbLine
 10
3.224999999999795
 20
-44.26499999999964
 30
0.0
 11
3.224999999999795
 21
-42.56499999999937
 31
0.0
  0
LINE
  5
42E7
330
4244
100
AcDbEntity
  8
KANAMONO_SCREW
100
AcDbLine
 10
-3.225000000000136
 20
-44.26499999999964
 30
0.0
 11
-3.225000000000136
 21
-42.56499999999937
 31
0.0
  0
LINE
  5
42E8
330
4244
100
AcDbEntity
  8
KANAMONO_SCREW
100
AcDbLine
 10
-2.750000000000227
 20
-53.76499999999964
 30
0.0
 11
-2.925000000000181
 21
-49.96499999999946
 31
0.0
  0
LINE
  5
42E9
330
4244
100
AcDbEntity
  8
KANAMONO_SCREW
100
AcDbLine
 10
2.749999999999772
 20
-58.16499999999928
 30
0.0
 11
2.749999999999772
 21
-55.56499999999937
 31
0.0
  0
LINE
  5
42EA
330
4244
100
AcDbEntity
  8
KANAMONO_SCREW
100
AcDbLine
 10
-2.750000000000227
 20
-58.16499999999951
 30
0.0
 11
-2.750000000000227
 21
-55.56499999999937
 31
0.0
  0
LINE
  5
42EB
330
4244
100
AcDbEntity
  8
KANAMONO_SCREW
100
AcDbLine
 10
3.064545760706891
 20
-50.26499999999964
 30
0.0
 11
2.027929979067039
 21
-50.26499999999964
 31
0.0
  0
LINE
  5
42EC
330
4244
100
AcDbEntity
  8
KANAMONO_SCREW
100
AcDbLine
 10
2.999999999999772
 20
-53.76499999999964
 30
0.0
 11
1.874999999999772
 21
-53.76499999999964
 31
0.0
  0
LINE
  5
42ED
330
4244
100
AcDbEntity
  8
KANAMONO_SCREW
100
AcDbLine
 10
-2.036184210526471
 20
-50.26499999999964
 30
0.0
 11
-3.064066839380529
 21
-50.26499999999964
 31
0.0
  0
LINE
  5
42EE
330
4244
100
AcDbEntity
  8
KANAMONO_SCREW
100
AcDbLine
 10
3.08636394252494
 20
-49.96499999999946
 30
0.0
 11
3.125000306161382
 21
-48.26499999999964
 31
0.0
  0
LINE
  5
42EF
330
4244
100
AcDbEntity
  8
KANAMONO_SCREW
100
AcDbLine
 10
-3.086363636363671
 20
-49.96499999999946
 30
0.0
 11
-3.125000000000227
 21
-48.26499999999964
 31
0.0
  0
LINE
  5
42F0
330
4244
100
AcDbEntity
  8
KANAMONO_SCREW
100
AcDbLine
 10
-2.050000000000181
 20
-49.96499999999946
 30
0.0
 11
-3.086363636363671
 21
-49.96499999999946
 31
0.0
  0
LINE
  5
42F1
330
4244
100
AcDbEntity
  8
KANAMONO_SCREW
100
AcDbLine
 10
3.08636394252494
 20
-49.96499999999946
 30
0.0
 11
2.049999999999954
 21
-49.96499999999946
 31
0.0
  0
LINE
  5
42F2
330
4244
100
AcDbEntity
  8
KANAMONO_SCREW
100
AcDbLine
 10
-2.050000000000181
 20
-48.26499999999964
 30
0.0
 11
-3.125000000000227
 21
-48.26499999999964
 31
0.0
  0
LINE
  5
42F3
330
4244
100
AcDbEntity
  8
KANAMONO_SCREW
100
AcDbLine
 10
3.124999999999772
 20
-48.26499999999964
 30
0.0
 11
2.049999999999727
 21
-48.26499999999964
 31
0.0
  0
LINE
  5
42F4
330
4244
100
AcDbEntity
  8
KANAMONO_SCREW
100
AcDbLine
 10
1.874999999999772
 20
-53.76499999999964
 30
0.0
 11
2.049999999999727
 21
-49.96499999999946
 31
0.0
  0
LINE
  5
42F5
330
4244
100
AcDbEntity
  8
KANAMONO_SCREW
100
AcDbLine
 10
-1.875000000000227
 20
-53.76499999999964
 30
0.0
 11
-2.050000000000181
 21
-49.96499999999946
 31
0.0
  0
LINE
  5
42F6
330
4244
100
AcDbEntity
  8
KANAMONO_SCREW
100
AcDbLine
 10
0.0000003061617235
 20
-61.06499999999937
 30
0.0
 11
-1.396311994552661
 21
-59.24979400907137
 31
0.0
  0
ARC
  5
42F7
330
4244
100
AcDbEntity
  8
KANAMONO_SCREW
100
AcDbCircle
 10
-1.000000000000227
 20
-58.94493862864647
 30
0.0
 40
0.5
100
AcDbArc
 50
180.0
 51
217.5685920288021
  0
LINE
  5
42F8
330
4244
100
AcDbEntity
  8
KANAMONO_SCREW
100
AcDbLine
 10
-1.500000000000113
 20
-58.76200569932348
 30
0.0
 11
-1.500000000000113
 21
-58.9449386286467
 31
0.0
  0
LINE
  5
42F9
330
4244
100
AcDbEntity
  8
KANAMONO_SCREW
100
AcDbLine
 10
0.0000003061617235
 20
-60.5649999999996
 30
0.0
 11
-1.410368800544915
 21
-58.7315201612812
 31
0.0
  0
ARC
  5
42FA
330
4244
100
AcDbEntity
  8
KANAMONO_SCREW
100
AcDbCircle
 10
-1.450000000000272
 20
-58.76200569932348
 30
0.0
 40
0.05
100
AcDbArc
 50
37.56859202884636
 51
180.0
  0
LINE
  5
42FB
330
4244
100
AcDbEntity
  8
KANAMONO_SCREW
100
AcDbLine
 10
1.500000306161723
 20
-58.76200569932348
 30
0.0
 11
1.500000306161723
 21
-58.94493862864647
 31
0.0
  0
LINE
  5
42FC
330
4244
100
AcDbEntity
  8
KANAMONO_SCREW
100
AcDbLine
 10
-0.0000000000004547
 20
-60.5649999999996
 30
0.0
 11
1.410369106706525
 21
-58.73152016128097
 31
0.0
  0
ARC
  5
42FD
330
4244
100
AcDbEntity
  8
KANAMONO_SCREW
100
AcDbCircle
 10
1.450000306161427
 20
-58.76200569932348
 30
0.0
 40
0.05
100
AcDbArc
 50
0.0
 51
142.4314079710051
  0
LINE
  5
42FE
330
4244
100
AcDbEntity
  8
KANAMONO_SCREW
100
AcDbLine
 10
-0.0000000000002274
 20
-61.06499999999937
 30
0.0
 11
1.396312300713816
 21
-59.24979400907137
 31
0.0
  0
ARC
  5
42FF
330
4244
100
AcDbEntity
  8
KANAMONO_SCREW
100
AcDbCircle
 10
1.000000306161723
 20
-58.94493862864647
 30
0.0
 40
0.5
100
AcDbArc
 50
322.4314079711771
 51
0.0
  0
LINE
  5
4300
330
4244
100
AcDbEntity
  8
KANAMONO_SCREW
100
AcDbLine
 10
-1.500000000000113
 20
-56.46200569932353
 30
0.0
 11
-1.500000000000113
 21
-56.64493862864606
 31
0.0
  0
LINE
  5
4301
330
4244
100
AcDbEntity
  8
KANAMONO_SCREW
100
AcDbLine
 10
1.500000306161723
 20
-56.46200569932353
 30
0.0
 11
1.500000306161723
 21
-56.64493862864606
 31
0.0
  0
LINE
  5
4302
330
4244
100
AcDbEntity
  8
KANAMONO_SCREW
100
AcDbLine
 10
0.0000003061617235
 20
-58.26499999999964
 30
0.0
 11
-1.410368800544915
 21
-56.43152016128079
 31
0.0
  0
ARC
  5
4303
330
4244
100
AcDbEntity
  8
KANAMONO_SCREW
100
AcDbCircle
 10
-1.450000000000272
 20
-56.46200569932353
 30
0.0
 40
0.05
100
AcDbArc
 50
37.56859202884636
 51
180.0
  0
LINE
  5
4304
330
4244
100
AcDbEntity
  8
KANAMONO_SCREW
100
AcDbLine
 10
0.0000003061617235
 20
-58.76499999999964
 30
0.0
 11
-1.396311994552661
 21
-56.94979400907095
 31
0.0
  0
ARC
  5
4305
330
4244
100
AcDbEntity
  8
KANAMONO_SCREW
100
AcDbCircle
 10
-1.000000000000227
 20
-56.64493862864606
 30
0.0
 40
0.5
100
AcDbArc
 50
180.0
 51
217.5685920288229
  0
LINE
  5
4306
330
4244
100
AcDbEntity
  8
KANAMONO_SCREW
100
AcDbLine
 10
-0.0000000000002274
 20
-58.26499999999964
 30
0.0
 11
1.410369106706525
 21
-56.43152016128079
 31
0.0
  0
ARC
  5
4307
330
4244
100
AcDbEntity
  8
KANAMONO_SCREW
100
AcDbCircle
 10
1.450000306161427
 20
-56.46200569932353
 30
0.0
 40
0.05
100
AcDbArc
 50
0.0
 51
142.4314079710051
  0
LINE
  5
4308
330
4244
100
AcDbEntity
  8
KANAMONO_SCREW
100
AcDbLine
 10
-0.0000000000002274
 20
-58.76499999999964
 30
0.0
 11
1.396312300714043
 21
-56.94979400907119
 31
0.0
  0
ARC
  5
4309
330
4244
100
AcDbEntity
  8
KANAMONO_SCREW
100
AcDbCircle
 10
1.000000306161723
 20
-56.64493862864606
 30
0.0
 40
0.5
100
AcDbArc
 50
322.4314079711562
 51
0.0
  0
LINE
  5
430A
330
4244
100
AcDbEntity
  8
KANAMONO_SCREW
100
AcDbLine
 10
-1.875000000000227
 20
-53.76499999999964
 30
0.0
 11
-3.000000000000227
 21
-53.76499999999964
 31
0.0
  0
LINE
  5
430B
330
4244
100
AcDbEntity
  8
KANAMONO_SCREW
100
AcDbLine
 10
-1.875000000000227
 20
-55.56499999999937
 30
0.0
 11
-3.000000000000227
 21
-55.56499999999937
 31
0.0
  0
LINE
  5
430C
330
4244
100
AcDbEntity
  8
KANAMONO_SCREW
100
AcDbLine
 10
2.999999999999772
 20
-55.56499999999937
 30
0.0
 11
1.874999999999772
 21
-55.56499999999937
 31
0.0
  0
LINE
  5
430D
330
4244
100
AcDbEntity
  8
KANAMONO_SCREW
100
AcDbLine
 10
-1.875000000000227
 20
-58.16499999999951
 30
0.0
 11
-3.000000000000227
 21
-58.16499999999951
 31
0.0
  0
LINE
  5
430E
330
4244
100
AcDbEntity
  8
KANAMONO_SCREW
100
AcDbLine
 10
2.999158339380528
 20
-58.16499999999928
 30
0.0
 11
1.874999999999772
 21
-58.16499999999928
 31
0.0
  0
LINE
  5
430F
330
4244
100
AcDbEntity
  8
KANAMONO_SCREW
100
AcDbLine
 10
-1.875000000000227
 20
-56.61499999999955
 30
0.0
 11
-2.925000000000181
 21
-56.61499999999955
 31
0.0
  0
LINE
  5
4310
330
4244
100
AcDbEntity
  8
KANAMONO_SCREW
100
AcDbLine
 10
1.874999999999772
 20
-58.16499999999928
 30
0.0
 11
1.874999999999772
 21
-55.56499999999937
 31
0.0
  0
LINE
  5
4311
330
4244
100
AcDbEntity
  8
KANAMONO_SCREW
100
AcDbLine
 10
-1.875000000000227
 20
-58.16499999999951
 30
0.0
 11
-1.875000000000227
 21
-55.56499999999937
 31
0.0
  0
LINE
  5
4312
330
4244
100
AcDbEntity
  8
KANAMONO_SCREW
100
AcDbLine
 10
-1.875000000000227
 20
-57.61499999999955
 30
0.0
 11
-2.925000000000181
 21
-57.61499999999955
 31
0.0
  0
LINE
  5
4313
330
4244
100
AcDbEntity
  8
KANAMONO_SCREW
100
AcDbLine
 10
2.924999999999727
 20
-57.61499999999955
 30
0.0
 11
1.874999999999772
 21
-57.61499999999955
 31
0.0
  0
LINE
  5
4314
330
4244
100
AcDbEntity
  8
KANAMONO_SCREW
100
AcDbLine
 10
-1.875000000000227
 20
-57.11499999999955
 30
0.0
 11
-2.925000000000181
 21
-57.11499999999955
 31
0.0
  0
LINE
  5
4315
330
4244
100
AcDbEntity
  8
KANAMONO_SCREW
100
AcDbLine
 10
2.924999999999727
 20
-57.11499999999955
 30
0.0
 11
1.874999999999772
 21
-57.11499999999955
 31
0.0
  0
LINE
  5
4316
330
4244
100
AcDbEntity
  8
KANAMONO_SCREW
100
AcDbLine
 10
2.924999999999727
 20
-56.61499999999955
 30
0.0
 11
1.874999999999772
 21
-56.61499999999955
 31
0.0
  0
LINE
  5
4317
330
4244
100
AcDbEntity
  8
KANAMONO_SCREW
100
AcDbLine
 10
-1.875000000000227
 20
-56.11499999999955
 30
0.0
 11
-2.925000000000181
 21
-56.11499999999955
 31
0.0
  0
LINE
  5
4318
330
4244
100
AcDbEntity
  8
KANAMONO_SCREW
100
AcDbLine
 10
2.924999999999727
 20
-56.11499999999955
 30
0.0
 11
1.874999999999772
 21
-56.11499999999955
 31
0.0
  0
LINE
  5
4319
330
4244
100
AcDbEntity
  8
KANAMONO_SCREW
100
AcDbLine
 10
-3.000000000000227
 20
-55.56499999999937
 30
0.0
 11
-3.000000000000227
 21
-53.76499999999964
 31
0.0
  0
LINE
  5
431A
330
4244
100
AcDbEntity
  8
KANAMONO_SCREW
100
AcDbLine
 10
2.999999999999772
 20
-55.56499999999937
 30
0.0
 11
2.999999999999772
 21
-53.76499999999964
 31
0.0
  0
LINE
  5
431B
330
4244
100
AcDbEntity
  8
KANAMONO_SCREW
100
AcDbLine
 10
2.099999999999681
 20
-61.56499999999937
 30
0.0
 11
2.999999999999772
 21
-58.16499999999928
 31
0.0
  0
LINE
  5
431C
330
4244
100
AcDbEntity
  8
KANAMONO_SCREW
100
AcDbLine
 10
2.099999999999681
 20
-61.56499999999937
 30
0.0
 11
-2.100000000000136
 21
-61.56499999999937
 31
0.0
  0
LINE
  5
431D
330
4244
100
AcDbEntity
  8
KANAMONO_SCREW
100
AcDbLine
 10
-2.100000000000136
 20
-61.56499999999937
 30
0.0
 11
-3.000000000000227
 21
-58.16499999999951
 31
0.0
  0
LINE
  5
431E
330
4244
100
AcDbEntity
  8
KANAMONO_SCREW
100
AcDbLine
 10
3.389999999999872
 20
-36.56499999999937
 30
0.0
 11
2.889999999999872
 21
-38.46499999999924
 31
0.0
  0
LINE
  5
431F
330
4244
100
AcDbEntity
  8
KANAMONO_SCREW
100
AcDbLine
 10
-2.8900000000001
 20
-38.46499999999924
 30
0.0
 11
-3.3900000000001
 21
-36.5649999999996
 31
0.0
  0
ARC
  5
4320
330
4244
100
AcDbEntity
  8
KANAMONO_SCREW
100
AcDbCircle
 10
7.78312947083998
 20
-59.75998416990387
 30
0.0
 40
9.382689926641683
100
AcDbArc
 50
191.0915488138293
 51
213.9505323537957
  0
ARC
  5
4321
330
4244
100
AcDbEntity
  8
KANAMONO_SCREW
100
AcDbCircle
 10
-7.783129470840208
 20
-59.75998416990387
 30
0.0
 40
9.382689926641683
100
AcDbArc
 50
326.0494676462043
 51
348.9084511861707
  0
LINE
  5
4322
330
4244
100
AcDbEntity
  8
KANAMONO_SCREW
100
AcDbLine
 10
4.500000000000113
 20
0.0
 30
0.0
 11
-4.5
 21
0.0
 31
0.0
  0
LINE
  5
4323
330
4244
100
AcDbEntity
  8
KANAMONO_SCREW
100
AcDbLine
 10
4.500000000000113
 20
-0.7399999999997818
 30
0.0
 11
-4.5
 21
-0.7399999999997818
 31
0.0
  0
LINE
  5
4324
330
4244
100
AcDbEntity
  8
KANAMONO_SCREW
100
AcDbLine
 10
4.500000000000113
 20
0.0
 30
0.0
 11
4.500000000000113
 21
-0.7399999999997818
 31
0.0
  0
LINE
  5
4325
330
4244
100
AcDbEntity
  8
KANAMONO_SCREW
100
AcDbLine
 10
-4.5
 20
0.0
 30
0.0
 11
-4.5
 21
-0.7399999999997818
 31
0.0
  0
LINE
  5
4326
330
4244
100
AcDbEntity
  8
KANAMONO_SCREW
100
AcDbLine
 10
3.675000000000068
 20
-1.564999999999827
 30
0.0
 11
4.500000000000113
 21
-0.7399999999997818
 31
0.0
  0
LINE
  5
4327
330
4244
100
AcDbEntity
  8
KANAMONO_SCREW
100
AcDbLine
 10
-3.675000000000295
 20
-1.564999999999372
 30
0.0
 11
-4.5
 21
-0.7399999999997818
 31
0.0
  0
ENDBLK
  5
4328
330
4244
100
AcDbEntity
  8
0
100
AcDbBlockEnd
  0
ENDSEC
  0
SECTION
  2
ENTITIES
  0
LINE
  5
3660
330
1F
100
AcDbEntity
  8
moji
100
AcDbLine
 10
154.7503306999999
 20
222.1899750566628
 30
0.0
 11
329.7503306999999
 21
222.1899750566627
 31
0.0
  0
LINE
  5
3661
330
1F
100
AcDbEntity
  8
moji
100
AcDbLine
 10
154.7503307
 20
222.1899750566628
 30
0.0
 11
154.7503306999999
 21
285.1899750566628
 31
0.0
  0
LINE
  5
3662
330
1F
100
AcDbEntity
  8
moji
100
AcDbLine
 10
194.7503307
 20
222.1899750566628
 30
0.0
 11
194.7503306999999
 21
285.1899750566628
 31
0.0
  0
TEXT
  5
3663
330
1F
100
AcDbEntity
  8
moji
100
AcDbText
 10
157.2503306999999
 20
230.6899750566628
 30
0.0
 40
4.0
  1
　　　　　特注
100
AcDbText
  0
LINE
  5
3665
330
1F
100
AcDbEntity
  8
moji
100
AcDbLine
 10
154.7503306999999
 20
236.1899750566628
 30
0.0
 11
329.7503306999999
 21
236.1899750566628
 31
0.0
  0
TEXT
  5
3667
330
1F
100
AcDbEntity
  8
moji
100
AcDbText
 10
157.2503306999999
 20
244.6899750566627
 30
0.0
 40
4.0
  1
表面処理　標準
100
AcDbText
  0
TEXT
  5
3668
330
1F
100
AcDbEntity
  8
moji
100
AcDbText
 10
197.2503306999999
 20
272.6899750566627
 30
0.0
 40
4.0
  1
A6063S-T5
100
AcDbText
  0
TEXT
  5
3669
330
1F
100
AcDbEntity
  8
moji
100
AcDbText
 10
157.2503306999999
 20
272.6899750566627
 30
0.0
 40
4.0
  1
材質
100
AcDbText
  0
LINE
  5
366A
330
1F
100
AcDbEntity
  8
moji
100
AcDbLine
 10
154.7503306999999
 20
271.1899750566626
 30
0.0
 11
329.7503306999999
 21
271.1899750566626
 31
0.0
  0
LINE
  5
366B
330
1F
100
AcDbEntity
  8
moji
100
AcDbLine
 10
154.7503306999999
 20
278.1899750566627
 30
0.0
 11
329.7503306999999
 21
278.1899750566627
 31
0.0
  0
LINE
  5
366D
330
1F
100
AcDbEntity
  8
moji
100
AcDbLine
 10
262.2503306999999
 20
250.1899750566628
 30
0.0
 11
262.2503307
 21
285.1899750566627
 31
0.0
  0
LINE
  5
366E
330
1F
100
AcDbEntity
  8
moji
100
AcDbLine
 10
329.7503307000001
 20
222.1899750566628
 30
0.0
 11
329.7503306999999
 21
285.1899750566627
 31
0.0
  0
TEXT
  5
366F
330
1F
100
AcDbEntity
  8
moji
100
AcDbText
 10
157.2503306999999
 20
286.6899750566627
 30
0.0
 40
4.0
  1
シングルエッジＴ３０
100
AcDbText
  0
LINE
  5
3670
330
1F
100
AcDbEntity
  8
moji
100
AcDbLine
 10
154.7503306999999
 20
285.1899750566627
 30
0.0
 11
329.7503306999999
 21
285.1899750566627
 31
0.0
  0
TEXT
  5
3671
330
1F
100
AcDbEntity
  8
moji
100
AcDbText
 10
197.2503306999999
 20
279.6899750566627
 30
0.0
 40
4.0
  1
本体
100
AcDbText
  0
TEXT
  5
3672
330
1F
100
AcDbEntity
  8
moji
100
AcDbText
 10
264.7503307
 20
279.6899750566627
 30
0.0
 40
4.0
  1
ジョイント板
100
AcDbText
  0
TEXT
  5
3673
330
1F
100
AcDbEntity
  8
moji
100
AcDbText
 10
264.7503307
 20
272.6899750566626
 30
0.0
 40
4.0
  1
A1050B-H24
100
AcDbText
  0
LINE
  5
3674
330
1F
100
AcDbEntity
  8
moji
100
AcDbLine
 10
154.7503307
 20
257.1899750566628
 30
0.0
 11
329.7503307000001
 21
257.1899750566628
 31
0.0
  0
LINE
  5
3675
330
1F
100
AcDbEntity
  8
moji
100
AcDbLine
 10
194.7503306999999
 20
264.1899750566627
 30
0.0
 11
329.7503307000001
 21
264.1899750566627
 31
0.0
  0
LINE
  5
3676
330
1F
100
AcDbEntity
  8
moji
100
AcDbLine
 10
228.5003307
 20
271.1899750566626
 30
0.0
 11
228.5003307
 21
257.1899750566628
 31
0.0
  0
LINE
  5
3677
330
1F
100
AcDbEntity
  8
moji
100
AcDbLine
 10
296.0003307
 20
271.1899750566626
 30
0.0
 11
296.0003307
 21
257.1899750566628
 31
0.0
  0
LINE
  5
3678
330
1F
100
AcDbEntity
  8
moji
100
AcDbLine
 10
154.7503307
 20
250.1899750566628
 30
0.0
 11
329.7503307000001
 21
250.1899750566628
 31
0.0
  0
TEXT
  5
3679
330
1F
100
AcDbEntity
  8
moji
100
AcDbText
 10
157.2503306999999
 20
265.6899750566627
 30
0.0
 40
4.0
  1
規格(mm)
100
AcDbText
  0
TEXT
  5
367A
330
1F
100
AcDbEntity
  8
moji
100
AcDbText
 10
197.2503307
 20
265.6899750566627
 30
0.0
 40
4.0
  1
長さ
100
AcDbText
  0
TEXT
  5
367B
330
1F
100
AcDbEntity
  8
moji
100
AcDbText
 10
231.0003307
 20
265.6899750566627
 30
0.0
 40
4.0
  1
厚さ
100
AcDbText
  0
TEXT
  5
367C
330
1F
100
AcDbEntity
  8
moji
100
AcDbText
 10
197.2503306999999
 20
258.6899750566626
 30
0.0
 40
4.0
  1
2000
100
AcDbText
  0
TEXT
  5
367D
330
1F
100
AcDbEntity
  8
moji
100
AcDbText
 10
231.0003307
 20
258.6899750566626
 30
0.0
 40
4.0
  1
1.5～2.0
100
AcDbText
  0
TEXT
  5
367E
330
1F
100
AcDbEntity
  8
moji
100
AcDbText
 10
264.7503307
 20
265.6899750566625
 30
0.0
 40
4.0
  1
長さ
100
AcDbText
  0
TEXT
  5
367F
330
1F
100
AcDbEntity
  8
moji
100
AcDbText
 10
264.7503307
 20
258.6899750566626
 30
0.0
 40
4.0
  1
80
100
AcDbText
  0
TEXT
  5
3680
330
1F
100
AcDbEntity
  8
moji
100
AcDbText
 10
298.5003306999999
 20
265.6899750566625
 30
0.0
 40
4.0
  1
厚さ
100
AcDbText
  0
TEXT
  5
3681
330
1F
100
AcDbEntity
  8
moji
100
AcDbText
 10
298.5003306999999
 20
258.6899750566626
 30
0.0
 40
4.0
  1
0.6
100
AcDbText
  0
TEXT
  5
3682
330
1F
100
AcDbEntity
  8
moji
100
AcDbText
 10
157.2503307
 20
251.6899750566627
 30
0.0
 40
4.0
  1
ビス穴
100
AcDbText
  0
TEXT
  5
3683
330
1F
100
AcDbEntity
  8
moji
100
AcDbText
 10
197.2503307
 20
251.6899750566627
 30
0.0
 40
4.0
  1
7穴　300mm間隔
100
AcDbText
  0
TEXT
  5
3E6D
330
1F
100
AcDbEntity
  8
moji
100
AcDbText
 10
197.2503306999998
 20
223.6899750566628
 30
0.0
 40
4.0
  1
アクリル樹脂系塗装（デュラクロン他）
100
AcDbText
  0
TEXT
  5
3E6E
330
1F
100
AcDbEntity
  8
moji
100
AcDbText
 10
197.2503306999998
 20
230.6899750566628
 30
0.0
 40
4.0
  1
2次電解着色（ブロンズ）
100
AcDbText
  0
TEXT
  5
3E6F
330
1F
100
AcDbEntity
  8
moji
100
AcDbText
 10
197.2503306999998
 20
244.6899750566627
 30
0.0
 40
4.0
  1
JIS H 8602-2010 A1種
100
AcDbText
  0
LINE
  5
3F84
330
1F
100
AcDbEntity
  8
0
100
AcDbLine
 10
0.0
 20
369.9999999999997
 30
0.0
 11
552.0000000000001
 21
369.999999999999
 31
0.0
  0
TEXT
  5
3F85
330
1F
100
AcDbEntity
  8
WAKU
100
AcDbText
 10
529.507614213198
 20
372.0000000000001
 30
0.0
 40
6.0
  1
set30
  7
MSゴシック
 72
     2
 11
549.0000000000001
 21
372.0000000000001
 31
0.0
100
AcDbText
  0
TEXT
  5
3F87
330
1F
100
AcDbEntity
  8
WAKU
100
AcDbText
 10
3.0
 20
372.0000000000001
 30
0.0
 40
8.0
  1
アルミ雨仕舞材／勾配屋根用
  7
MSゴシック
100
AcDbText
  0
TEXT
  5
3F88
330
1F
100
AcDbEntity
  8
WAKU
100
AcDbText
 10
3.0
 20
360.0000000000008
 30
0.0
 40
6.0
  1
シングルエッジＴ３０／ケラバアルミ金物 断熱３０ｍｍ用
  7
MSゴシック
100
AcDbText
  0
TEXT
  5
3F89
330
1F
100
AcDbEntity
  8
WAKU
100
AcDbText
 10
521.7106598984773
 20
360.000000000001
 30
0.0
 40
6.0
  1
1/2(A4)
  7
MSゴシック
 72
     2
 11
549.0000000000001
 21
360.000000000001
 31
0.0
100
AcDbText
  0
LINE
  5
43D3
330
1F
100
AcDbEntity
  8
0
100
AcDbLine
 10
96.00000000000001
 20
59.00000000000003
 30
0.0
 11
456.0
 21
59.00000000000003
 31
0.0
  0
LINE
  5
43D4
330
1F
100
AcDbEntity
  8
0
100
AcDbLine
 10
456.0
 20
59.00000000000003
 30
0.0
 11
456.0
 21
299.0
 31
0.0
  0
LINE
  5
43D5
330
1F
100
AcDbEntity
  8
0
100
AcDbLine
 10
456.0
 20
299.0
 30
0.0
 11
96.00000000000001
 21
299.0
 31
0.0
  0
LINE
  5
43D6
330
1F
100
AcDbEntity
  8
0
100
AcDbLine
 10
96.00000000000001
 20
299.0
 30
0.0
 11
96.00000000000001
 21
59.00000000000003
 31
0.0
  0
LINE
  5
43D7
330
1F
100
AcDbEntity
  8
SUNPO
  6
Continuous
100
AcDbLine
 10
346.4114068282685
 20
144.6198042869969
 30
0.0
 11
346.4114068282685
 21
123.5752843325264
 31
0.0
  0
LINE
  5
43D8
330
1F
100
AcDbEntity
  8
SUNPO
  6
Continuous
100
AcDbLine
 10
258.4114068282685
 20
144.1198042869969
 30
0.0
 11
258.4114068282685
 21
123.5752843325264
 31
0.0
  0
LINE
  5
43D9
330
1F
100
AcDbEntity
  8
SUNPO
  6
Continuous
100
AcDbLine
 10
344.8114068282685
 20
123.5752843325264
 30
0.0
 11
260.0114068282685
 21
123.5752843325264
 31
0.0
  0
INSERT
  5
43DA
330
1F
100
AcDbEntity
  8
SUNPO
  6
Continuous
100
AcDbBlockReference
  2
_DOT
 10
346.4114068282685
 20
123.5752843325264
 30
0.0
 41
1.6
 42
1.6
 43
1.6
  0
INSERT
  5
43DB
330
1F
100
AcDbEntity
  8
SUNPO
  6
Continuous
100
AcDbBlockReference
  2
_DOT
 10
258.4114068282685
 20
123.5752843325264
 30
0.0
 41
1.6
 42
1.6
 43
1.6
 50
180.0
  0
MTEXT
  5
43DC
330
1F
100
AcDbEntity
  8
SUNPO
  6
Continuous
100
AcDbMText
 10
302.4114068282685
 20
121.3752843325264
 30
0.0
 40
4.0
 41
0.0
 71
     5
 72
     1
  1
\A1;88
 73
     1
 44
1.0
1001
ACAD
1000
MTEXTBEGIN
1070
    73
1070
     1
1070
    44
1040
1.0
1070
    74
1070
     0
1000
MTEXTEND
  0
LINE
  5
43DD
330
1F
100
AcDbEntity
  8
SUNPO
  6
Continuous
100
AcDbLine
 10
236.4128698583925
 20
93.05802587339476
 30
0.0
 11
236.4128698583925
 21
71.08795213356987
 31
0.0
  0
LINE
  5
43DE
330
1F
100
AcDbEntity
  8
SUNPO
  6
Continuous
100
AcDbLine
 10
346.4128698583925
 20
144.6580258733949
 30
0.0
 11
346.4128698583925
 21
71.08795213356987
 31
0.0
  0
LINE
  5
43DF
330
1F
100
AcDbEntity
  8
SUNPO
  6
Continuous
100
AcDbLine
 10
238.0128698583924
 20
71.08795213356987
 30
0.0
 11
344.8128698583925
 21
71.08795213356987
 31
0.0
  0
INSERT
  5
43E0
330
1F
100
AcDbEntity
  8
SUNPO
  6
Continuous
100
AcDbBlockReference
  2
_DOT
 10
236.4128698583925
 20
71.08795213356987
 30
0.0
 41
1.6
 42
1.6
 43
1.6
 50
180.0
  0
INSERT
  5
43E1
330
1F
100
AcDbEntity
  8
SUNPO
  6
Continuous
100
AcDbBlockReference
  2
_DOT
 10
346.4128698583925
 20
71.08795213356987
 30
0.0
 41
1.6
 42
1.6
 43
1.6
  0
MTEXT
  5
43E2
330
1F
100
AcDbEntity
  8
SUNPO
  6
Continuous
100
AcDbMText
 10
291.4128698583925
 20
68.88795213356987
 30
0.0
 40
4.0
 41
0.0
 71
     5
 72
     1
  1
\A1;110
 73
     1
 44
1.0
1001
ACAD
1000
MTEXTBEGIN
1070
    73
1070
     1
1070
    44
1040
1.0
1070
    74
1070
     0
1000
MTEXTEND
  0
LINE
  5
43E3
330
1F
100
AcDbEntity
  8
SUNPO
  6
Continuous
100
AcDbLine
 10
236.4128698583925
 20
202.0580258733948
 30
0.0
 11
236.4128698583925
 21
212.3973712014699
 31
0.0
  0
LINE
  5
43E4
330
1F
100
AcDbEntity
  8
SUNPO
  6
Continuous
100
AcDbLine
 10
321.4128698583925
 20
180.8580258733947
 30
0.0
 11
321.4128698583925
 21
212.3973712014699
 31
0.0
  0
LINE
  5
43E5
330
1F
100
AcDbEntity
  8
SUNPO
  6
Continuous
100
AcDbLine
 10
238.0128698583924
 20
212.3973712014699
 30
0.0
 11
319.8128698583925
 21
212.3973712014699
 31
0.0
  0
INSERT
  5
43E6
330
1F
100
AcDbEntity
  8
SUNPO
  6
Continuous
100
AcDbBlockReference
  2
_DOT
 10
236.4128698583925
 20
212.3973712014699
 30
0.0
 41
1.6
 42
1.6
 43
1.6
 50
180.0
  0
INSERT
  5
43E7
330
1F
100
AcDbEntity
  8
SUNPO
  6
Continuous
100
AcDbBlockReference
  2
_DOT
 10
321.4128698583925
 20
212.3973712014699
 30
0.0
 41
1.6
 42
1.6
 43
1.6
  0
MTEXT
  5
43E8
330
1F
100
AcDbEntity
  8
SUNPO
  6
Continuous
100
AcDbMText
 10
278.9128698583925
 20
214.5973712014699
 30
0.0
 40
4.0
 41
0.0
 71
     5
 72
     1
  1
\A1;85
 73
     1
 44
1.0
1001
ACAD
1000
MTEXTBEGIN
1070
    73
1070
     1
1070
    44
1040
1.0
1070
    74
1070
     0
1000
MTEXTEND
  0
LINE
  5
43E9
330
1F
100
AcDbEntity
  8
SUNPO
  6
Continuous
100
AcDbLine
 10
234.4128698583925
 20
95.05802587339477
 30
0.0
 11
211.9947425036214
 21
95.05802587339479
 31
0.0
  0
LINE
  5
43EA
330
1F
100
AcDbEntity
  8
SUNPO
  6
Continuous
100
AcDbLine
 10
234.4128698583925
 20
200.0580258733948
 30
0.0
 11
211.9947425036214
 21
200.0580258733948
 31
0.0
  0
LINE
  5
43EB
330
1F
100
AcDbEntity
  8
SUNPO
  6
Continuous
100
AcDbLine
 10
211.9947425036214
 20
96.65802587339477
 30
0.0
 11
211.9947425036214
 21
198.4580258733948
 31
0.0
  0
INSERT
  5
43EC
330
1F
100
AcDbEntity
  8
SUNPO
  6
Continuous
100
AcDbBlockReference
  2
_DOT
 10
211.9947425036214
 20
95.05802587339479
 30
0.0
 41
1.6
 42
1.6
 43
1.6
 50
270.0
  0
INSERT
  5
43ED
330
1F
100
AcDbEntity
  8
SUNPO
  6
Continuous
100
AcDbBlockReference
  2
_DOT
 10
211.9947425036214
 20
200.0580258733948
 30
0.0
 41
1.6
 42
1.6
 43
1.6
 50
90.0
  0
MTEXT
  5
43EE
330
1F
100
AcDbEntity
  8
SUNPO
  6
Continuous
100
AcDbMText
 10
209.7947425036214
 20
147.5580258733948
 30
0.0
 40
4.0
 41
0.0
 71
     5
 72
     1
  1
\A1;105
 11
0.0000000000000001
 21
1.0
 31
0.0
 73
     1
 44
1.0
1001
ACAD
1000
MTEXTBEGIN
1070
    73
1070
     1
1070
    44
1040
1.0
1070
    74
1070
     0
1000
MTEXTEND
  0
LINE
  5
43EF
330
1F
100
AcDbEntity
  8
SUNPO
  6
Continuous
100
AcDbLine
 10
236.4128698583925
 20
202.0580258733948
 30
0.0
 11
236.4128698583925
 21
205.8469044353915
 31
0.0
  0
LINE
  5
43F0
330
1F
100
AcDbEntity
  8
SUNPO
  6
Continuous
100
AcDbLine
 10
256.4128698583925
 20
202.0580258733948
 30
0.0
 11
256.4128698583925
 21
205.8469044353915
 31
0.0
  0
LINE
  5
43F1
330
1F
100
AcDbEntity
  8
SUNPO
  6
Continuous
100
AcDbLine
 10
238.0128698583924
 20
205.8469044353915
 30
0.0
 11
254.8128698583925
 21
205.8469044353915
 31
0.0
  0
INSERT
  5
43F2
330
1F
100
AcDbEntity
  8
SUNPO
  6
Continuous
100
AcDbBlockReference
  2
_DOT
 10
236.4128698583925
 20
205.8469044353915
 30
0.0
 41
1.6
 42
1.6
 43
1.6
 50
180.0
  0
INSERT
  5
43F3
330
1F
100
AcDbEntity
  8
SUNPO
  6
Continuous
100
AcDbBlockReference
  2
_DOT
 10
256.4128698583925
 20
205.8469044353915
 30
0.0
 41
1.6
 42
1.6
 43
1.6
  0
MTEXT
  5
43F4
330
1F
100
AcDbEntity
  8
SUNPO
  6
Continuous
100
AcDbMText
 10
246.4128698583925
 20
208.0469044353915
 30
0.0
 40
4.0
 41
0.0
 71
     5
 72
     1
  1
\A1;20
 73
     1
 44
1.0
1001
ACAD
1000
MTEXTBEGIN
1070
    73
1070
     1
1070
    44
1040
1.0
1070
    74
1070
     0
1000
MTEXTEND
  0
LINE
  5
43F5
330
1F
100
AcDbEntity
  8
SUNPO
  6
Continuous
100
AcDbLine
 10
343.3898696064308
 20
147.8580258733948
 30
0.0
 11
356.6081913503114
 21
147.8580258733948
 31
0.0
  0
LINE
  5
43F6
330
1F
100
AcDbEntity
  8
SUNPO
  6
Continuous
100
AcDbLine
 10
323.5420451028374
 20
178.3580258733947
 30
0.0
 11
356.6081913503114
 21
178.3580258733947
 31
0.0
  0
LINE
  5
43F7
330
1F
100
AcDbEntity
  8
SUNPO
  6
Continuous
100
AcDbLine
 10
356.6081913503114
 20
149.4580258733948
 30
0.0
 11
356.6081913503114
 21
176.7580258733948
 31
0.0
  0
INSERT
  5
43F8
330
1F
100
AcDbEntity
  8
SUNPO
  6
Continuous
100
AcDbBlockReference
  2
_DOT
 10
356.6081913503114
 20
147.8580258733948
 30
0.0
 41
1.6
 42
1.6
 43
1.6
 50
270.0
  0
INSERT
  5
43F9
330
1F
100
AcDbEntity
  8
SUNPO
  6
Continuous
100
AcDbBlockReference
  2
_DOT
 10
356.6081913503114
 20
178.3580258733947
 30
0.0
 41
1.6
 42
1.6
 43
1.6
 50
90.0
  0
MTEXT
  5
43FA
330
1F
100
AcDbEntity
  8
SUNPO
  6
Continuous
100
AcDbMText
 10
358.8081913503113
 20
163.1080258733947
 30
0.0
 40
4.0
 41
0.0
 71
     5
 72
     1
  1
\A1;30.5
 11
0.0000000000000001
 21
1.0
 31
0.0
 73
     1
 44
1.0
1001
ACAD
1000
MTEXTBEGIN
1070
    73
1070
     1
1070
    44
1040
1.0
1070
    74
1070
     0
1000
MTEXTEND
  0
LINE
  5
43FB
330
1F
100
AcDbEntity
  8
WAKU
100
AcDbLine
 10
552.0000000000001
 20
358.0
 30
0.0
 11
0.0
 21
358.0
 31
0.0
  0
LINE
  5
43FC
330
1F
100
AcDbEntity
  8
WAKU
100
AcDbLine
 10
0.0
 20
358.0
 30
0.0
 11
0.0
 21
382.0000000000001
 31
0.0
  0
LINE
  5
43FD
330
1F
100
AcDbEntity
  8
WAKU
100
AcDbLine
 10
0.0
 20
382.0000000000001
 30
0.0
 11
552.0000000000001
 21
382.0000000000001
 31
0.0
  0
LINE
  5
43FE
330
1F
100
AcDbEntity
  8
WAKU
100
AcDbLine
 10
552.0000000000001
 20
382.0000000000001
 30
0.0
 11
552.0000000000001
 21
358.0
 31
0.0
  0
LINE
  5
43FF
330
1F
100
AcDbEntity
  8
WAKU
100
AcDbLine
 10
0.0
 20
0.0
 30
0.0
 11
552.0000000000001
 21
0.0
 31
0.0
  0
LINE
  5
4400
330
1F
100
AcDbEntity
  8
WAKU
100
AcDbLine
 10
552.0000000000001
 20
0.0
 30
0.0
 11
552.0000000000001
 21
382.0000000000001
 31
0.0
  0
LINE
  5
4401
330
1F
100
AcDbEntity
  8
WAKU
100
AcDbLine
 10
552.0000000000001
 20
382.0000000000001
 30
0.0
 11
0.0
 21
382.0000000000001
 31
0.0
  0
LINE
  5
4402
330
1F
100
AcDbEntity
  8
WAKU
100
AcDbLine
 10
0.0
 20
382.0000000000001
 30
0.0
 11
0.0
 21
0.0
 31
0.0
  0
LINE
  5
4403
330
1F
100
AcDbEntity
  8
KANAMONO
  6
Continuous
100
AcDbLine
 10
238.7584870136687
 20
178.1111977434373
 30
0.0
 11
251.4128698583925
 21
180.0580258733947
 31
0.0
  0
LINE
  5
4404
330
1F
100
AcDbEntity
  8
KANAMONO
  6
Continuous
100
AcDbLine
 10
251.4128698583925
 20
180.0580258733947
 30
0.0
 11
265.8628698583925
 21
180.0580258733947
 31
0.0
  0
ARC
  5
4405
330
1F
100
AcDbEntity
  8
KANAMONO
  6
Continuous
100
AcDbCircle
 10
265.8628698583925
 20
180.3580258733947
 30
0.0
 40
0.2999999999999829
100
AcDbArc
 50
270.0000000000108
 51
0.0000000000108563
  0
ARC
  5
4406
330
1F
100
AcDbEntity
  8
KANAMONO
  6
Continuous
100
AcDbCircle
 10
266.3628698583925
 20
180.3580258733948
 30
0.0
 40
0.2000000000000455
100
AcDbArc
 50
90.0
 51
179.9999999999918
  0
LINE
  5
4407
330
1F
100
AcDbEntity
  8
KANAMONO
  6
Continuous
100
AcDbLine
 10
266.3628698583925
 20
180.5580258733948
 30
0.0
 11
266.4628698583925
 21
180.5580258733948
 31
0.0
  0
ARC
  5
4408
330
1F
100
AcDbEntity
  8
KANAMONO
  6
Continuous
100
AcDbCircle
 10
266.4628698583925
 20
180.3580258733948
 30
0.0
 40
0.1999999999999886
100
AcDbArc
 50
359.9999999999919
 51
89.99999999998371
  0
ARC
  5
4409
330
1F
100
AcDbEntity
  8
KANAMONO
  6
Continuous
100
AcDbCircle
 10
266.9628698583925
 20
180.3580258733948
 30
0.0
 40
0.3000000000000114
100
AcDbArc
 50
180.0000000000054
 51
270.0000000000108
  0
LINE
  5
440A
330
1F
100
AcDbEntity
  8
KANAMONO
  6
Continuous
100
AcDbLine
 10
266.9628698583925
 20
180.0580258733948
 30
0.0
 11
280.8628698583925
 21
180.0580258733947
 31
0.0
  0
ARC
  5
440B
330
1F
100
AcDbEntity
  8
KANAMONO
  6
Continuous
100
AcDbCircle
 10
280.8628698583925
 20
180.3580258733947
 30
0.0
 40
0.2999999999999829
100
AcDbArc
 50
270.0000000000108
 51
0.0000000000108563
  0
ARC
  5
440C
330
1F
100
AcDbEntity
  8
KANAMONO
  6
Continuous
100
AcDbCircle
 10
281.3628698583925
 20
180.3580258733948
 30
0.0
 40
0.2000000000000455
100
AcDbArc
 50
90.0
 51
179.9999999999918
  0
LINE
  5
440D
330
1F
100
AcDbEntity
  8
KANAMONO
  6
Continuous
100
AcDbLine
 10
281.3628698583925
 20
180.5580258733948
 30
0.0
 11
281.4628698583925
 21
180.5580258733948
 31
0.0
  0
ARC
  5
440E
330
1F
100
AcDbEntity
  8
KANAMONO
  6
Continuous
100
AcDbCircle
 10
281.4628698583925
 20
180.3580258733948
 30
0.0
 40
0.1999999999999886
100
AcDbArc
 50
359.9999999999919
 51
89.99999999998371
  0
ARC
  5
440F
330
1F
100
AcDbEntity
  8
KANAMONO
  6
Continuous
100
AcDbCircle
 10
281.9628698583925
 20
180.3580258733948
 30
0.0
 40
0.3000000000000114
100
AcDbArc
 50
180.0000000000054
 51
270.0000000000108
  0
LINE
  5
4410
330
1F
100
AcDbEntity
  8
KANAMONO
  6
Continuous
100
AcDbLine
 10
281.9628698583926
 20
180.0580258733948
 30
0.0
 11
295.8628698583925
 21
180.0580258733947
 31
0.0
  0
ARC
  5
4411
330
1F
100
AcDbEntity
  8
KANAMONO
  6
Continuous
100
AcDbCircle
 10
295.8628698583924
 20
180.3580258733947
 30
0.0
 40
0.2999999999999829
100
AcDbArc
 50
270.0000000000108
 51
0.0000000000108563
  0
ARC
  5
4412
330
1F
100
AcDbEntity
  8
KANAMONO
  6
Continuous
100
AcDbCircle
 10
296.3628698583925
 20
180.3580258733948
 30
0.0
 40
0.2000000000000455
100
AcDbArc
 50
90.0
 51
179.9999999999918
  0
LINE
  5
4413
330
1F
100
AcDbEntity
  8
KANAMONO
  6
Continuous
100
AcDbLine
 10
296.3628698583925
 20
180.5580258733948
 30
0.0
 11
296.4628698583926
 21
180.5580258733948
 31
0.0
  0
ARC
  5
4414
330
1F
100
AcDbEntity
  8
KANAMONO
  6
Continuous
100
AcDbCircle
 10
296.4628698583925
 20
180.3580258733948
 30
0.0
 40
0.1999999999999886
100
AcDbArc
 50
359.9999999999919
 51
89.99999999998371
  0
ARC
  5
4415
330
1F
100
AcDbEntity
  8
KANAMONO
  6
Continuous
100
AcDbCircle
 10
296.9628698583925
 20
180.3580258733948
 30
0.0
 40
0.3000000000000114
100
AcDbArc
 50
180.0000000000054
 51
270.0000000000108
  0
LINE
  5
4416
330
1F
100
AcDbEntity
  8
KANAMONO
  6
Continuous
100
AcDbLine
 10
296.9628698583925
 20
180.0580258733948
 30
0.0
 11
316.3898696064307
 21
180.0580258733948
 31
0.0
  0
ARC
  5
4417
330
1F
100
AcDbEntity
  8
KANAMONO
  6
Continuous
100
AcDbCircle
 10
316.3898696064305
 20
179.7580258733946
 30
0.0
 40
0.3000000000001819
100
AcDbArc
 50
81.23170379530275
 51
89.99999999996743
  0
LINE
  5
4418
330
1F
100
AcDbEntity
  8
KANAMONO
  6
Continuous
100
AcDbLine
 10
316.4356013037107
 20
180.0545197381945
 30
0.0
 11
320.9890893538591
 21
179.3521823147277
 31
0.0
  0
ARC
  5
4419
330
1F
100
AcDbEntity
  8
KANAMONO
  6
Continuous
100
AcDbCircle
 10
320.9128698583925
 20
178.8580258733948
 30
0.0
 40
0.5000000000000121
100
AcDbArc
 50
270.0
 51
81.23170379533046
  0
LINE
  5
441A
330
1F
100
AcDbEntity
  8
KANAMONO
  6
Continuous
100
AcDbLine
 10
320.9128698583925
 20
178.3580258733947
 30
0.0
 11
268.6128698583925
 21
178.3580258733947
 31
0.0
  0
ARC
  5
441B
330
1F
100
AcDbEntity
  8
KANAMONO
  6
Continuous
100
AcDbCircle
 10
268.6128698583925
 20
177.3580258733947
 30
0.0
 40
1.0
100
AcDbArc
 50
90.0
 51
180.0
  0
LINE
  5
441C
330
1F
100
AcDbEntity
  8
KANAMONO
  6
Continuous
100
AcDbLine
 10
267.6128698583925
 20
177.3580258733947
 30
0.0
 11
267.6128698583925
 21
148.8580258733948
 31
0.0
  0
ARC
  5
441D
330
1F
100
AcDbEntity
  8
KANAMONO
  6
Continuous
100
AcDbCircle
 10
268.6128698583925
 20
148.8580258733948
 30
0.0
 40
1.0
100
AcDbArc
 50
180.0
 51
270.0
  0
LINE
  5
441E
330
1F
100
AcDbEntity
  8
KANAMONO
  6
Continuous
100
AcDbLine
 10
268.6128698583925
 20
147.8580258733948
 30
0.0
 11
305.8643417209686
 21
147.8580258733948
 31
0.0
  0
ARC
  5
441F
330
1F
100
AcDbEntity
  8
KANAMONO
  6
Continuous
100
AcDbCircle
 10
305.8643417209686
 20
147.5580258733948
 30
0.0
 40
0.2999999999999829
100
AcDbArc
 50
45.00000000000385
 51
90.0
  0
LINE
  5
4420
330
1F
100
AcDbEntity
  8
KANAMONO
  6
Continuous
100
AcDbLine
 10
306.0764737553245
 20
147.7701579077507
 30
0.0
 11
306.2007378240364
 21
147.6458938390388
 31
0.0
  0
ARC
  5
4421
330
1F
100
AcDbEntity
  8
KANAMONO
  6
Continuous
100
AcDbCircle
 10
306.4128698583925
 20
147.8580258733948
 30
0.0
 40
0.3000000000001149
100
AcDbArc
 50
225.0
 51
315.0
  0
LINE
  5
4422
330
1F
100
AcDbEntity
  8
KANAMONO
  6
Continuous
100
AcDbLine
 10
306.6250018927485
 20
147.6458938390388
 30
0.0
 11
306.7492659614604
 21
147.7701579077507
 31
0.0
  0
ARC
  5
4423
330
1F
100
AcDbEntity
  8
KANAMONO
  6
Continuous
100
AcDbCircle
 10
306.9613979958163
 20
147.5580258733948
 30
0.0
 40
0.2999999999999542
100
AcDbArc
 50
90.0
 51
135.0
  0
LINE
  5
4424
330
1F
100
AcDbEntity
  8
KANAMONO
  6
Continuous
100
AcDbLine
 10
306.9613979958163
 20
147.8580258733948
 30
0.0
 11
330.8643417209686
 21
147.8580258733948
 31
0.0
  0
ARC
  5
4425
330
1F
100
AcDbEntity
  8
KANAMONO
  6
Continuous
100
AcDbCircle
 10
330.8643417209686
 20
147.5580258733948
 30
0.0
 40
0.2999999999999829
100
AcDbArc
 50
45.00000000000385
 51
90.0
  0
LINE
  5
4426
330
1F
100
AcDbEntity
  8
KANAMONO
  6
Continuous
100
AcDbLine
 10
331.0764737553245
 20
147.7701579077507
 30
0.0
 11
331.2007378240364
 21
147.6458938390388
 31
0.0
  0
ARC
  5
4427
330
1F
100
AcDbEntity
  8
KANAMONO
  6
Continuous
100
AcDbCircle
 10
331.4128698583925
 20
147.8580258733948
 30
0.0
 40
0.3000000000001149
100
AcDbArc
 50
225.0
 51
315.0
  0
LINE
  5
4428
330
1F
100
AcDbEntity
  8
KANAMONO
  6
Continuous
100
AcDbLine
 10
331.6250018927485
 20
147.6458938390388
 30
0.0
 11
331.7492659614604
 21
147.7701579077507
 31
0.0
  0
ARC
  5
4429
330
1F
100
AcDbEntity
  8
KANAMONO
  6
Continuous
100
AcDbCircle
 10
331.9613979958163
 20
147.5580258733948
 30
0.0
 40
0.2999999999999542
100
AcDbArc
 50
90.0
 51
135.0
  0
LINE
  5
442A
330
1F
100
AcDbEntity
  8
KANAMONO
  6
Continuous
100
AcDbLine
 10
331.9613979958163
 20
147.8580258733948
 30
0.0
 11
341.3898696064307
 21
147.8580258733948
 31
0.0
  0
ARC
  5
442B
330
1F
100
AcDbEntity
  8
KANAMONO
  6
Continuous
100
AcDbCircle
 10
341.3898696064308
 20
147.5580258733946
 30
0.0
 40
0.3000000000001535
100
AcDbArc
 50
81.23170379534567
 51
90.00000000001087
  0
LINE
  5
442C
330
1F
100
AcDbEntity
  8
KANAMONO
  6
Continuous
100
AcDbLine
 10
341.4356013037107
 20
147.8545197381945
 30
0.0
 11
345.9890893538591
 21
147.1521823147277
 31
0.0
  0
ARC
  5
442D
330
1F
100
AcDbEntity
  8
KANAMONO
  6
Continuous
100
AcDbCircle
 10
345.9128698583925
 20
146.6580258733948
 30
0.0
 40
0.499999999999984
100
AcDbArc
 50
270.0
 51
81.23170379532997
  0
LINE
  5
442E
330
1F
100
AcDbEntity
  8
KANAMONO
  6
Continuous
100
AcDbLine
 10
345.9128698583925
 20
146.1580258733947
 30
0.0
 11
258.4932546161218
 21
146.1580258733947
 31
0.0
  0
ARC
  5
442F
330
1F
100
AcDbEntity
  8
KANAMONO
  6
Continuous
100
AcDbCircle
 10
258.4932546161218
 20
145.8580258733948
 30
0.0
 40
0.2999999999999545
100
AcDbArc
 50
90.0
 51
120.0000000000011
  0
LINE
  5
4430
330
1F
100
AcDbEntity
  8
KANAMONO
  6
Continuous
100
AcDbLine
 10
258.3432546161219
 20
146.1178334945301
 30
0.0
 11
257.9798571565002
 21
145.9080258733947
 31
0.0
  0
ARC
  5
4431
330
1F
100
AcDbEntity
  8
KANAMONO
  6
Continuous
100
AcDbCircle
 10
257.7298571565003
 20
146.3410385752869
 30
0.0
 40
0.4999999999999388
100
AcDbArc
 50
209.9999999999977
 51
299.9999999999965
  0
LINE
  5
4432
330
1F
100
AcDbEntity
  8
KANAMONO
  6
Continuous
100
AcDbLine
 10
257.2968444546081
 20
146.0910385752869
 30
0.0
 11
256.946844454608
 21
146.697256357936
 31
0.0
  0
ARC
  5
4433
330
1F
100
AcDbEntity
  8
KANAMONO
  6
Continuous
100
AcDbCircle
 10
257.3798571565003
 20
146.947256357936
 30
0.0
 40
0.500000000000041
100
AcDbArc
 50
119.9999999999989
 51
209.9999999999972
  0
LINE
  5
4434
330
1F
100
AcDbEntity
  8
KANAMONO
  6
Continuous
100
AcDbLine
 10
257.1298571565003
 20
147.3802690598283
 30
0.0
 11
257.8877409889889
 21
147.8178334945301
 31
0.0
  0
ARC
  5
4435
330
1F
100
AcDbEntity
  8
KANAMONO
  6
Continuous
100
AcDbCircle
 10
258.0377409889889
 20
147.5580258733948
 30
0.0
 40
0.2999999999999443
100
AcDbArc
 50
90.0
 51
120.0000000000011
  0
LINE
  5
4436
330
1F
100
AcDbEntity
  8
KANAMONO
  6
Continuous
100
AcDbLine
 10
258.0377409889889
 20
147.8580258733947
 30
0.0
 11
264.9128698583926
 21
147.8580258733948
 31
0.0
  0
ARC
  5
4437
330
1F
100
AcDbEntity
  8
KANAMONO
  6
Continuous
100
AcDbCircle
 10
264.9128698583926
 20
148.8580258733948
 30
0.0
 40
1.0
100
AcDbArc
 50
270.0
 51
0.0
  0
LINE
  5
4438
330
1F
100
AcDbEntity
  8
KANAMONO
  6
Continuous
100
AcDbLine
 10
265.9128698583926
 20
148.8580258733948
 30
0.0
 11
265.9128698583926
 21
177.3580258733947
 31
0.0
  0
ARC
  5
4439
330
1F
100
AcDbEntity
  8
KANAMONO
  6
Continuous
100
AcDbCircle
 10
264.9128698583926
 20
177.3580258733947
 30
0.0
 40
1.0
100
AcDbArc
 50
0.0
 51
90.0
  0
LINE
  5
443A
330
1F
100
AcDbEntity
  8
KANAMONO
  6
Continuous
100
AcDbLine
 10
264.9128698583926
 20
178.3580258733947
 30
0.0
 11
251.5428743306636
 21
178.3580258733947
 31
0.0
  0
LINE
  5
443B
330
1F
100
AcDbEntity
  8
KANAMONO
  6
Continuous
100
AcDbLine
 10
251.5428743306636
 20
178.3580258733947
 30
0.0
 11
238.6672527031163
 21
176.3771610076182
 31
0.0
  0
ARC
  5
443C
330
1F
100
AcDbEntity
  8
KANAMONO
  6
Continuous
100
AcDbCircle
 10
238.7128698583925
 20
176.0806494983231
 30
0.0
 40
0.2999999999999958
100
AcDbArc
 50
98.74616226254863
 51
179.9999999999945
  0
LINE
  5
443D
330
1F
100
AcDbEntity
  8
KANAMONO
  6
Continuous
100
AcDbLine
 10
238.4128698583925
 20
176.0806494983231
 30
0.0
 11
238.4128698583925
 21
96.95802587339478
 31
0.0
  0
ARC
  5
443E
330
1F
100
AcDbEntity
  8
KANAMONO
  6
Continuous
100
AcDbCircle
 10
238.7128698583925
 20
96.95802587339475
 30
0.0
 40
0.2999999999999829
100
AcDbArc
 50
179.9999999999945
 51
269.9999999999945
  0
LINE
  5
443F
330
1F
100
AcDbEntity
  8
KANAMONO
  6
Continuous
100
AcDbLine
 10
238.7128698583924
 20
96.65802587339477
 30
0.0
 11
239.6128698583925
 21
96.65802587339477
 31
0.0
  0
ARC
  5
4440
330
1F
100
AcDbEntity
  8
KANAMONO
  6
Continuous
100
AcDbCircle
 10
239.6128698583925
 20
96.95802587339475
 30
0.0
 40
0.2999999999999829
100
AcDbArc
 50
270.0000000000054
 51
0.0000000000054281
  0
LINE
  5
4441
330
1F
100
AcDbEntity
  8
KANAMONO
  6
Continuous
100
AcDbLine
 10
239.9128698583925
 20
96.95802587339478
 30
0.0
 11
239.9128698583925
 21
98.15802587339479
 31
0.0
  0
ARC
  5
4442
330
1F
100
AcDbEntity
  8
KANAMONO
  6
Continuous
100
AcDbCircle
 10
242.4128698583924
 20
98.15802587339483
 30
0.0
 40
2.499999999999971
100
AcDbArc
 50
118.0724869358544
 51
180.0000000000009
  0
ARC
  5
4443
330
1F
100
AcDbEntity
  8
KANAMONO
  6
Continuous
100
AcDbCircle
 10
241.6128698583924
 20
99.65802587339478
 30
0.0
 40
0.7999999999999972
100
AcDbArc
 50
298.072486935853
 51
118.0724869358529
  0
ARC
  5
4444
330
1F
100
AcDbEntity
  8
KANAMONO
  6
Continuous
100
AcDbCircle
 10
242.4128698583924
 20
98.15802587339486
 30
0.0
 40
0.8999999999999463
100
AcDbArc
 50
118.0724869358577
 51
180.0000000000045
  0
LINE
  5
4445
330
1F
100
AcDbEntity
  8
KANAMONO
  6
Continuous
100
AcDbLine
 10
241.5128698583925
 20
98.15802587339479
 30
0.0
 11
241.5128698583925
 21
95.35802587339478
 31
0.0
  0
ARC
  5
4446
330
1F
100
AcDbEntity
  8
KANAMONO
  6
Continuous
100
AcDbCircle
 10
241.2128698583924
 20
95.3580258733948
 30
0.0
 40
0.3000000000000398
100
AcDbArc
 50
269.9999999999945
 51
359.9999999999945
  0
LINE
  5
4447
330
1F
100
AcDbEntity
  8
KANAMONO
  6
Continuous
100
AcDbLine
 10
241.2128698583924
 20
95.05802587339477
 30
0.0
 11
236.7128698583924
 21
95.05802587339477
 31
0.0
  0
ARC
  5
4448
330
1F
100
AcDbEntity
  8
KANAMONO
  6
Continuous
100
AcDbCircle
 10
236.7128698583925
 20
95.35802587339475
 30
0.0
 40
0.2999999999999829
100
AcDbArc
 50
179.9999999999945
 51
269.9999999999945
  0
LINE
  5
4449
330
1F
100
AcDbEntity
  8
KANAMONO
  6
Continuous
100
AcDbLine
 10
236.4128698583925
 20
95.35802587339478
 30
0.0
 11
236.4128698583925
 21
199.7580258733947
 31
0.0
  0
ARC
  5
444A
330
1F
100
AcDbEntity
  8
KANAMONO
  6
Continuous
100
AcDbCircle
 10
236.7128698583925
 20
199.7580258733948
 30
0.0
 40
0.2999999999999829
100
AcDbArc
 50
90.00000000000543
 51
180.0000000000054
  0
LINE
  5
444B
330
1F
100
AcDbEntity
  8
KANAMONO
  6
Continuous
100
AcDbLine
 10
236.7128698583924
 20
200.0580258733948
 30
0.0
 11
256.1128698583925
 21
200.0580258733948
 31
0.0
  0
ARC
  5
444C
330
1F
100
AcDbEntity
  8
KANAMONO
  6
Continuous
100
AcDbCircle
 10
256.1128698583925
 20
199.7580258733948
 30
0.0
 40
0.2999999999999829
100
AcDbArc
 50
359.9999999999945
 51
90.0
  0
LINE
  5
444D
330
1F
100
AcDbEntity
  8
KANAMONO
  6
Continuous
100
AcDbLine
 10
256.4128698583925
 20
199.7580258733947
 30
0.0
 11
256.4128698583925
 21
198.1822899421067
 31
0.0
  0
ARC
  5
444E
330
1F
100
AcDbEntity
  8
KANAMONO
  6
Continuous
100
AcDbCircle
 10
256.1128698583925
 20
198.1822899421067
 30
0.0
 40
0.3000000000000114
100
AcDbArc
 50
315.0000000000038
 51
0.0
  0
LINE
  5
444F
330
1F
100
AcDbEntity
  8
KANAMONO
  6
Continuous
100
AcDbLine
 10
256.3250018927484
 20
197.9701579077507
 30
0.0
 11
254.6445578248763
 21
196.2897138398786
 31
0.0
  0
ARC
  5
4450
330
1F
100
AcDbEntity
  8
KANAMONO
  6
Continuous
100
AcDbCircle
 10
254.291004434283
 20
196.6432672304718
 30
0.0
 40
0.500000000000004
100
AcDbArc
 50
175.0
 51
315.0
  0
LINE
  5
4451
330
1F
100
AcDbEntity
  8
KANAMONO
  6
Continuous
100
AcDbLine
 10
253.7929070852372
 20
196.6868451018457
 30
0.0
 11
253.8843357174992
 21
197.7318791505704
 31
0.0
  0
ARC
  5
4452
330
1F
100
AcDbEntity
  8
KANAMONO
  6
Continuous
100
AcDbCircle
 10
253.5854773080716
 20
197.7580258733947
 30
0.0
 40
0.3000000000000412
100
AcDbArc
 50
355.0000000000042
 51
90.0
  0
LINE
  5
4453
330
1F
100
AcDbEntity
  8
KANAMONO
  6
Continuous
100
AcDbLine
 10
253.5854773080716
 20
198.0580258733948
 30
0.0
 11
238.7128698583924
 21
198.0580258733948
 31
0.0
  0
ARC
  5
4454
330
1F
100
AcDbEntity
  8
KANAMONO
  6
Continuous
100
AcDbCircle
 10
238.7128698583925
 20
197.7580258733948
 30
0.0
 40
0.2999999999999829
100
AcDbArc
 50
90.00000000000543
 51
180.0000000000054
  0
LINE
  5
4455
330
1F
100
AcDbEntity
  8
KANAMONO
  6
Continuous
100
AcDbLine
 10
238.4128698583925
 20
197.7580258733947
 30
0.0
 11
238.4128698583925
 21
178.4077092527324
 31
0.0
  0
ARC
  5
4456
330
1F
100
AcDbEntity
  8
KANAMONO
  6
Continuous
100
AcDbCircle
 10
238.7128698583925
 20
178.4077092527325
 30
0.0
 40
0.3000000000000398
100
AcDbArc
 50
180.0000000000108
 51
278.7461622625639
  0
LINE
  5
4457
330
1F
100
AcDbEntity
  8
KANAMONO_SCREW
100
AcDbLine
 10
309.2014068282682
 20
118.3080258733948
 30
0.0
 11
309.2014068282682
 21
147.0080258733949
 31
0.0
  0
LINE
  5
4458
330
1F
100
AcDbEntity
  8
KANAMONO_SCREW
100
AcDbLine
 10
303.6214068282684
 20
118.3080258733948
 30
0.0
 11
303.6214068282725
 21
147.0080258733949
 31
0.0
  0
LINE
  5
4459
330
1F
100
AcDbEntity
  8
KANAMONO_SCREW
100
AcDbLine
 10
306.6614068282683
 20
139.3080258733948
 30
0.0
 11
306.6614068282683
 21
147.0080258733944
 31
0.0
  0
LINE
  5
445A
330
1F
100
AcDbEntity
  8
KANAMONO_SCREW
100
AcDbLine
 10
309.8014068282692
 20
141.2080258733983
 30
0.0
 11
309.2014068282682
 21
139.3080258733948
 31
0.0
  0
LINE
  5
445B
330
1F
100
AcDbEntity
  8
KANAMONO_SCREW
100
AcDbLine
 10
303.6214068282684
 20
139.3080258733948
 30
0.0
 11
303.0214068282694
 21
141.208025873391
 31
0.0
  0
LINE
  5
445C
330
1F
100
AcDbEntity
  8
KANAMONO_SCREW
100
AcDbLine
 10
306.6614068282683
 20
139.3080258733948
 30
0.0
 11
306.4114068282683
 21
141.208025873391
 31
0.0
  0
LINE
  5
445D
330
1F
100
AcDbEntity
  8
KANAMONO_SCREW
100
AcDbLine
 10
306.411406828267
 20
141.2080258733935
 30
0.0
 11
306.1614068282719
 21
139.3080258733989
 31
0.0
  0
LINE
  5
445E
330
1F
100
AcDbEntity
  8
KANAMONO_SCREW
100
AcDbLine
 10
306.1614068282719
 20
139.3080258733989
 30
0.0
 11
306.1614068282742
 21
147.008025873383
 31
0.0
  0
LINE
  5
445F
330
1F
100
AcDbEntity
  8
KANAMONO_SCREW
100
AcDbLine
 10
306.411406828267
 20
141.2080258733935
 30
0.0
 11
306.4114068282686
 21
146.508025873383
 31
0.0
  0
LINE
  5
4460
330
1F
100
AcDbEntity
  8
KANAMONO_SCREW
100
AcDbLine
 10
309.8014068282692
 20
141.2080258733983
 30
0.0
 11
309.8014068282708
 21
146.5080258733951
 31
0.0
  0
LINE
  5
4461
330
1F
100
AcDbEntity
  8
KANAMONO_SCREW
100
AcDbLine
 10
303.0214068282694
 20
141.208025873391
 30
0.0
 11
303.0214068282711
 21
146.5080258733946
 31
0.0
  0
LINE
  5
4462
330
1F
100
AcDbEntity
  8
KANAMONO_SCREW
100
AcDbLine
 10
309.8014068282708
 20
146.5080258733951
 30
0.0
 11
309.201406828271
 21
147.0080258733949
 31
0.0
  0
LINE
  5
4463
330
1F
100
AcDbEntity
  8
KANAMONO_SCREW
100
AcDbLine
 10
303.621406828271
 20
147.0080258733949
 30
0.0
 11
303.0214068282711
 21
146.5080258733946
 31
0.0
  0
LINE
  5
4464
330
1F
100
AcDbEntity
  8
KANAMONO_SCREW
100
AcDbLine
 10
306.6614068282683
 20
147.0080258733944
 30
0.0
 11
306.4114068282686
 21
146.5080258733946
 31
0.0
  0
LINE
  5
4465
330
1F
100
AcDbEntity
  8
KANAMONO_SCREW
100
AcDbLine
 10
306.4114068282686
 20
146.5080258733946
 30
0.0
 11
306.1614068282742
 21
147.008025873383
 31
0.0
  0
LINE
  5
4466
330
1F
100
AcDbEntity
  8
KANAMONO_SCREW
100
AcDbLine
 10
309.3014068282687
 20
147.0080258733949
 30
0.0
 11
303.5214068282686
 21
147.0080258733949
 31
0.0
  0
LINE
  5
4467
330
1F
100
AcDbEntity
  8
KANAMONO_SCREW
100
AcDbLine
 10
309.3014068282687
 20
147.0080258733949
 30
0.0
 11
310.0864068282685
 21
147.8580258733948
 31
0.0
  0
LINE
  5
4468
330
1F
100
AcDbEntity
  8
KANAMONO_SCREW
100
AcDbLine
 10
303.5214068282686
 20
147.0080258733949
 30
0.0
 11
302.7364068282685
 21
147.8580258733945
 31
0.0
  0
LINE
  5
4469
330
1F
100
AcDbEntity
  8
KANAMONO_SCREW
100
AcDbLine
 10
310.0864068282685
 20
147.8580258733948
 30
0.0
 11
302.7364068282685
 21
147.8580258733945
 31
0.0
  0
LINE
  5
446A
330
1F
100
AcDbEntity
  8
KANAMONO_SCREW
100
AcDbLine
 10
310.0864068282685
 20
147.8580258733948
 30
0.0
 11
310.0864068282685
 21
148.3080258733948
 31
0.0
  0
LINE
  5
446B
330
1F
100
AcDbEntity
  8
KANAMONO_SCREW
100
AcDbLine
 10
310.0864068282685
 20
148.3080258733948
 30
0.0
 11
302.7364068282685
 21
148.3080258733948
 31
0.0
  0
LINE
  5
446C
330
1F
100
AcDbEntity
  8
KANAMONO_SCREW
100
AcDbLine
 10
302.7364068282685
 20
147.8580258733945
 30
0.0
 11
302.7364068282685
 21
148.3080258733948
 31
0.0
  0
ARC
  5
446D
330
1F
100
AcDbEntity
  8
KANAMONO_SCREW
100
AcDbCircle
 10
307.6614068282682
 20
119.0080258733946
 30
0.0
 40
0.5999999999999998
100
AcDbArc
 50
270.0
 51
0.0
  0
LINE
  5
446E
330
1F
100
AcDbEntity
  8
KANAMONO_SCREW
100
AcDbLine
 10
308.2614068282683
 20
119.0080258733946
 30
0.0
 11
308.2614068282683
 21
127.2080258733949
 31
0.0
  0
ARC
  5
446F
330
1F
100
AcDbEntity
  8
KANAMONO_SCREW
100
AcDbCircle
 10
305.1614068282682
 20
119.0080258733946
 30
0.0
 40
0.5999999999999998
100
AcDbArc
 50
180.0
 51
270.0
  0
LINE
  5
4470
330
1F
100
AcDbEntity
  8
KANAMONO_SCREW
100
AcDbLine
 10
304.5614068282681
 20
119.0080258733946
 30
0.0
 11
304.5614068282681
 21
127.2080258733949
 31
0.0
  0
LINE
  5
4471
330
1F
100
AcDbEntity
  8
KANAMONO_SCREW
100
AcDbLine
 10
305.1614068282682
 20
118.4080258733947
 30
0.0
 11
307.6614068282682
 21
118.4080258733947
 31
0.0
  0
LINE
  5
4472
330
1F
100
AcDbEntity
  8
KANAMONO_SCREW
100
AcDbLine
 10
309.8014068282683
 20
125.808025873395
 30
0.0
 11
309.2014068282684
 21
126.3080258733948
 31
0.0
  0
LINE
  5
4473
330
1F
100
AcDbEntity
  8
KANAMONO_SCREW
100
AcDbLine
 10
309.8014068282683
 20
113.3080258733948
 30
0.0
 11
309.8014068282683
 21
125.808025873395
 31
0.0
  0
LINE
  5
4474
330
1F
100
AcDbEntity
  8
KANAMONO_SCREW
100
AcDbLine
 10
303.6214068282685
 20
126.3080258733948
 30
0.0
 11
303.0214068282684
 21
125.8080258733946
 31
0.0
  0
LINE
  5
4475
330
1F
100
AcDbEntity
  8
KANAMONO_SCREW
100
AcDbLine
 10
303.0214068282684
 20
113.3080258733946
 30
0.0
 11
303.0214068282684
 21
125.8080258733946
 31
0.0
  0
ARC
  5
4476
330
1F
100
AcDbEntity
  8
KANAMONO_SCREW
100
AcDbCircle
 10
307.6614068282682
 20
127.2080258733949
 30
0.0
 40
0.5999999999999998
100
AcDbArc
 50
0.0
 51
90.0
  0
LINE
  5
4477
330
1F
100
AcDbEntity
  8
KANAMONO_SCREW
100
AcDbLine
 10
307.6614068282682
 20
127.8080258733948
 30
0.0
 11
305.1614068282682
 21
127.8080258733948
 31
0.0
  0
ARC
  5
4478
330
1F
100
AcDbEntity
  8
KANAMONO_SCREW
100
AcDbCircle
 10
305.1614068282682
 20
127.2080258733949
 30
0.0
 40
0.5999999999999998
100
AcDbArc
 50
90.0
 51
180.0
  0
LINE
  5
4479
330
1F
100
AcDbEntity
  8
KANAMONO_SCREW
100
AcDbLine
 10
309.3014068282684
 20
116.5080258733946
 30
0.0
 11
309.3014068282684
 21
118.3080258733948
 31
0.0
  0
LINE
  5
447A
330
1F
100
AcDbEntity
  8
KANAMONO_SCREW
100
AcDbLine
 10
309.3014068282684
 20
111.1080258733945
 30
0.0
 11
309.3014068282684
 21
112.9080258733949
 31
0.0
  0
LINE
  5
447B
330
1F
100
AcDbEntity
  8
KANAMONO_SCREW
100
AcDbLine
 10
303.5214068282684
 20
116.5080258733946
 30
0.0
 11
303.5214068282684
 21
118.3080258733948
 31
0.0
  0
LINE
  5
447C
330
1F
100
AcDbEntity
  8
KANAMONO_SCREW
100
AcDbLine
 10
303.5214068282684
 20
111.1080258733945
 30
0.0
 11
303.5214068282684
 21
112.9080258733949
 31
0.0
  0
LINE
  5
447D
330
1F
100
AcDbEntity
  8
KANAMONO_SCREW
100
AcDbLine
 10
309.2014068282682
 20
113.5080258733949
 30
0.0
 11
308.4114068282683
 21
113.5080258733949
 31
0.0
  0
LINE
  5
447E
330
1F
100
AcDbEntity
  8
KANAMONO_SCREW
100
AcDbLine
 10
309.2014068282682
 20
112.9080258733949
 30
0.0
 11
309.2014068282682
 21
116.5080258733946
 31
0.0
  0
LINE
  5
447F
330
1F
100
AcDbEntity
  8
KANAMONO_SCREW
100
AcDbLine
 10
309.2014068282682
 20
114.0080258733948
 30
0.0
 11
308.4114068282683
 21
114.0080258733948
 31
0.0
  0
LINE
  5
4480
330
1F
100
AcDbEntity
  8
KANAMONO_SCREW
100
AcDbLine
 10
309.2014068282682
 20
114.5080258733949
 30
0.0
 11
308.4114068282683
 21
114.5080258733949
 31
0.0
  0
LINE
  5
4481
330
1F
100
AcDbEntity
  8
KANAMONO_SCREW
100
AcDbLine
 10
309.2014068282682
 20
115.0080258733948
 30
0.0
 11
308.4114068282683
 21
115.0080258733948
 31
0.0
  0
LINE
  5
4482
330
1F
100
AcDbEntity
  8
KANAMONO_SCREW
100
AcDbLine
 10
309.2014068282682
 20
115.5080258733949
 30
0.0
 11
308.4114068282683
 21
115.5080258733949
 31
0.0
  0
LINE
  5
4483
330
1F
100
AcDbEntity
  8
KANAMONO_SCREW
100
AcDbLine
 10
309.2014068282682
 20
116.0080258733948
 30
0.0
 11
308.4114068282683
 21
116.0080258733948
 31
0.0
  0
LINE
  5
4484
330
1F
100
AcDbEntity
  8
KANAMONO_SCREW
100
AcDbLine
 10
304.4114068282683
 20
113.5080258733949
 30
0.0
 11
303.6214068282685
 21
113.5080258733949
 31
0.0
  0
LINE
  5
4485
330
1F
100
AcDbEntity
  8
KANAMONO_SCREW
100
AcDbLine
 10
304.4114068282683
 20
114.0080258733948
 30
0.0
 11
303.6214068282685
 21
114.0080258733948
 31
0.0
  0
LINE
  5
4486
330
1F
100
AcDbEntity
  8
KANAMONO_SCREW
100
AcDbLine
 10
303.6214068282685
 20
112.9080258733949
 30
0.0
 11
303.6214068282684
 21
116.5080258733946
 31
0.0
  0
LINE
  5
4487
330
1F
100
AcDbEntity
  8
KANAMONO_SCREW
100
AcDbLine
 10
304.4114068282683
 20
114.5080258733949
 30
0.0
 11
303.6214068282684
 21
114.5080258733949
 31
0.0
  0
LINE
  5
4488
330
1F
100
AcDbEntity
  8
KANAMONO_SCREW
100
AcDbLine
 10
304.4114068282683
 20
115.0080258733948
 30
0.0
 11
303.6214068282684
 21
115.0080258733948
 31
0.0
  0
LINE
  5
4489
330
1F
100
AcDbEntity
  8
KANAMONO_SCREW
100
AcDbLine
 10
304.4114068282683
 20
115.5080258733949
 30
0.0
 11
303.6214068282684
 21
115.5080258733949
 31
0.0
  0
LINE
  5
448A
330
1F
100
AcDbEntity
  8
KANAMONO_SCREW
100
AcDbLine
 10
304.4114068282683
 20
116.0080258733948
 30
0.0
 11
303.6214068282684
 21
116.0080258733948
 31
0.0
  0
LINE
  5
448B
330
1F
100
AcDbEntity
  8
KANAMONO_SCREW
100
AcDbLine
 10
309.3014068282684
 20
116.5080258733946
 30
0.0
 11
308.4114068282683
 21
116.5080258733946
 31
0.0
  0
LINE
  5
448C
330
1F
100
AcDbEntity
  8
KANAMONO_SCREW
100
AcDbLine
 10
308.4114068282683
 20
111.1080258733945
 30
0.0
 11
308.4114068282683
 21
116.5080258733946
 31
0.0
  0
LINE
  5
448D
330
1F
100
AcDbEntity
  8
KANAMONO_SCREW
100
AcDbLine
 10
304.4114068282683
 20
111.1080258733961
 30
0.0
 11
304.4114068282683
 21
116.5080258733946
 31
0.0
  0
LINE
  5
448E
330
1F
100
AcDbEntity
  8
KANAMONO_SCREW
100
AcDbLine
 10
304.4114068282683
 20
116.5080258733946
 30
0.0
 11
303.5214068282684
 21
116.5080258733946
 31
0.0
  0
LINE
  5
448F
330
1F
100
AcDbEntity
  8
KANAMONO_SCREW
100
AcDbLine
 10
309.3014068282684
 20
118.3080258733948
 30
0.0
 11
303.5214068282684
 21
118.3080258733948
 31
0.0
  0
LINE
  5
4490
330
1F
100
AcDbEntity
  8
KANAMONO_SCREW
100
AcDbLine
 10
307.76140713443
 20
117.3080258733948
 30
0.0
 11
303.5214068282684
 21
117.3080258733948
 31
0.0
  0
LINE
  5
4491
330
1F
100
AcDbEntity
  8
KANAMONO_SCREW
100
AcDbLine
 10
309.3014068282684
 20
117.3080258733948
 30
0.0
 11
308.0614071344302
 21
117.3080258733948
 31
0.0
  0
LINE
  5
4492
330
1F
100
AcDbEntity
  8
KANAMONO_SCREW
100
AcDbLine
 10
308.0614071344302
 20
115.9031155809818
 30
0.0
 11
308.0614071344302
 21
117.5080258733944
 31
0.0
  0
LINE
  5
4493
330
1F
100
AcDbEntity
  8
KANAMONO_SCREW
100
AcDbLine
 10
308.0614071344302
 20
117.5080258733944
 30
0.0
 11
307.76140713443
 21
117.5080258733944
 31
0.0
  0
LINE
  5
4494
330
1F
100
AcDbEntity
  8
KANAMONO_SCREW
100
AcDbLine
 10
307.76140713443
 20
115.9031155809818
 30
0.0
 11
307.76140713443
 21
117.5080258733944
 31
0.0
  0
ARC
  5
4495
330
1F
100
AcDbEntity
  8
KANAMONO_SCREW
100
AcDbCircle
 10
306.0614068282683
 20
112.7129362707805
 30
0.0
 40
1.3
100
AcDbArc
 50
122.858397292397
 51
180.0
  0
LINE
  5
4496
330
1F
100
AcDbEntity
  8
KANAMONO_SCREW
100
AcDbLine
 10
304.7614068282683
 20
112.3080258733948
 30
0.0
 11
304.7614068282683
 21
112.7129362707805
 31
0.0
  0
ARC
  5
4497
330
1F
100
AcDbEntity
  8
KANAMONO_SCREW
100
AcDbCircle
 10
306.0614068282683
 20
112.7129362707805
 30
0.0
 40
1.0
100
AcDbArc
 50
122.8583972924123
 51
180.0
  0
LINE
  5
4498
330
1F
100
AcDbEntity
  8
KANAMONO_SCREW
100
AcDbLine
 10
305.0614068282684
 20
112.3080258733948
 30
0.0
 11
305.0614068282684
 21
112.7129362707805
 31
0.0
  0
ARC
  5
4499
330
1F
100
AcDbEntity
  8
KANAMONO_SCREW
100
AcDbCircle
 10
306.76140713443
 20
115.9031155809818
 30
0.0
 40
1.0
100
AcDbArc
 50
302.8583972924124
 51
0.0
  0
LINE
  5
449A
330
1F
100
AcDbEntity
  8
KANAMONO_SCREW
100
AcDbLine
 10
305.5188421729834
 20
113.5529503152083
 30
0.0
 11
307.4667411862999
 21
114.8110973232257
 31
0.0
  0
ARC
  5
449B
330
1F
100
AcDbEntity
  8
KANAMONO_SCREW
100
AcDbCircle
 10
306.76140713443
 20
115.9031155809818
 30
0.0
 40
1.3
100
AcDbArc
 50
302.858397292397
 51
0.0
  0
LINE
  5
449C
330
1F
100
AcDbEntity
  8
KANAMONO_SCREW
100
AcDbLine
 10
305.3560727763983
 20
113.8049545285366
 30
0.0
 11
307.3039717897149
 21
115.063101536554
 31
0.0
  0
LINE
  5
449D
330
1F
100
AcDbEntity
  8
KANAMONO_SCREW
100
AcDbLine
 10
305.0614068282684
 20
112.3080258733948
 30
0.0
 11
304.7614068282683
 21
112.3080258733948
 31
0.0
  0
LINE
  5
449E
330
1F
100
AcDbEntity
  8
KANAMONO_SCREW
100
AcDbLine
 10
304.7614068282683
 20
111.203115476009
 30
0.0
 11
304.7614068282683
 21
111.6080258733948
 31
0.0
  0
LINE
  5
449F
330
1F
100
AcDbEntity
  8
KANAMONO_SCREW
100
AcDbLine
 10
305.0614068282684
 20
111.6080258733948
 30
0.0
 11
304.7614068282683
 21
111.6080258733948
 31
0.0
  0
LINE
  5
44A0
330
1F
100
AcDbEntity
  8
KANAMONO_SCREW
100
AcDbLine
 10
305.0614068282684
 20
111.203115476009
 30
0.0
 11
305.0614068282684
 21
111.6080258733948
 31
0.0
  0
ARC
  5
44A1
330
1F
100
AcDbEntity
  8
KANAMONO_SCREW
100
AcDbCircle
 10
306.5614071344299
 20
97.14211606675915
 30
0.0
 40
1.0
100
AcDbArc
 50
0.0
 51
57.141602707603
  0
LINE
  5
44A2
330
1F
100
AcDbEntity
  8
KANAMONO_SCREW
100
AcDbLine
 10
307.56140713443
 20
94.5739356800311
 30
0.0
 11
307.56140713443
 21
97.14211606675915
 31
0.0
  0
LINE
  5
44A3
330
1F
100
AcDbEntity
  8
KANAMONO_SCREW
100
AcDbLine
 10
305.3560727763983
 20
99.11109721825297
 30
0.0
 11
307.1039717897146
 21
97.9821301111867
 31
0.0
  0
ARC
  5
44A4
330
1F
100
AcDbEntity
  8
KANAMONO_SCREW
100
AcDbCircle
 10
306.5614071344299
 20
94.5739356800311
 30
0.0
 40
1.0
100
AcDbArc
 50
302.858397292397
 51
0.0
  0
LINE
  5
44A5
330
1F
100
AcDbEntity
  8
KANAMONO_SCREW
100
AcDbLine
 10
306.8560727763984
 20
93.57380378567242
 30
0.0
 11
307.1039717897146
 21
93.7339216356033
 31
0.0
  0
ARC
  5
44A6
330
1F
100
AcDbEntity
  8
KANAMONO_SCREW
100
AcDbCircle
 10
306.5614071344299
 20
94.5739356800311
 30
0.0
 40
1.3
100
AcDbArc
 50
302.8583972924124
 51
0.0
  0
LINE
  5
44A7
330
1F
100
AcDbEntity
  8
KANAMONO_SCREW
100
AcDbLine
 10
307.0188421729836
 20
93.32179957234414
 30
0.0
 11
307.2667411863002
 21
93.48191742227502
 31
0.0
  0
LINE
  5
44A8
330
1F
100
AcDbEntity
  8
KANAMONO_SCREW
100
AcDbLine
 10
307.8614071344299
 20
94.5739356800311
 30
0.0
 11
307.8614071344299
 21
97.14211606675915
 31
0.0
  0
ARC
  5
44A9
330
1F
100
AcDbEntity
  8
KANAMONO_SCREW
100
AcDbCircle
 10
306.5614071344299
 20
97.14211606675915
 30
0.0
 40
1.3
100
AcDbArc
 50
0.0
 51
57.141602707603
  0
LINE
  5
44AA
330
1F
100
AcDbEntity
  8
KANAMONO_SCREW
100
AcDbLine
 10
305.5188421729834
 20
99.36310143158104
 30
0.0
 11
307.2667411863
 21
98.234134324515
 31
0.0
  0
ARC
  5
44AB
330
1F
100
AcDbEntity
  8
KANAMONO_SCREW
100
AcDbCircle
 10
306.0614068282683
 20
111.203115476009
 30
0.0
 40
1.3
100
AcDbArc
 50
180.0
 51
237.141602707603
  0
ARC
  5
44AC
330
1F
100
AcDbEntity
  8
KANAMONO_SCREW
100
AcDbCircle
 10
306.0614068282683
 20
111.203115476009
 30
0.0
 40
1.0
100
AcDbArc
 50
180.0
 51
237.1416027075877
  0
ARC
  5
44AD
330
1F
100
AcDbEntity
  8
KANAMONO_SCREW
100
AcDbCircle
 10
306.76140713443
 20
105.7031155809822
 30
0.0
 40
1.0
100
AcDbArc
 50
302.858397292397
 51
0.0
  0
LINE
  5
44AE
330
1F
100
AcDbEntity
  8
KANAMONO_SCREW
100
AcDbLine
 10
305.3560727763983
 20
110.111097218253
 30
0.0
 11
307.3039717897146
 21
108.8529502102353
 31
0.0
  0
LINE
  5
44AF
330
1F
100
AcDbEntity
  8
KANAMONO_SCREW
100
AcDbLine
 10
307.76140713443
 20
105.7031155809822
 30
0.0
 11
307.76140713443
 21
108.0129361658077
 31
0.0
  0
ARC
  5
44B0
330
1F
100
AcDbEntity
  8
KANAMONO_SCREW
100
AcDbCircle
 10
306.76140713443
 20
108.0129361658077
 30
0.0
 40
1.0
100
AcDbArc
 50
0.0
 51
57.141602707603
  0
LINE
  5
44B1
330
1F
100
AcDbEntity
  8
KANAMONO_SCREW
100
AcDbLine
 10
305.5188421729834
 20
110.3631014315813
 30
0.0
 11
307.4667411862999
 21
109.1049544235636
 31
0.0
  0
ARC
  5
44B2
330
1F
100
AcDbEntity
  8
KANAMONO_SCREW
100
AcDbCircle
 10
306.76140713443
 20
108.0129361658077
 30
0.0
 40
1.3
100
AcDbArc
 50
0.0
 51
57.141602707603
  0
LINE
  5
44B3
330
1F
100
AcDbEntity
  8
KANAMONO_SCREW
100
AcDbLine
 10
308.0614071344299
 20
105.7031155809822
 30
0.0
 11
308.0614071344299
 21
108.0129361658077
 31
0.0
  0
ARC
  5
44B4
330
1F
100
AcDbEntity
  8
KANAMONO_SCREW
100
AcDbCircle
 10
306.76140713443
 20
105.7031155809822
 30
0.0
 40
1.3
100
AcDbArc
 50
302.858397292397
 51
0.0
  0
ARC
  5
44B5
330
1F
100
AcDbEntity
  8
KANAMONO_SCREW
100
AcDbCircle
 10
306.0614068282683
 20
100.203115476009
 30
0.0
 40
1.3
100
AcDbArc
 50
180.0
 51
237.141602707603
  0
ARC
  5
44B6
330
1F
100
AcDbEntity
  8
KANAMONO_SCREW
100
AcDbCircle
 10
306.0614068282683
 20
100.203115476009
 30
0.0
 40
1.0
100
AcDbArc
 50
180.0
 51
237.1416027075877
  0
LINE
  5
44B7
330
1F
100
AcDbEntity
  8
KANAMONO_SCREW
100
AcDbLine
 10
304.7614068282683
 20
100.203115476009
 30
0.0
 11
304.7614068282683
 21
102.5129362707807
 31
0.0
  0
LINE
  5
44B8
330
1F
100
AcDbEntity
  8
KANAMONO_SCREW
100
AcDbLine
 10
305.3560727763983
 20
103.604954528537
 30
0.0
 11
307.3039717897146
 21
104.8631015365544
 31
0.0
  0
ARC
  5
44B9
330
1F
100
AcDbEntity
  8
KANAMONO_SCREW
100
AcDbCircle
 10
306.0614068282683
 20
102.5129362707807
 30
0.0
 40
1.3
100
AcDbArc
 50
122.858397292397
 51
180.0
  0
LINE
  5
44BA
330
1F
100
AcDbEntity
  8
KANAMONO_SCREW
100
AcDbLine
 10
305.0614068282684
 20
100.203115476009
 30
0.0
 11
305.0614068282684
 21
102.5129362707807
 31
0.0
  0
LINE
  5
44BB
330
1F
100
AcDbEntity
  8
KANAMONO_SCREW
100
AcDbLine
 10
305.5188421729834
 20
103.3529503152087
 30
0.0
 11
307.4667411862999
 21
104.6110973232261
 31
0.0
  0
ARC
  5
44BC
330
1F
100
AcDbEntity
  8
KANAMONO_SCREW
100
AcDbCircle
 10
306.0614068282683
 20
102.5129362707807
 30
0.0
 40
1.0
100
AcDbArc
 50
122.8583972924123
 51
180.0
  0
ARC
  5
44BD
330
1F
100
AcDbEntity
  8
KANAMONO_SCREW
100
AcDbCircle
 10
307.5614068282683
 20
92.48178552791634
 30
0.0
 40
1.0
100
AcDbArc
 50
122.8583972924123
 51
180.0
  0
ARC
  5
44BE
330
1F
100
AcDbEntity
  8
KANAMONO_SCREW
100
AcDbCircle
 10
307.5614068282683
 20
92.48178552791634
 30
0.0
 40
1.3
100
AcDbArc
 50
122.858397292397
 51
180.0
  0
LINE
  5
44BF
330
1F
100
AcDbEntity
  8
KANAMONO_SCREW
100
AcDbLine
 10
306.2614068282682
 20
92.30802587339482
 30
0.0
 11
306.2614068282682
 21
92.48178552791634
 31
0.0
  0
LINE
  5
44C0
330
1F
100
AcDbEntity
  8
KANAMONO_SCREW
100
AcDbLine
 10
306.5614068282684
 20
92.30802587339482
 30
0.0
 11
306.5614068282684
 21
92.48178552791634
 31
0.0
  0
LINE
  5
44C1
330
1F
100
AcDbEntity
  8
KANAMONO_SCREW
100
AcDbLine
 10
306.5614068282684
 20
92.30802587339482
 30
0.0
 11
306.2614068282682
 21
92.30802587339482
 31
0.0
  0
LINE
  5
44C2
330
1F
100
AcDbEntity
  8
KANAMONO_SCREW
100
AcDbLine
 10
309.6364068282682
 20
107.3080258733948
 30
0.0
 11
308.5523501126635
 21
107.3080258733948
 31
0.0
  0
LINE
  5
44C3
330
1F
100
AcDbEntity
  8
KANAMONO_SCREW
100
AcDbLine
 10
304.2703541966894
 20
107.3080258733948
 30
0.0
 11
303.1864068282683
 21
107.3080258733948
 31
0.0
  0
LINE
  5
44C4
330
1F
100
AcDbEntity
  8
KANAMONO_SCREW
100
AcDbLine
 10
309.5750313900785
 20
107.9080258733949
 30
0.0
 11
308.5300959098645
 21
107.9080258733949
 31
0.0
  0
LINE
  5
44C5
330
1F
100
AcDbEntity
  8
KANAMONO_SCREW
100
AcDbLine
 10
309.5221366532363
 20
108.5080258733948
 30
0.0
 11
308.5078417070651
 21
108.5080258733948
 31
0.0
  0
LINE
  5
44C6
330
1F
100
AcDbEntity
  8
KANAMONO_SCREW
100
AcDbLine
 10
309.4692419163944
 20
109.1080258733945
 30
0.0
 11
308.4855875042657
 21
109.1080258733945
 31
0.0
  0
LINE
  5
44C7
330
1F
100
AcDbEntity
  8
KANAMONO_SCREW
100
AcDbLine
 10
309.4163471795521
 20
109.7080258733949
 30
0.0
 11
308.4633333014666
 21
109.7080258733949
 31
0.0
  0
LINE
  5
44C8
330
1F
100
AcDbEntity
  8
KANAMONO_SCREW
100
AcDbLine
 10
309.3634524427098
 20
110.3080258733948
 30
0.0
 11
308.4410790986673
 21
110.3080258733948
 31
0.0
  0
LINE
  5
44C9
330
1F
100
AcDbEntity
  8
KANAMONO_SCREW
100
AcDbLine
 10
304.4039830055534
 20
110.9080258733949
 30
0.0
 11
303.5122562568305
 21
110.9080258733949
 31
0.0
  0
LINE
  5
44CA
330
1F
100
AcDbEntity
  8
KANAMONO_SCREW
100
AcDbLine
 10
304.3817115374094
 20
110.3080258733948
 30
0.0
 11
303.4593615199884
 21
110.3080258733948
 31
0.0
  0
LINE
  5
44CB
330
1F
100
AcDbEntity
  8
KANAMONO_SCREW
100
AcDbLine
 10
304.3594400692655
 20
109.7080258733949
 30
0.0
 11
303.4064667831462
 21
109.7080258733949
 31
0.0
  0
LINE
  5
44CC
330
1F
100
AcDbEntity
  8
KANAMONO_SCREW
100
AcDbLine
 10
304.3371686011213
 20
109.1080258733945
 30
0.0
 11
303.3535720463042
 21
109.1080258733945
 31
0.0
  0
LINE
  5
44CD
330
1F
100
AcDbEntity
  8
KANAMONO_SCREW
100
AcDbLine
 10
304.3148971329773
 20
108.5080258733948
 30
0.0
 11
303.300677309462
 21
108.5080258733948
 31
0.0
  0
LINE
  5
44CE
330
1F
100
AcDbEntity
  8
KANAMONO_SCREW
100
AcDbLine
 10
304.2926256648334
 20
107.9080258733949
 30
0.0
 11
303.2477825726199
 21
107.9080258733949
 31
0.0
  0
LINE
  5
44CF
330
1F
100
AcDbEntity
  8
KANAMONO_SCREW
100
AcDbLine
 10
308.5524771497645
 20
107.3046008007791
 30
0.0
 11
308.4114068282683
 21
111.1080258733945
 31
0.0
  0
LINE
  5
44D0
330
1F
100
AcDbEntity
  8
KANAMONO_SCREW
100
AcDbLine
 10
304.2703541966894
 20
107.3080258733948
 30
0.0
 11
304.4114068282683
 21
111.1080258733945
 31
0.0
  0
LINE
  5
44D1
330
1F
100
AcDbEntity
  8
KANAMONO_SCREW
100
AcDbLine
 10
308.5614064914877
 20
105.6080258733945
 30
0.0
 11
308.5524771497645
 21
107.3046008007791
 31
0.0
  0
LINE
  5
44D2
330
1F
100
AcDbEntity
  8
KANAMONO_SCREW
100
AcDbLine
 10
304.2614068282682
 20
105.6080258733945
 30
0.0
 11
304.2703991009622
 21
107.3165576852645
 31
0.0
  0
LINE
  5
44D3
330
1F
100
AcDbEntity
  8
KANAMONO_SCREW
100
AcDbLine
 10
309.3105577058676
 20
110.9080258733949
 30
0.0
 11
308.4124594598472
 21
110.9080258733949
 31
0.0
  0
LINE
  5
44D4
330
1F
100
AcDbEntity
  8
KANAMONO_SCREW
100
AcDbLine
 10
304.4114068282683
 20
112.9080258733949
 30
0.0
 11
303.5214068282684
 21
112.9080258733949
 31
0.0
  0
LINE
  5
44D5
330
1F
100
AcDbEntity
  8
KANAMONO_SCREW
100
AcDbLine
 10
309.3014068282684
 20
112.9080258733949
 30
0.0
 11
308.4114068282683
 21
112.9080258733949
 31
0.0
  0
LINE
  5
44D6
330
1F
100
AcDbEntity
  8
KANAMONO_SCREW
100
AcDbLine
 10
304.4114068282683
 20
111.1080258733945
 30
0.0
 11
303.5214068282684
 21
111.1080258733945
 31
0.0
  0
LINE
  5
44D7
330
1F
100
AcDbEntity
  8
KANAMONO_SCREW
100
AcDbLine
 10
309.3014068282684
 20
111.1080258733945
 30
0.0
 11
308.4114068282683
 21
111.1080258733945
 31
0.0
  0
LINE
  5
44D8
330
1F
100
AcDbEntity
  8
KANAMONO_SCREW
100
AcDbLine
 10
309.4750434980665
 20
107.308025873395
 30
0.0
 11
309.1400434980664
 21
111.108025873395
 31
0.0
  0
LINE
  5
44D9
330
1F
100
AcDbEntity
  8
KANAMONO_SCREW
100
AcDbLine
 10
303.3477704646319
 20
107.308025873395
 30
0.0
 11
303.682770464632
 21
111.108025873395
 31
0.0
  0
LINE
  5
44DA
330
1F
100
AcDbEntity
  8
KANAMONO_SCREW
100
AcDbLine
 10
304.2714068282683
 20
105.2080258733949
 30
0.0
 11
303.2048878357776
 21
105.2080258733947
 31
0.0
  0
LINE
  5
44DB
330
1F
100
AcDbEntity
  8
KANAMONO_SCREW
100
AcDbLine
 10
304.2864068282682
 20
104.6080258733945
 30
0.0
 11
303.2198878357777
 21
104.6080258733945
 31
0.0
  0
LINE
  5
44DC
330
1F
100
AcDbEntity
  8
KANAMONO_SCREW
100
AcDbLine
 10
304.3014068282681
 20
104.0080258733949
 30
0.0
 11
303.2348878357778
 21
104.0080258733949
 31
0.0
  0
LINE
  5
44DD
330
1F
100
AcDbEntity
  8
KANAMONO_SCREW
100
AcDbLine
 10
304.3164068282682
 20
103.4080258733949
 30
0.0
 11
303.2498878357777
 21
103.4080258733949
 31
0.0
  0
LINE
  5
44DE
330
1F
100
AcDbEntity
  8
KANAMONO_SCREW
100
AcDbLine
 10
304.3314068282683
 20
102.8080258733948
 30
0.0
 11
303.2648878357778
 21
102.8080258733948
 31
0.0
  0
LINE
  5
44DF
330
1F
100
AcDbEntity
  8
KANAMONO_SCREW
100
AcDbLine
 10
304.3464068282682
 20
102.2080258733947
 30
0.0
 11
303.2798878357779
 21
102.2080258733947
 31
0.0
  0
LINE
  5
44E0
330
1F
100
AcDbEntity
  8
KANAMONO_SCREW
100
AcDbLine
 10
309.6179257901398
 20
105.2080258733949
 30
0.0
 11
308.5514064914878
 21
105.2080258733949
 31
0.0
  0
LINE
  5
44E1
330
1F
100
AcDbEntity
  8
KANAMONO_SCREW
100
AcDbLine
 10
309.6029257901397
 20
104.6080258733945
 30
0.0
 11
308.5364064914878
 21
104.6080258733945
 31
0.0
  0
LINE
  5
44E2
330
1F
100
AcDbEntity
  8
KANAMONO_SCREW
100
AcDbLine
 10
309.5879257901398
 20
104.0080258733949
 30
0.0
 11
308.5214064914877
 21
104.0080258733949
 31
0.0
  0
LINE
  5
44E3
330
1F
100
AcDbEntity
  8
KANAMONO_SCREW
100
AcDbLine
 10
309.5729257901397
 20
103.4080258733949
 30
0.0
 11
308.5064064914876
 21
103.4080258733949
 31
0.0
  0
LINE
  5
44E4
330
1F
100
AcDbEntity
  8
KANAMONO_SCREW
100
AcDbLine
 10
309.5579257901399
 20
102.8080258733948
 30
0.0
 11
308.5074556814143
 21
102.8080258733948
 31
0.0
  0
LINE
  5
44E5
330
1F
100
AcDbEntity
  8
KANAMONO_SCREW
100
AcDbLine
 10
309.5429257901401
 20
102.2080258733949
 30
0.0
 11
308.4764064914879
 21
102.2080258733949
 31
0.0
  0
LINE
  5
44E6
330
1F
100
AcDbEntity
  8
KANAMONO_SCREW
100
AcDbLine
 10
309.3750431919338
 20
101.608039345775
 30
0.0
 11
309.4750431919337
 21
105.608039345775
 31
0.0
  0
LINE
  5
44E7
330
1F
100
AcDbEntity
  8
KANAMONO_SCREW
100
AcDbLine
 10
303.447770464632
 20
101.6080258733945
 30
0.0
 11
303.3477704646319
 21
105.6080258733945
 31
0.0
  0
LINE
  5
44E8
330
1F
100
AcDbEntity
  8
KANAMONO_SCREW
100
AcDbLine
 10
309.1614068282682
 20
96.10802587339456
 30
0.0
 11
309.2477704646318
 21
99.90802587339473
 31
0.0
  0
LINE
  5
44E9
330
1F
100
AcDbEntity
  8
KANAMONO_SCREW
100
AcDbLine
 10
309.4100434980664
 20
96.70802587339492
 30
0.0
 11
308.3094331440579
 21
96.70802587339492
 31
0.0
  0
LINE
  5
44EA
330
1F
100
AcDbEntity
  8
KANAMONO_SCREW
100
AcDbLine
 10
309.4236798617028
 20
97.30802587339482
 30
0.0
 11
308.3324594598472
 21
97.30802587339482
 31
0.0
  0
LINE
  5
44EB
330
1F
100
AcDbEntity
  8
KANAMONO_SCREW
100
AcDbLine
 10
309.437316225339
 20
97.90802587339474
 30
0.0
 11
308.3554857756367
 21
97.90802587339474
 31
0.0
  0
LINE
  5
44EC
330
1F
100
AcDbEntity
  8
KANAMONO_SCREW
100
AcDbLine
 10
309.4509525889755
 20
98.50802587339465
 30
0.0
 11
308.3785120914261
 21
98.50802587339465
 31
0.0
  0
LINE
  5
44ED
330
1F
100
AcDbEntity
  8
KANAMONO_SCREW
100
AcDbLine
 10
309.4645889526117
 20
99.10802587339455
 30
0.0
 11
308.4245647230051
 21
99.10802587339455
 31
0.0
  0
LINE
  5
44EE
330
1F
100
AcDbEntity
  8
KANAMONO_SCREW
100
AcDbLine
 10
304.3982489335315
 20
99.10802587339455
 30
0.0
 11
303.3563738560573
 21
99.10802587339455
 31
0.0
  0
LINE
  5
44EF
330
1F
100
AcDbEntity
  8
KANAMONO_SCREW
100
AcDbLine
 10
304.4443015651103
 20
98.50802587339465
 30
0.0
 11
303.3672144966607
 21
98.50802587339465
 31
0.0
  0
LINE
  5
44F0
330
1F
100
AcDbEntity
  8
KANAMONO_SCREW
100
AcDbLine
 10
304.4673278808999
 20
97.90802587339474
 30
0.0
 11
303.3780551372643
 21
97.90802587339474
 31
0.0
  0
LINE
  5
44F1
330
1F
100
AcDbEntity
  8
KANAMONO_SCREW
100
AcDbLine
 10
304.4903541966894
 20
97.30802587339482
 30
0.0
 11
303.3888957778673
 21
97.30802587339482
 31
0.0
  0
LINE
  5
44F2
330
1F
100
AcDbEntity
  8
KANAMONO_SCREW
100
AcDbLine
 10
304.5133805124788
 20
96.70802587339469
 30
0.0
 11
303.3997364184708
 21
96.70802587339469
 31
0.0
  0
LINE
  5
44F3
330
1F
100
AcDbEntity
  8
KANAMONO_SCREW
100
AcDbLine
 10
304.2614068282682
 20
105.6080258733945
 30
0.0
 11
303.1864068282683
 21
105.6080258733945
 31
0.0
  0
LINE
  5
44F4
330
1F
100
AcDbEntity
  8
KANAMONO_SCREW
100
AcDbLine
 10
309.6364068282682
 20
105.6080258733945
 30
0.0
 11
308.5614064914877
 21
105.6080258733945
 31
0.0
  0
LINE
  5
44F5
330
1F
100
AcDbEntity
  8
KANAMONO_SCREW
100
AcDbLine
 10
308.4614068282973
 20
101.608039345775
 30
0.0
 11
308.5614068282971
 21
105.608039345775
 31
0.0
  0
LINE
  5
44F6
330
1F
100
AcDbEntity
  8
KANAMONO_SCREW
100
AcDbLine
 10
304.3614068282683
 20
101.6080258733952
 30
0.0
 11
304.2614068282682
 21
105.6080258733952
 31
0.0
  0
LINE
  5
44F7
330
1F
100
AcDbEntity
  8
KANAMONO_SCREW
100
AcDbLine
 10
309.6364068282682
 20
105.6080258733945
 30
0.0
 11
309.6364068282682
 21
107.3080258733948
 31
0.0
  0
LINE
  5
44F8
330
1F
100
AcDbEntity
  8
KANAMONO_SCREW
100
AcDbLine
 10
303.1864068282683
 20
105.6080258733945
 30
0.0
 11
303.1864068282683
 21
107.3080258733948
 31
0.0
  0
LINE
  5
44F9
330
1F
100
AcDbEntity
  8
KANAMONO_SCREW
100
AcDbLine
 10
303.6614068282682
 20
96.10802587339456
 30
0.0
 11
303.4864068282683
 21
99.90802587339473
 31
0.0
  0
LINE
  5
44FA
330
1F
100
AcDbEntity
  8
KANAMONO_SCREW
100
AcDbLine
 10
309.1614068282682
 20
91.70802587339492
 30
0.0
 11
309.1614068282682
 21
94.30802587339483
 31
0.0
  0
LINE
  5
44FB
330
1F
100
AcDbEntity
  8
KANAMONO_SCREW
100
AcDbLine
 10
303.6614068282682
 20
91.70802587339469
 30
0.0
 11
303.6614068282682
 21
94.30802587339483
 31
0.0
  0
LINE
  5
44FC
330
1F
100
AcDbEntity
  8
KANAMONO_SCREW
100
AcDbLine
 10
309.4759525889754
 20
99.60802587339456
 30
0.0
 11
308.4393368073355
 21
99.60802587339456
 31
0.0
  0
LINE
  5
44FD
330
1F
100
AcDbEntity
  8
KANAMONO_SCREW
100
AcDbLine
 10
309.4114068282682
 20
96.10802587339456
 30
0.0
 11
308.2864068282682
 21
96.10802587339456
 31
0.0
  0
LINE
  5
44FE
330
1F
100
AcDbEntity
  8
KANAMONO_SCREW
100
AcDbLine
 10
304.375222617742
 20
99.60802587339456
 30
0.0
 11
303.347339988888
 21
99.60802587339456
 31
0.0
  0
LINE
  5
44FF
330
1F
100
AcDbEntity
  8
KANAMONO_SCREW
100
AcDbLine
 10
309.4977707707934
 20
99.90802587339473
 30
0.0
 11
309.5364071344298
 21
101.6080258733945
 31
0.0
  0
LINE
  5
4500
330
1F
100
AcDbEntity
  8
KANAMONO_SCREW
100
AcDbLine
 10
303.3250431919048
 20
99.90802587339473
 30
0.0
 11
303.2864068282683
 21
101.6080258733945
 31
0.0
  0
LINE
  5
4501
330
1F
100
AcDbEntity
  8
KANAMONO_SCREW
100
AcDbLine
 10
304.3614068282683
 20
99.90802587339473
 30
0.0
 11
303.3250431919048
 21
99.90802587339473
 31
0.0
  0
LINE
  5
4502
330
1F
100
AcDbEntity
  8
KANAMONO_SCREW
100
AcDbLine
 10
309.4977707707934
 20
99.90802587339473
 30
0.0
 11
308.4614068282684
 21
99.90802587339473
 31
0.0
  0
LINE
  5
4503
330
1F
100
AcDbEntity
  8
KANAMONO_SCREW
100
AcDbLine
 10
304.3614068282683
 20
101.6080258733945
 30
0.0
 11
303.2864068282683
 21
101.6080258733945
 31
0.0
  0
LINE
  5
4504
330
1F
100
AcDbEntity
  8
KANAMONO_SCREW
100
AcDbLine
 10
309.5364068282683
 20
101.6080258733945
 30
0.0
 11
308.4614068282682
 21
101.6080258733945
 31
0.0
  0
LINE
  5
4505
330
1F
100
AcDbEntity
  8
KANAMONO_SCREW
100
AcDbLine
 10
308.2864068282682
 20
96.10802587339456
 30
0.0
 11
308.4614068282682
 21
99.90802587339473
 31
0.0
  0
LINE
  5
4506
330
1F
100
AcDbEntity
  8
KANAMONO_SCREW
100
AcDbLine
 10
304.5364068282682
 20
96.10802587339456
 30
0.0
 11
304.3614068282683
 21
99.90802587339473
 31
0.0
  0
LINE
  5
4507
330
1F
100
AcDbEntity
  8
KANAMONO_SCREW
100
AcDbLine
 10
306.4114071344302
 20
88.80802587339482
 30
0.0
 11
305.0150948337158
 21
90.62323186432283
 31
0.0
  0
ARC
  5
4508
330
1F
100
AcDbEntity
  8
KANAMONO_SCREW
100
AcDbCircle
 10
305.4114068282682
 20
90.92808724474773
 30
0.0
 40
0.5
100
AcDbArc
 50
180.0
 51
217.5685920288021
  0
LINE
  5
4509
330
1F
100
AcDbEntity
  8
KANAMONO_SCREW
100
AcDbLine
 10
304.9114068282684
 20
91.11102017407072
 30
0.0
 11
304.9114068282684
 21
90.9280872447475
 31
0.0
  0
LINE
  5
450A
330
1F
100
AcDbEntity
  8
KANAMONO_SCREW
100
AcDbLine
 10
306.4114071344302
 20
89.3080258733946
 30
0.0
 11
305.0010380277236
 21
91.141505712113
 31
0.0
  0
ARC
  5
450B
330
1F
100
AcDbEntity
  8
KANAMONO_SCREW
100
AcDbCircle
 10
304.9614068282682
 20
91.11102017407072
 30
0.0
 40
0.05
100
AcDbArc
 50
37.56859202884636
 51
180.0
  0
LINE
  5
450C
330
1F
100
AcDbEntity
  8
KANAMONO_SCREW
100
AcDbLine
 10
307.9114071344302
 20
91.11102017407072
 30
0.0
 11
307.9114071344302
 21
90.92808724474773
 31
0.0
  0
LINE
  5
450D
330
1F
100
AcDbEntity
  8
KANAMONO_SCREW
100
AcDbLine
 10
306.411406828268
 20
89.3080258733946
 30
0.0
 11
307.821775934975
 21
91.14150571211323
 31
0.0
  0
ARC
  5
450E
330
1F
100
AcDbEntity
  8
KANAMONO_SCREW
100
AcDbCircle
 10
307.8614071344299
 20
91.11102017407072
 30
0.0
 40
0.05
100
AcDbArc
 50
0.0
 51
142.4314079710051
  0
LINE
  5
450F
330
1F
100
AcDbEntity
  8
KANAMONO_SCREW
100
AcDbLine
 10
306.4114068282683
 20
88.80802587339482
 30
0.0
 11
307.8077191289823
 21
90.62323186432283
 31
0.0
  0
ARC
  5
4510
330
1F
100
AcDbEntity
  8
KANAMONO_SCREW
100
AcDbCircle
 10
307.4114071344302
 20
90.92808724474773
 30
0.0
 40
0.5
100
AcDbArc
 50
322.4314079711771
 51
0.0
  0
LINE
  5
4511
330
1F
100
AcDbEntity
  8
KANAMONO_SCREW
100
AcDbLine
 10
304.9114068282684
 20
93.41102017407067
 30
0.0
 11
304.9114068282684
 21
93.22808724474814
 31
0.0
  0
LINE
  5
4512
330
1F
100
AcDbEntity
  8
KANAMONO_SCREW
100
AcDbLine
 10
307.9114071344302
 20
93.41102017407067
 30
0.0
 11
307.9114071344302
 21
93.22808724474814
 31
0.0
  0
LINE
  5
4513
330
1F
100
AcDbEntity
  8
KANAMONO_SCREW
100
AcDbLine
 10
306.4114071344302
 20
91.60802587339455
 30
0.0
 11
305.0010380277236
 21
93.44150571211342
 31
0.0
  0
ARC
  5
4514
330
1F
100
AcDbEntity
  8
KANAMONO_SCREW
100
AcDbCircle
 10
304.9614068282682
 20
93.41102017407067
 30
0.0
 40
0.05
100
AcDbArc
 50
37.56859202884636
 51
180.0
  0
LINE
  5
4515
330
1F
100
AcDbEntity
  8
KANAMONO_SCREW
100
AcDbLine
 10
306.4114071344302
 20
91.10802587339454
 30
0.0
 11
305.0150948337158
 21
92.92323186432325
 31
0.0
  0
ARC
  5
4516
330
1F
100
AcDbEntity
  8
KANAMONO_SCREW
100
AcDbCircle
 10
305.4114068282682
 20
93.22808724474814
 30
0.0
 40
0.5
100
AcDbArc
 50
180.0
 51
217.5685920288229
  0
LINE
  5
4517
330
1F
100
AcDbEntity
  8
KANAMONO_SCREW
100
AcDbLine
 10
306.4114068282683
 20
91.60802587339455
 30
0.0
 11
307.821775934975
 21
93.44150571211342
 31
0.0
  0
ARC
  5
4518
330
1F
100
AcDbEntity
  8
KANAMONO_SCREW
100
AcDbCircle
 10
307.8614071344299
 20
93.41102017407067
 30
0.0
 40
0.05
100
AcDbArc
 50
0.0
 51
142.4314079710051
  0
LINE
  5
4519
330
1F
100
AcDbEntity
  8
KANAMONO_SCREW
100
AcDbLine
 10
306.4114068282683
 20
91.10802587339454
 30
0.0
 11
307.8077191289825
 21
92.92323186432302
 31
0.0
  0
ARC
  5
451A
330
1F
100
AcDbEntity
  8
KANAMONO_SCREW
100
AcDbCircle
 10
307.4114071344302
 20
93.22808724474814
 30
0.0
 40
0.5
100
AcDbArc
 50
322.4314079711562
 51
0.0
  0
LINE
  5
451B
330
1F
100
AcDbEntity
  8
KANAMONO_SCREW
100
AcDbLine
 10
304.5364068282682
 20
96.10802587339456
 30
0.0
 11
303.4114068282682
 21
96.10802587339456
 31
0.0
  0
LINE
  5
451C
330
1F
100
AcDbEntity
  8
KANAMONO_SCREW
100
AcDbLine
 10
304.5364068282682
 20
94.30802587339483
 30
0.0
 11
303.4114068282682
 21
94.30802587339483
 31
0.0
  0
LINE
  5
451D
330
1F
100
AcDbEntity
  8
KANAMONO_SCREW
100
AcDbLine
 10
309.4114068282682
 20
94.30802587339483
 30
0.0
 11
308.2864068282682
 21
94.30802587339483
 31
0.0
  0
LINE
  5
451E
330
1F
100
AcDbEntity
  8
KANAMONO_SCREW
100
AcDbLine
 10
304.5364068282682
 20
91.70802587339469
 30
0.0
 11
303.4114068282682
 21
91.70802587339469
 31
0.0
  0
LINE
  5
451F
330
1F
100
AcDbEntity
  8
KANAMONO_SCREW
100
AcDbLine
 10
309.410565167649
 20
91.70802587339492
 30
0.0
 11
308.2864068282682
 21
91.70802587339492
 31
0.0
  0
LINE
  5
4520
330
1F
100
AcDbEntity
  8
KANAMONO_SCREW
100
AcDbLine
 10
304.5364068282682
 20
93.25802587339465
 30
0.0
 11
303.4864068282683
 21
93.25802587339465
 31
0.0
  0
LINE
  5
4521
330
1F
100
AcDbEntity
  8
KANAMONO_SCREW
100
AcDbLine
 10
308.2864068282682
 20
91.70802587339492
 30
0.0
 11
308.2864068282682
 21
94.30802587339483
 31
0.0
  0
LINE
  5
4522
330
1F
100
AcDbEntity
  8
KANAMONO_SCREW
100
AcDbLine
 10
304.5364068282682
 20
91.70802587339469
 30
0.0
 11
304.5364068282682
 21
94.30802587339483
 31
0.0
  0
LINE
  5
4523
330
1F
100
AcDbEntity
  8
KANAMONO_SCREW
100
AcDbLine
 10
304.5364068282682
 20
92.25802587339464
 30
0.0
 11
303.4864068282683
 21
92.25802587339464
 31
0.0
  0
LINE
  5
4524
330
1F
100
AcDbEntity
  8
KANAMONO_SCREW
100
AcDbLine
 10
309.3364068282682
 20
92.25802587339464
 30
0.0
 11
308.2864068282682
 21
92.25802587339464
 31
0.0
  0
LINE
  5
4525
330
1F
100
AcDbEntity
  8
KANAMONO_SCREW
100
AcDbLine
 10
304.5364068282682
 20
92.75802587339464
 30
0.0
 11
303.4864068282683
 21
92.75802587339464
 31
0.0
  0
LINE
  5
4526
330
1F
100
AcDbEntity
  8
KANAMONO_SCREW
100
AcDbLine
 10
309.3364068282682
 20
92.75802587339464
 30
0.0
 11
308.2864068282682
 21
92.75802587339464
 31
0.0
  0
LINE
  5
4527
330
1F
100
AcDbEntity
  8
KANAMONO_SCREW
100
AcDbLine
 10
309.3364068282682
 20
93.25802587339465
 30
0.0
 11
308.2864068282682
 21
93.25802587339465
 31
0.0
  0
LINE
  5
4528
330
1F
100
AcDbEntity
  8
KANAMONO_SCREW
100
AcDbLine
 10
304.5364068282682
 20
93.75802587339464
 30
0.0
 11
303.4864068282683
 21
93.75802587339464
 31
0.0
  0
LINE
  5
4529
330
1F
100
AcDbEntity
  8
KANAMONO_SCREW
100
AcDbLine
 10
309.3364068282682
 20
93.75802587339464
 30
0.0
 11
308.2864068282682
 21
93.75802587339464
 31
0.0
  0
LINE
  5
452A
330
1F
100
AcDbEntity
  8
KANAMONO_SCREW
100
AcDbLine
 10
303.4114068282682
 20
94.30802587339483
 30
0.0
 11
303.4114068282682
 21
96.10802587339456
 31
0.0
  0
LINE
  5
452B
330
1F
100
AcDbEntity
  8
KANAMONO_SCREW
100
AcDbLine
 10
309.4114068282682
 20
94.30802587339483
 30
0.0
 11
309.4114068282682
 21
96.10802587339456
 31
0.0
  0
LINE
  5
452C
330
1F
100
AcDbEntity
  8
KANAMONO_SCREW
100
AcDbLine
 10
308.5114068282682
 20
88.30802587339482
 30
0.0
 11
309.4114068282682
 21
91.70802587339492
 31
0.0
  0
LINE
  5
452D
330
1F
100
AcDbEntity
  8
KANAMONO_SCREW
100
AcDbLine
 10
308.5114068282682
 20
88.30802587339482
 30
0.0
 11
304.3114068282684
 21
88.30802587339482
 31
0.0
  0
LINE
  5
452E
330
1F
100
AcDbEntity
  8
KANAMONO_SCREW
100
AcDbLine
 10
304.3114068282684
 20
88.30802587339482
 30
0.0
 11
303.4114068282682
 21
91.70802587339469
 31
0.0
  0
LINE
  5
452F
330
1F
100
AcDbEntity
  8
KANAMONO_SCREW
100
AcDbLine
 10
309.8014068282683
 20
113.3080258733948
 30
0.0
 11
309.3014068282684
 21
111.4080258733949
 31
0.0
  0
LINE
  5
4530
330
1F
100
AcDbEntity
  8
KANAMONO_SCREW
100
AcDbLine
 10
303.5214068282684
 20
111.4080258733949
 30
0.0
 11
303.0214068282684
 21
113.3080258733946
 31
0.0
  0
ARC
  5
4531
330
1F
100
AcDbEntity
  8
KANAMONO_SCREW
100
AcDbCircle
 10
314.1945362991084
 20
90.11304170349033
 30
0.0
 40
9.382689926641683
100
AcDbArc
 50
191.0915488138293
 51
213.950532353797
  0
ARC
  5
4532
330
1F
100
AcDbEntity
  8
KANAMONO_SCREW
100
AcDbCircle
 10
298.6282773574282
 20
90.11304170349033
 30
0.0
 40
9.382689926641683
100
AcDbArc
 50
326.049467646203
 51
348.9084511861707
  0
LINE
  5
4533
330
1F
100
AcDbEntity
  8
KANAMONO_SCREW
100
AcDbLine
 10
310.9114068282686
 20
149.8730258733942
 30
0.0
 11
301.9114068282685
 21
149.8730258733942
 31
0.0
  0
LINE
  5
4534
330
1F
100
AcDbEntity
  8
KANAMONO_SCREW
100
AcDbLine
 10
310.9114068282686
 20
149.1330258733944
 30
0.0
 11
301.9114068282685
 21
149.1330258733944
 31
0.0
  0
LINE
  5
4535
330
1F
100
AcDbEntity
  8
KANAMONO_SCREW
100
AcDbLine
 10
310.9114068282686
 20
149.8730258733942
 30
0.0
 11
310.9114068282686
 21
149.1330258733944
 31
0.0
  0
LINE
  5
4536
330
1F
100
AcDbEntity
  8
KANAMONO_SCREW
100
AcDbLine
 10
301.9114068282685
 20
149.8730258733942
 30
0.0
 11
301.9114068282685
 21
149.1330258733944
 31
0.0
  0
LINE
  5
4537
330
1F
100
AcDbEntity
  8
KANAMONO_SCREW
100
AcDbLine
 10
310.0864068282685
 20
148.3080258733943
 30
0.0
 11
310.9114068282686
 21
149.1330258733944
 31
0.0
  0
LINE
  5
4538
330
1F
100
AcDbEntity
  8
KANAMONO_SCREW
100
AcDbLine
 10
302.7364068282682
 20
148.3080258733948
 30
0.0
 11
301.9114068282685
 21
149.1330258733944
 31
0.0
  0
LINE
  5
4539
330
1F
100
AcDbEntity
  8
KANAMONO_SCREW
  6
DASHED1
100
AcDbLine
 10
326.9114068282685
 20
149.8730258733943
 30
0.0
 11
335.9114068282686
 21
149.8730258733943
 31
0.0
  0
LINE
  5
453A
330
1F
100
AcDbEntity
  8
KANAMONO_SCREW
  6
DASHED1
100
AcDbLine
 10
335.9114068282686
 20
149.8730258733943
 30
0.0
 11
335.9114068282685
 21
149.1330258733945
 31
0.0
  0
LINE
  5
453B
330
1F
100
AcDbEntity
  8
KANAMONO_SCREW
  6
DASHED1
100
AcDbLine
 10
335.9114068282685
 20
149.1330258733945
 30
0.0
 11
335.086406828269
 21
148.3080258733949
 31
0.0
  0
LINE
  5
453C
330
1F
100
AcDbEntity
  8
KANAMONO_SCREW
  6
DASHED1
100
AcDbLine
 10
335.086406828269
 20
148.3080258733949
 30
0.0
 11
335.0864068282685
 21
147.8580258733949
 31
0.0
  0
LINE
  5
453D
330
1F
100
AcDbEntity
  8
KANAMONO_SCREW
  6
DASHED1
100
AcDbLine
 10
335.0864068282685
 20
147.8580258733949
 30
0.0
 11
334.3014068282687
 21
147.008025873395
 31
0.0
  0
LINE
  5
453E
330
1F
100
AcDbEntity
  8
KANAMONO_SCREW
  6
DASHED1
100
AcDbLine
 10
334.3014068282687
 20
147.008025873395
 30
0.0
 11
334.201406828271
 21
147.008025873395
 31
0.0
  0
LINE
  5
453F
330
1F
100
AcDbEntity
  8
KANAMONO_SCREW
  6
DASHED1
100
AcDbLine
 10
334.201406828271
 20
147.008025873395
 30
0.0
 11
334.8014068282708
 21
146.5080258733952
 31
0.0
  0
LINE
  5
4540
330
1F
100
AcDbEntity
  8
KANAMONO_SCREW
  6
DASHED1
100
AcDbLine
 10
334.8014068282708
 20
146.5080258733952
 30
0.0
 11
334.8014068282692
 21
141.2080258733984
 31
0.0
  0
LINE
  5
4541
330
1F
100
AcDbEntity
  8
KANAMONO_SCREW
  6
DASHED1
100
AcDbLine
 10
334.8014068282692
 20
141.2080258733984
 30
0.0
 11
334.2014068282682
 21
139.3080258733949
 31
0.0
  0
LINE
  5
4542
330
1F
100
AcDbEntity
  8
KANAMONO_SCREW
  6
DASHED1
100
AcDbLine
 10
334.2014068282682
 20
139.3080258733949
 30
0.0
 11
334.2014068282682
 21
126.3080258733952
 31
0.0
  0
LINE
  5
4543
330
1F
100
AcDbEntity
  8
KANAMONO_SCREW
  6
DASHED1
100
AcDbLine
 10
334.2014068282682
 20
126.3080258733952
 30
0.0
 11
334.8014068282683
 21
125.8080258733951
 31
0.0
  0
LINE
  5
4544
330
1F
100
AcDbEntity
  8
KANAMONO_SCREW
  6
DASHED1
100
AcDbLine
 10
334.8014068282683
 20
125.8080258733951
 30
0.0
 11
334.8014068282683
 21
113.3080258733949
 31
0.0
  0
LINE
  5
4545
330
1F
100
AcDbEntity
  8
KANAMONO_SCREW
  6
DASHED1
100
AcDbLine
 10
334.8014068282683
 20
113.3080258733949
 30
0.0
 11
334.3014068282684
 21
111.4080258733951
 31
0.0
  0
LINE
  5
4546
330
1F
100
AcDbEntity
  8
KANAMONO_SCREW
  6
DASHED1
100
AcDbLine
 10
334.3014068282684
 20
111.4080258733951
 30
0.0
 11
334.3014068282684
 21
111.1080258733947
 31
0.0
  0
LINE
  5
4547
330
1F
100
AcDbEntity
  8
KANAMONO_SCREW
  6
DASHED1
100
AcDbLine
 10
334.3014068282684
 20
111.1080258733947
 30
0.0
 11
334.1400434980664
 21
111.1080258733947
 31
0.0
  0
LINE
  5
4548
330
1F
100
AcDbEntity
  8
KANAMONO_SCREW
  6
DASHED1
100
AcDbLine
 10
334.1400434980664
 20
111.1080258733947
 30
0.0
 11
334.4750434980665
 21
107.3080258733951
 31
0.0
  0
LINE
  5
4549
330
1F
100
AcDbEntity
  8
KANAMONO_SCREW
  6
DASHED1
100
AcDbLine
 10
334.4750434980665
 20
107.3080258733951
 30
0.0
 11
334.6364068282682
 21
107.3080258733949
 31
0.0
  0
LINE
  5
454A
330
1F
100
AcDbEntity
  8
KANAMONO_SCREW
  6
DASHED1
100
AcDbLine
 10
334.6364068282682
 20
107.3080258733949
 30
0.0
 11
334.6364068282682
 21
105.6080258733946
 31
0.0
  0
LINE
  5
454B
330
1F
100
AcDbEntity
  8
KANAMONO_SCREW
  6
DASHED1
100
AcDbLine
 10
334.6364068282682
 20
105.6080258733946
 30
0.0
 11
334.4750428551242
 21
105.6080258733946
 31
0.0
  0
LINE
  5
454C
330
1F
100
AcDbEntity
  8
KANAMONO_SCREW
  6
DASHED1
100
AcDbLine
 10
334.4750428551242
 20
105.6080258733946
 30
0.0
 11
334.3750431919338
 21
101.6080393457751
 31
0.0
  0
LINE
  5
454D
330
1F
100
AcDbEntity
  8
KANAMONO_SCREW
  6
DASHED1
100
AcDbLine
 10
334.3750431919338
 20
101.6080393457751
 30
0.0
 11
334.5364071344298
 21
101.6080258733946
 31
0.0
  0
LINE
  5
454E
330
1F
100
AcDbEntity
  8
KANAMONO_SCREW
  6
DASHED1
100
AcDbLine
 10
334.5364071344298
 20
101.6080258733946
 30
0.0
 11
334.4977707707934
 21
99.90802587339485
 31
0.0
  0
LINE
  5
454F
330
1F
100
AcDbEntity
  8
KANAMONO_SCREW
  6
DASHED1
100
AcDbLine
 10
334.4977707707934
 20
99.90802587339485
 30
0.0
 11
334.2477704646318
 21
99.90802587339485
 31
0.0
  0
LINE
  5
4550
330
1F
100
AcDbEntity
  8
KANAMONO_SCREW
  6
DASHED1
100
AcDbLine
 10
334.2477704646318
 20
99.90802587339485
 30
0.0
 11
334.1614068282682
 21
96.10802587339467
 31
0.0
  0
LINE
  5
4551
330
1F
100
AcDbEntity
  8
KANAMONO_SCREW
  6
DASHED1
100
AcDbLine
 10
334.1614068282682
 20
96.10802587339467
 30
0.0
 11
334.4114068282682
 21
96.10802587339467
 31
0.0
  0
LINE
  5
4552
330
1F
100
AcDbEntity
  8
KANAMONO_SCREW
  6
DASHED1
100
AcDbLine
 10
334.4114068282682
 20
96.10802587339467
 30
0.0
 11
334.4114068282682
 21
94.30802587339504
 31
0.0
  0
LINE
  5
4553
330
1F
100
AcDbEntity
  8
KANAMONO_SCREW
  6
DASHED1
100
AcDbLine
 10
334.4114068282682
 20
94.30802587339504
 30
0.0
 11
334.1614068282682
 21
94.30802587339504
 31
0.0
  0
LINE
  5
4554
330
1F
100
AcDbEntity
  8
KANAMONO_SCREW
  6
DASHED1
100
AcDbLine
 10
334.1614068282682
 20
94.30802587339504
 30
0.0
 11
334.1614068282682
 21
91.70802587339514
 31
0.0
  0
LINE
  5
4555
330
1F
100
AcDbEntity
  8
KANAMONO_SCREW
  6
DASHED1
100
AcDbLine
 10
334.1614068282682
 20
91.70802587339514
 30
0.0
 11
334.4114068282682
 21
91.70802587339514
 31
0.0
  0
LINE
  5
4556
330
1F
100
AcDbEntity
  8
KANAMONO_SCREW
  6
DASHED1
100
AcDbLine
 10
334.4114068282682
 20
91.70802587339514
 30
0.0
 11
333.511406828268
 21
88.30802587339471
 31
0.0
  0
LINE
  5
4557
330
1F
100
AcDbEntity
  8
KANAMONO_SCREW
  6
DASHED1
100
AcDbLine
 10
333.511406828268
 20
88.30802587339471
 30
0.0
 11
332.8357084927997
 21
88.30802587339471
 31
0.0
  0
ARC
  5
4558
330
1F
100
AcDbEntity
  8
KANAMONO_SCREW
  6
DASHED1
100
AcDbCircle
 10
323.6282773574286
 20
90.11304170349189
 30
0.0
 40
9.382689926641541
100
AcDbArc
 50
326.0494676462092
 51
348.9084511861626
  0
ARC
  5
4559
330
1F
100
AcDbEntity
  8
KANAMONO_SCREW
  6
DASHED1
100
AcDbCircle
 10
339.194536299107
 20
90.11304170349021
 30
0.0
 40
9.382689926640878
100
AcDbArc
 50
191.0915488138277
 51
213.950532353781
  0
LINE
  5
455A
330
1F
100
AcDbEntity
  8
KANAMONO_SCREW
  6
DASHED1
100
AcDbLine
 10
329.9871051637364
 20
88.30802587339471
 30
0.0
 11
329.311406828268
 21
88.30802587339471
 31
0.0
  0
LINE
  5
455B
330
1F
100
AcDbEntity
  8
KANAMONO_SCREW
  6
DASHED1
100
AcDbLine
 10
329.311406828268
 20
88.30802587339471
 30
0.0
 11
328.4114068282678
 21
91.70802587339514
 31
0.0
  0
LINE
  5
455C
330
1F
100
AcDbEntity
  8
KANAMONO_SCREW
  6
DASHED1
100
AcDbLine
 10
328.4114068282678
 20
91.70802587339514
 30
0.0
 11
328.6614068282678
 21
91.70802587339514
 31
0.0
  0
LINE
  5
455D
330
1F
100
AcDbEntity
  8
KANAMONO_SCREW
  6
DASHED1
100
AcDbLine
 10
328.6614068282678
 20
91.70802587339514
 30
0.0
 11
328.6614068282678
 21
94.30802587339504
 31
0.0
  0
LINE
  5
455E
330
1F
100
AcDbEntity
  8
KANAMONO_SCREW
  6
DASHED1
100
AcDbLine
 10
328.6614068282678
 20
94.30802587339504
 30
0.0
 11
328.4114068282678
 21
94.30802587339504
 31
0.0
  0
LINE
  5
455F
330
1F
100
AcDbEntity
  8
KANAMONO_SCREW
  6
DASHED1
100
AcDbLine
 10
328.4114068282678
 20
94.30802587339504
 30
0.0
 11
328.4114068282678
 21
96.10802587339467
 31
0.0
  0
LINE
  5
4560
330
1F
100
AcDbEntity
  8
KANAMONO_SCREW
  6
DASHED1
100
AcDbLine
 10
328.4114068282678
 20
96.10802587339467
 30
0.0
 11
328.6614068282678
 21
96.10802587339467
 31
0.0
  0
LINE
  5
4561
330
1F
100
AcDbEntity
  8
KANAMONO_SCREW
  6
DASHED1
100
AcDbLine
 10
328.6614068282678
 20
96.10802587339467
 30
0.0
 11
328.5750431919042
 21
99.90802587339485
 31
0.0
  0
LINE
  5
4562
330
1F
100
AcDbEntity
  8
KANAMONO_SCREW
  6
DASHED1
100
AcDbLine
 10
328.5750431919042
 20
99.90802587339485
 30
0.0
 11
328.3250428857426
 21
99.90802587339485
 31
0.0
  0
LINE
  5
4563
330
1F
100
AcDbEntity
  8
KANAMONO_SCREW
  6
DASHED1
100
AcDbLine
 10
328.3250428857426
 20
99.90802587339485
 30
0.0
 11
328.2864065221062
 21
101.6080258733946
 31
0.0
  0
LINE
  5
4564
330
1F
100
AcDbEntity
  8
KANAMONO_SCREW
  6
DASHED1
100
AcDbLine
 10
328.2864065221062
 20
101.6080258733946
 30
0.0
 11
328.4477704646023
 21
101.6080393457751
 31
0.0
  0
LINE
  5
4565
330
1F
100
AcDbEntity
  8
KANAMONO_SCREW
  6
DASHED1
100
AcDbLine
 10
328.4477704646023
 20
101.6080393457751
 30
0.0
 11
328.3477708014118
 21
105.6080258733946
 31
0.0
  0
LINE
  5
4566
330
1F
100
AcDbEntity
  8
KANAMONO_SCREW
  6
DASHED1
100
AcDbLine
 10
328.3477708014118
 20
105.6080258733946
 30
0.0
 11
328.1864068282678
 21
105.6080258733946
 31
0.0
  0
LINE
  5
4567
330
1F
100
AcDbEntity
  8
KANAMONO_SCREW
  6
DASHED1
100
AcDbLine
 10
328.1864068282678
 20
105.6080258733946
 30
0.0
 11
328.1864068282678
 21
107.3080258733949
 31
0.0
  0
LINE
  5
4568
330
1F
100
AcDbEntity
  8
KANAMONO_SCREW
  6
DASHED1
100
AcDbLine
 10
328.1864068282678
 20
107.3080258733949
 30
0.0
 11
328.3477701584695
 21
107.3080258733951
 31
0.0
  0
LINE
  5
4569
330
1F
100
AcDbEntity
  8
KANAMONO_SCREW
  6
DASHED1
100
AcDbLine
 10
328.3477701584695
 20
107.3080258733951
 30
0.0
 11
328.6827701584696
 21
111.1080258733947
 31
0.0
  0
LINE
  5
456A
330
1F
100
AcDbEntity
  8
KANAMONO_SCREW
  6
DASHED1
100
AcDbLine
 10
328.6827701584696
 20
111.1080258733947
 30
0.0
 11
328.5214068282677
 21
111.1080258733947
 31
0.0
  0
LINE
  5
456B
330
1F
100
AcDbEntity
  8
KANAMONO_SCREW
  6
DASHED1
100
AcDbLine
 10
328.5214068282677
 20
111.1080258733947
 30
0.0
 11
328.5214068282677
 21
111.4080258733951
 31
0.0
  0
LINE
  5
456C
330
1F
100
AcDbEntity
  8
KANAMONO_SCREW
  6
DASHED1
100
AcDbLine
 10
328.5214068282677
 20
111.4080258733951
 30
0.0
 11
328.0214068282677
 21
113.3080258733949
 31
0.0
  0
LINE
  5
456D
330
1F
100
AcDbEntity
  8
KANAMONO_SCREW
  6
DASHED1
100
AcDbLine
 10
328.0214068282677
 20
113.3080258733949
 30
0.0
 11
328.0214068282677
 21
125.8080258733951
 31
0.0
  0
LINE
  5
456E
330
1F
100
AcDbEntity
  8
KANAMONO_SCREW
  6
DASHED1
100
AcDbLine
 10
328.0214068282677
 20
125.8080258733951
 30
0.0
 11
328.6214068282678
 21
126.3080258733952
 31
0.0
  0
LINE
  5
456F
330
1F
100
AcDbEntity
  8
KANAMONO_SCREW
  6
DASHED1
100
AcDbLine
 10
328.6214068282678
 20
126.3080258733952
 30
0.0
 11
328.6214068282678
 21
139.3080258733949
 31
0.0
  0
LINE
  5
4570
330
1F
100
AcDbEntity
  8
KANAMONO_SCREW
  6
DASHED1
100
AcDbLine
 10
328.6214068282678
 20
139.3080258733949
 30
0.0
 11
328.0214068282668
 21
141.2080258733984
 31
0.0
  0
LINE
  5
4571
330
1F
100
AcDbEntity
  8
KANAMONO_SCREW
  6
DASHED1
100
AcDbLine
 10
328.0214068282668
 20
141.2080258733984
 30
0.0
 11
328.0214068282652
 21
146.5080258733952
 31
0.0
  0
LINE
  5
4572
330
1F
100
AcDbEntity
  8
KANAMONO_SCREW
  6
DASHED1
100
AcDbLine
 10
328.0214068282652
 20
146.5080258733952
 30
0.0
 11
328.621406828265
 21
147.008025873395
 31
0.0
  0
LINE
  5
4573
330
1F
100
AcDbEntity
  8
KANAMONO_SCREW
  6
DASHED1
100
AcDbLine
 10
328.621406828265
 20
147.008025873395
 30
0.0
 11
328.5214068282674
 21
147.008025873395
 31
0.0
  0
LINE
  5
4574
330
1F
100
AcDbEntity
  8
KANAMONO_SCREW
  6
DASHED1
100
AcDbLine
 10
328.5214068282674
 20
147.008025873395
 30
0.0
 11
327.7364068282675
 21
147.8580258733949
 31
0.0
  0
LINE
  5
4575
330
1F
100
AcDbEntity
  8
KANAMONO_SCREW
  6
DASHED1
100
AcDbLine
 10
327.7364068282675
 20
147.8580258733949
 30
0.0
 11
327.7364068282671
 21
148.3080258733949
 31
0.0
  0
LINE
  5
4576
330
1F
100
AcDbEntity
  8
KANAMONO_SCREW
  6
DASHED1
100
AcDbLine
 10
327.7364068282671
 20
148.3080258733949
 30
0.0
 11
326.9114068282676
 21
149.1330258733945
 31
0.0
  0
LINE
  5
4577
330
1F
100
AcDbEntity
  8
KANAMONO_SCREW
  6
DASHED1
100
AcDbLine
 10
326.9114068282676
 20
149.1330258733945
 30
0.0
 11
326.9114068282685
 21
149.8730258733943
 31
0.0
  0
ENDSEC
  0
SECTION
  2
OBJECTS
  0
DICTIONARY
  5
C
330
0
100
AcDbDictionary
281
     1
  3
ACAD_CIP_PREVIOUS_PRODUCT_INFO
350
3F6C
  3
ACAD_COLOR
350
3DFD
  3
ACAD_DETAILVIEWSTYLE
350
3F67
  3
ACAD_GROUP
350
D
  3
ACAD_LAYOUT
350
1A
  3
ACAD_MATERIAL
350
3DD0
  3
ACAD_MLEADERSTYLE
350
3E12
  3
ACAD_MLINESTYLE
350
17
  3
ACAD_PLOTSETTINGS
350
19
  3
ACAD_PLOTSTYLENAME
350
E
  3
ACAD_SCALELIST
350
3E00
  3
ACAD_SECTIONVIEWSTYLE
350
3F65
  3
ACAD_TABLESTYLE
350
3DFE
  3
ACAD_VISUALSTYLE
350
3DE9
  3
ACDB_RECOMPOSE_DATA
350
45C1
  3
AcDbVariableDictionary
350
1835
  3
AEC_PROPERTY_SET_DEFS
350
3E44
  3
DWGPROPS
350
45C2
  0
DICTIONARY
  5
3E7E
330
8
100
AcDbDictionary
280
     1
281
     1
  0
DICTIONARY
  5
2D
330
2
100
AcDbDictionary
280
     1
281
     1
  3
ACAD_LAYERFILTERS
360
2E
  3
ACAD_LAYERSTATES
360
918
  0
DICTIONARY
  5
3E70
330
10
100
AcDbDictionary
280
     1
281
     1
  3
ADSK_XREC_LAYER_RECONCILED
360
3E71
  0
DICTIONARY
  5
3E72
330
2388
100
AcDbDictionary
280
     1
281
     1
  3
ADSK_XREC_LAYER_RECONCILED
360
3E73
  0
DICTIONARY
  5
3E74
330
238A
100
AcDbDictionary
280
     1
281
     1
  3
ADSK_XREC_LAYER_RECONCILED
360
3E75
  0
DICTIONARY
  5
3E76
330
2757
100
AcDbDictionary
280
     1
281
     1
  3
ADSK_XREC_LAYER_RECONCILED
360
3E77
  0
DICTIONARY
  5
3E78
330
2758
100
AcDbDictionary
280
     1
281
     1
  3
ADSK_XREC_LAYER_RECONCILED
360
3E79
  0
DICTIONARY
  5
3F6E
330
3F6D
100
AcDbDictionary
280
     1
281
     1
  0
DICTIONARY
  5
432B
330
432A
100
AcDbDictionary
280
     1
281
     1
  0
DICTIONARY
  5
1C62
330
1F
100
AcDbDictionary
280
     1
281
     1
  3
ACAD_SORTENTS
360
1C63
  0
XRECORD
  5
3F6C
102
{ACAD_REACTORS
330
C
102
}
330
C
100
AcDbXrecord
280
     1
300
ACD
300
2022
300

  0
DICTIONARY
  5
3DFD
102
{ACAD_REACTORS
330
C
102
}
330
C
100
AcDbDictionary
281
     1
  0
DICTIONARY
  5
3F67
102
{ACAD_REACTORS
330
C
102
}
330
C
100
AcDbDictionary
281
     1
  3
Imperial24
350
4112
  3
Metric50
350
3F68
  0
DICTIONARY
  5
D
102
{ACAD_REACTORS
330
C
102
}
330
C
100
AcDbDictionary
281
     1
  0
DICTIONARY
  5
1A
102
{ACAD_REACTORS
330
C
102
}
330
C
100
AcDbDictionary
281
     1
  3
Model
350
22
  3
\U+FF9A\U+FF72\U+FF71\U+FF73\U+FF841
350
1CD1
  0
DICTIONARY
  5
3DD0
102
{ACAD_REACTORS
330
C
102
}
330
C
100
AcDbDictionary
281
     1
  3
ByBlock
350
3DD9
  3
ByLayer
350
3DD1
  3
Global
350
3DE1
  0
DICTIONARY
  5
3E12
102
{ACAD_REACTORS
330
C
102
}
330
C
100
AcDbDictionary
281
     1
  3
Standard
350
3E13
  0
DICTIONARY
  5
17
102
{ACAD_REACTORS
330
C
102
}
330
C
100
AcDbDictionary
281
     1
  3
Standard
350
18
  0
DICTIONARY
  5
19
102
{ACAD_REACTORS
330
C
102
}
330
C
100
AcDbDictionary
281
     1
  0
ACDBDICTIONARYWDFLT
  5
E
102
{ACAD_REACTORS
330
C
102
}
330
C
100
AcDbDictionary
281
     1
  3
Normal
350
F
  3
通常
350
29
100
AcDbDictionaryWithDefault
340
F
  0
DICTIONARY
  5
3E00
102
{ACAD_REACTORS
330
C
102
}
330
C
100
AcDbDictionary
281
     1
  3
A0
350
3E01
  3
A1
350
3E02
  3
A2
350
3E03
  3
A3
350
3E04
  3
A4
350
3E05
  3
A5
350
3E06
  3
A6
350
3E07
  3
A7
350
3E08
  3
A8
350
3E09
  3
A9
350
3E0A
  3
B0
350
3E0B
  3
B1
350
3E0C
  3
B2
350
3E0D
  3
B3
350
3E0E
  3
B4
350
3E0F
  3
B5
350
3E10
  3
B6
350
3E11
  0
DICTIONARY
  5
3F65
102
{ACAD_REACTORS
330
C
102
}
330
C
100
AcDbDictionary
281
     1
  3
Imperial24
350
4111
  3
Metric50
350
3F66
  0
DICTIONARY
  5
3DFE
102
{ACAD_REACTORS
330
C
102
}
330
C
100
AcDbDictionary
281
     1
  3
Standard
350
3DFF
  0
DICTIONARY
  5
3DE9
102
{ACAD_REACTORS
330
C
102
}
330
C
100
AcDbDictionary
281
     1
  3
2dWireframe
350
3DEF
  3
3D Hidden
350
3DF1
  3
3dWireframe
350
3DF0
  3
Basic
350
3DEE
  3
Brighten
350
3DF5
  3
ColorChange
350
3DF9
  3
Conceptual
350
3DF2
  3
Dim
350
3DF4
  3
EdgeColorOff
350
3DFC
  3
Facepattern
350
3DF8
  3
Flat
350
3DEA
  3
FlatWithEdges
350
3DEB
  3
Gouraud
350
3DEC
  3
GouraudWithEdges
350
3DED
  3
Hidden
350
3F5F
  3
JitterOff
350
3DFA
  3
Linepattern
350
3DF7
  3
OverhangOff
350
3DFB
  3
Realistic
350
3DF3
  3
Shaded
350
3F64
  3
Shaded with edges
350
3F63
  3
Shades of Gray
350
3F60
  3
Sketchy
350
3F61
  3
Thicken
350
3DF6
  3
Wireframe
350
3F5E
  3
X-Ray
350
3F62
  0
XRECORD
  5
45C1
102
{ACAD_REACTORS
330
C
102
}
330
C
100
AcDbXrecord
280
     1
 90
        1
330
3DFF
  0
DICTIONARY
  5
1835
102
{ACAD_REACTORS
330
C
102
}
330
C
100
AcDbDictionary
281
     1
  3
CANNOSCALE
350
3EB1
  3
CMLEADERSTYLE
350
3EB0
  3
CTABLESTYLE
350
3EAF
  3
CVIEWDETAILSTYLE
350
3FCF
  3
CVIEWSECTIONSTYLE
350
3FD0
  3
DIMASSOC
350
3EB3
  3
INDEXCTL
350
3EB2
  3
SORTENTS
350
1836
  3
XCLIPFRAME
350
4578
  0
DICTIONARY
  5
3E44
102
{ACAD_REACTORS
330
C
102
}
330
C
100
AcDbDictionary
281
     1
  0
XRECORD
  5
45C2
102
{ACAD_REACTORS
330
C
102
}
330
C
100
AcDbXrecord
280
     1
  1
DWGPROPS COOKIE
  2

  3

  4

  6

  7

  8
2020009
  9

300
=
301
=
302
=
303
=
304
=
305
=
306
=
307
=
308
=
309
=
 40
0.2799306944444444
 41
2453276.413761574
 42
2459989.482222222
  1

 90
        0
  0
DICTIONARY
  5
2E
102
{ACAD_REACTORS
330
2D
102
}
330
2D
100
AcDbDictionary
280
     1
281
     1
  0
DICTIONARY
  5
918
102
{ACAD_REACTORS
330
2D
102
}
330
2D
100
AcDbDictionary
281
     1
  0
XRECORD
  5
3E71
102
{ACAD_REACTORS
330
3E70
102
}
330
3E70
100
AcDbXrecord
280
     1
290
     1
  0
XRECORD
  5
3E73
102
{ACAD_REACTORS
330
3E72
102
}
330
3E72
100
AcDbXrecord
280
     1
290
     1
  0
XRECORD
  5
3E75
102
{ACAD_REACTORS
330
3E74
102
}
330
3E74
100
AcDbXrecord
280
     1
290
     1
  0
XRECORD
  5
3E77
102
{ACAD_REACTORS
330
3E76
102
}
330
3E76
100
AcDbXrecord
280
     1
290
     1
  0
XRECORD
  5
3E79
102
{ACAD_REACTORS
330
3E78
102
}
330
3E78
100
AcDbXrecord
280
     1
290
     1
  0
SORTENTSTABLE
  5
1C63
102
{ACAD_REACTORS
330
1C62
102
}
330
1C62
100
AcDbSortentsTable
330
1F
331
3660
  5
3665
331
3661
  5
3667
331
3662
  5
3668
331
3663
  5
3669
331
3665
  5
366A
331
3667
  5
366B
331
3668
  5
366D
331
3669
  5
366E
331
366A
  5
366F
331
366B
  5
3670
331
366D
  5
3671
331
366E
  5
3672
331
366F
  5
3673
331
3670
  5
3674
331
3671
  5
3675
331
3672
  5
3676
331
3673
  5
3677
331
3674
  5
3678
331
3675
  5
3679
331
3676
  5
367A
331
3677
  5
367B
331
3678
  5
367C
331
3679
  5
367D
331
367A
  5
367E
331
367B
  5
367F
331
367C
  5
3680
331
367D
  5
3681
331
367E
  5
3682
331
367F
  5
3683
331
3680
  5
3E6D
331
3681
  5
3E6E
331
3682
  5
3E6F
331
3683
  5
3F84
331
3E6D
  5
43F3
331
3E6E
  5
43F4
331
3E6F
  5
43F5
331
3F84
  5
43FA
331
3F85
  5
43FB
331
3F87
  5
4400
331
3F88
  5
4401
331
3F89
  5
4402
331
43D3
  5
3660
331
43D4
  5
3661
331
43D5
  5
3662
331
43D6
  5
3663
331
43D7
  5
3F85
331
43D8
  5
3F87
331
43D9
  5
3F88
331
43DA
  5
3F89
331
43DB
  5
43D3
331
43DC
  5
43D4
331
43DD
  5
43D5
331
43DE
  5
43D6
331
43DF
  5
43D7
331
43E0
  5
43D8
331
43E1
  5
43D9
331
43E2
  5
43DA
331
43E3
  5
43DB
331
43E4
  5
43DC
331
43E5
  5
43DD
331
43E6
  5
43DE
331
43E7
  5
43DF
331
43E8
  5
43E0
331
43E9
  5
43E1
331
43EA
  5
43E2
331
43EB
  5
43E3
331
43EC
  5
43E4
331
43ED
  5
43E5
331
43EE
  5
43E6
331
43EF
  5
43E7
331
43F0
  5
43E8
331
43F1
  5
43E9
331
43F2
  5
43EA
331
43F3
  5
43EB
331
43F4
  5
43EC
331
43F5
  5
43ED
331
43F6
  5
43EE
331
43F7
  5
43EF
331
43F8
  5
43F0
331
43F9
  5
43F1
331
43FA
  5
43F2
331
43FB
  5
43F6
331
43FC
  5
43F7
331
43FD
  5
43F8
331
43FE
  5
43F9
331
43FF
  5
43FC
331
4400
  5
43FD
331
4401
  5
43FE
331
4402
  5
43FF
  0
ACDBDETAILVIEWSTYLE
  5
4112
102
{ACAD_XDICTIONARY
360
4605
102
}
102
{ACAD_REACTORS
330
3F67
102
}
330
3F67
100
AcDbModelDocViewStyle
 70
     0
  3
Imperial24
290
     0
100
AcDbDetailViewStyle
 70
     0
 71
     0
 90
        3
 71
     1
340
11
 40
0.24
340
0
 40
0.24
300

 40
0.36
280
     3
 71
     2
340
16
 90
       25
 71
     3
340
11
 40
0.24
 90
        1
 40
0.75
 90
        1
300
%<\AcVar ViewType \f "%tc1">% %<\AcVar ViewDetailId>%\PSCALE %<\AcVar ViewScale \f "%sn">%
 71
     4
340
16
 90
       25
340
16
 90
       25
280
     0
  0
ACDBDETAILVIEWSTYLE
  5
3F68
102
{ACAD_XDICTIONARY
360
4601
102
}
102
{ACAD_REACTORS
330
3F67
102
}
330
3F67
100
AcDbModelDocViewStyle
 70
     0
  3
Metric50
290
     0
100
AcDbDetailViewStyle
 70
     0
 71
     0
 90
        3
 71
     1
340
11
 40
5.0
340
0
 40
5.0
300

 40
0.0
280
     1
 71
     2
340
16
 90
       25
 71
     3
340
11
 40
5.0
 90
        0
 40
15.0
 90
        1
300
%<\AcVar ViewDetailId>% (%<\AcVar ViewScale \f "%sn">%)
 71
     4
340
16
 90
       25
340
16
 90
       25
280
     0
1001
ACAD
1000
AcRTDxfName
1000
ACDBDETAILVIEWSTYLE
  0
LAYOUT
  5
22
102
{ACAD_XDICTIONARY
360
45C3
102
}
102
{ACAD_REACTORS
330
1A
102
}
330
1A
100
AcDbPlotSettings
  1

  2
Canon LBP3800 LIPSLX
  4
A4
  6

 40
5.873749732971191
 41
5.873747825622558
 42
5.873748779296875
 43
5.873748779296875
 44
209.9733276367187
 45
296.9259948730469
 46
0.61
 47
0.59
 48
444.9983463649091
 49
-1090.000000918417
140
2395.001653364909
141
1659.999999081583
142
1.0
143
10.0
 70
 11940
 72
     1
 73
     1
 74
     2
  7
monochrome.ctb
 75
     0
147
0.1
148
0.0
149
0.0
100
AcDbLayout
  1
Model
 70
     1
 71
     0
 10
0.0
 20
0.0
 11
12.0
 21
9.0
 12
0.0
 22
0.0
 32
0.0
 14
0.0
 24
0.0
 34
0.0
 15
0.0
 25
0.0
 35
0.0
146
0.0
 13
0.0
 23
0.0
 33
0.0
 16
1.0
 26
0.0
 36
0.0
 17
0.0
 27
1.0
 37
0.0
 76
     0
330
1F
331
3DCE
  0
LAYOUT
  5
1CD1
102
{ACAD_XDICTIONARY
360
45C5
102
}
102
{ACAD_REACTORS
330
1A
102
}
330
1A
100
AcDbPlotSettings
  1

  2
\\ek_srv\Canon LBP-880 LIPS4
  4

  6

 40
0.0
 41
0.0
 42
0.0
 43
0.0
 44
0.0
 45
0.0
 46
0.0
 47
0.0
 48
0.0
 49
0.0
140
0.0
141
0.0
142
1.0
143
1.0
 70
   688
 72
     0
 73
     0
 74
     5
  7
monochrome.ctb
 75
    16
147
1.0
148
0.0
149
0.0
100
AcDbLayout
  1
\U+FF9A\U+FF72\U+FF71\U+FF73\U+FF841
 70
     1
 71
     1
 10
0.0
 20
0.0
 11
12.0
 21
9.0
 12
0.0
 22
0.0
 32
0.0
 14
0.0
 24
0.0
 34
0.0
 15
0.0
 25
0.0
 35
0.0
146
0.0
 13
0.0
 23
0.0
 33
0.0
 16
1.0
 26
0.0
 36
0.0
 17
0.0
 27
1.0
 37
0.0
 76
     0
330
1CD0
  0
MATERIAL
  5
3DD9
102
{ACAD_XDICTIONARY
360
3DDA
102
}
102
{ACAD_REACTORS
330
3DD0
102
}
330
3DD0
100
AcDbMaterial
  1
ByBlock
 72
     0
 43
0.0008202099737533
 43
0.0
 43
0.0
 43
0.0
 43
0.0
 43
0.0008202099737533
 43
0.0
 43
0.0
 43
0.0
 43
0.0
 43
1.0
 43
0.0
 43
0.0
 43
0.0
 43
0.0
 43
1.0
 77
     0
 47
0.0008202099737533
 47
0.0
 47
0.0
 47
0.0
 47
0.0
 47
0.0008202099737533
 47
0.0
 47
0.0
 47
0.0
 47
0.0
 47
1.0
 47
0.0
 47
0.0
 47
0.0
 47
0.0
 47
1.0
171
     0
 49
0.0008202099737533
 49
0.0
 49
0.0
 49
0.0
 49
0.0
 49
0.0008202099737533
 49
0.0
 49
0.0
 49
0.0
 49
0.0
 49
1.0
 49
0.0
 49
0.0
 49
0.0
 49
0.0
 49
1.0
175
     0
142
0.0008202099737533
142
0.0
142
0.0
142
0.0
142
0.0
142
0.0008202099737533
142
0.0
142
0.0
142
0.0
142
0.0
142
1.0
142
0.0
142
0.0
142
0.0
142
0.0
142
1.0
179
     0
144
0.0008202099737533
144
0.0
144
0.0
144
0.0
144
0.0
144
0.0008202099737533
144
0.0
144
0.0
144
0.0
144
0.0
144
1.0
144
0.0
144
0.0
144
0.0
144
0.0
144
1.0
147
0.0008202099737533
147
0.0
147
0.0
147
0.0
147
0.0
147
0.0008202099737533
147
0.0
147
0.0
147
0.0
147
0.0
147
1.0
147
0.0
147
0.0
147
0.0
147
0.0
147
1.0
  0
MATERIAL
  5
3DD1
102
{ACAD_XDICTIONARY
360
3DD2
102
}
102
{ACAD_REACTORS
330
3DD0
102
}
330
3DD0
100
AcDbMaterial
  1
ByLayer
 72
     0
 43
0.0008202099737533
 43
0.0
 43
0.0
 43
0.0
 43
0.0
 43
0.0008202099737533
 43
0.0
 43
0.0
 43
0.0
 43
0.0
 43
1.0
 43
0.0
 43
0.0
 43
0.0
 43
0.0
 43
1.0
 77
     0
 47
0.0008202099737533
 47
0.0
 47
0.0
 47
0.0
 47
0.0
 47
0.0008202099737533
 47
0.0
 47
0.0
 47
0.0
 47
0.0
 47
1.0
 47
0.0
 47
0.0
 47
0.0
 47
0.0
 47
1.0
171
     0
 49
0.0008202099737533
 49
0.0
 49
0.0
 49
0.0
 49
0.0
 49
0.0008202099737533
 49
0.0
 49
0.0
 49
0.0
 49
0.0
 49
1.0
 49
0.0
 49
0.0
 49
0.0
 49
0.0
 49
1.0
175
     0
142
0.0008202099737533
142
0.0
142
0.0
142
0.0
142
0.0
142
0.0008202099737533
142
0.0
142
0.0
142
0.0
142
0.0
142
1.0
142
0.0
142
0.0
142
0.0
142
0.0
142
1.0
179
     0
144
0.0008202099737533
144
0.0
144
0.0
144
0.0
144
0.0
144
0.0008202099737533
144
0.0
144
0.0
144
0.0
144
0.0
144
1.0
144
0.0
144
0.0
144
0.0
144
0.0
144
1.0
147
0.0008202099737533
147
0.0
147
0.0
147
0.0
147
0.0
147
0.0008202099737533
147
0.0
147
0.0
147
0.0
147
0.0
147
1.0
147
0.0
147
0.0
147
0.0
147
0.0
147
1.0
  0
MATERIAL
  5
3DE1
102
{ACAD_XDICTIONARY
360
3DE2
102
}
102
{ACAD_REACTORS
330
3DD0
102
}
330
3DD0
100
AcDbMaterial
  1
Global
 72
     0
 43
0.0008202099737533
 43
0.0
 43
0.0
 43
0.0
 43
0.0
 43
0.0008202099737533
 43
0.0
 43
0.0
 43
0.0
 43
0.0
 43
1.0
 43
0.0
 43
0.0
 43
0.0
 43
0.0
 43
1.0
 77
     0
 47
0.0008202099737533
 47
0.0
 47
0.0
 47
0.0
 47
0.0
 47
0.0008202099737533
 47
0.0
 47
0.0
 47
0.0
 47
0.0
 47
1.0
 47
0.0
 47
0.0
 47
0.0
 47
0.0
 47
1.0
171
     0
 49
0.0008202099737533
 49
0.0
 49
0.0
 49
0.0
 49
0.0
 49
0.0008202099737533
 49
0.0
 49
0.0
 49
0.0
 49
0.0
 49
1.0
 49
0.0
 49
0.0
 49
0.0
 49
0.0
 49
1.0
175
     0
142
0.0008202099737533
142
0.0
142
0.0
142
0.0
142
0.0
142
0.0008202099737533
142
0.0
142
0.0
142
0.0
142
0.0
142
1.0
142
0.0
142
0.0
142
0.0
142
0.0
142
1.0
179
     0
144
0.0008202099737533
144
0.0
144
0.0
144
0.0
144
0.0
144
0.0008202099737533
144
0.0
144
0.0
144
0.0
144
0.0
144
1.0
144
0.0
144
0.0
144
0.0
144
0.0
144
1.0
147
0.0008202099737533
147
0.0
147
0.0
147
0.0
147
0.0
147
0.0008202099737533
147
0.0
147
0.0
147
0.0
147
0.0
147
1.0
147
0.0
147
0.0
147
0.0
147
0.0
147
1.0
  0
MLEADERSTYLE
  5
3E13
102
{ACAD_REACTORS
330
3E12
102
}
330
3E12
100
AcDbMLeaderStyle
170
     2
171
     1
172
     0
 90
        2
 40
0.0
 41
0.0
173
     1
 91
-1056964608
340
14
 92
       -2
290
     1
 42
2.0
291
     1
 43
0.36
  3
Standard
 44
4.0
300

342
11
174
     1
178
     6
175
     1
176
     0
 93
-1056964608
 45
4.0
292
     0
297
     0
 46
4.0
 94
-1056964608
 47
1.0
 49
1.0
140
1.0
293
     1
141
0.0
294
     1
177
     0
142
1.0
295
     0
296
     0
143
0.125
1001
ACAD_MLEADERVER
1070
     2
  0
MLINESTYLE
  5
18
102
{ACAD_REACTORS
330
17
102
}
330
17
100
AcDbMlineStyle
  2
STANDARD
 70
     0
  3

 62
   256
 51
90.0
 52
90.0
 71
     2
 49
0.5
 62
   256
  6
BYLAYER
 49
-0.5
 62
   256
  6
BYLAYER
  0
ACDBPLACEHOLDER
  5
F
102
{ACAD_REACTORS
330
E
102
}
330
E
  0
ACDBPLACEHOLDER
  5
29
102
{ACAD_REACTORS
330
E
102
}
330
E
  0
SCALE
  5
3E01
102
{ACAD_REACTORS
330
3E00
102
}
330
3E00
100
AcDbScale
 70
     0
300
1:1
140
1.0
141
1.0
290
     1
  0
SCALE
  5
3E02
102
{ACAD_REACTORS
330
3E00
102
}
330
3E00
100
AcDbScale
 70
     0
300
1:2
140
1.0
141
2.0
290
     0
  0
SCALE
  5
3E03
102
{ACAD_REACTORS
330
3E00
102
}
330
3E00
100
AcDbScale
 70
     0
300
1:4
140
1.0
141
4.0
290
     0
  0
SCALE
  5
3E04
102
{ACAD_REACTORS
330
3E00
102
}
330
3E00
100
AcDbScale
 70
     0
300
1:5
140
1.0
141
5.0
290
     0
  0
SCALE
  5
3E05
102
{ACAD_REACTORS
330
3E00
102
}
330
3E00
100
AcDbScale
 70
     0
300
1:8
140
1.0
141
8.0
290
     0
  0
SCALE
  5
3E06
102
{ACAD_REACTORS
330
3E00
102
}
330
3E00
100
AcDbScale
 70
     0
300
1:10
140
1.0
141
10.0
290
     0
  0
SCALE
  5
3E07
102
{ACAD_REACTORS
330
3E00
102
}
330
3E00
100
AcDbScale
 70
     0
300
1:16
140
1.0
141
16.0
290
     0
  0
SCALE
  5
3E08
102
{ACAD_REACTORS
330
3E00
102
}
330
3E00
100
AcDbScale
 70
     0
300
1:20
140
1.0
141
20.0
290
     0
  0
SCALE
  5
3E09
102
{ACAD_REACTORS
330
3E00
102
}
330
3E00
100
AcDbScale
 70
     0
300
1:30
140
1.0
141
30.0
290
     0
  0
SCALE
  5
3E0A
102
{ACAD_REACTORS
330
3E00
102
}
330
3E00
100
AcDbScale
 70
     0
300
1:40
140
1.0
141
40.0
290
     0
  0
SCALE
  5
3E0B
102
{ACAD_REACTORS
330
3E00
102
}
330
3E00
100
AcDbScale
 70
     0
300
1:50
140
1.0
141
50.0
290
     0
  0
SCALE
  5
3E0C
102
{ACAD_REACTORS
330
3E00
102
}
330
3E00
100
AcDbScale
 70
     0
300
1:100
140
1.0
141
100.0
290
     0
  0
SCALE
  5
3E0D
102
{ACAD_REACTORS
330
3E00
102
}
330
3E00
100
AcDbScale
 70
     0
300
2:1
140
2.0
141
1.0
290
     0
  0
SCALE
  5
3E0E
102
{ACAD_REACTORS
330
3E00
102
}
330
3E00
100
AcDbScale
 70
     0
300
4:1
140
4.0
141
1.0
290
     0
  0
SCALE
  5
3E0F
102
{ACAD_REACTORS
330
3E00
102
}
330
3E00
100
AcDbScale
 70
     0
300
8:1
140
8.0
141
1.0
290
     0
  0
SCALE
  5
3E10
102
{ACAD_REACTORS
330
3E00
102
}
330
3E00
100
AcDbScale
 70
     0
300
10:1
140
10.0
141
1.0
290
     0
  0
SCALE
  5
3E11
102
{ACAD_REACTORS
330
3E00
102
}
330
3E00
100
AcDbScale
 70
     0
300
100:1
140
100.0
141
1.0
290
     0
  0
ACDBSECTIONVIEWSTYLE
  5
4111
102
{ACAD_XDICTIONARY
360
4603
102
}
102
{ACAD_REACTORS
330
3F65
102
}
330
3F65
100
AcDbModelDocViewStyle
 70
     0
  3
Imperial24
290
     0
100
AcDbSectionViewStyle
 70
     0
 71
     0
 90
       78
 71
     1
340
11
 40
0.24
340
0
340
0
 40
0.24
300
I, O, Q, S, X, Z
 40
0.48
 90
        3
 40
0.18
 90
        1
 71
     2
340
16
 90
       25
340
16
 90
       50
 40
0.24
 40
0.0
 40
0.24
 71
     3
340
11
 40
0.24
 90
        1
 40
0.75
 90
        1
300
%<\AcVar ViewType \f "%tc1">% %<\AcVar ViewSectionStartId>%-%<\AcVar ViewSectionEndId>%\PSCALE %<\AcVar ViewScale \f "%sn">%
 71
     4
300
ANSI31
 40
1.0
 90
        0
290
     0
290
     0
 90
        6
 40
0.0
 40
1.570796326794896
 40
0.2617993877991494
 40
1.308996938995747
 40
-0.2617993877991494
 40
1.832595714594046
  0
ACDBSECTIONVIEWSTYLE
  5
3F66
102
{ACAD_XDICTIONARY
360
45FF
102
}
102
{ACAD_REACTORS
330
3F65
102
}
330
3F65
100
AcDbModelDocViewStyle
 70
     0
  3
Metric50
290
     0
100
AcDbSectionViewStyle
 70
     0
 71
     0
 90
      102
 71
     1
340
11
 40
5.0
340
0
340
0
 40
5.0
300
I, O, Q, S, X, Z
 40
10.0
 90
        0
 40
2.5
 90
        0
 71
     2
340
16
 90
       25
340
16
 90
       50
 40
5.0
 40
2.5
 40
5.0
 71
     3
340
11
 40
5.0
 90
        0
 40
15.0
 90
        1
300
%<\AcVar ViewSectionStartId>%-%<\AcVar ViewSectionEndId>% (%<\AcVar ViewScale \f "%sn">%)
 71
     4
300
ANSI31
 40
1.0
 90
        0
290
     0
290
     0
 90
        6
 40
0.0
 40
1.570796326794896
 40
0.2617993877991494
 40
1.308996938995747
 40
-0.2617993877991494
 40
1.832595714594046
1001
ACAD
1000
AcRTDxfName
1000
ACDBSECTIONVIEWSTYLE
  0
TABLESTYLE
  5
3DFF
102
{ACAD_XDICTIONARY
360
3E7A
102
}
102
{ACAD_REACTORS
330
3DFE
102
}
330
3DFE
100
AcDbTableStyle
  3
Standard
 70
     0
 71
     0
 40
1.5
 41
1.5
280
     0
281
     0
  7
Standard
140
4.5
170
     2
 62
     0
 63
     7
283
     0
274
    -2
284
     1
 64
     0
275
    -2
285
     1
 65
     0
276
    -2
286
     1
 66
     0
277
    -2
287
     1
 67
     0
278
    -2
288
     1
 68
     0
279
    -2
289
     1
 69
     0
  7
Standard
140
6.0
170
     5
 62
     0
 63
     7
283
     0
274
    -2
284
     1
 64
     0
275
    -2
285
     1
 65
     0
276
    -2
286
     1
 66
     0
277
    -2
287
     1
 67
     0
278
    -2
288
     1
 68
     0
279
    -2
289
     1
 69
     0
  7
Standard
140
4.5
170
     5
 62
     0
 63
     7
283
     0
274
    -2
284
     1
 64
     0
275
    -2
285
     1
 65
     0
276
    -2
286
     1
 66
     0
277
    -2
287
     1
 67
     0
278
    -2
288
     1
 68
     0
279
    -2
289
     1
 69
     0
  0
VISUALSTYLE
  5
3DEF
102
{ACAD_XDICTIONARY
360
45D4
102
}
102
{ACAD_REACTORS
330
3DE9
102
}
330
3DE9
100
AcDbVisualStyle
  2
2dWireframe
 70
     4
 71
     0
 72
     2
 73
     0
 90
        0
 40
-0.6
 41
-30.0
 62
     5
 63
     7
 74
     1
 91
        4
 64
     7
 65
   257
 75
     1
175
     1
 42
1.0
 92
        0
 66
   257
 43
1.0
 76
     1
 77
     6
 78
     2
 67
     7
 79
     5
170
     0
171
     0
290
     0
174
     0
 93
        1
 44
0.0
173
     0
291
     0
 45
0.0
1001
ACAD
1000
AcDbSavedByObjectVersion
1070
     0
  0
VISUALSTYLE
  5
3DF1
102
{ACAD_XDICTIONARY
360
45D8
102
}
102
{ACAD_REACTORS
330
3DE9
102
}
330
3DE9
100
AcDbVisualStyle
  2
3D Hidden
 70
     6
 71
     1
 72
     2
 73
     2
 90
        0
 40
-0.6
 41
-30.0
 62
     5
 63
     7
 74
     2
 91
        2
 64
     7
 65
   257
 75
     2
175
     1
 42
179.0
 92
        0
 66
   257
 43
1.0
 76
     1
 77
     6
 78
     2
 67
     7
 79
     3
170
     0
171
     0
290
     0
174
     0
 93
        1
 44
0.0
173
     0
291
     0
 45
0.0
1001
ACAD
1000
AcDbSavedByObjectVersion
1070
     0
  0
VISUALSTYLE
  5
3DF0
102
{ACAD_XDICTIONARY
360
45D6
102
}
102
{ACAD_REACTORS
330
3DE9
102
}
330
3DE9
100
AcDbVisualStyle
  2
3dWireframe
 70
     5
 71
     0
 72
     2
 73
     0
 90
        0
 40
-0.6
 41
-30.0
 62
     5
 63
     7
 74
     1
 91
        4
 64
     7
 65
   257
 75
     1
175
     1
 42
1.0
 92
        0
 66
   257
 43
1.0
 76
     1
 77
     6
 78
     2
 67
     7
 79
     5
170
     0
171
     0
290
     0
174
     0
 93
        1
 44
0.0
173
     0
291
     0
 45
0.0
1001
ACAD
1000
AcDbSavedByObjectVersion
1070
     0
  0
VISUALSTYLE
  5
3DEE
102
{ACAD_XDICTIONARY
360
45D2
102
}
102
{ACAD_REACTORS
330
3DE9
102
}
330
3DE9
100
AcDbVisualStyle
  2
Basic
 70
     7
 71
     1
 72
     0
 73
     1
 90
        0
 40
-0.6
 41
-30.0
 62
     5
 63
     7
 74
     0
 91
        4
 64
     7
 65
   257
 75
     1
175
     1
 42
1.0
 92
        8
 66
     7
 43
1.0
 76
     1
 77
     6
 78
     2
 67
     7
 79
     5
170
     0
171
     0
290
     0
174
     0
 93
        1
 44
0.0
173
     0
291
     1
 45
0.0
1001
ACAD
1000
AcDbSavedByObjectVersion
1070
     0
  0
VISUALSTYLE
  5
3DF5
102
{ACAD_XDICTIONARY
360
45E0
102
}
102
{ACAD_REACTORS
330
3DE9
102
}
330
3DE9
100
AcDbVisualStyle
  2
Brighten
 70
    12
 71
     2
 72
     2
 73
     0
 90
        0
 40
-0.6
 41
-30.0
 62
     5
 63
     7
 74
     1
 91
        4
 64
     7
 65
   257
 75
     1
175
     1
 42
1.0
 92
        8
 66
     7
 43
1.0
 76
     1
 77
     6
 78
     2
 67
     7
 79
     5
170
     0
171
     0
290
     0
174
     0
 93
        1
 44
50.0
173
     0
291
     1
 45
0.0
1001
ACAD
1000
AcDbSavedByObjectVersion
1070
     0
  0
VISUALSTYLE
  5
3DF9
102
{ACAD_XDICTIONARY
360
45E8
102
}
102
{ACAD_REACTORS
330
3DE9
102
}
330
3DE9
100
AcDbVisualStyle
  2
ColorChange
 70
    16
 71
     2
 72
     2
 73
     3
 90
        0
 40
-0.6
 41
-30.0
 62
     5
 63
     8
 74
     1
 91
        4
 64
     7
 65
   257
 75
     1
175
     1
 42
1.0
 92
        8
 66
     8
 43
1.0
 76
     1
 77
     6
 78
     2
 67
     7
 79
     5
170
     0
171
     0
290
     0
174
     0
 93
        1
 44
0.0
173
     0
291
     1
 45
0.0
1001
ACAD
1000
AcDbSavedByObjectVersion
1070
     0
  0
VISUALSTYLE
  5
3DF2
102
{ACAD_XDICTIONARY
360
45DA
102
}
102
{ACAD_REACTORS
330
3DE9
102
}
330
3DE9
100
AcDbVisualStyle
  2
Conceptual
 70
     9
 71
     3
 72
     2
 73
     0
 90
        0
 40
-0.6
 41
-30.0
 62
     5
 63
     7
 74
     2
 91
        2
 64
     7
 65
   257
 75
     1
175
     1
 42
179.0
 92
        8
 66
     7
 43
1.0
 76
     1
 77
     6
 78
     2
 67
     7
 79
     3
170
     0
171
     0
290
     0
174
     0
 93
        1
 44
0.0
173
     0
291
     0
 45
0.0
1001
ACAD
1000
AcDbSavedByObjectVersion
1070
     0
  0
VISUALSTYLE
  5
3DF4
102
{ACAD_XDICTIONARY
360
45DE
102
}
102
{ACAD_REACTORS
330
3DE9
102
}
330
3DE9
100
AcDbVisualStyle
  2
Dim
 70
    11
 71
     2
 72
     2
 73
     0
 90
        0
 40
-0.6
 41
-30.0
 62
     5
 63
     7
 74
     1
 91
        4
 64
     7
 65
   257
 75
     1
175
     1
 42
1.0
 92
        8
 66
     7
 43
1.0
 76
     1
 77
     6
 78
     2
 67
     7
 79
     5
170
     0
171
     0
290
     0
174
     0
 93
        1
 44
-50.0
173
     0
291
     1
 45
0.0
1001
ACAD
1000
AcDbSavedByObjectVersion
1070
     0
  0
VISUALSTYLE
  5
3DFC
102
{ACAD_XDICTIONARY
360
45EE
102
}
102
{ACAD_REACTORS
330
3DE9
102
}
330
3DE9
100
AcDbVisualStyle
  2
EdgeColorOff
 70
    22
 71
     2
 72
     2
 73
     0
 90
        0
 40
-0.6
 41
-30.0
 62
     5
 63
     7
 74
     1
 91
        4
 64
     7
 65
   257
 75
     1
175
     1
 42
1.0
 92
        8
 66
     7
 43
1.0
 76
     1
 77
     6
 78
     2
 67
     7
 79
     5
170
     0
171
     0
290
     0
174
     0
 93
        1
 44
0.0
173
     0
291
     1
 45
0.0
1001
ACAD
1000
AcDbSavedByObjectVersion
1070
     0
  0
VISUALSTYLE
  5
3DF8
102
{ACAD_XDICTIONARY
360
45E6
102
}
102
{ACAD_REACTORS
330
3DE9
102
}
330
3DE9
100
AcDbVisualStyle
  2
Facepattern
 70
    15
 71
     2
 72
     2
 73
     0
 90
        0
 40
-0.6
 41
-30.0
 62
     5
 63
     7
 74
     1
 91
        4
 64
     7
 65
   257
 75
     1
175
     1
 42
1.0
 92
        8
 66
     7
 43
1.0
 76
     1
 77
     6
 78
     2
 67
     7
 79
     5
170
     0
171
     0
290
     0
174
     0
 93
        1
 44
0.0
173
     0
291
     1
 45
0.0
1001
ACAD
1000
AcDbSavedByObjectVersion
1070
     0
  0
VISUALSTYLE
  5
3DEA
102
{ACAD_XDICTIONARY
360
45CA
102
}
102
{ACAD_REACTORS
330
3DE9
102
}
330
3DE9
100
AcDbVisualStyle
  2
Flat
 70
     0
 71
     2
 72
     1
 73
     1
 90
        2
 40
-0.6
 41
30.0
 62
     5
 63
     7
 74
     0
 91
        4
 64
     7
 65
   257
 75
     1
175
     1
 42
1.0
 92
        8
 66
     7
 43
1.0
 76
     1
 77
     6
 78
     2
 67
     7
 79
     5
170
     0
171
     0
290
     0
174
     0
 93
       13
 44
0.0
173
     0
291
     1
 45
0.0
1001
ACAD
1000
AcDbSavedByObjectVersion
1070
     0
  0
VISUALSTYLE
  5
3DEB
102
{ACAD_XDICTIONARY
360
45CC
102
}
102
{ACAD_REACTORS
330
3DE9
102
}
330
3DE9
100
AcDbVisualStyle
  2
FlatWithEdges
 70
     1
 71
     2
 72
     1
 73
     1
 90
        2
 40
-0.6
 41
30.0
 62
     5
 63
     7
 74
     1
 91
        4
 64
     7
 65
   257
 75
     1
175
     1
 42
1.0
 92
        0
 66
   257
 43
1.0
 76
     1
 77
     6
 78
     2
 67
     7
 79
     5
170
     0
171
     0
290
     0
174
     0
 93
       13
 44
0.0
173
     0
291
     1
 45
0.0
1001
ACAD
1000
AcDbSavedByObjectVersion
1070
     0
  0
VISUALSTYLE
  5
3DEC
102
{ACAD_XDICTIONARY
360
45CE
102
}
102
{ACAD_REACTORS
330
3DE9
102
}
330
3DE9
100
AcDbVisualStyle
  2
Gouraud
 70
     2
 71
     2
 72
     2
 73
     1
 90
        2
 40
-0.6
 41
30.0
 62
     5
 63
     7
 74
     0
 91
        4
 64
     7
 65
   257
 75
     1
175
     1
 42
1.0
 92
        0
 66
     7
 43
1.0
 76
     1
 77
     6
 78
     2
 67
     7
 79
     5
170
     0
171
     0
290
     0
174
     0
 93
       13
 44
0.0
173
     0
291
     1
 45
0.0
1001
ACAD
1000
AcDbSavedByObjectVersion
1070
     0
  0
VISUALSTYLE
  5
3DED
102
{ACAD_XDICTIONARY
360
45D0
102
}
102
{ACAD_REACTORS
330
3DE9
102
}
330
3DE9
100
AcDbVisualStyle
  2
GouraudWithEdges
 70
     3
 71
     2
 72
     2
 73
     1
 90
        2
 40
-0.6
 41
30.0
 62
     5
 63
     7
 74
     1
 91
        4
 64
     7
 65
   257
 75
     1
175
     1
 42
1.0
 92
        0
 66
   257
 43
1.0
 76
     1
 77
     6
 78
     2
 67
     7
 79
     5
170
     0
171
     0
290
     0
174
     0
 93
       13
 44
0.0
173
     0
291
     1
 45
0.0
1001
ACAD
1000
AcDbSavedByObjectVersion
1070
     0
  0
VISUALSTYLE
  5
3F5F
102
{ACAD_XDICTIONARY
360
45F3
102
}
102
{ACAD_REACTORS
330
3DE9
102
}
330
3DE9
100
AcDbVisualStyle
  2
Hidden
 70
     6
 71
     1
 72
     2
 73
     2
 90
        0
 40
-0.6
 41
-30.0
 62
     5
 63
     7
 74
     2
 91
        2
 64
     7
 65
   257
 75
     2
175
     1
 42
40.0
 92
        0
 66
   257
 43
1.0
 76
     1
 77
     6
 78
     2
 67
     7
 79
     3
170
     0
171
     0
290
     0
174
     0
 93
        1
 44
0.0
173
     0
291
     0
 45
0.0
1001
ACAD
1000
AcDbSavedByObjectVersion
1070
     0
  0
VISUALSTYLE
  5
3DFA
102
{ACAD_XDICTIONARY
360
45EA
102
}
102
{ACAD_REACTORS
330
3DE9
102
}
330
3DE9
100
AcDbVisualStyle
  2
JitterOff
 70
    20
 71
     2
 72
     2
 73
     0
 90
        0
 40
-0.6
 41
-30.0
 62
     5
 63
     7
 74
     1
 91
        4
 64
     7
 65
   257
 75
     1
175
     1
 42
1.0
 92
       10
 66
     7
 43
1.0
 76
     1
 77
     6
 78
     2
 67
     7
 79
     5
170
     0
171
     0
290
     0
174
     0
 93
        1
 44
0.0
173
     0
291
     1
 45
0.0
1001
ACAD
1000
AcDbSavedByObjectVersion
1070
     0
  0
VISUALSTYLE
  5
3DF7
102
{ACAD_XDICTIONARY
360
45E4
102
}
102
{ACAD_REACTORS
330
3DE9
102
}
330
3DE9
100
AcDbVisualStyle
  2
Linepattern
 70
    14
 71
     2
 72
     2
 73
     0
 90
        0
 40
-0.6
 41
-30.0
 62
     5
 63
     7
 74
     1
 91
        4
 64
     7
 65
   257
 75
     7
175
     7
 42
1.0
 92
        8
 66
     7
 43
1.0
 76
     1
 77
     6
 78
     2
 67
     7
 79
     5
170
     0
171
     0
290
     0
174
     0
 93
        1
 44
0.0
173
     0
291
     1
 45
0.0
1001
ACAD
1000
AcDbSavedByObjectVersion
1070
     0
  0
VISUALSTYLE
  5
3DFB
102
{ACAD_XDICTIONARY
360
45EC
102
}
102
{ACAD_REACTORS
330
3DE9
102
}
330
3DE9
100
AcDbVisualStyle
  2
OverhangOff
 70
    21
 71
     2
 72
     2
 73
     0
 90
        0
 40
-0.6
 41
-30.0
 62
     5
 63
     7
 74
     1
 91
        4
 64
     7
 65
   257
 75
     1
175
     1
 42
1.0
 92
        9
 66
     7
 43
1.0
 76
     1
 77
     6
 78
     2
 67
     7
 79
     5
170
     0
171
     0
290
     0
174
     0
 93
        1
 44
0.0
173
     0
291
     1
 45
0.0
1001
ACAD
1000
AcDbSavedByObjectVersion
1070
     0
  0
VISUALSTYLE
  5
3DF3
102
{ACAD_XDICTIONARY
360
45DC
102
}
102
{ACAD_REACTORS
330
3DE9
102
}
330
3DE9
100
AcDbVisualStyle
  2
Realistic
 70
     8
 71
     2
 72
     2
 73
     0
 90
        0
 40
-0.6
 41
-30.0
 62
     5
 63
     7
 74
     1
 91
        0
 64
     7
 65
   257
 75
     1
175
     1
 42
1.0
 92
        8
 66
     8
 43
1.0
 76
     1
 77
     6
 78
     2
 67
     7
 79
     5
170
     0
171
     0
290
     0
174
     0
 93
       13
 44
0.0
173
     0
291
     0
 45
0.0
1001
ACAD
1000
AcDbSavedByObjectVersion
1070
     0
  0
VISUALSTYLE
  5
3F64
102
{ACAD_XDICTIONARY
360
45FD
102
}
102
{ACAD_REACTORS
330
3DE9
102
}
330
3DE9
100
AcDbVisualStyle
  2
Shaded
 70
    27
 71
     2
 72
     2
 73
     1
 90
        2
 40
-0.6
 41
30.0
 62
     5
 63
     7
 74
     0
 91
        4
 64
     7
 65
   257
 75
     1
175
     1
 42
1.0
 92
        8
 66
   257
 43
1.0
 76
     1
 77
     6
 78
     2
 67
     8
 79
     3
170
     0
171
     0
290
     0
174
     0
 93
        5
 44
0.0
173
     0
291
     0
 45
0.0
1001
ACAD
1000
AcDbSavedByObjectVersion
1070
     0
  0
VISUALSTYLE
  5
3F63
102
{ACAD_XDICTIONARY
360
45FB
102
}
102
{ACAD_REACTORS
330
3DE9
102
}
330
3DE9
100
AcDbVisualStyle
  2
Shaded with edges
 70
    26
 71
     2
 72
     2
 73
     1
 90
        2
 40
-0.6
 41
30.0
 62
     5
 63
     7
 74
     1
 91
        2
 64
     7
 65
   257
 75
     2
175
     1
 42
1.0
 92
        8
 66
   257
 43
1.0
 76
     1
 77
     6
 78
     2
 67
     7
 79
     3
170
     0
171
     0
290
     0
174
     0
 93
        5
 44
0.0
173
     0
291
     0
 45
0.0
1001
ACAD
1000
AcDbSavedByObjectVersion
1070
     0
  0
VISUALSTYLE
  5
3F60
102
{ACAD_XDICTIONARY
360
45F5
102
}
102
{ACAD_REACTORS
330
3DE9
102
}
330
3DE9
100
AcDbVisualStyle
  2
Shades of Gray
 70
    23
 71
     2
 72
     2
 73
     3
 90
        0
 40
-0.6
 41
-30.0
 62
     5
 63
     7
 74
     2
 91
        2
 64
     7
 65
     7
 75
     1
175
     1
 42
40.0
 92
        8
 66
     7
 43
1.0
 76
     1
 77
     6
 78
     2
 67
     7
 79
     3
170
     0
171
     0
290
     0
174
     0
 93
        1
 44
0.0
173
     0
291
     0
 45
0.0
1001
ACAD
1000
AcDbSavedByObjectVersion
1070
     0
  0
VISUALSTYLE
  5
3F61
102
{ACAD_XDICTIONARY
360
45F7
102
}
102
{ACAD_REACTORS
330
3DE9
102
}
330
3DE9
100
AcDbVisualStyle
  2
Sketchy
 70
    24
 71
     1
 72
     2
 73
     2
 90
        0
 40
-0.6
 41
-30.0
 62
     5
 63
     7
 74
     2
 91
        2
 64
     7
 65
     7
 75
     1
175
     1
 42
40.0
 92
       11
 66
     7
 43
1.0
 76
     1
 77
     6
 78
     2
 67
     7
 79
     6
170
     0
171
     0
290
     0
174
     0
 93
        1
 44
0.0
173
     0
291
     0
 45
0.0
1001
ACAD
1000
AcDbSavedByObjectVersion
1070
     0
  0
VISUALSTYLE
  5
3DF6
102
{ACAD_XDICTIONARY
360
45E2
102
}
102
{ACAD_REACTORS
330
3DE9
102
}
330
3DE9
100
AcDbVisualStyle
  2
Thicken
 70
    13
 71
     2
 72
     2
 73
     0
 90
        0
 40
-0.6
 41
-30.0
 62
     5
 63
     7
 74
     1
 91
        4
 64
     7
 65
   257
 75
     1
175
     1
 42
1.0
 92
       12
 66
     7
 43
1.0
 76
     1
 77
     6
 78
     2
 67
     7
 79
     5
170
     0
171
     0
290
     0
174
     0
 93
        1
 44
0.0
173
     0
291
     1
 45
0.0
1001
ACAD
1000
AcDbSavedByObjectVersion
1070
     0
  0
VISUALSTYLE
  5
3F5E
102
{ACAD_XDICTIONARY
360
45F1
102
}
102
{ACAD_REACTORS
330
3DE9
102
}
330
3DE9
100
AcDbVisualStyle
  2
Wireframe
 70
     5
 71
     0
 72
     2
 73
     0
 90
        0
 40
-0.6
 41
-30.0
 62
     5
 63
     7
 74
     1
 91
        4
 64
     7
 65
   257
 75
     1
175
     1
 42
1.0
 92
        0
 66
   257
 43
1.0
 76
     1
 77
     6
 78
     2
 67
     7
 79
     3
170
     0
171
     0
290
     0
174
     0
 93
        1
 44
0.0
173
     0
291
     0
 45
0.0
1001
ACAD
1000
AcDbSavedByObjectVersion
1070
     0
  0
VISUALSTYLE
  5
3F62
102
{ACAD_XDICTIONARY
360
45F9
102
}
102
{ACAD_REACTORS
330
3DE9
102
}
330
3DE9
100
AcDbVisualStyle
  2
X-Ray
 70
    25
 71
     2
 72
     2
 73
     1
 90
        1
 40
0.5
 41
-30.0
 62
     5
 63
     7
 74
     1
 91
        0
 64
     7
 65
   257
 75
     1
175
     1
 42
1.0
 92
        8
 66
     7
 43
1.0
 76
     1
 77
     6
 78
     2
 67
     7
 79
     3
170
     0
171
     0
290
     0
174
     0
 93
       13
 44
0.0
173
     0
291
     0
 45
0.0
1001
ACAD
1000
AcDbSavedByObjectVersion
1070
     0
  0
DICTIONARYVAR
  5
3EB1
102
{ACAD_REACTORS
330
1835
102
}
330
1835
100
DictionaryVariables
280
     0
  1
1:1
  0
DICTIONARYVAR
  5
3EB0
102
{ACAD_REACTORS
330
1835
102
}
330
1835
100
DictionaryVariables
280
     0
  1
STANDARD
  0
DICTIONARYVAR
  5
3EAF
102
{ACAD_REACTORS
330
1835
102
}
330
1835
100
DictionaryVariables
280
     0
  1
STANDARD
  0
DICTIONARYVAR
  5
3FCF
102
{ACAD_REACTORS
330
1835
102
}
330
1835
100
DictionaryVariables
280
     0
  1
Metric50
  0
DICTIONARYVAR
  5
3FD0
102
{ACAD_REACTORS
330
1835
102
}
330
1835
100
DictionaryVariables
280
     0
  1
Metric50
  0
DICTIONARYVAR
  5
3EB3
102
{ACAD_REACTORS
330
1835
102
}
330
1835
100
DictionaryVariables
280
     0
  1
1
  0
DICTIONARYVAR
  5
3EB2
102
{ACAD_REACTORS
330
1835
102
}
330
1835
100
DictionaryVariables
280
     0
  1
0
  0
DICTIONARYVAR
  5
1836
102
{ACAD_REACTORS
330
1835
102
}
330
1835
100
DictionaryVariables
280
     0
  1
127
  0
DICTIONARYVAR
  5
4578
102
{ACAD_REACTORS
330
1835
102
}
330
1835
100
DictionaryVariables
280
     0
  1
2
  0
DICTIONARY
  5
4605
330
4112
100
AcDbDictionary
280
     1
281
     1
  3
ACAD_XREC_ROUNDTRIP
360
4606
  0
DICTIONARY
  5
4601
330
3F68
100
AcDbDictionary
280
     1
281
     1
  3
ACAD_XREC_ROUNDTRIP
360
4602
  0
DICTIONARY
  5
45C3
330
22
100
AcDbDictionary
280
     1
281
     1
  3
ACAD_XREC_ROUNDTRIP
360
45C4
  0
DICTIONARY
  5
45C5
330
1CD1
100
AcDbDictionary
280
     1
281
     1
  3
ACAD_XREC_ROUNDTRIP
360
45C6
  0
DICTIONARY
  5
3DDA
330
3DD9
100
AcDbDictionary
280
     1
281
     1
  3
ACAD_XREC_ROUNDTRIP
360
45C8
  3
BUMPTILE
360
3DDC
  3
DIFFUSETILE
360
3DDB
  3
OPACITYTILE
360
3DDF
  3
REFLECTIONTILE
360
3DDE
  3
REFRACTIONTILE
360
3DE0
  3
SPECULARTILE
360
3DDD
  0
DICTIONARY
  5
3DD2
330
3DD1
100
AcDbDictionary
280
     1
281
     1
  3
ACAD_XREC_ROUNDTRIP
360
45C7
  3
BUMPTILE
360
3DD4
  3
DIFFUSETILE
360
3DD3
  3
OPACITYTILE
360
3DD7
  3
REFLECTIONTILE
360
3DD6
  3
REFRACTIONTILE
360
3DD8
  3
SPECULARTILE
360
3DD5
  0
DICTIONARY
  5
3DE2
330
3DE1
100
AcDbDictionary
280
     1
281
     1
  3
ACAD_XREC_ROUNDTRIP
360
45C9
  3
BUMPTILE
360
3DE4
  3
DIFFUSETILE
360
3DE3
  3
OPACITYTILE
360
3DE7
  3
REFLECTIONTILE
360
3DE6
  3
REFRACTIONTILE
360
3DE8
  3
SPECULARTILE
360
3DE5
  0
DICTIONARY
  5
4603
330
4111
100
AcDbDictionary
280
     1
281
     1
  3
ACAD_XREC_ROUNDTRIP
360
4604
  0
DICTIONARY
  5
45FF
330
3F66
100
AcDbDictionary
280
     1
281
     1
  3
ACAD_XREC_ROUNDTRIP
360
4600
  0
DICTIONARY
  5
3E7A
330
3DFF
100
AcDbDictionary
280
     1
281
     1
  3
ACAD_ROUNDTRIP_2008_TABLESTYLE_CELLSTYLEMAP
360
45C0
  3
ACAD_XREC_ROUNDTRIP
360
45F0
  0
DICTIONARY
  5
45D4
330
3DEF
100
AcDbDictionary
280
     1
281
     1
  3
ACAD_XREC_ROUNDTRIP
360
45D5
  0
DICTIONARY
  5
45D8
330
3DF1
100
AcDbDictionary
280
     1
281
     1
  3
ACAD_XREC_ROUNDTRIP
360
45D9
  0
DICTIONARY
  5
45D6
330
3DF0
100
AcDbDictionary
280
     1
281
     1
  3
ACAD_XREC_ROUNDTRIP
360
45D7
  0
DICTIONARY
  5
45D2
330
3DEE
100
AcDbDictionary
280
     1
281
     1
  3
ACAD_XREC_ROUNDTRIP
360
45D3
  0
DICTIONARY
  5
45E0
330
3DF5
100
AcDbDictionary
280
     1
281
     1
  3
ACAD_XREC_ROUNDTRIP
360
45E1
  0
DICTIONARY
  5
45E8
330
3DF9
100
AcDbDictionary
280
     1
281
     1
  3
ACAD_XREC_ROUNDTRIP
360
45E9
  0
DICTIONARY
  5
45DA
330
3DF2
100
AcDbDictionary
280
     1
281
     1
  3
ACAD_XREC_ROUNDTRIP
360
45DB
  0
DICTIONARY
  5
45DE
330
3DF4
100
AcDbDictionary
280
     1
281
     1
  3
ACAD_XREC_ROUNDTRIP
360
45DF
  0
DICTIONARY
  5
45EE
330
3DFC
100
AcDbDictionary
280
     1
281
     1
  3
ACAD_XREC_ROUNDTRIP
360
45EF
  0
DICTIONARY
  5
45E6
330
3DF8
100
AcDbDictionary
280
     1
281
     1
  3
ACAD_XREC_ROUNDTRIP
360
45E7
  0
DICTIONARY
  5
45CA
330
3DEA
100
AcDbDictionary
280
     1
281
     1
  3
ACAD_XREC_ROUNDTRIP
360
45CB
  0
DICTIONARY
  5
45CC
330
3DEB
100
AcDbDictionary
280
     1
281
     1
  3
ACAD_XREC_ROUNDTRIP
360
45CD
  0
DICTIONARY
  5
45CE
330
3DEC
100
AcDbDictionary
280
     1
281
     1
  3
ACAD_XREC_ROUNDTRIP
360
45CF
  0
DICTIONARY
  5
45D0
330
3DED
100
AcDbDictionary
280
     1
281
     1
  3
ACAD_XREC_ROUNDTRIP
360
45D1
  0
DICTIONARY
  5
45F3
330
3F5F
100
AcDbDictionary
280
     1
281
     1
  3
ACAD_XREC_ROUNDTRIP
360
45F4
  0
DICTIONARY
  5
45EA
330
3DFA
100
AcDbDictionary
280
     1
281
     1
  3
ACAD_XREC_ROUNDTRIP
360
45EB
  0
DICTIONARY
  5
45E4
330
3DF7
100
AcDbDictionary
280
     1
281
     1
  3
ACAD_XREC_ROUNDTRIP
360
45E5
  0
DICTIONARY
  5
45EC
330
3DFB
100
AcDbDictionary
280
     1
281
     1
  3
ACAD_XREC_ROUNDTRIP
360
45ED
  0
DICTIONARY
  5
45DC
330
3DF3
100
AcDbDictionary
280
     1
281
     1
  3
ACAD_XREC_ROUNDTRIP
360
45DD
  0
DICTIONARY
  5
45FD
330
3F64
100
AcDbDictionary
280
     1
281
     1
  3
ACAD_XREC_ROUNDTRIP
360
45FE
  0
DICTIONARY
  5
45FB
330
3F63
100
AcDbDictionary
280
     1
281
     1
  3
ACAD_XREC_ROUNDTRIP
360
45FC
  0
DICTIONARY
  5
45F5
330
3F60
100
AcDbDictionary
280
     1
281
     1
  3
ACAD_XREC_ROUNDTRIP
360
45F6
  0
DICTIONARY
  5
45F7
330
3F61
100
AcDbDictionary
280
     1
281
     1
  3
ACAD_XREC_ROUNDTRIP
360
45F8
  0
DICTIONARY
  5
45E2
330
3DF6
100
AcDbDictionary
280
     1
281
     1
  3
ACAD_XREC_ROUNDTRIP
360
45E3
  0
DICTIONARY
  5
45F1
330
3F5E
100
AcDbDictionary
280
     1
281
     1
  3
ACAD_XREC_ROUNDTRIP
360
45F2
  0
DICTIONARY
  5
45F9
330
3F62
100
AcDbDictionary
280
     1
281
     1
  3
ACAD_XREC_ROUNDTRIP
360
45FA
  0
XRECORD
  5
4606
102
{ACAD_REACTORS
330
4605
102
}
330
4605
100
AcDbXrecord
280
     1
102
DISPLAYNAME
  1
Imperial24
102
FLAGS
 90
        0
  0
XRECORD
  5
4602
102
{ACAD_REACTORS
330
4601
102
}
330
4601
100
AcDbXrecord
280
     1
102
DISPLAYNAME
  1
Metric50
102
FLAGS
 90
        0
  0
XRECORD
  5
45C4
102
{ACAD_REACTORS
330
45C3
102
}
330
45C3
100
AcDbXrecord
280
     1
102
SHADEPLOT
 70
     0
102
SHADEPLOTRESLEVEL
 70
     2
102
SHADEPLOTCUSTOMDPI
 70
   300
  0
XRECORD
  5
45C6
102
{ACAD_REACTORS
330
45C5
102
}
330
45C5
100
AcDbXrecord
280
     1
102
SHADEPLOT
 70
     0
102
SHADEPLOTRESLEVEL
 70
     2
102
SHADEPLOTCUSTOMDPI
 70
   300
  0
XRECORD
  5
45C8
102
{ACAD_REACTORS
330
3DDA
102
}
330
3DDA
100
AcDbXrecord
280
     1
102
MATERIAL
148
0.0
149
0.0
149
0.0
 93
        0
 94
      127
282
     0
 72
     0
 77
     0
171
     0
175
     0
179
     0
273
     0
  0
XRECORD
  5
3DDC
102
{ACAD_REACTORS
330
3DDA
102
}
330
3DDA
100
AcDbXrecord
280
     1
270
     1
271
     1
  0
XRECORD
  5
3DDB
102
{ACAD_REACTORS
330
3DDA
102
}
330
3DDA
100
AcDbXrecord
280
     1
270
     1
271
     1
  0
XRECORD
  5
3DDF
102
{ACAD_REACTORS
330
3DDA
102
}
330
3DDA
100
AcDbXrecord
280
     1
270
     1
271
     1
  0
XRECORD
  5
3DDE
102
{ACAD_REACTORS
330
3DDA
102
}
330
3DDA
100
AcDbXrecord
280
     1
270
     1
271
     1
  0
XRECORD
  5
3DE0
102
{ACAD_REACTORS
330
3DDA
102
}
330
3DDA
100
AcDbXrecord
280
     1
270
     1
271
     1
  0
XRECORD
  5
3DDD
102
{ACAD_REACTORS
330
3DDA
102
}
330
3DDA
100
AcDbXrecord
280
     1
270
     1
271
     1
  0
XRECORD
  5
45C7
102
{ACAD_REACTORS
330
3DD2
102
}
330
3DD2
100
AcDbXrecord
280
     1
102
MATERIAL
148
0.0
149
0.0
149
0.0
 93
        0
 94
      127
282
     0
 72
     0
 77
     0
171
     0
175
     0
179
     0
273
     0
  0
XRECORD
  5
3DD4
102
{ACAD_REACTORS
330
3DD2
102
}
330
3DD2
100
AcDbXrecord
280
     1
270
     1
271
     1
  0
XRECORD
  5
3DD3
102
{ACAD_REACTORS
330
3DD2
102
}
330
3DD2
100
AcDbXrecord
280
     1
270
     1
271
     1
  0
XRECORD
  5
3DD7
102
{ACAD_REACTORS
330
3DD2
102
}
330
3DD2
100
AcDbXrecord
280
     1
270
     1
271
     1
  0
XRECORD
  5
3DD6
102
{ACAD_REACTORS
330
3DD2
102
}
330
3DD2
100
AcDbXrecord
280
     1
270
     1
271
     1
  0
XRECORD
  5
3DD8
102
{ACAD_REACTORS
330
3DD2
102
}
330
3DD2
100
AcDbXrecord
280
     1
270
     1
271
     1
  0
XRECORD
  5
3DD5
102
{ACAD_REACTORS
330
3DD2
102
}
330
3DD2
100
AcDbXrecord
280
     1
270
     1
271
     1
  0
XRECORD
  5
45C9
102
{ACAD_REACTORS
330
3DE2
102
}
330
3DE2
100
AcDbXrecord
280
     1
102
MATERIAL
148
0.0
149
0.0
149
0.0
 93
        0
 94
      127
282
     0
 72
     0
 77
     0
171
     0
175
     0
179
     0
273
     0
  0
XRECORD
  5
3DE4
102
{ACAD_REACTORS
330
3DE2
102
}
330
3DE2
100
AcDbXrecord
280
     1
270
     1
271
     1
  0
XRECORD
  5
3DE3
102
{ACAD_REACTORS
330
3DE2
102
}
330
3DE2
100
AcDbXrecord
280
     1
270
     1
271
     1
  0
XRECORD
  5
3DE7
102
{ACAD_REACTORS
330
3DE2
102
}
330
3DE2
100
AcDbXrecord
280
     1
270
     1
271
     1
  0
XRECORD
  5
3DE6
102
{ACAD_REACTORS
330
3DE2
102
}
330
3DE2
100
AcDbXrecord
280
     1
270
     1
271
     1
  0
XRECORD
  5
3DE8
102
{ACAD_REACTORS
330
3DE2
102
}
330
3DE2
100
AcDbXrecord
280
     1
270
     1
271
     1
  0
XRECORD
  5
3DE5
102
{ACAD_REACTORS
330
3DE2
102
}
330
3DE2
100
AcDbXrecord
280
     1
270
     1
271
     1
  0
XRECORD
  5
4604
102
{ACAD_REACTORS
330
4603
102
}
330
4603
100
AcDbXrecord
280
     1
102
DISPLAYNAME
  1
Imperial24
102
FLAGS
 90
        0
  0
XRECORD
  5
4600
102
{ACAD_REACTORS
330
45FF
102
}
330
45FF
100
AcDbXrecord
280
     1
102
DISPLAYNAME
  1
Metric50
102
FLAGS
 90
        0
  0
CELLSTYLEMAP
  5
45C0
102
{ACAD_REACTORS
330
3E7A
102
}
330
3E7A
100
AcDbCellStyleMap
 90
        3
300
CELLSTYLE
  1
TABLEFORMAT_BEGIN
 90
        5
170
     1
 91
        0
 92
    32768
 62
   257
 93
        1
300
CONTENTFORMAT
  1
CONTENTFORMAT_BEGIN
 90
        0
 91
        0
 92
      512
 93
        0
300

 40
0.0
140
1.0
 94
        5
 62
     0
340
11
144
6.0
309
CONTENTFORMAT_END
171
     1
301
MARGIN
  1
CELLMARGIN_BEGIN
 40
1.5
 40
1.5
 40
1.5
 40
1.5
 40
4.5
 40
4.5
309
CELLMARGIN_END
 94
        6
 95
        1
302
GRIDFORMAT
  1
GRIDFORMAT_BEGIN
 90
        0
 91
        1
 62
     0
 92
       -2
340
0
 93
        0
 40
1.125
309
GRIDFORMAT_END
 95
        2
302
GRIDFORMAT
  1
GRIDFORMAT_BEGIN
 90
        0
 91
        1
 62
     0
 92
       -2
340
0
 93
        0
 40
1.125
309
GRIDFORMAT_END
 95
        4
302
GRIDFORMAT
  1
GRIDFORMAT_BEGIN
 90
        0
 91
        1
 62
     0
 92
       -2
340
0
 93
        0
 40
1.125
309
GRIDFORMAT_END
 95
        8
302
GRIDFORMAT
  1
GRIDFORMAT_BEGIN
 90
        0
 91
        1
 62
     0
 92
       -2
340
0
 93
        0
 40
1.125
309
GRIDFORMAT_END
 95
       16
302
GRIDFORMAT
  1
GRIDFORMAT_BEGIN
 90
        0
 91
        1
 62
     0
 92
       -2
340
0
 93
        0
 40
1.125
309
GRIDFORMAT_END
 95
       32
302
GRIDFORMAT
  1
GRIDFORMAT_BEGIN
 90
        0
 91
        1
 62
     0
 92
       -2
340
0
 93
        0
 40
1.125
309
GRIDFORMAT_END
309
TABLEFORMAT_END
  1
CELLSTYLE_BEGIN
 90
        1
 91
        1
300
_TITLE
309
CELLSTYLE_END
300
CELLSTYLE
  1
TABLEFORMAT_BEGIN
 90
        5
170
     1
 91
        0
 92
        0
 62
   257
 93
        1
300
CONTENTFORMAT
  1
CONTENTFORMAT_BEGIN
 90
        0
 91
        0
 92
      512
 93
        0
300

 40
0.0
140
1.0
 94
        5
 62
     0
340
11
144
4.5
309
CONTENTFORMAT_END
171
     1
301
MARGIN
  1
CELLMARGIN_BEGIN
 40
1.5
 40
1.5
 40
1.5
 40
1.5
 40
4.5
 40
4.5
309
CELLMARGIN_END
 94
        6
 95
        1
302
GRIDFORMAT
  1
GRIDFORMAT_BEGIN
 90
        0
 91
        1
 62
     0
 92
       -2
340
0
 93
        0
 40
1.125
309
GRIDFORMAT_END
 95
        2
302
GRIDFORMAT
  1
GRIDFORMAT_BEGIN
 90
        0
 91
        1
 62
     0
 92
       -2
340
0
 93
        0
 40
1.125
309
GRIDFORMAT_END
 95
        4
302
GRIDFORMAT
  1
GRIDFORMAT_BEGIN
 90
        0
 91
        1
 62
     0
 92
       -2
340
0
 93
        0
 40
1.125
309
GRIDFORMAT_END
 95
        8
302
GRIDFORMAT
  1
GRIDFORMAT_BEGIN
 90
        0
 91
        1
 62
     0
 92
       -2
340
0
 93
        0
 40
1.125
309
GRIDFORMAT_END
 95
       16
302
GRIDFORMAT
  1
GRIDFORMAT_BEGIN
 90
        0
 91
        1
 62
     0
 92
       -2
340
0
 93
        0
 40
1.125
309
GRIDFORMAT_END
 95
       32
302
GRIDFORMAT
  1
GRIDFORMAT_BEGIN
 90
        0
 91
        1
 62
     0
 92
       -2
340
0
 93
        0
 40
1.125
309
GRIDFORMAT_END
309
TABLEFORMAT_END
  1
CELLSTYLE_BEGIN
 90
        2
 91
        1
300
_HEADER
309
CELLSTYLE_END
300
CELLSTYLE
  1
TABLEFORMAT_BEGIN
 90
        5
170
     1
 91
        0
 92
        0
 62
   257
 93
        1
300
CONTENTFORMAT
  1
CONTENTFORMAT_BEGIN
 90
        0
 91
        0
 92
      512
 93
        0
300

 40
0.0
140
1.0
 94
        2
 62
     0
340
11
144
4.5
309
CONTENTFORMAT_END
171
     1
301
MARGIN
  1
CELLMARGIN_BEGIN
 40
1.5
 40
1.5
 40
1.5
 40
1.5
 40
4.5
 40
4.5
309
CELLMARGIN_END
 94
        6
 95
        1
302
GRIDFORMAT
  1
GRIDFORMAT_BEGIN
 90
        0
 91
        1
 62
     0
 92
       -2
340
0
 93
        0
 40
1.125
309
GRIDFORMAT_END
 95
        2
302
GRIDFORMAT
  1
GRIDFORMAT_BEGIN
 90
        0
 91
        1
 62
     0
 92
       -2
340
0
 93
        0
 40
1.125
309
GRIDFORMAT_END
 95
        4
302
GRIDFORMAT
  1
GRIDFORMAT_BEGIN
 90
        0
 91
        1
 62
     0
 92
       -2
340
0
 93
        0
 40
1.125
309
GRIDFORMAT_END
 95
        8
302
GRIDFORMAT
  1
GRIDFORMAT_BEGIN
 90
        0
 91
        1
 62
     0
 92
       -2
340
0
 93
        0
 40
1.125
309
GRIDFORMAT_END
 95
       16
302
GRIDFORMAT
  1
GRIDFORMAT_BEGIN
 90
        0
 91
        1
 62
     0
 92
       -2
340
0
 93
        0
 40
1.125
309
GRIDFORMAT_END
 95
       32
302
GRIDFORMAT
  1
GRIDFORMAT_BEGIN
 90
        0
 91
        1
 62
     0
 92
       -2
340
0
 93
        0
 40
1.125
309
GRIDFORMAT_END
309
TABLEFORMAT_END
  1
CELLSTYLE_BEGIN
 90
        3
 91
        2
300
_DATA
309
CELLSTYLE_END
  0
XRECORD
  5
45F0
102
{ACAD_REACTORS
330
3E7A
102
}
330
3E7A
100
AcDbXrecord
280
     1
102
ACAD_ROUNDTRIP_PRE2007_TABLESTYLE
 90
      512
 91
        0
  1

 92
      512
 93
        0
  2

 94
      512
 95
        0
  3

  0
XRECORD
  5
45D5
102
{ACAD_REACTORS
330
45D4
102
}
330
45D4
100
AcDbXrecord
280
     1
102
RTVSPost2010Prop28
280
     1
102
RTVSPost2010PropOp28
 70
     1
102
RTVSPost2010Prop29
280
     1
102
RTVSPost2010PropOp29
 70
     1
102
RTVSPost2010Prop30
280
     0
102
RTVSPost2010PropOp30
 70
     1
102
RTVSPost2010Prop31
280
     0
102
RTVSPost2010PropOp31
 70
     1
102
RTVSPost2010Prop32
280
     0
102
RTVSPost2010PropOp32
 70
     1
102
RTVSPost2010Prop33
280
     0
102
RTVSPost2010PropOp33
 70
     1
102
RTVSPost2010Prop34
280
     0
102
RTVSPost2010PropOp34
 70
     1
102
RTVSPost2010Prop35
280
     0
102
RTVSPost2010PropOp35
 70
     1
102
RTVSPost2010Prop36
280
     0
102
RTVSPost2010PropOp36
 70
     1
102
RTVSPost2010Prop37
 90
       50
102
RTVSPost2010PropOp37
 70
     1
102
RTVSPost2010Prop38
140
0.0
102
RTVSPost2010PropOp38
 70
     1
102
RTVSPost2010Prop39
140
1.0
102
RTVSPost2010PropOp39
 70
     1
102
RTVSPost2010Prop40
 90
        0
102
RTVSPost2010PropOp40
 70
     1
102
RTVSPost2010Prop41ColorIndex
 90
       18
102
RTVSPost2010Prop41ColorRGB
 90
        0
102
RTVSPost2010PropOp41
 70
     1
102
RTVSPost2010Prop42
 90
       50
102
RTVSPost2010PropOp42
 70
     1
102
RTVSPost2010Prop43
 90
        3
102
RTVSPost2010PropOp43
 70
     1
102
RTVSPost2010Prop44ColorIndex
 90
        5
102
RTVSPost2010Prop44ColorRGB
 90
      255
102
RTVSPost2010PropOp44
 70
     1
102
RTVSPost2010Prop45
280
     0
102
RTVSPost2010PropOp45
 70
     1
102
RTVSPost2010Prop46
 90
       50
102
RTVSPost2010PropOp46
 70
     1
102
RTVSPost2010Prop47
 90
       50
102
RTVSPost2010PropOp47
 70
     1
102
RTVSPost2010Prop48
 90
       50
102
RTVSPost2010PropOp48
 70
     1
102
RTVSPost2010Prop49
280
     0
102
RTVSPost2010PropOp49
 70
     1
102
RTVSPost2010Prop50
 90
       50
102
RTVSPost2010PropOp50
 70
     1
102
RTVSPost2010Prop51ColorIndex
 90
      256
102
RTVSPost2010Prop51ColorRGB
 90
-16777216
102
RTVSPost2010PropOp51
 70
     0
102
RTVSPost2010Prop52
140
1.0
102
RTVSPost2010PropOp52
 70
     0
102
RTVSPost2010Prop53
 90
        2
102
RTVSPost2010PropOp53
 70
     1
102
RTVSPost2010Prop54
  1
strokes_ogs.tif
102
RTVSPost2010PropOp54
 70
     1
102
RTVSPost2010Prop55
280
     0
102
RTVSPost2010PropOp55
 70
     1
102
RTVSPost2010Prop56
140
1.0
102
RTVSPost2010PropOp56
 70
     1
102
RTVSPost2010Prop57
140
1.0
102
RTVSPost2010PropOp57
 70
     1
102
RTVSPropertyOp0
 70
     1
102
RTVSPropertyOp1
 70
     1
102
RTVSPropertyOp2
 70
     1
102
RTVSPropertyOp3
 70
     1
102
RTVSPropertyOp4
 70
     1
102
RTVSPropertyOp5
 70
     1
102
RTVSPropertyOp6
 70
     1
102
RTVSPropertyOp7
 70
     1
102
RTVSPropertyOp8
 70
     1
102
RTVSPropertyOp9
 70
     1
102
RTVSPropertyOp10
 70
     1
102
RTVSPropertyOp11
 70
     1
102
RTVSPropertyOp12
 70
     1
102
RTVSPropertyOp13
 70
     1
102
RTVSPropertyOp14
 70
     1
102
RTVSPropertyOp15
 70
     1
102
RTVSPropertyOp16
 70
     1
102
RTVSPropertyOp17
 70
     1
102
RTVSPropertyOp18
 70
     1
102
RTVSPropertyOp19
 70
     1
102
RTVSPropertyOp20
 70
     1
102
RTVSPropertyOp21
 70
     1
102
RTVSPropertyOp22
 70
     1
102
RTVSPropertyOp23
 70
     1
102
RTVSPropertyOp24
 70
     1
102
RTVSPropertyOp25
 70
     1
102
RTVSPropertyOp26
 70
     1
102
RTVSPropertyOp27
 70
     1
102
RTVSPropertyOp28
 70
     1
102
RTVSPropertyOp29
 70
     1
102
RTVSPropertyOp30
 70
     1
102
RTVSPropertyOp31
 70
     1
102
RTVSPropertyOp32
 70
     1
102
RTVSPropertyOp33
 70
     1
102
RTVSPropertyOp34
 70
     1
102
RTVSPropertyOp35
 70
     1
102
RTVSPropertyOp36
 70
     1
102
RTVSPropertyOp37
 70
     1
102
RTVSPropertyOp38
 70
     1
102
RTVSPropertyOp39
 70
     1
102
RTVSPropertyOp40
 70
     1
102
RTVSPropertyOp41
 70
     1
102
RTVSPropertyOp42
 70
     1
102
RTVSPropertyOp43
 70
     1
102
RTVSPropertyOp44
 70
     1
102
RTVSPropertyOp45
 70
     1
102
RTVSPropertyOp46
 70
     1
102
RTVSPropertyOp47
 70
     1
102
RTVSPropertyOp48
 70
     1
102
RTVSPropertyOp49
 70
     1
102
RTVSPropertyOp50
 70
     1
102
RTVSPropertyOp51
 70
     0
102
RTVSPropertyOp52
 70
     0
102
RTVSPropertyOp53
 70
     1
102
RTVSPropertyOp54
 70
     1
102
RTVSPropertyOp55
 70
     1
102
RTVSPropertyOp56
 70
     1
102
RTVSPropertyOp57
 70
     1
102
RTVSPropertyOp58
 70
     1
102
RTVSPropertyOp59
 70
     1
102
RTVSPropertyOp60
 70
     1
102
RTVSPropertyOp61
 70
     1
102
RTVSPropertyOp62
 70
     1
  0
XRECORD
  5
45D9
102
{ACAD_REACTORS
330
45D8
102
}
330
45D8
100
AcDbXrecord
280
     1
102
RTVSPost2010Prop28
280
     0
102
RTVSPost2010PropOp28
 70
     1
102
RTVSPost2010Prop29
280
     1
102
RTVSPost2010PropOp29
 70
     1
102
RTVSPost2010Prop30
280
     1
102
RTVSPost2010PropOp30
 70
     1
102
RTVSPost2010Prop31
280
     0
102
RTVSPost2010PropOp31
 70
     1
102
RTVSPost2010Prop32
280
     0
102
RTVSPost2010PropOp32
 70
     1
102
RTVSPost2010Prop33
280
     0
102
RTVSPost2010PropOp33
 70
     1
102
RTVSPost2010Prop34
280
     0
102
RTVSPost2010PropOp34
 70
     1
102
RTVSPost2010Prop35
280
     0
102
RTVSPost2010PropOp35
 70
     1
102
RTVSPost2010Prop36
280
     0
102
RTVSPost2010PropOp36
 70
     1
102
RTVSPost2010Prop37
 90
       50
102
RTVSPost2010PropOp37
 70
     1
102
RTVSPost2010Prop38
140
0.0
102
RTVSPost2010PropOp38
 70
     1
102
RTVSPost2010Prop39
140
1.0
102
RTVSPost2010PropOp39
 70
     1
102
RTVSPost2010Prop40
 90
        0
102
RTVSPost2010PropOp40
 70
     1
102
RTVSPost2010Prop41ColorIndex
 90
       18
102
RTVSPost2010Prop41ColorRGB
 90
        0
102
RTVSPost2010PropOp41
 70
     1
102
RTVSPost2010Prop42
 90
       50
102
RTVSPost2010PropOp42
 70
     1
102
RTVSPost2010Prop43
 90
        3
102
RTVSPost2010PropOp43
 70
     1
102
RTVSPost2010Prop44ColorIndex
 90
        5
102
RTVSPost2010Prop44ColorRGB
 90
      255
102
RTVSPost2010PropOp44
 70
     1
102
RTVSPost2010Prop45
280
     0
102
RTVSPost2010PropOp45
 70
     1
102
RTVSPost2010Prop46
 90
       50
102
RTVSPost2010PropOp46
 70
     1
102
RTVSPost2010Prop47
 90
       50
102
RTVSPost2010PropOp47
 70
     1
102
RTVSPost2010Prop48
 90
       50
102
RTVSPost2010PropOp48
 70
     1
102
RTVSPost2010Prop49
280
     0
102
RTVSPost2010PropOp49
 70
     1
102
RTVSPost2010Prop50
 90
       50
102
RTVSPost2010PropOp50
 70
     1
102
RTVSPost2010Prop51ColorIndex
 90
      256
102
RTVSPost2010Prop51ColorRGB
 90
-16777216
102
RTVSPost2010PropOp51
 70
     0
102
RTVSPost2010Prop52
140
1.0
102
RTVSPost2010PropOp52
 70
     0
102
RTVSPost2010Prop53
 90
        2
102
RTVSPost2010PropOp53
 70
     1
102
RTVSPost2010Prop54
  1
strokes_ogs.tif
102
RTVSPost2010PropOp54
 70
     1
102
RTVSPost2010Prop55
280
     0
102
RTVSPost2010PropOp55
 70
     1
102
RTVSPost2010Prop56
140
1.0
102
RTVSPost2010PropOp56
 70
     1
102
RTVSPost2010Prop57
140
1.0
102
RTVSPost2010PropOp57
 70
     1
102
RTVSPropertyOp0
 70
     1
102
RTVSPropertyOp1
 70
     1
102
RTVSPropertyOp2
 70
     1
102
RTVSPropertyOp3
 70
     1
102
RTVSPropertyOp4
 70
     1
102
RTVSPropertyOp5
 70
     1
102
RTVSPropertyOp6
 70
     1
102
RTVSPropertyOp7
 70
     1
102
RTVSPropertyOp8
 70
     1
102
RTVSPropertyOp9
 70
     1
102
RTVSPropertyOp10
 70
     1
102
RTVSPropertyOp11
 70
     1
102
RTVSPropertyOp12
 70
     1
102
RTVSPropertyOp13
 70
     1
102
RTVSPropertyOp14
 70
     1
102
RTVSPropertyOp15
 70
     1
102
RTVSPropertyOp16
 70
     1
102
RTVSPropertyOp17
 70
     1
102
RTVSPropertyOp18
 70
     1
102
RTVSPropertyOp19
 70
     1
102
RTVSPropertyOp20
 70
     1
102
RTVSPropertyOp21
 70
     1
102
RTVSPropertyOp22
 70
     1
102
RTVSPropertyOp23
 70
     1
102
RTVSPropertyOp24
 70
     1
102
RTVSPropertyOp25
 70
     1
102
RTVSPropertyOp26
 70
     1
102
RTVSPropertyOp27
 70
     1
102
RTVSPropertyOp28
 70
     1
102
RTVSPropertyOp29
 70
     1
102
RTVSPropertyOp30
 70
     1
102
RTVSPropertyOp31
 70
     1
102
RTVSPropertyOp32
 70
     1
102
RTVSPropertyOp33
 70
     1
102
RTVSPropertyOp34
 70
     1
102
RTVSPropertyOp35
 70
     1
102
RTVSPropertyOp36
 70
     1
102
RTVSPropertyOp37
 70
     1
102
RTVSPropertyOp38
 70
     1
102
RTVSPropertyOp39
 70
     1
102
RTVSPropertyOp40
 70
     1
102
RTVSPropertyOp41
 70
     1
102
RTVSPropertyOp42
 70
     1
102
RTVSPropertyOp43
 70
     1
102
RTVSPropertyOp44
 70
     1
102
RTVSPropertyOp45
 70
     1
102
RTVSPropertyOp46
 70
     1
102
RTVSPropertyOp47
 70
     1
102
RTVSPropertyOp48
 70
     1
102
RTVSPropertyOp49
 70
     1
102
RTVSPropertyOp50
 70
     1
102
RTVSPropertyOp51
 70
     0
102
RTVSPropertyOp52
 70
     0
102
RTVSPropertyOp53
 70
     1
102
RTVSPropertyOp54
 70
     1
102
RTVSPropertyOp55
 70
     1
102
RTVSPropertyOp56
 70
     1
102
RTVSPropertyOp57
 70
     1
102
RTVSPropertyOp58
 70
     1
102
RTVSPropertyOp59
 70
     1
102
RTVSPropertyOp60
 70
     1
102
RTVSPropertyOp61
 70
     1
102
RTVSPropertyOp62
 70
     1
  0
XRECORD
  5
45D7
102
{ACAD_REACTORS
330
45D6
102
}
330
45D6
100
AcDbXrecord
280
     1
102
RTVSPost2010Prop28
280
     0
102
RTVSPost2010PropOp28
 70
     1
102
RTVSPost2010Prop29
280
     1
102
RTVSPost2010PropOp29
 70
     1
102
RTVSPost2010Prop30
280
     1
102
RTVSPost2010PropOp30
 70
     1
102
RTVSPost2010Prop31
280
     0
102
RTVSPost2010PropOp31
 70
     1
102
RTVSPost2010Prop32
280
     0
102
RTVSPost2010PropOp32
 70
     1
102
RTVSPost2010Prop33
280
     0
102
RTVSPost2010PropOp33
 70
     1
102
RTVSPost2010Prop34
280
     0
102
RTVSPost2010PropOp34
 70
     1
102
RTVSPost2010Prop35
280
     0
102
RTVSPost2010PropOp35
 70
     1
102
RTVSPost2010Prop36
280
     0
102
RTVSPost2010PropOp36
 70
     1
102
RTVSPost2010Prop37
 90
       50
102
RTVSPost2010PropOp37
 70
     1
102
RTVSPost2010Prop38
140
0.0
102
RTVSPost2010PropOp38
 70
     1
102
RTVSPost2010Prop39
140
1.0
102
RTVSPost2010PropOp39
 70
     1
102
RTVSPost2010Prop40
 90
        0
102
RTVSPost2010PropOp40
 70
     1
102
RTVSPost2010Prop41ColorIndex
 90
       18
102
RTVSPost2010Prop41ColorRGB
 90
        0
102
RTVSPost2010PropOp41
 70
     1
102
RTVSPost2010Prop42
 90
       50
102
RTVSPost2010PropOp42
 70
     1
102
RTVSPost2010Prop43
 90
        3
102
RTVSPost2010PropOp43
 70
     1
102
RTVSPost2010Prop44ColorIndex
 90
        5
102
RTVSPost2010Prop44ColorRGB
 90
      255
102
RTVSPost2010PropOp44
 70
     1
102
RTVSPost2010Prop45
280
     0
102
RTVSPost2010PropOp45
 70
     1
102
RTVSPost2010Prop46
 90
       50
102
RTVSPost2010PropOp46
 70
     1
102
RTVSPost2010Prop47
 90
       50
102
RTVSPost2010PropOp47
 70
     1
102
RTVSPost2010Prop48
 90
       50
102
RTVSPost2010PropOp48
 70
     1
102
RTVSPost2010Prop49
280
     0
102
RTVSPost2010PropOp49
 70
     1
102
RTVSPost2010Prop50
 90
       50
102
RTVSPost2010PropOp50
 70
     1
102
RTVSPost2010Prop51ColorIndex
 90
      256
102
RTVSPost2010Prop51ColorRGB
 90
-16777216
102
RTVSPost2010PropOp51
 70
     0
102
RTVSPost2010Prop52
140
1.0
102
RTVSPost2010PropOp52
 70
     0
102
RTVSPost2010Prop53
 90
        2
102
RTVSPost2010PropOp53
 70
     1
102
RTVSPost2010Prop54
  1
strokes_ogs.tif
102
RTVSPost2010PropOp54
 70
     1
102
RTVSPost2010Prop55
280
     0
102
RTVSPost2010PropOp55
 70
     1
102
RTVSPost2010Prop56
140
1.0
102
RTVSPost2010PropOp56
 70
     1
102
RTVSPost2010Prop57
140
1.0
102
RTVSPost2010PropOp57
 70
     1
102
RTVSPropertyOp0
 70
     1
102
RTVSPropertyOp1
 70
     1
102
RTVSPropertyOp2
 70
     1
102
RTVSPropertyOp3
 70
     1
102
RTVSPropertyOp4
 70
     1
102
RTVSPropertyOp5
 70
     1
102
RTVSPropertyOp6
 70
     1
102
RTVSPropertyOp7
 70
     1
102
RTVSPropertyOp8
 70
     1
102
RTVSPropertyOp9
 70
     1
102
RTVSPropertyOp10
 70
     1
102
RTVSPropertyOp11
 70
     1
102
RTVSPropertyOp12
 70
     1
102
RTVSPropertyOp13
 70
     1
102
RTVSPropertyOp14
 70
     1
102
RTVSPropertyOp15
 70
     1
102
RTVSPropertyOp16
 70
     1
102
RTVSPropertyOp17
 70
     1
102
RTVSPropertyOp18
 70
     1
102
RTVSPropertyOp19
 70
     1
102
RTVSPropertyOp20
 70
     1
102
RTVSPropertyOp21
 70
     1
102
RTVSPropertyOp22
 70
     1
102
RTVSPropertyOp23
 70
     1
102
RTVSPropertyOp24
 70
     1
102
RTVSPropertyOp25
 70
     1
102
RTVSPropertyOp26
 70
     1
102
RTVSPropertyOp27
 70
     1
102
RTVSPropertyOp28
 70
     1
102
RTVSPropertyOp29
 70
     1
102
RTVSPropertyOp30
 70
     1
102
RTVSPropertyOp31
 70
     1
102
RTVSPropertyOp32
 70
     1
102
RTVSPropertyOp33
 70
     1
102
RTVSPropertyOp34
 70
     1
102
RTVSPropertyOp35
 70
     1
102
RTVSPropertyOp36
 70
     1
102
RTVSPropertyOp37
 70
     1
102
RTVSPropertyOp38
 70
     1
102
RTVSPropertyOp39
 70
     1
102
RTVSPropertyOp40
 70
     1
102
RTVSPropertyOp41
 70
     1
102
RTVSPropertyOp42
 70
     1
102
RTVSPropertyOp43
 70
     1
102
RTVSPropertyOp44
 70
     1
102
RTVSPropertyOp45
 70
     1
102
RTVSPropertyOp46
 70
     1
102
RTVSPropertyOp47
 70
     1
102
RTVSPropertyOp48
 70
     1
102
RTVSPropertyOp49
 70
     1
102
RTVSPropertyOp50
 70
     1
102
RTVSPropertyOp51
 70
     0
102
RTVSPropertyOp52
 70
     0
102
RTVSPropertyOp53
 70
     1
102
RTVSPropertyOp54
 70
     1
102
RTVSPropertyOp55
 70
     1
102
RTVSPropertyOp56
 70
     1
102
RTVSPropertyOp57
 70
     1
102
RTVSPropertyOp58
 70
     1
102
RTVSPropertyOp59
 70
     1
102
RTVSPropertyOp60
 70
     1
102
RTVSPropertyOp61
 70
     1
102
RTVSPropertyOp62
 70
     1
  0
XRECORD
  5
45D3
102
{ACAD_REACTORS
330
45D2
102
}
330
45D2
100
AcDbXrecord
280
     1
102
RTVSPost2010Prop28
280
     0
102
RTVSPost2010PropOp28
 70
     1
102
RTVSPost2010Prop29
280
     1
102
RTVSPost2010PropOp29
 70
     1
102
RTVSPost2010Prop30
280
     1
102
RTVSPost2010PropOp30
 70
     1
102
RTVSPost2010Prop31
280
     0
102
RTVSPost2010PropOp31
 70
     1
102
RTVSPost2010Prop32
280
     0
102
RTVSPost2010PropOp32
 70
     1
102
RTVSPost2010Prop33
280
     0
102
RTVSPost2010PropOp33
 70
     1
102
RTVSPost2010Prop34
280
     0
102
RTVSPost2010PropOp34
 70
     1
102
RTVSPost2010Prop35
280
     0
102
RTVSPost2010PropOp35
 70
     1
102
RTVSPost2010Prop36
280
     0
102
RTVSPost2010PropOp36
 70
     1
102
RTVSPost2010Prop37
 90
       50
102
RTVSPost2010PropOp37
 70
     1
102
RTVSPost2010Prop38
140
0.0
102
RTVSPost2010PropOp38
 70
     1
102
RTVSPost2010Prop39
140
1.0
102
RTVSPost2010PropOp39
 70
     1
102
RTVSPost2010Prop40
 90
        0
102
RTVSPost2010PropOp40
 70
     1
102
RTVSPost2010Prop41ColorIndex
 90
       18
102
RTVSPost2010Prop41ColorRGB
 90
        0
102
RTVSPost2010PropOp41
 70
     1
102
RTVSPost2010Prop42
 90
       50
102
RTVSPost2010PropOp42
 70
     1
102
RTVSPost2010Prop43
 90
        3
102
RTVSPost2010PropOp43
 70
     1
102
RTVSPost2010Prop44ColorIndex
 90
        5
102
RTVSPost2010Prop44ColorRGB
 90
      255
102
RTVSPost2010PropOp44
 70
     1
102
RTVSPost2010Prop45
280
     0
102
RTVSPost2010PropOp45
 70
     1
102
RTVSPost2010Prop46
 90
       50
102
RTVSPost2010PropOp46
 70
     1
102
RTVSPost2010Prop47
 90
       50
102
RTVSPost2010PropOp47
 70
     1
102
RTVSPost2010Prop48
 90
       50
102
RTVSPost2010PropOp48
 70
     1
102
RTVSPost2010Prop49
280
     0
102
RTVSPost2010PropOp49
 70
     1
102
RTVSPost2010Prop50
 90
       50
102
RTVSPost2010PropOp50
 70
     1
102
RTVSPost2010Prop51ColorIndex
 90
      256
102
RTVSPost2010Prop51ColorRGB
 90
-16777216
102
RTVSPost2010PropOp51
 70
     0
102
RTVSPost2010Prop52
140
1.0
102
RTVSPost2010PropOp52
 70
     0
102
RTVSPost2010Prop53
 90
        2
102
RTVSPost2010PropOp53
 70
     1
102
RTVSPost2010Prop54
  1
strokes_ogs.tif
102
RTVSPost2010PropOp54
 70
     1
102
RTVSPost2010Prop55
280
     0
102
RTVSPost2010PropOp55
 70
     1
102
RTVSPost2010Prop56
140
1.0
102
RTVSPost2010PropOp56
 70
     1
102
RTVSPost2010Prop57
140
1.0
102
RTVSPost2010PropOp57
 70
     1
102
RTVSPropertyOp0
 70
     1
102
RTVSPropertyOp1
 70
     1
102
RTVSPropertyOp2
 70
     1
102
RTVSPropertyOp3
 70
     1
102
RTVSPropertyOp4
 70
     1
102
RTVSPropertyOp5
 70
     1
102
RTVSPropertyOp6
 70
     1
102
RTVSPropertyOp7
 70
     1
102
RTVSPropertyOp8
 70
     1
102
RTVSPropertyOp9
 70
     1
102
RTVSPropertyOp10
 70
     1
102
RTVSPropertyOp11
 70
     1
102
RTVSPropertyOp12
 70
     1
102
RTVSPropertyOp13
 70
     1
102
RTVSPropertyOp14
 70
     1
102
RTVSPropertyOp15
 70
     1
102
RTVSPropertyOp16
 70
     1
102
RTVSPropertyOp17
 70
     1
102
RTVSPropertyOp18
 70
     1
102
RTVSPropertyOp19
 70
     1
102
RTVSPropertyOp20
 70
     1
102
RTVSPropertyOp21
 70
     1
102
RTVSPropertyOp22
 70
     1
102
RTVSPropertyOp23
 70
     1
102
RTVSPropertyOp24
 70
     1
102
RTVSPropertyOp25
 70
     1
102
RTVSPropertyOp26
 70
     1
102
RTVSPropertyOp27
 70
     1
102
RTVSPropertyOp28
 70
     1
102
RTVSPropertyOp29
 70
     1
102
RTVSPropertyOp30
 70
     1
102
RTVSPropertyOp31
 70
     1
102
RTVSPropertyOp32
 70
     1
102
RTVSPropertyOp33
 70
     1
102
RTVSPropertyOp34
 70
     1
102
RTVSPropertyOp35
 70
     1
102
RTVSPropertyOp36
 70
     1
102
RTVSPropertyOp37
 70
     1
102
RTVSPropertyOp38
 70
     1
102
RTVSPropertyOp39
 70
     1
102
RTVSPropertyOp40
 70
     1
102
RTVSPropertyOp41
 70
     1
102
RTVSPropertyOp42
 70
     1
102
RTVSPropertyOp43
 70
     1
102
RTVSPropertyOp44
 70
     1
102
RTVSPropertyOp45
 70
     1
102
RTVSPropertyOp46
 70
     1
102
RTVSPropertyOp47
 70
     1
102
RTVSPropertyOp48
 70
     1
102
RTVSPropertyOp49
 70
     1
102
RTVSPropertyOp50
 70
     1
102
RTVSPropertyOp51
 70
     0
102
RTVSPropertyOp52
 70
     0
102
RTVSPropertyOp53
 70
     1
102
RTVSPropertyOp54
 70
     1
102
RTVSPropertyOp55
 70
     1
102
RTVSPropertyOp56
 70
     1
102
RTVSPropertyOp57
 70
     1
102
RTVSPropertyOp58
 70
     1
102
RTVSPropertyOp59
 70
     1
102
RTVSPropertyOp60
 70
     1
102
RTVSPropertyOp61
 70
     1
102
RTVSPropertyOp62
 70
     1
  0
XRECORD
  5
45E1
102
{ACAD_REACTORS
330
45E0
102
}
330
45E0
100
AcDbXrecord
280
     1
102
RTVSPost2010Prop28
280
     0
102
RTVSPost2010PropOp28
 70
     1
102
RTVSPost2010Prop29
280
     1
102
RTVSPost2010PropOp29
 70
     1
102
RTVSPost2010Prop30
280
     1
102
RTVSPost2010PropOp30
 70
     1
102
RTVSPost2010Prop31
280
     0
102
RTVSPost2010PropOp31
 70
     1
102
RTVSPost2010Prop32
280
     0
102
RTVSPost2010PropOp32
 70
     1
102
RTVSPost2010Prop33
280
     0
102
RTVSPost2010PropOp33
 70
     1
102
RTVSPost2010Prop34
280
     0
102
RTVSPost2010PropOp34
 70
     1
102
RTVSPost2010Prop35
280
     0
102
RTVSPost2010PropOp35
 70
     1
102
RTVSPost2010Prop36
280
     0
102
RTVSPost2010PropOp36
 70
     1
102
RTVSPost2010Prop37
 90
       50
102
RTVSPost2010PropOp37
 70
     1
102
RTVSPost2010Prop38
140
0.0
102
RTVSPost2010PropOp38
 70
     1
102
RTVSPost2010Prop39
140
1.0
102
RTVSPost2010PropOp39
 70
     1
102
RTVSPost2010Prop40
 90
        0
102
RTVSPost2010PropOp40
 70
     1
102
RTVSPost2010Prop41ColorIndex
 90
       18
102
RTVSPost2010Prop41ColorRGB
 90
        0
102
RTVSPost2010PropOp41
 70
     1
102
RTVSPost2010Prop42
 90
       50
102
RTVSPost2010PropOp42
 70
     1
102
RTVSPost2010Prop43
 90
        3
102
RTVSPost2010PropOp43
 70
     1
102
RTVSPost2010Prop44ColorIndex
 90
        5
102
RTVSPost2010Prop44ColorRGB
 90
      255
102
RTVSPost2010PropOp44
 70
     1
102
RTVSPost2010Prop45
280
     0
102
RTVSPost2010PropOp45
 70
     1
102
RTVSPost2010Prop46
 90
       50
102
RTVSPost2010PropOp46
 70
     1
102
RTVSPost2010Prop47
 90
       50
102
RTVSPost2010PropOp47
 70
     1
102
RTVSPost2010Prop48
 90
       50
102
RTVSPost2010PropOp48
 70
     1
102
RTVSPost2010Prop49
280
     0
102
RTVSPost2010PropOp49
 70
     1
102
RTVSPost2010Prop50
 90
       50
102
RTVSPost2010PropOp50
 70
     1
102
RTVSPost2010Prop51ColorIndex
 90
      256
102
RTVSPost2010Prop51ColorRGB
 90
-16777216
102
RTVSPost2010PropOp51
 70
     0
102
RTVSPost2010Prop52
140
1.0
102
RTVSPost2010PropOp52
 70
     0
102
RTVSPost2010Prop53
 90
        2
102
RTVSPost2010PropOp53
 70
     1
102
RTVSPost2010Prop54
  1
strokes_ogs.tif
102
RTVSPost2010PropOp54
 70
     1
102
RTVSPost2010Prop55
280
     0
102
RTVSPost2010PropOp55
 70
     1
102
RTVSPost2010Prop56
140
1.0
102
RTVSPost2010PropOp56
 70
     1
102
RTVSPost2010Prop57
140
1.0
102
RTVSPost2010PropOp57
 70
     1
102
RTVSPropertyOp0
 70
     1
102
RTVSPropertyOp1
 70
     1
102
RTVSPropertyOp2
 70
     1
102
RTVSPropertyOp3
 70
     1
102
RTVSPropertyOp4
 70
     1
102
RTVSPropertyOp5
 70
     1
102
RTVSPropertyOp6
 70
     1
102
RTVSPropertyOp7
 70
     1
102
RTVSPropertyOp8
 70
     1
102
RTVSPropertyOp9
 70
     1
102
RTVSPropertyOp10
 70
     1
102
RTVSPropertyOp11
 70
     1
102
RTVSPropertyOp12
 70
     1
102
RTVSPropertyOp13
 70
     1
102
RTVSPropertyOp14
 70
     1
102
RTVSPropertyOp15
 70
     1
102
RTVSPropertyOp16
 70
     1
102
RTVSPropertyOp17
 70
     1
102
RTVSPropertyOp18
 70
     1
102
RTVSPropertyOp19
 70
     1
102
RTVSPropertyOp20
 70
     1
102
RTVSPropertyOp21
 70
     1
102
RTVSPropertyOp22
 70
     1
102
RTVSPropertyOp23
 70
     1
102
RTVSPropertyOp24
 70
     1
102
RTVSPropertyOp25
 70
     1
102
RTVSPropertyOp26
 70
     1
102
RTVSPropertyOp27
 70
     1
102
RTVSPropertyOp28
 70
     1
102
RTVSPropertyOp29
 70
     1
102
RTVSPropertyOp30
 70
     1
102
RTVSPropertyOp31
 70
     1
102
RTVSPropertyOp32
 70
     1
102
RTVSPropertyOp33
 70
     1
102
RTVSPropertyOp34
 70
     1
102
RTVSPropertyOp35
 70
     1
102
RTVSPropertyOp36
 70
     1
102
RTVSPropertyOp37
 70
     1
102
RTVSPropertyOp38
 70
     1
102
RTVSPropertyOp39
 70
     1
102
RTVSPropertyOp40
 70
     1
102
RTVSPropertyOp41
 70
     1
102
RTVSPropertyOp42
 70
     1
102
RTVSPropertyOp43
 70
     1
102
RTVSPropertyOp44
 70
     1
102
RTVSPropertyOp45
 70
     1
102
RTVSPropertyOp46
 70
     1
102
RTVSPropertyOp47
 70
     1
102
RTVSPropertyOp48
 70
     1
102
RTVSPropertyOp49
 70
     1
102
RTVSPropertyOp50
 70
     1
102
RTVSPropertyOp51
 70
     0
102
RTVSPropertyOp52
 70
     0
102
RTVSPropertyOp53
 70
     1
102
RTVSPropertyOp54
 70
     1
102
RTVSPropertyOp55
 70
     1
102
RTVSPropertyOp56
 70
     1
102
RTVSPropertyOp57
 70
     1
102
RTVSPropertyOp58
 70
     1
102
RTVSPropertyOp59
 70
     1
102
RTVSPropertyOp60
 70
     1
102
RTVSPropertyOp61
 70
     1
102
RTVSPropertyOp62
 70
     1
  0
XRECORD
  5
45E9
102
{ACAD_REACTORS
330
45E8
102
}
330
45E8
100
AcDbXrecord
280
     1
102
RTVSPost2010Prop28
280
     0
102
RTVSPost2010PropOp28
 70
     1
102
RTVSPost2010Prop29
280
     1
102
RTVSPost2010PropOp29
 70
     1
102
RTVSPost2010Prop30
280
     1
102
RTVSPost2010PropOp30
 70
     1
102
RTVSPost2010Prop31
280
     0
102
RTVSPost2010PropOp31
 70
     1
102
RTVSPost2010Prop32
280
     0
102
RTVSPost2010PropOp32
 70
     1
102
RTVSPost2010Prop33
280
     0
102
RTVSPost2010PropOp33
 70
     1
102
RTVSPost2010Prop34
280
     0
102
RTVSPost2010PropOp34
 70
     1
102
RTVSPost2010Prop35
280
     0
102
RTVSPost2010PropOp35
 70
     1
102
RTVSPost2010Prop36
280
     0
102
RTVSPost2010PropOp36
 70
     1
102
RTVSPost2010Prop37
 90
       50
102
RTVSPost2010PropOp37
 70
     1
102
RTVSPost2010Prop38
140
0.0
102
RTVSPost2010PropOp38
 70
     1
102
RTVSPost2010Prop39
140
1.0
102
RTVSPost2010PropOp39
 70
     1
102
RTVSPost2010Prop40
 90
        0
102
RTVSPost2010PropOp40
 70
     1
102
RTVSPost2010Prop41ColorIndex
 90
       18
102
RTVSPost2010Prop41ColorRGB
 90
        0
102
RTVSPost2010PropOp41
 70
     1
102
RTVSPost2010Prop42
 90
       50
102
RTVSPost2010PropOp42
 70
     1
102
RTVSPost2010Prop43
 90
        3
102
RTVSPost2010PropOp43
 70
     1
102
RTVSPost2010Prop44ColorIndex
 90
        5
102
RTVSPost2010Prop44ColorRGB
 90
      255
102
RTVSPost2010PropOp44
 70
     1
102
RTVSPost2010Prop45
280
     0
102
RTVSPost2010PropOp45
 70
     1
102
RTVSPost2010Prop46
 90
       50
102
RTVSPost2010PropOp46
 70
     1
102
RTVSPost2010Prop47
 90
       50
102
RTVSPost2010PropOp47
 70
     1
102
RTVSPost2010Prop48
 90
       50
102
RTVSPost2010PropOp48
 70
     1
102
RTVSPost2010Prop49
280
     0
102
RTVSPost2010PropOp49
 70
     1
102
RTVSPost2010Prop50
 90
       50
102
RTVSPost2010PropOp50
 70
     1
102
RTVSPost2010Prop51ColorIndex
 90
      256
102
RTVSPost2010Prop51ColorRGB
 90
-16777216
102
RTVSPost2010PropOp51
 70
     0
102
RTVSPost2010Prop52
140
1.0
102
RTVSPost2010PropOp52
 70
     0
102
RTVSPost2010Prop53
 90
        2
102
RTVSPost2010PropOp53
 70
     1
102
RTVSPost2010Prop54
  1
strokes_ogs.tif
102
RTVSPost2010PropOp54
 70
     1
102
RTVSPost2010Prop55
280
     0
102
RTVSPost2010PropOp55
 70
     1
102
RTVSPost2010Prop56
140
1.0
102
RTVSPost2010PropOp56
 70
     1
102
RTVSPost2010Prop57
140
1.0
102
RTVSPost2010PropOp57
 70
     1
102
RTVSPropertyOp0
 70
     1
102
RTVSPropertyOp1
 70
     1
102
RTVSPropertyOp2
 70
     1
102
RTVSPropertyOp3
 70
     1
102
RTVSPropertyOp4
 70
     1
102
RTVSPropertyOp5
 70
     1
102
RTVSPropertyOp6
 70
     1
102
RTVSPropertyOp7
 70
     1
102
RTVSPropertyOp8
 70
     1
102
RTVSPropertyOp9
 70
     1
102
RTVSPropertyOp10
 70
     1
102
RTVSPropertyOp11
 70
     1
102
RTVSPropertyOp12
 70
     1
102
RTVSPropertyOp13
 70
     1
102
RTVSPropertyOp14
 70
     1
102
RTVSPropertyOp15
 70
     1
102
RTVSPropertyOp16
 70
     1
102
RTVSPropertyOp17
 70
     1
102
RTVSPropertyOp18
 70
     1
102
RTVSPropertyOp19
 70
     1
102
RTVSPropertyOp20
 70
     1
102
RTVSPropertyOp21
 70
     1
102
RTVSPropertyOp22
 70
     1
102
RTVSPropertyOp23
 70
     1
102
RTVSPropertyOp24
 70
     1
102
RTVSPropertyOp25
 70
     1
102
RTVSPropertyOp26
 70
     1
102
RTVSPropertyOp27
 70
     1
102
RTVSPropertyOp28
 70
     1
102
RTVSPropertyOp29
 70
     1
102
RTVSPropertyOp30
 70
     1
102
RTVSPropertyOp31
 70
     1
102
RTVSPropertyOp32
 70
     1
102
RTVSPropertyOp33
 70
     1
102
RTVSPropertyOp34
 70
     1
102
RTVSPropertyOp35
 70
     1
102
RTVSPropertyOp36
 70
     1
102
RTVSPropertyOp37
 70
     1
102
RTVSPropertyOp38
 70
     1
102
RTVSPropertyOp39
 70
     1
102
RTVSPropertyOp40
 70
     1
102
RTVSPropertyOp41
 70
     1
102
RTVSPropertyOp42
 70
     1
102
RTVSPropertyOp43
 70
     1
102
RTVSPropertyOp44
 70
     1
102
RTVSPropertyOp45
 70
     1
102
RTVSPropertyOp46
 70
     1
102
RTVSPropertyOp47
 70
     1
102
RTVSPropertyOp48
 70
     1
102
RTVSPropertyOp49
 70
     1
102
RTVSPropertyOp50
 70
     1
102
RTVSPropertyOp51
 70
     0
102
RTVSPropertyOp52
 70
     0
102
RTVSPropertyOp53
 70
     1
102
RTVSPropertyOp54
 70
     1
102
RTVSPropertyOp55
 70
     1
102
RTVSPropertyOp56
 70
     1
102
RTVSPropertyOp57
 70
     1
102
RTVSPropertyOp58
 70
     1
102
RTVSPropertyOp59
 70
     1
102
RTVSPropertyOp60
 70
     1
102
RTVSPropertyOp61
 70
     1
102
RTVSPropertyOp62
 70
     1
  0
XRECORD
  5
45DB
102
{ACAD_REACTORS
330
45DA
102
}
330
45DA
100
AcDbXrecord
280
     1
102
RTVSPost2010Prop28
280
     0
102
RTVSPost2010PropOp28
 70
     1
102
RTVSPost2010Prop29
280
     1
102
RTVSPost2010PropOp29
 70
     1
102
RTVSPost2010Prop30
280
     1
102
RTVSPost2010PropOp30
 70
     1
102
RTVSPost2010Prop31
280
     0
102
RTVSPost2010PropOp31
 70
     1
102
RTVSPost2010Prop32
280
     0
102
RTVSPost2010PropOp32
 70
     1
102
RTVSPost2010Prop33
280
     0
102
RTVSPost2010PropOp33
 70
     1
102
RTVSPost2010Prop34
280
     0
102
RTVSPost2010PropOp34
 70
     1
102
RTVSPost2010Prop35
280
     0
102
RTVSPost2010PropOp35
 70
     1
102
RTVSPost2010Prop36
280
     0
102
RTVSPost2010PropOp36
 70
     1
102
RTVSPost2010Prop37
 90
       50
102
RTVSPost2010PropOp37
 70
     1
102
RTVSPost2010Prop38
140
0.0
102
RTVSPost2010PropOp38
 70
     1
102
RTVSPost2010Prop39
140
1.0
102
RTVSPost2010PropOp39
 70
     1
102
RTVSPost2010Prop40
 90
        0
102
RTVSPost2010PropOp40
 70
     1
102
RTVSPost2010Prop41ColorIndex
 90
       18
102
RTVSPost2010Prop41ColorRGB
 90
        0
102
RTVSPost2010PropOp41
 70
     1
102
RTVSPost2010Prop42
 90
       50
102
RTVSPost2010PropOp42
 70
     1
102
RTVSPost2010Prop43
 90
        3
102
RTVSPost2010PropOp43
 70
     1
102
RTVSPost2010Prop44ColorIndex
 90
        5
102
RTVSPost2010Prop44ColorRGB
 90
      255
102
RTVSPost2010PropOp44
 70
     1
102
RTVSPost2010Prop45
280
     0
102
RTVSPost2010PropOp45
 70
     1
102
RTVSPost2010Prop46
 90
       50
102
RTVSPost2010PropOp46
 70
     1
102
RTVSPost2010Prop47
 90
       50
102
RTVSPost2010PropOp47
 70
     1
102
RTVSPost2010Prop48
 90
       50
102
RTVSPost2010PropOp48
 70
     1
102
RTVSPost2010Prop49
280
     0
102
RTVSPost2010PropOp49
 70
     1
102
RTVSPost2010Prop50
 90
       50
102
RTVSPost2010PropOp50
 70
     1
102
RTVSPost2010Prop51ColorIndex
 90
      256
102
RTVSPost2010Prop51ColorRGB
 90
-16777216
102
RTVSPost2010PropOp51
 70
     0
102
RTVSPost2010Prop52
140
1.0
102
RTVSPost2010PropOp52
 70
     0
102
RTVSPost2010Prop53
 90
        2
102
RTVSPost2010PropOp53
 70
     1
102
RTVSPost2010Prop54
  1
strokes_ogs.tif
102
RTVSPost2010PropOp54
 70
     1
102
RTVSPost2010Prop55
280
     0
102
RTVSPost2010PropOp55
 70
     1
102
RTVSPost2010Prop56
140
1.0
102
RTVSPost2010PropOp56
 70
     1
102
RTVSPost2010Prop57
140
1.0
102
RTVSPost2010PropOp57
 70
     1
102
RTVSPropertyOp0
 70
     1
102
RTVSPropertyOp1
 70
     1
102
RTVSPropertyOp2
 70
     1
102
RTVSPropertyOp3
 70
     1
102
RTVSPropertyOp4
 70
     1
102
RTVSPropertyOp5
 70
     1
102
RTVSPropertyOp6
 70
     1
102
RTVSPropertyOp7
 70
     1
102
RTVSPropertyOp8
 70
     1
102
RTVSPropertyOp9
 70
     1
102
RTVSPropertyOp10
 70
     1
102
RTVSPropertyOp11
 70
     1
102
RTVSPropertyOp12
 70
     1
102
RTVSPropertyOp13
 70
     1
102
RTVSPropertyOp14
 70
     1
102
RTVSPropertyOp15
 70
     1
102
RTVSPropertyOp16
 70
     1
102
RTVSPropertyOp17
 70
     1
102
RTVSPropertyOp18
 70
     1
102
RTVSPropertyOp19
 70
     1
102
RTVSPropertyOp20
 70
     1
102
RTVSPropertyOp21
 70
     1
102
RTVSPropertyOp22
 70
     1
102
RTVSPropertyOp23
 70
     1
102
RTVSPropertyOp24
 70
     1
102
RTVSPropertyOp25
 70
     1
102
RTVSPropertyOp26
 70
     1
102
RTVSPropertyOp27
 70
     1
102
RTVSPropertyOp28
 70
     1
102
RTVSPropertyOp29
 70
     1
102
RTVSPropertyOp30
 70
     1
102
RTVSPropertyOp31
 70
     1
102
RTVSPropertyOp32
 70
     1
102
RTVSPropertyOp33
 70
     1
102
RTVSPropertyOp34
 70
     1
102
RTVSPropertyOp35
 70
     1
102
RTVSPropertyOp36
 70
     1
102
RTVSPropertyOp37
 70
     1
102
RTVSPropertyOp38
 70
     1
102
RTVSPropertyOp39
 70
     1
102
RTVSPropertyOp40
 70
     1
102
RTVSPropertyOp41
 70
     1
102
RTVSPropertyOp42
 70
     1
102
RTVSPropertyOp43
 70
     1
102
RTVSPropertyOp44
 70
     1
102
RTVSPropertyOp45
 70
     1
102
RTVSPropertyOp46
 70
     1
102
RTVSPropertyOp47
 70
     1
102
RTVSPropertyOp48
 70
     1
102
RTVSPropertyOp49
 70
     1
102
RTVSPropertyOp50
 70
     1
102
RTVSPropertyOp51
 70
     0
102
RTVSPropertyOp52
 70
     0
102
RTVSPropertyOp53
 70
     1
102
RTVSPropertyOp54
 70
     1
102
RTVSPropertyOp55
 70
     1
102
RTVSPropertyOp56
 70
     1
102
RTVSPropertyOp57
 70
     1
102
RTVSPropertyOp58
 70
     1
102
RTVSPropertyOp59
 70
     1
102
RTVSPropertyOp60
 70
     1
102
RTVSPropertyOp61
 70
     1
102
RTVSPropertyOp62
 70
     1
  0
XRECORD
  5
45DF
102
{ACAD_REACTORS
330
45DE
102
}
330
45DE
100
AcDbXrecord
280
     1
102
RTVSPost2010Prop28
280
     0
102
RTVSPost2010PropOp28
 70
     1
102
RTVSPost2010Prop29
280
     1
102
RTVSPost2010PropOp29
 70
     1
102
RTVSPost2010Prop30
280
     1
102
RTVSPost2010PropOp30
 70
     1
102
RTVSPost2010Prop31
280
     0
102
RTVSPost2010PropOp31
 70
     1
102
RTVSPost2010Prop32
280
     0
102
RTVSPost2010PropOp32
 70
     1
102
RTVSPost2010Prop33
280
     0
102
RTVSPost2010PropOp33
 70
     1
102
RTVSPost2010Prop34
280
     0
102
RTVSPost2010PropOp34
 70
     1
102
RTVSPost2010Prop35
280
     0
102
RTVSPost2010PropOp35
 70
     1
102
RTVSPost2010Prop36
280
     0
102
RTVSPost2010PropOp36
 70
     1
102
RTVSPost2010Prop37
 90
       50
102
RTVSPost2010PropOp37
 70
     1
102
RTVSPost2010Prop38
140
0.0
102
RTVSPost2010PropOp38
 70
     1
102
RTVSPost2010Prop39
140
1.0
102
RTVSPost2010PropOp39
 70
     1
102
RTVSPost2010Prop40
 90
        0
102
RTVSPost2010PropOp40
 70
     1
102
RTVSPost2010Prop41ColorIndex
 90
       18
102
RTVSPost2010Prop41ColorRGB
 90
        0
102
RTVSPost2010PropOp41
 70
     1
102
RTVSPost2010Prop42
 90
       50
102
RTVSPost2010PropOp42
 70
     1
102
RTVSPost2010Prop43
 90
        3
102
RTVSPost2010PropOp43
 70
     1
102
RTVSPost2010Prop44ColorIndex
 90
        5
102
RTVSPost2010Prop44ColorRGB
 90
      255
102
RTVSPost2010PropOp44
 70
     1
102
RTVSPost2010Prop45
280
     0
102
RTVSPost2010PropOp45
 70
     1
102
RTVSPost2010Prop46
 90
       50
102
RTVSPost2010PropOp46
 70
     1
102
RTVSPost2010Prop47
 90
       50
102
RTVSPost2010PropOp47
 70
     1
102
RTVSPost2010Prop48
 90
       50
102
RTVSPost2010PropOp48
 70
     1
102
RTVSPost2010Prop49
280
     0
102
RTVSPost2010PropOp49
 70
     1
102
RTVSPost2010Prop50
 90
       50
102
RTVSPost2010PropOp50
 70
     1
102
RTVSPost2010Prop51ColorIndex
 90
      256
102
RTVSPost2010Prop51ColorRGB
 90
-16777216
102
RTVSPost2010PropOp51
 70
     0
102
RTVSPost2010Prop52
140
1.0
102
RTVSPost2010PropOp52
 70
     0
102
RTVSPost2010Prop53
 90
        2
102
RTVSPost2010PropOp53
 70
     1
102
RTVSPost2010Prop54
  1
strokes_ogs.tif
102
RTVSPost2010PropOp54
 70
     1
102
RTVSPost2010Prop55
280
     0
102
RTVSPost2010PropOp55
 70
     1
102
RTVSPost2010Prop56
140
1.0
102
RTVSPost2010PropOp56
 70
     1
102
RTVSPost2010Prop57
140
1.0
102
RTVSPost2010PropOp57
 70
     1
102
RTVSPropertyOp0
 70
     1
102
RTVSPropertyOp1
 70
     1
102
RTVSPropertyOp2
 70
     1
102
RTVSPropertyOp3
 70
     1
102
RTVSPropertyOp4
 70
     1
102
RTVSPropertyOp5
 70
     1
102
RTVSPropertyOp6
 70
     1
102
RTVSPropertyOp7
 70
     1
102
RTVSPropertyOp8
 70
     1
102
RTVSPropertyOp9
 70
     1
102
RTVSPropertyOp10
 70
     1
102
RTVSPropertyOp11
 70
     1
102
RTVSPropertyOp12
 70
     1
102
RTVSPropertyOp13
 70
     1
102
RTVSPropertyOp14
 70
     1
102
RTVSPropertyOp15
 70
     1
102
RTVSPropertyOp16
 70
     1
102
RTVSPropertyOp17
 70
     1
102
RTVSPropertyOp18
 70
     1
102
RTVSPropertyOp19
 70
     1
102
RTVSPropertyOp20
 70
     1
102
RTVSPropertyOp21
 70
     1
102
RTVSPropertyOp22
 70
     1
102
RTVSPropertyOp23
 70
     1
102
RTVSPropertyOp24
 70
     1
102
RTVSPropertyOp25
 70
     1
102
RTVSPropertyOp26
 70
     1
102
RTVSPropertyOp27
 70
     1
102
RTVSPropertyOp28
 70
     1
102
RTVSPropertyOp29
 70
     1
102
RTVSPropertyOp30
 70
     1
102
RTVSPropertyOp31
 70
     1
102
RTVSPropertyOp32
 70
     1
102
RTVSPropertyOp33
 70
     1
102
RTVSPropertyOp34
 70
     1
102
RTVSPropertyOp35
 70
     1
102
RTVSPropertyOp36
 70
     1
102
RTVSPropertyOp37
 70
     1
102
RTVSPropertyOp38
 70
     1
102
RTVSPropertyOp39
 70
     1
102
RTVSPropertyOp40
 70
     1
102
RTVSPropertyOp41
 70
     1
102
RTVSPropertyOp42
 70
     1
102
RTVSPropertyOp43
 70
     1
102
RTVSPropertyOp44
 70
     1
102
RTVSPropertyOp45
 70
     1
102
RTVSPropertyOp46
 70
     1
102
RTVSPropertyOp47
 70
     1
102
RTVSPropertyOp48
 70
     1
102
RTVSPropertyOp49
 70
     1
102
RTVSPropertyOp50
 70
     1
102
RTVSPropertyOp51
 70
     0
102
RTVSPropertyOp52
 70
     0
102
RTVSPropertyOp53
 70
     1
102
RTVSPropertyOp54
 70
     1
102
RTVSPropertyOp55
 70
     1
102
RTVSPropertyOp56
 70
     1
102
RTVSPropertyOp57
 70
     1
102
RTVSPropertyOp58
 70
     1
102
RTVSPropertyOp59
 70
     1
102
RTVSPropertyOp60
 70
     1
102
RTVSPropertyOp61
 70
     1
102
RTVSPropertyOp62
 70
     1
  0
XRECORD
  5
45EF
102
{ACAD_REACTORS
330
45EE
102
}
330
45EE
100
AcDbXrecord
280
     1
102
RTVSPost2010Prop28
280
     0
102
RTVSPost2010PropOp28
 70
     1
102
RTVSPost2010Prop29
280
     1
102
RTVSPost2010PropOp29
 70
     1
102
RTVSPost2010Prop30
280
     1
102
RTVSPost2010PropOp30
 70
     1
102
RTVSPost2010Prop31
280
     0
102
RTVSPost2010PropOp31
 70
     1
102
RTVSPost2010Prop32
280
     0
102
RTVSPost2010PropOp32
 70
     1
102
RTVSPost2010Prop33
280
     0
102
RTVSPost2010PropOp33
 70
     1
102
RTVSPost2010Prop34
280
     0
102
RTVSPost2010PropOp34
 70
     1
102
RTVSPost2010Prop35
280
     0
102
RTVSPost2010PropOp35
 70
     1
102
RTVSPost2010Prop36
280
     0
102
RTVSPost2010PropOp36
 70
     1
102
RTVSPost2010Prop37
 90
       50
102
RTVSPost2010PropOp37
 70
     1
102
RTVSPost2010Prop38
140
0.0
102
RTVSPost2010PropOp38
 70
     1
102
RTVSPost2010Prop39
140
1.0
102
RTVSPost2010PropOp39
 70
     1
102
RTVSPost2010Prop40
 90
        0
102
RTVSPost2010PropOp40
 70
     1
102
RTVSPost2010Prop41ColorIndex
 90
       18
102
RTVSPost2010Prop41ColorRGB
 90
        0
102
RTVSPost2010PropOp41
 70
     1
102
RTVSPost2010Prop42
 90
       50
102
RTVSPost2010PropOp42
 70
     1
102
RTVSPost2010Prop43
 90
        3
102
RTVSPost2010PropOp43
 70
     1
102
RTVSPost2010Prop44ColorIndex
 90
        5
102
RTVSPost2010Prop44ColorRGB
 90
      255
102
RTVSPost2010PropOp44
 70
     1
102
RTVSPost2010Prop45
280
     0
102
RTVSPost2010PropOp45
 70
     1
102
RTVSPost2010Prop46
 90
       50
102
RTVSPost2010PropOp46
 70
     1
102
RTVSPost2010Prop47
 90
       50
102
RTVSPost2010PropOp47
 70
     1
102
RTVSPost2010Prop48
 90
       50
102
RTVSPost2010PropOp48
 70
     1
102
RTVSPost2010Prop49
280
     0
102
RTVSPost2010PropOp49
 70
     1
102
RTVSPost2010Prop50
 90
       50
102
RTVSPost2010PropOp50
 70
     1
102
RTVSPost2010Prop51ColorIndex
 90
      256
102
RTVSPost2010Prop51ColorRGB
 90
-16777216
102
RTVSPost2010PropOp51
 70
     0
102
RTVSPost2010Prop52
140
1.0
102
RTVSPost2010PropOp52
 70
     0
102
RTVSPost2010Prop53
 90
        2
102
RTVSPost2010PropOp53
 70
     1
102
RTVSPost2010Prop54
  1
strokes_ogs.tif
102
RTVSPost2010PropOp54
 70
     1
102
RTVSPost2010Prop55
280
     0
102
RTVSPost2010PropOp55
 70
     1
102
RTVSPost2010Prop56
140
1.0
102
RTVSPost2010PropOp56
 70
     1
102
RTVSPost2010Prop57
140
1.0
102
RTVSPost2010PropOp57
 70
     1
102
RTVSPropertyOp0
 70
     0
102
RTVSPropertyOp1
 70
     0
102
RTVSPropertyOp2
 70
     0
102
RTVSPropertyOp3
 70
     0
102
RTVSPropertyOp4
 70
     0
102
RTVSPropertyOp5
 70
     0
102
RTVSPropertyOp6
 70
     0
102
RTVSPropertyOp7
 70
     0
102
RTVSPropertyOp8
 70
     0
102
RTVSPropertyOp9
 70
     0
102
RTVSPropertyOp10
 70
     0
102
RTVSPropertyOp11
 70
     0
102
RTVSPropertyOp12
 70
     0
102
RTVSPropertyOp13
 70
     0
102
RTVSPropertyOp14
 70
     2
102
RTVSPropertyOp15
 70
     0
102
RTVSPropertyOp16
 70
     0
102
RTVSPropertyOp17
 70
     0
102
RTVSPropertyOp18
 70
     0
102
RTVSPropertyOp19
 70
     0
102
RTVSPropertyOp20
 70
     0
102
RTVSPropertyOp21
 70
     0
102
RTVSPropertyOp22
 70
     0
102
RTVSPropertyOp23
 70
     0
102
RTVSPropertyOp24
 70
     0
102
RTVSPropertyOp25
 70
     0
102
RTVSPropertyOp26
 70
     0
102
RTVSPropertyOp27
 70
     0
102
RTVSPropertyOp28
 70
     1
102
RTVSPropertyOp29
 70
     1
102
RTVSPropertyOp30
 70
     1
102
RTVSPropertyOp31
 70
     1
102
RTVSPropertyOp32
 70
     1
102
RTVSPropertyOp33
 70
     1
102
RTVSPropertyOp34
 70
     1
102
RTVSPropertyOp35
 70
     1
102
RTVSPropertyOp36
 70
     1
102
RTVSPropertyOp37
 70
     1
102
RTVSPropertyOp38
 70
     1
102
RTVSPropertyOp39
 70
     1
102
RTVSPropertyOp40
 70
     1
102
RTVSPropertyOp41
 70
     1
102
RTVSPropertyOp42
 70
     1
102
RTVSPropertyOp43
 70
     1
102
RTVSPropertyOp44
 70
     1
102
RTVSPropertyOp45
 70
     1
102
RTVSPropertyOp46
 70
     1
102
RTVSPropertyOp47
 70
     1
102
RTVSPropertyOp48
 70
     1
102
RTVSPropertyOp49
 70
     1
102
RTVSPropertyOp50
 70
     1
102
RTVSPropertyOp51
 70
     0
102
RTVSPropertyOp52
 70
     0
102
RTVSPropertyOp53
 70
     1
102
RTVSPropertyOp54
 70
     1
102
RTVSPropertyOp55
 70
     1
102
RTVSPropertyOp56
 70
     1
102
RTVSPropertyOp57
 70
     1
102
RTVSPropertyOp58
 70
     1
102
RTVSPropertyOp59
 70
     1
102
RTVSPropertyOp60
 70
     1
102
RTVSPropertyOp61
 70
     1
102
RTVSPropertyOp62
 70
     1
  0
XRECORD
  5
45E7
102
{ACAD_REACTORS
330
45E6
102
}
330
45E6
100
AcDbXrecord
280
     1
102
RTVSPost2010Prop28
280
     0
102
RTVSPost2010PropOp28
 70
     1
102
RTVSPost2010Prop29
280
     1
102
RTVSPost2010PropOp29
 70
     1
102
RTVSPost2010Prop30
280
     1
102
RTVSPost2010PropOp30
 70
     1
102
RTVSPost2010Prop31
280
     0
102
RTVSPost2010PropOp31
 70
     1
102
RTVSPost2010Prop32
280
     0
102
RTVSPost2010PropOp32
 70
     1
102
RTVSPost2010Prop33
280
     0
102
RTVSPost2010PropOp33
 70
     1
102
RTVSPost2010Prop34
280
     0
102
RTVSPost2010PropOp34
 70
     1
102
RTVSPost2010Prop35
280
     0
102
RTVSPost2010PropOp35
 70
     1
102
RTVSPost2010Prop36
280
     0
102
RTVSPost2010PropOp36
 70
     1
102
RTVSPost2010Prop37
 90
       50
102
RTVSPost2010PropOp37
 70
     1
102
RTVSPost2010Prop38
140
0.0
102
RTVSPost2010PropOp38
 70
     1
102
RTVSPost2010Prop39
140
1.0
102
RTVSPost2010PropOp39
 70
     1
102
RTVSPost2010Prop40
 90
        0
102
RTVSPost2010PropOp40
 70
     1
102
RTVSPost2010Prop41ColorIndex
 90
       18
102
RTVSPost2010Prop41ColorRGB
 90
        0
102
RTVSPost2010PropOp41
 70
     1
102
RTVSPost2010Prop42
 90
       50
102
RTVSPost2010PropOp42
 70
     1
102
RTVSPost2010Prop43
 90
        3
102
RTVSPost2010PropOp43
 70
     1
102
RTVSPost2010Prop44ColorIndex
 90
        5
102
RTVSPost2010Prop44ColorRGB
 90
      255
102
RTVSPost2010PropOp44
 70
     1
102
RTVSPost2010Prop45
280
     0
102
RTVSPost2010PropOp45
 70
     1
102
RTVSPost2010Prop46
 90
       50
102
RTVSPost2010PropOp46
 70
     1
102
RTVSPost2010Prop47
 90
       50
102
RTVSPost2010PropOp47
 70
     1
102
RTVSPost2010Prop48
 90
       50
102
RTVSPost2010PropOp48
 70
     1
102
RTVSPost2010Prop49
280
     0
102
RTVSPost2010PropOp49
 70
     1
102
RTVSPost2010Prop50
 90
       50
102
RTVSPost2010PropOp50
 70
     1
102
RTVSPost2010Prop51ColorIndex
 90
      256
102
RTVSPost2010Prop51ColorRGB
 90
-16777216
102
RTVSPost2010PropOp51
 70
     0
102
RTVSPost2010Prop52
140
1.0
102
RTVSPost2010PropOp52
 70
     0
102
RTVSPost2010Prop53
 90
        2
102
RTVSPost2010PropOp53
 70
     1
102
RTVSPost2010Prop54
  1
strokes_ogs.tif
102
RTVSPost2010PropOp54
 70
     1
102
RTVSPost2010Prop55
280
     0
102
RTVSPost2010PropOp55
 70
     1
102
RTVSPost2010Prop56
140
1.0
102
RTVSPost2010PropOp56
 70
     1
102
RTVSPost2010Prop57
140
1.0
102
RTVSPost2010PropOp57
 70
     1
102
RTVSPropertyOp0
 70
     1
102
RTVSPropertyOp1
 70
     1
102
RTVSPropertyOp2
 70
     1
102
RTVSPropertyOp3
 70
     1
102
RTVSPropertyOp4
 70
     1
102
RTVSPropertyOp5
 70
     1
102
RTVSPropertyOp6
 70
     1
102
RTVSPropertyOp7
 70
     1
102
RTVSPropertyOp8
 70
     1
102
RTVSPropertyOp9
 70
     1
102
RTVSPropertyOp10
 70
     1
102
RTVSPropertyOp11
 70
     1
102
RTVSPropertyOp12
 70
     1
102
RTVSPropertyOp13
 70
     1
102
RTVSPropertyOp14
 70
     1
102
RTVSPropertyOp15
 70
     1
102
RTVSPropertyOp16
 70
     1
102
RTVSPropertyOp17
 70
     1
102
RTVSPropertyOp18
 70
     1
102
RTVSPropertyOp19
 70
     1
102
RTVSPropertyOp20
 70
     1
102
RTVSPropertyOp21
 70
     1
102
RTVSPropertyOp22
 70
     1
102
RTVSPropertyOp23
 70
     1
102
RTVSPropertyOp24
 70
     1
102
RTVSPropertyOp25
 70
     1
102
RTVSPropertyOp26
 70
     1
102
RTVSPropertyOp27
 70
     1
102
RTVSPropertyOp28
 70
     1
102
RTVSPropertyOp29
 70
     1
102
RTVSPropertyOp30
 70
     1
102
RTVSPropertyOp31
 70
     1
102
RTVSPropertyOp32
 70
     1
102
RTVSPropertyOp33
 70
     1
102
RTVSPropertyOp34
 70
     1
102
RTVSPropertyOp35
 70
     1
102
RTVSPropertyOp36
 70
     1
102
RTVSPropertyOp37
 70
     1
102
RTVSPropertyOp38
 70
     1
102
RTVSPropertyOp39
 70
     1
102
RTVSPropertyOp40
 70
     1
102
RTVSPropertyOp41
 70
     1
102
RTVSPropertyOp42
 70
     1
102
RTVSPropertyOp43
 70
     1
102
RTVSPropertyOp44
 70
     1
102
RTVSPropertyOp45
 70
     1
102
RTVSPropertyOp46
 70
     1
102
RTVSPropertyOp47
 70
     1
102
RTVSPropertyOp48
 70
     1
102
RTVSPropertyOp49
 70
     1
102
RTVSPropertyOp50
 70
     1
102
RTVSPropertyOp51
 70
     0
102
RTVSPropertyOp52
 70
     0
102
RTVSPropertyOp53
 70
     1
102
RTVSPropertyOp54
 70
     1
102
RTVSPropertyOp55
 70
     1
102
RTVSPropertyOp56
 70
     1
102
RTVSPropertyOp57
 70
     1
102
RTVSPropertyOp58
 70
     1
102
RTVSPropertyOp59
 70
     1
102
RTVSPropertyOp60
 70
     1
102
RTVSPropertyOp61
 70
     1
102
RTVSPropertyOp62
 70
     1
  0
XRECORD
  5
45CB
102
{ACAD_REACTORS
330
45CA
102
}
330
45CA
100
AcDbXrecord
280
     1
102
RTVSPost2010Prop28
280
     0
102
RTVSPost2010PropOp28
 70
     1
102
RTVSPost2010Prop29
280
     1
102
RTVSPost2010PropOp29
 70
     1
102
RTVSPost2010Prop30
280
     1
102
RTVSPost2010PropOp30
 70
     1
102
RTVSPost2010Prop31
280
     0
102
RTVSPost2010PropOp31
 70
     1
102
RTVSPost2010Prop32
280
     0
102
RTVSPost2010PropOp32
 70
     1
102
RTVSPost2010Prop33
280
     0
102
RTVSPost2010PropOp33
 70
     1
102
RTVSPost2010Prop34
280
     0
102
RTVSPost2010PropOp34
 70
     1
102
RTVSPost2010Prop35
280
     0
102
RTVSPost2010PropOp35
 70
     1
102
RTVSPost2010Prop36
280
     0
102
RTVSPost2010PropOp36
 70
     1
102
RTVSPost2010Prop37
 90
       50
102
RTVSPost2010PropOp37
 70
     1
102
RTVSPost2010Prop38
140
0.0
102
RTVSPost2010PropOp38
 70
     1
102
RTVSPost2010Prop39
140
1.0
102
RTVSPost2010PropOp39
 70
     1
102
RTVSPost2010Prop40
 90
        0
102
RTVSPost2010PropOp40
 70
     1
102
RTVSPost2010Prop41ColorIndex
 90
       18
102
RTVSPost2010Prop41ColorRGB
 90
        0
102
RTVSPost2010PropOp41
 70
     1
102
RTVSPost2010Prop42
 90
       50
102
RTVSPost2010PropOp42
 70
     1
102
RTVSPost2010Prop43
 90
        3
102
RTVSPost2010PropOp43
 70
     1
102
RTVSPost2010Prop44ColorIndex
 90
        5
102
RTVSPost2010Prop44ColorRGB
 90
      255
102
RTVSPost2010PropOp44
 70
     1
102
RTVSPost2010Prop45
280
     0
102
RTVSPost2010PropOp45
 70
     1
102
RTVSPost2010Prop46
 90
       50
102
RTVSPost2010PropOp46
 70
     1
102
RTVSPost2010Prop47
 90
       50
102
RTVSPost2010PropOp47
 70
     1
102
RTVSPost2010Prop48
 90
       50
102
RTVSPost2010PropOp48
 70
     1
102
RTVSPost2010Prop49
280
     0
102
RTVSPost2010PropOp49
 70
     1
102
RTVSPost2010Prop50
 90
       50
102
RTVSPost2010PropOp50
 70
     1
102
RTVSPost2010Prop51ColorIndex
 90
      256
102
RTVSPost2010Prop51ColorRGB
 90
-16777216
102
RTVSPost2010PropOp51
 70
     0
102
RTVSPost2010Prop52
140
1.0
102
RTVSPost2010PropOp52
 70
     0
102
RTVSPost2010Prop53
 90
        2
102
RTVSPost2010PropOp53
 70
     1
102
RTVSPost2010Prop54
  1
strokes_ogs.tif
102
RTVSPost2010PropOp54
 70
     1
102
RTVSPost2010Prop55
280
     0
102
RTVSPost2010PropOp55
 70
     1
102
RTVSPost2010Prop56
140
1.0
102
RTVSPost2010PropOp56
 70
     1
102
RTVSPost2010Prop57
140
1.0
102
RTVSPost2010PropOp57
 70
     1
102
RTVSPropertyOp0
 70
     1
102
RTVSPropertyOp1
 70
     1
102
RTVSPropertyOp2
 70
     1
102
RTVSPropertyOp3
 70
     1
102
RTVSPropertyOp4
 70
     1
102
RTVSPropertyOp5
 70
     1
102
RTVSPropertyOp6
 70
     1
102
RTVSPropertyOp7
 70
     1
102
RTVSPropertyOp8
 70
     1
102
RTVSPropertyOp9
 70
     1
102
RTVSPropertyOp10
 70
     1
102
RTVSPropertyOp11
 70
     1
102
RTVSPropertyOp12
 70
     1
102
RTVSPropertyOp13
 70
     1
102
RTVSPropertyOp14
 70
     1
102
RTVSPropertyOp15
 70
     1
102
RTVSPropertyOp16
 70
     1
102
RTVSPropertyOp17
 70
     1
102
RTVSPropertyOp18
 70
     1
102
RTVSPropertyOp19
 70
     1
102
RTVSPropertyOp20
 70
     1
102
RTVSPropertyOp21
 70
     1
102
RTVSPropertyOp22
 70
     1
102
RTVSPropertyOp23
 70
     1
102
RTVSPropertyOp24
 70
     1
102
RTVSPropertyOp25
 70
     1
102
RTVSPropertyOp26
 70
     1
102
RTVSPropertyOp27
 70
     1
102
RTVSPropertyOp28
 70
     1
102
RTVSPropertyOp29
 70
     1
102
RTVSPropertyOp30
 70
     1
102
RTVSPropertyOp31
 70
     1
102
RTVSPropertyOp32
 70
     1
102
RTVSPropertyOp33
 70
     1
102
RTVSPropertyOp34
 70
     1
102
RTVSPropertyOp35
 70
     1
102
RTVSPropertyOp36
 70
     1
102
RTVSPropertyOp37
 70
     1
102
RTVSPropertyOp38
 70
     1
102
RTVSPropertyOp39
 70
     1
102
RTVSPropertyOp40
 70
     1
102
RTVSPropertyOp41
 70
     1
102
RTVSPropertyOp42
 70
     1
102
RTVSPropertyOp43
 70
     1
102
RTVSPropertyOp44
 70
     1
102
RTVSPropertyOp45
 70
     1
102
RTVSPropertyOp46
 70
     1
102
RTVSPropertyOp47
 70
     1
102
RTVSPropertyOp48
 70
     1
102
RTVSPropertyOp49
 70
     1
102
RTVSPropertyOp50
 70
     1
102
RTVSPropertyOp51
 70
     0
102
RTVSPropertyOp52
 70
     0
102
RTVSPropertyOp53
 70
     1
102
RTVSPropertyOp54
 70
     1
102
RTVSPropertyOp55
 70
     1
102
RTVSPropertyOp56
 70
     1
102
RTVSPropertyOp57
 70
     1
102
RTVSPropertyOp58
 70
     1
102
RTVSPropertyOp59
 70
     1
102
RTVSPropertyOp60
 70
     1
102
RTVSPropertyOp61
 70
     1
102
RTVSPropertyOp62
 70
     1
  0
XRECORD
  5
45CD
102
{ACAD_REACTORS
330
45CC
102
}
330
45CC
100
AcDbXrecord
280
     1
102
RTVSPost2010Prop28
280
     0
102
RTVSPost2010PropOp28
 70
     1
102
RTVSPost2010Prop29
280
     1
102
RTVSPost2010PropOp29
 70
     1
102
RTVSPost2010Prop30
280
     1
102
RTVSPost2010PropOp30
 70
     1
102
RTVSPost2010Prop31
280
     0
102
RTVSPost2010PropOp31
 70
     1
102
RTVSPost2010Prop32
280
     0
102
RTVSPost2010PropOp32
 70
     1
102
RTVSPost2010Prop33
280
     0
102
RTVSPost2010PropOp33
 70
     1
102
RTVSPost2010Prop34
280
     0
102
RTVSPost2010PropOp34
 70
     1
102
RTVSPost2010Prop35
280
     0
102
RTVSPost2010PropOp35
 70
     1
102
RTVSPost2010Prop36
280
     0
102
RTVSPost2010PropOp36
 70
     1
102
RTVSPost2010Prop37
 90
       50
102
RTVSPost2010PropOp37
 70
     1
102
RTVSPost2010Prop38
140
0.0
102
RTVSPost2010PropOp38
 70
     1
102
RTVSPost2010Prop39
140
1.0
102
RTVSPost2010PropOp39
 70
     1
102
RTVSPost2010Prop40
 90
        0
102
RTVSPost2010PropOp40
 70
     1
102
RTVSPost2010Prop41ColorIndex
 90
       18
102
RTVSPost2010Prop41ColorRGB
 90
        0
102
RTVSPost2010PropOp41
 70
     1
102
RTVSPost2010Prop42
 90
       50
102
RTVSPost2010PropOp42
 70
     1
102
RTVSPost2010Prop43
 90
        3
102
RTVSPost2010PropOp43
 70
     1
102
RTVSPost2010Prop44ColorIndex
 90
        5
102
RTVSPost2010Prop44ColorRGB
 90
      255
102
RTVSPost2010PropOp44
 70
     1
102
RTVSPost2010Prop45
280
     0
102
RTVSPost2010PropOp45
 70
     1
102
RTVSPost2010Prop46
 90
       50
102
RTVSPost2010PropOp46
 70
     1
102
RTVSPost2010Prop47
 90
       50
102
RTVSPost2010PropOp47
 70
     1
102
RTVSPost2010Prop48
 90
       50
102
RTVSPost2010PropOp48
 70
     1
102
RTVSPost2010Prop49
280
     0
102
RTVSPost2010PropOp49
 70
     1
102
RTVSPost2010Prop50
 90
       50
102
RTVSPost2010PropOp50
 70
     1
102
RTVSPost2010Prop51ColorIndex
 90
      256
102
RTVSPost2010Prop51ColorRGB
 90
-16777216
102
RTVSPost2010PropOp51
 70
     0
102
RTVSPost2010Prop52
140
1.0
102
RTVSPost2010PropOp52
 70
     0
102
RTVSPost2010Prop53
 90
        2
102
RTVSPost2010PropOp53
 70
     1
102
RTVSPost2010Prop54
  1
strokes_ogs.tif
102
RTVSPost2010PropOp54
 70
     1
102
RTVSPost2010Prop55
280
     0
102
RTVSPost2010PropOp55
 70
     1
102
RTVSPost2010Prop56
140
1.0
102
RTVSPost2010PropOp56
 70
     1
102
RTVSPost2010Prop57
140
1.0
102
RTVSPost2010PropOp57
 70
     1
102
RTVSPropertyOp0
 70
     1
102
RTVSPropertyOp1
 70
     1
102
RTVSPropertyOp2
 70
     1
102
RTVSPropertyOp3
 70
     1
102
RTVSPropertyOp4
 70
     1
102
RTVSPropertyOp5
 70
     1
102
RTVSPropertyOp6
 70
     1
102
RTVSPropertyOp7
 70
     1
102
RTVSPropertyOp8
 70
     1
102
RTVSPropertyOp9
 70
     1
102
RTVSPropertyOp10
 70
     1
102
RTVSPropertyOp11
 70
     1
102
RTVSPropertyOp12
 70
     1
102
RTVSPropertyOp13
 70
     1
102
RTVSPropertyOp14
 70
     1
102
RTVSPropertyOp15
 70
     1
102
RTVSPropertyOp16
 70
     1
102
RTVSPropertyOp17
 70
     1
102
RTVSPropertyOp18
 70
     1
102
RTVSPropertyOp19
 70
     1
102
RTVSPropertyOp20
 70
     1
102
RTVSPropertyOp21
 70
     1
102
RTVSPropertyOp22
 70
     1
102
RTVSPropertyOp23
 70
     1
102
RTVSPropertyOp24
 70
     1
102
RTVSPropertyOp25
 70
     1
102
RTVSPropertyOp26
 70
     1
102
RTVSPropertyOp27
 70
     1
102
RTVSPropertyOp28
 70
     1
102
RTVSPropertyOp29
 70
     1
102
RTVSPropertyOp30
 70
     1
102
RTVSPropertyOp31
 70
     1
102
RTVSPropertyOp32
 70
     1
102
RTVSPropertyOp33
 70
     1
102
RTVSPropertyOp34
 70
     1
102
RTVSPropertyOp35
 70
     1
102
RTVSPropertyOp36
 70
     1
102
RTVSPropertyOp37
 70
     1
102
RTVSPropertyOp38
 70
     1
102
RTVSPropertyOp39
 70
     1
102
RTVSPropertyOp40
 70
     1
102
RTVSPropertyOp41
 70
     1
102
RTVSPropertyOp42
 70
     1
102
RTVSPropertyOp43
 70
     1
102
RTVSPropertyOp44
 70
     1
102
RTVSPropertyOp45
 70
     1
102
RTVSPropertyOp46
 70
     1
102
RTVSPropertyOp47
 70
     1
102
RTVSPropertyOp48
 70
     1
102
RTVSPropertyOp49
 70
     1
102
RTVSPropertyOp50
 70
     1
102
RTVSPropertyOp51
 70
     0
102
RTVSPropertyOp52
 70
     0
102
RTVSPropertyOp53
 70
     1
102
RTVSPropertyOp54
 70
     1
102
RTVSPropertyOp55
 70
     1
102
RTVSPropertyOp56
 70
     1
102
RTVSPropertyOp57
 70
     1
102
RTVSPropertyOp58
 70
     1
102
RTVSPropertyOp59
 70
     1
102
RTVSPropertyOp60
 70
     1
102
RTVSPropertyOp61
 70
     1
102
RTVSPropertyOp62
 70
     1
  0
XRECORD
  5
45CF
102
{ACAD_REACTORS
330
45CE
102
}
330
45CE
100
AcDbXrecord
280
     1
102
RTVSPost2010Prop28
280
     0
102
RTVSPost2010PropOp28
 70
     1
102
RTVSPost2010Prop29
280
     1
102
RTVSPost2010PropOp29
 70
     1
102
RTVSPost2010Prop30
280
     1
102
RTVSPost2010PropOp30
 70
     1
102
RTVSPost2010Prop31
280
     0
102
RTVSPost2010PropOp31
 70
     1
102
RTVSPost2010Prop32
280
     0
102
RTVSPost2010PropOp32
 70
     1
102
RTVSPost2010Prop33
280
     0
102
RTVSPost2010PropOp33
 70
     1
102
RTVSPost2010Prop34
280
     0
102
RTVSPost2010PropOp34
 70
     1
102
RTVSPost2010Prop35
280
     0
102
RTVSPost2010PropOp35
 70
     1
102
RTVSPost2010Prop36
280
     0
102
RTVSPost2010PropOp36
 70
     1
102
RTVSPost2010Prop37
 90
       50
102
RTVSPost2010PropOp37
 70
     1
102
RTVSPost2010Prop38
140
0.0
102
RTVSPost2010PropOp38
 70
     1
102
RTVSPost2010Prop39
140
1.0
102
RTVSPost2010PropOp39
 70
     1
102
RTVSPost2010Prop40
 90
        0
102
RTVSPost2010PropOp40
 70
     1
102
RTVSPost2010Prop41ColorIndex
 90
       18
102
RTVSPost2010Prop41ColorRGB
 90
        0
102
RTVSPost2010PropOp41
 70
     1
102
RTVSPost2010Prop42
 90
       50
102
RTVSPost2010PropOp42
 70
     1
102
RTVSPost2010Prop43
 90
        3
102
RTVSPost2010PropOp43
 70
     1
102
RTVSPost2010Prop44ColorIndex
 90
        5
102
RTVSPost2010Prop44ColorRGB
 90
      255
102
RTVSPost2010PropOp44
 70
     1
102
RTVSPost2010Prop45
280
     0
102
RTVSPost2010PropOp45
 70
     1
102
RTVSPost2010Prop46
 90
       50
102
RTVSPost2010PropOp46
 70
     1
102
RTVSPost2010Prop47
 90
       50
102
RTVSPost2010PropOp47
 70
     1
102
RTVSPost2010Prop48
 90
       50
102
RTVSPost2010PropOp48
 70
     1
102
RTVSPost2010Prop49
280
     0
102
RTVSPost2010PropOp49
 70
     1
102
RTVSPost2010Prop50
 90
       50
102
RTVSPost2010PropOp50
 70
     1
102
RTVSPost2010Prop51ColorIndex
 90
      256
102
RTVSPost2010Prop51ColorRGB
 90
-16777216
102
RTVSPost2010PropOp51
 70
     0
102
RTVSPost2010Prop52
140
1.0
102
RTVSPost2010PropOp52
 70
     0
102
RTVSPost2010Prop53
 90
        2
102
RTVSPost2010PropOp53
 70
     1
102
RTVSPost2010Prop54
  1
strokes_ogs.tif
102
RTVSPost2010PropOp54
 70
     1
102
RTVSPost2010Prop55
280
     0
102
RTVSPost2010PropOp55
 70
     1
102
RTVSPost2010Prop56
140
1.0
102
RTVSPost2010PropOp56
 70
     1
102
RTVSPost2010Prop57
140
1.0
102
RTVSPost2010PropOp57
 70
     1
102
RTVSPropertyOp0
 70
     1
102
RTVSPropertyOp1
 70
     1
102
RTVSPropertyOp2
 70
     1
102
RTVSPropertyOp3
 70
     1
102
RTVSPropertyOp4
 70
     1
102
RTVSPropertyOp5
 70
     1
102
RTVSPropertyOp6
 70
     1
102
RTVSPropertyOp7
 70
     1
102
RTVSPropertyOp8
 70
     1
102
RTVSPropertyOp9
 70
     1
102
RTVSPropertyOp10
 70
     1
102
RTVSPropertyOp11
 70
     1
102
RTVSPropertyOp12
 70
     1
102
RTVSPropertyOp13
 70
     1
102
RTVSPropertyOp14
 70
     1
102
RTVSPropertyOp15
 70
     1
102
RTVSPropertyOp16
 70
     1
102
RTVSPropertyOp17
 70
     1
102
RTVSPropertyOp18
 70
     1
102
RTVSPropertyOp19
 70
     1
102
RTVSPropertyOp20
 70
     1
102
RTVSPropertyOp21
 70
     1
102
RTVSPropertyOp22
 70
     1
102
RTVSPropertyOp23
 70
     1
102
RTVSPropertyOp24
 70
     1
102
RTVSPropertyOp25
 70
     1
102
RTVSPropertyOp26
 70
     1
102
RTVSPropertyOp27
 70
     1
102
RTVSPropertyOp28
 70
     1
102
RTVSPropertyOp29
 70
     1
102
RTVSPropertyOp30
 70
     1
102
RTVSPropertyOp31
 70
     1
102
RTVSPropertyOp32
 70
     1
102
RTVSPropertyOp33
 70
     1
102
RTVSPropertyOp34
 70
     1
102
RTVSPropertyOp35
 70
     1
102
RTVSPropertyOp36
 70
     1
102
RTVSPropertyOp37
 70
     1
102
RTVSPropertyOp38
 70
     1
102
RTVSPropertyOp39
 70
     1
102
RTVSPropertyOp40
 70
     1
102
RTVSPropertyOp41
 70
     1
102
RTVSPropertyOp42
 70
     1
102
RTVSPropertyOp43
 70
     1
102
RTVSPropertyOp44
 70
     1
102
RTVSPropertyOp45
 70
     1
102
RTVSPropertyOp46
 70
     1
102
RTVSPropertyOp47
 70
     1
102
RTVSPropertyOp48
 70
     1
102
RTVSPropertyOp49
 70
     1
102
RTVSPropertyOp50
 70
     1
102
RTVSPropertyOp51
 70
     0
102
RTVSPropertyOp52
 70
     0
102
RTVSPropertyOp53
 70
     1
102
RTVSPropertyOp54
 70
     1
102
RTVSPropertyOp55
 70
     1
102
RTVSPropertyOp56
 70
     1
102
RTVSPropertyOp57
 70
     1
102
RTVSPropertyOp58
 70
     1
102
RTVSPropertyOp59
 70
     1
102
RTVSPropertyOp60
 70
     1
102
RTVSPropertyOp61
 70
     1
102
RTVSPropertyOp62
 70
     1
  0
XRECORD
  5
45D1
102
{ACAD_REACTORS
330
45D0
102
}
330
45D0
100
AcDbXrecord
280
     1
102
RTVSPost2010Prop28
280
     0
102
RTVSPost2010PropOp28
 70
     1
102
RTVSPost2010Prop29
280
     1
102
RTVSPost2010PropOp29
 70
     1
102
RTVSPost2010Prop30
280
     1
102
RTVSPost2010PropOp30
 70
     1
102
RTVSPost2010Prop31
280
     0
102
RTVSPost2010PropOp31
 70
     1
102
RTVSPost2010Prop32
280
     0
102
RTVSPost2010PropOp32
 70
     1
102
RTVSPost2010Prop33
280
     0
102
RTVSPost2010PropOp33
 70
     1
102
RTVSPost2010Prop34
280
     0
102
RTVSPost2010PropOp34
 70
     1
102
RTVSPost2010Prop35
280
     0
102
RTVSPost2010PropOp35
 70
     1
102
RTVSPost2010Prop36
280
     0
102
RTVSPost2010PropOp36
 70
     1
102
RTVSPost2010Prop37
 90
       50
102
RTVSPost2010PropOp37
 70
     1
102
RTVSPost2010Prop38
140
0.0
102
RTVSPost2010PropOp38
 70
     1
102
RTVSPost2010Prop39
140
1.0
102
RTVSPost2010PropOp39
 70
     1
102
RTVSPost2010Prop40
 90
        0
102
RTVSPost2010PropOp40
 70
     1
102
RTVSPost2010Prop41ColorIndex
 90
       18
102
RTVSPost2010Prop41ColorRGB
 90
        0
102
RTVSPost2010PropOp41
 70
     1
102
RTVSPost2010Prop42
 90
       50
102
RTVSPost2010PropOp42
 70
     1
102
RTVSPost2010Prop43
 90
        3
102
RTVSPost2010PropOp43
 70
     1
102
RTVSPost2010Prop44ColorIndex
 90
        5
102
RTVSPost2010Prop44ColorRGB
 90
      255
102
RTVSPost2010PropOp44
 70
     1
102
RTVSPost2010Prop45
280
     0
102
RTVSPost2010PropOp45
 70
     1
102
RTVSPost2010Prop46
 90
       50
102
RTVSPost2010PropOp46
 70
     1
102
RTVSPost2010Prop47
 90
       50
102
RTVSPost2010PropOp47
 70
     1
102
RTVSPost2010Prop48
 90
       50
102
RTVSPost2010PropOp48
 70
     1
102
RTVSPost2010Prop49
280
     0
102
RTVSPost2010PropOp49
 70
     1
102
RTVSPost2010Prop50
 90
       50
102
RTVSPost2010PropOp50
 70
     1
102
RTVSPost2010Prop51ColorIndex
 90
      256
102
RTVSPost2010Prop51ColorRGB
 90
-16777216
102
RTVSPost2010PropOp51
 70
     0
102
RTVSPost2010Prop52
140
1.0
102
RTVSPost2010PropOp52
 70
     0
102
RTVSPost2010Prop53
 90
        2
102
RTVSPost2010PropOp53
 70
     1
102
RTVSPost2010Prop54
  1
strokes_ogs.tif
102
RTVSPost2010PropOp54
 70
     1
102
RTVSPost2010Prop55
280
     0
102
RTVSPost2010PropOp55
 70
     1
102
RTVSPost2010Prop56
140
1.0
102
RTVSPost2010PropOp56
 70
     1
102
RTVSPost2010Prop57
140
1.0
102
RTVSPost2010PropOp57
 70
     1
102
RTVSPropertyOp0
 70
     1
102
RTVSPropertyOp1
 70
     1
102
RTVSPropertyOp2
 70
     1
102
RTVSPropertyOp3
 70
     1
102
RTVSPropertyOp4
 70
     1
102
RTVSPropertyOp5
 70
     1
102
RTVSPropertyOp6
 70
     1
102
RTVSPropertyOp7
 70
     1
102
RTVSPropertyOp8
 70
     1
102
RTVSPropertyOp9
 70
     1
102
RTVSPropertyOp10
 70
     1
102
RTVSPropertyOp11
 70
     1
102
RTVSPropertyOp12
 70
     1
102
RTVSPropertyOp13
 70
     1
102
RTVSPropertyOp14
 70
     1
102
RTVSPropertyOp15
 70
     1
102
RTVSPropertyOp16
 70
     1
102
RTVSPropertyOp17
 70
     1
102
RTVSPropertyOp18
 70
     1
102
RTVSPropertyOp19
 70
     1
102
RTVSPropertyOp20
 70
     1
102
RTVSPropertyOp21
 70
     1
102
RTVSPropertyOp22
 70
     1
102
RTVSPropertyOp23
 70
     1
102
RTVSPropertyOp24
 70
     1
102
RTVSPropertyOp25
 70
     1
102
RTVSPropertyOp26
 70
     1
102
RTVSPropertyOp27
 70
     1
102
RTVSPropertyOp28
 70
     1
102
RTVSPropertyOp29
 70
     1
102
RTVSPropertyOp30
 70
     1
102
RTVSPropertyOp31
 70
     1
102
RTVSPropertyOp32
 70
     1
102
RTVSPropertyOp33
 70
     1
102
RTVSPropertyOp34
 70
     1
102
RTVSPropertyOp35
 70
     1
102
RTVSPropertyOp36
 70
     1
102
RTVSPropertyOp37
 70
     1
102
RTVSPropertyOp38
 70
     1
102
RTVSPropertyOp39
 70
     1
102
RTVSPropertyOp40
 70
     1
102
RTVSPropertyOp41
 70
     1
102
RTVSPropertyOp42
 70
     1
102
RTVSPropertyOp43
 70
     1
102
RTVSPropertyOp44
 70
     1
102
RTVSPropertyOp45
 70
     1
102
RTVSPropertyOp46
 70
     1
102
RTVSPropertyOp47
 70
     1
102
RTVSPropertyOp48
 70
     1
102
RTVSPropertyOp49
 70
     1
102
RTVSPropertyOp50
 70
     1
102
RTVSPropertyOp51
 70
     0
102
RTVSPropertyOp52
 70
     0
102
RTVSPropertyOp53
 70
     1
102
RTVSPropertyOp54
 70
     1
102
RTVSPropertyOp55
 70
     1
102
RTVSPropertyOp56
 70
     1
102
RTVSPropertyOp57
 70
     1
102
RTVSPropertyOp58
 70
     1
102
RTVSPropertyOp59
 70
     1
102
RTVSPropertyOp60
 70
     1
102
RTVSPropertyOp61
 70
     1
102
RTVSPropertyOp62
 70
     1
  0
XRECORD
  5
45F4
102
{ACAD_REACTORS
330
45F3
102
}
330
45F3
100
AcDbXrecord
280
     1
102
RTVSPost2010Prop28
280
     0
102
RTVSPost2010PropOp28
 70
     1
102
RTVSPost2010Prop29
280
     1
102
RTVSPost2010PropOp29
 70
     1
102
RTVSPost2010Prop30
280
     1
102
RTVSPost2010PropOp30
 70
     1
102
RTVSPost2010Prop31
280
     0
102
RTVSPost2010PropOp31
 70
     1
102
RTVSPost2010Prop32
280
     0
102
RTVSPost2010PropOp32
 70
     1
102
RTVSPost2010Prop33
280
     0
102
RTVSPost2010PropOp33
 70
     1
102
RTVSPost2010Prop34
280
     0
102
RTVSPost2010PropOp34
 70
     1
102
RTVSPost2010Prop35
280
     0
102
RTVSPost2010PropOp35
 70
     1
102
RTVSPost2010Prop36
280
     0
102
RTVSPost2010PropOp36
 70
     1
102
RTVSPost2010Prop37
 90
       50
102
RTVSPost2010PropOp37
 70
     1
102
RTVSPost2010Prop38
140
0.0
102
RTVSPost2010PropOp38
 70
     1
102
RTVSPost2010Prop39
140
1.0
102
RTVSPost2010PropOp39
 70
     1
102
RTVSPost2010Prop40
 90
        0
102
RTVSPost2010PropOp40
 70
     1
102
RTVSPost2010Prop41ColorIndex
 90
       18
102
RTVSPost2010Prop41ColorRGB
 90
        0
102
RTVSPost2010PropOp41
 70
     1
102
RTVSPost2010Prop42
 90
       50
102
RTVSPost2010PropOp42
 70
     1
102
RTVSPost2010Prop43
 90
        3
102
RTVSPost2010PropOp43
 70
     1
102
RTVSPost2010Prop44ColorIndex
 90
        5
102
RTVSPost2010Prop44ColorRGB
 90
      255
102
RTVSPost2010PropOp44
 70
     1
102
RTVSPost2010Prop45
280
     0
102
RTVSPost2010PropOp45
 70
     1
102
RTVSPost2010Prop46
 90
       50
102
RTVSPost2010PropOp46
 70
     1
102
RTVSPost2010Prop47
 90
       50
102
RTVSPost2010PropOp47
 70
     1
102
RTVSPost2010Prop48
 90
       50
102
RTVSPost2010PropOp48
 70
     1
102
RTVSPost2010Prop49
280
     0
102
RTVSPost2010PropOp49
 70
     1
102
RTVSPost2010Prop50
 90
       50
102
RTVSPost2010PropOp50
 70
     1
102
RTVSPost2010Prop51ColorIndex
 90
      256
102
RTVSPost2010Prop51ColorRGB
 90
-16777216
102
RTVSPost2010PropOp51
 70
     0
102
RTVSPost2010Prop52
140
1.0
102
RTVSPost2010PropOp52
 70
     0
102
RTVSPost2010Prop53
 90
        2
102
RTVSPost2010PropOp53
 70
     1
102
RTVSPost2010Prop54
  1
strokes_ogs.tif
102
RTVSPost2010PropOp54
 70
     1
102
RTVSPost2010Prop55
280
     0
102
RTVSPost2010PropOp55
 70
     1
102
RTVSPost2010Prop56
140
1.0
102
RTVSPost2010PropOp56
 70
     1
102
RTVSPost2010Prop57
140
1.0
102
RTVSPost2010PropOp57
 70
     1
102
RTVSPropertyOp0
 70
     1
102
RTVSPropertyOp1
 70
     1
102
RTVSPropertyOp2
 70
     1
102
RTVSPropertyOp3
 70
     1
102
RTVSPropertyOp4
 70
     1
102
RTVSPropertyOp5
 70
     1
102
RTVSPropertyOp6
 70
     1
102
RTVSPropertyOp7
 70
     1
102
RTVSPropertyOp8
 70
     1
102
RTVSPropertyOp9
 70
     1
102
RTVSPropertyOp10
 70
     1
102
RTVSPropertyOp11
 70
     1
102
RTVSPropertyOp12
 70
     1
102
RTVSPropertyOp13
 70
     1
102
RTVSPropertyOp14
 70
     1
102
RTVSPropertyOp15
 70
     1
102
RTVSPropertyOp16
 70
     1
102
RTVSPropertyOp17
 70
     1
102
RTVSPropertyOp18
 70
     1
102
RTVSPropertyOp19
 70
     1
102
RTVSPropertyOp20
 70
     1
102
RTVSPropertyOp21
 70
     1
102
RTVSPropertyOp22
 70
     1
102
RTVSPropertyOp23
 70
     1
102
RTVSPropertyOp24
 70
     1
102
RTVSPropertyOp25
 70
     1
102
RTVSPropertyOp26
 70
     1
102
RTVSPropertyOp27
 70
     1
102
RTVSPropertyOp28
 70
     1
102
RTVSPropertyOp29
 70
     1
102
RTVSPropertyOp30
 70
     1
102
RTVSPropertyOp31
 70
     1
102
RTVSPropertyOp32
 70
     1
102
RTVSPropertyOp33
 70
     1
102
RTVSPropertyOp34
 70
     1
102
RTVSPropertyOp35
 70
     1
102
RTVSPropertyOp36
 70
     1
102
RTVSPropertyOp37
 70
     1
102
RTVSPropertyOp38
 70
     1
102
RTVSPropertyOp39
 70
     1
102
RTVSPropertyOp40
 70
     1
102
RTVSPropertyOp41
 70
     1
102
RTVSPropertyOp42
 70
     1
102
RTVSPropertyOp43
 70
     1
102
RTVSPropertyOp44
 70
     1
102
RTVSPropertyOp45
 70
     1
102
RTVSPropertyOp46
 70
     1
102
RTVSPropertyOp47
 70
     1
102
RTVSPropertyOp48
 70
     1
102
RTVSPropertyOp49
 70
     1
102
RTVSPropertyOp50
 70
     1
102
RTVSPropertyOp51
 70
     0
102
RTVSPropertyOp52
 70
     0
102
RTVSPropertyOp53
 70
     1
102
RTVSPropertyOp54
 70
     1
102
RTVSPropertyOp55
 70
     1
102
RTVSPropertyOp56
 70
     1
102
RTVSPropertyOp57
 70
     1
102
RTVSPropertyOp58
 70
     1
102
RTVSPropertyOp59
 70
     1
102
RTVSPropertyOp60
 70
     1
102
RTVSPropertyOp61
 70
     1
102
RTVSPropertyOp62
 70
     1
  0
XRECORD
  5
45EB
102
{ACAD_REACTORS
330
45EA
102
}
330
45EA
100
AcDbXrecord
280
     1
102
RTVSPost2010Prop28
280
     0
102
RTVSPost2010PropOp28
 70
     1
102
RTVSPost2010Prop29
280
     1
102
RTVSPost2010PropOp29
 70
     1
102
RTVSPost2010Prop30
280
     1
102
RTVSPost2010PropOp30
 70
     1
102
RTVSPost2010Prop31
280
     0
102
RTVSPost2010PropOp31
 70
     1
102
RTVSPost2010Prop32
280
     0
102
RTVSPost2010PropOp32
 70
     1
102
RTVSPost2010Prop33
280
     0
102
RTVSPost2010PropOp33
 70
     1
102
RTVSPost2010Prop34
280
     0
102
RTVSPost2010PropOp34
 70
     1
102
RTVSPost2010Prop35
280
     0
102
RTVSPost2010PropOp35
 70
     1
102
RTVSPost2010Prop36
280
     0
102
RTVSPost2010PropOp36
 70
     1
102
RTVSPost2010Prop37
 90
       50
102
RTVSPost2010PropOp37
 70
     1
102
RTVSPost2010Prop38
140
0.0
102
RTVSPost2010PropOp38
 70
     1
102
RTVSPost2010Prop39
140
1.0
102
RTVSPost2010PropOp39
 70
     1
102
RTVSPost2010Prop40
 90
        0
102
RTVSPost2010PropOp40
 70
     1
102
RTVSPost2010Prop41ColorIndex
 90
       18
102
RTVSPost2010Prop41ColorRGB
 90
        0
102
RTVSPost2010PropOp41
 70
     1
102
RTVSPost2010Prop42
 90
       50
102
RTVSPost2010PropOp42
 70
     1
102
RTVSPost2010Prop43
 90
        3
102
RTVSPost2010PropOp43
 70
     1
102
RTVSPost2010Prop44ColorIndex
 90
        5
102
RTVSPost2010Prop44ColorRGB
 90
      255
102
RTVSPost2010PropOp44
 70
     1
102
RTVSPost2010Prop45
280
     0
102
RTVSPost2010PropOp45
 70
     1
102
RTVSPost2010Prop46
 90
       50
102
RTVSPost2010PropOp46
 70
     1
102
RTVSPost2010Prop47
 90
       50
102
RTVSPost2010PropOp47
 70
     1
102
RTVSPost2010Prop48
 90
       50
102
RTVSPost2010PropOp48
 70
     1
102
RTVSPost2010Prop49
280
     0
102
RTVSPost2010PropOp49
 70
     1
102
RTVSPost2010Prop50
 90
       50
102
RTVSPost2010PropOp50
 70
     1
102
RTVSPost2010Prop51ColorIndex
 90
      256
102
RTVSPost2010Prop51ColorRGB
 90
-16777216
102
RTVSPost2010PropOp51
 70
     0
102
RTVSPost2010Prop52
140
1.0
102
RTVSPost2010PropOp52
 70
     0
102
RTVSPost2010Prop53
 90
        2
102
RTVSPost2010PropOp53
 70
     1
102
RTVSPost2010Prop54
  1
strokes_ogs.tif
102
RTVSPost2010PropOp54
 70
     1
102
RTVSPost2010Prop55
280
     0
102
RTVSPost2010PropOp55
 70
     1
102
RTVSPost2010Prop56
140
1.0
102
RTVSPost2010PropOp56
 70
     1
102
RTVSPost2010Prop57
140
1.0
102
RTVSPost2010PropOp57
 70
     1
102
RTVSPropertyOp0
 70
     0
102
RTVSPropertyOp1
 70
     0
102
RTVSPropertyOp2
 70
     0
102
RTVSPropertyOp3
 70
     0
102
RTVSPropertyOp4
 70
     0
102
RTVSPropertyOp5
 70
     0
102
RTVSPropertyOp6
 70
     0
102
RTVSPropertyOp7
 70
     0
102
RTVSPropertyOp8
 70
     0
102
RTVSPropertyOp9
 70
     0
102
RTVSPropertyOp10
 70
     0
102
RTVSPropertyOp11
 70
     0
102
RTVSPropertyOp12
 70
     0
102
RTVSPropertyOp13
 70
     0
102
RTVSPropertyOp14
 70
     2
102
RTVSPropertyOp15
 70
     0
102
RTVSPropertyOp16
 70
     0
102
RTVSPropertyOp17
 70
     0
102
RTVSPropertyOp18
 70
     0
102
RTVSPropertyOp19
 70
     0
102
RTVSPropertyOp20
 70
     0
102
RTVSPropertyOp21
 70
     0
102
RTVSPropertyOp22
 70
     0
102
RTVSPropertyOp23
 70
     0
102
RTVSPropertyOp24
 70
     0
102
RTVSPropertyOp25
 70
     0
102
RTVSPropertyOp26
 70
     0
102
RTVSPropertyOp27
 70
     0
102
RTVSPropertyOp28
 70
     1
102
RTVSPropertyOp29
 70
     1
102
RTVSPropertyOp30
 70
     1
102
RTVSPropertyOp31
 70
     1
102
RTVSPropertyOp32
 70
     1
102
RTVSPropertyOp33
 70
     1
102
RTVSPropertyOp34
 70
     1
102
RTVSPropertyOp35
 70
     1
102
RTVSPropertyOp36
 70
     1
102
RTVSPropertyOp37
 70
     1
102
RTVSPropertyOp38
 70
     1
102
RTVSPropertyOp39
 70
     1
102
RTVSPropertyOp40
 70
     1
102
RTVSPropertyOp41
 70
     1
102
RTVSPropertyOp42
 70
     1
102
RTVSPropertyOp43
 70
     1
102
RTVSPropertyOp44
 70
     1
102
RTVSPropertyOp45
 70
     1
102
RTVSPropertyOp46
 70
     1
102
RTVSPropertyOp47
 70
     1
102
RTVSPropertyOp48
 70
     1
102
RTVSPropertyOp49
 70
     1
102
RTVSPropertyOp50
 70
     1
102
RTVSPropertyOp51
 70
     0
102
RTVSPropertyOp52
 70
     0
102
RTVSPropertyOp53
 70
     1
102
RTVSPropertyOp54
 70
     1
102
RTVSPropertyOp55
 70
     1
102
RTVSPropertyOp56
 70
     1
102
RTVSPropertyOp57
 70
     1
102
RTVSPropertyOp58
 70
     1
102
RTVSPropertyOp59
 70
     1
102
RTVSPropertyOp60
 70
     1
102
RTVSPropertyOp61
 70
     1
102
RTVSPropertyOp62
 70
     1
  0
XRECORD
  5
45E5
102
{ACAD_REACTORS
330
45E4
102
}
330
45E4
100
AcDbXrecord
280
     1
102
RTVSPost2010Prop28
280
     0
102
RTVSPost2010PropOp28
 70
     1
102
RTVSPost2010Prop29
280
     1
102
RTVSPost2010PropOp29
 70
     1
102
RTVSPost2010Prop30
280
     1
102
RTVSPost2010PropOp30
 70
     1
102
RTVSPost2010Prop31
280
     0
102
RTVSPost2010PropOp31
 70
     1
102
RTVSPost2010Prop32
280
     0
102
RTVSPost2010PropOp32
 70
     1
102
RTVSPost2010Prop33
280
     0
102
RTVSPost2010PropOp33
 70
     1
102
RTVSPost2010Prop34
280
     0
102
RTVSPost2010PropOp34
 70
     1
102
RTVSPost2010Prop35
280
     0
102
RTVSPost2010PropOp35
 70
     1
102
RTVSPost2010Prop36
280
     0
102
RTVSPost2010PropOp36
 70
     1
102
RTVSPost2010Prop37
 90
       50
102
RTVSPost2010PropOp37
 70
     1
102
RTVSPost2010Prop38
140
0.0
102
RTVSPost2010PropOp38
 70
     1
102
RTVSPost2010Prop39
140
1.0
102
RTVSPost2010PropOp39
 70
     1
102
RTVSPost2010Prop40
 90
        0
102
RTVSPost2010PropOp40
 70
     1
102
RTVSPost2010Prop41ColorIndex
 90
       18
102
RTVSPost2010Prop41ColorRGB
 90
        0
102
RTVSPost2010PropOp41
 70
     1
102
RTVSPost2010Prop42
 90
       50
102
RTVSPost2010PropOp42
 70
     1
102
RTVSPost2010Prop43
 90
        3
102
RTVSPost2010PropOp43
 70
     1
102
RTVSPost2010Prop44ColorIndex
 90
        5
102
RTVSPost2010Prop44ColorRGB
 90
      255
102
RTVSPost2010PropOp44
 70
     1
102
RTVSPost2010Prop45
280
     0
102
RTVSPost2010PropOp45
 70
     1
102
RTVSPost2010Prop46
 90
       50
102
RTVSPost2010PropOp46
 70
     1
102
RTVSPost2010Prop47
 90
       50
102
RTVSPost2010PropOp47
 70
     1
102
RTVSPost2010Prop48
 90
       50
102
RTVSPost2010PropOp48
 70
     1
102
RTVSPost2010Prop49
280
     0
102
RTVSPost2010PropOp49
 70
     1
102
RTVSPost2010Prop50
 90
       50
102
RTVSPost2010PropOp50
 70
     1
102
RTVSPost2010Prop51ColorIndex
 90
      256
102
RTVSPost2010Prop51ColorRGB
 90
-16777216
102
RTVSPost2010PropOp51
 70
     0
102
RTVSPost2010Prop52
140
1.0
102
RTVSPost2010PropOp52
 70
     0
102
RTVSPost2010Prop53
 90
        2
102
RTVSPost2010PropOp53
 70
     1
102
RTVSPost2010Prop54
  1
strokes_ogs.tif
102
RTVSPost2010PropOp54
 70
     1
102
RTVSPost2010Prop55
280
     0
102
RTVSPost2010PropOp55
 70
     1
102
RTVSPost2010Prop56
140
1.0
102
RTVSPost2010PropOp56
 70
     1
102
RTVSPost2010Prop57
140
1.0
102
RTVSPost2010PropOp57
 70
     1
102
RTVSPropertyOp0
 70
     1
102
RTVSPropertyOp1
 70
     1
102
RTVSPropertyOp2
 70
     1
102
RTVSPropertyOp3
 70
     1
102
RTVSPropertyOp4
 70
     1
102
RTVSPropertyOp5
 70
     1
102
RTVSPropertyOp6
 70
     1
102
RTVSPropertyOp7
 70
     1
102
RTVSPropertyOp8
 70
     1
102
RTVSPropertyOp9
 70
     1
102
RTVSPropertyOp10
 70
     1
102
RTVSPropertyOp11
 70
     1
102
RTVSPropertyOp12
 70
     1
102
RTVSPropertyOp13
 70
     1
102
RTVSPropertyOp14
 70
     1
102
RTVSPropertyOp15
 70
     1
102
RTVSPropertyOp16
 70
     1
102
RTVSPropertyOp17
 70
     1
102
RTVSPropertyOp18
 70
     1
102
RTVSPropertyOp19
 70
     1
102
RTVSPropertyOp20
 70
     1
102
RTVSPropertyOp21
 70
     1
102
RTVSPropertyOp22
 70
     1
102
RTVSPropertyOp23
 70
     1
102
RTVSPropertyOp24
 70
     1
102
RTVSPropertyOp25
 70
     1
102
RTVSPropertyOp26
 70
     1
102
RTVSPropertyOp27
 70
     1
102
RTVSPropertyOp28
 70
     1
102
RTVSPropertyOp29
 70
     1
102
RTVSPropertyOp30
 70
     1
102
RTVSPropertyOp31
 70
     1
102
RTVSPropertyOp32
 70
     1
102
RTVSPropertyOp33
 70
     1
102
RTVSPropertyOp34
 70
     1
102
RTVSPropertyOp35
 70
     1
102
RTVSPropertyOp36
 70
     1
102
RTVSPropertyOp37
 70
     1
102
RTVSPropertyOp38
 70
     1
102
RTVSPropertyOp39
 70
     1
102
RTVSPropertyOp40
 70
     1
102
RTVSPropertyOp41
 70
     1
102
RTVSPropertyOp42
 70
     1
102
RTVSPropertyOp43
 70
     1
102
RTVSPropertyOp44
 70
     1
102
RTVSPropertyOp45
 70
     1
102
RTVSPropertyOp46
 70
     1
102
RTVSPropertyOp47
 70
     1
102
RTVSPropertyOp48
 70
     1
102
RTVSPropertyOp49
 70
     1
102
RTVSPropertyOp50
 70
     1
102
RTVSPropertyOp51
 70
     0
102
RTVSPropertyOp52
 70
     0
102
RTVSPropertyOp53
 70
     1
102
RTVSPropertyOp54
 70
     1
102
RTVSPropertyOp55
 70
     1
102
RTVSPropertyOp56
 70
     1
102
RTVSPropertyOp57
 70
     1
102
RTVSPropertyOp58
 70
     1
102
RTVSPropertyOp59
 70
     1
102
RTVSPropertyOp60
 70
     1
102
RTVSPropertyOp61
 70
     1
102
RTVSPropertyOp62
 70
     1
  0
XRECORD
  5
45ED
102
{ACAD_REACTORS
330
45EC
102
}
330
45EC
100
AcDbXrecord
280
     1
102
RTVSPost2010Prop28
280
     0
102
RTVSPost2010PropOp28
 70
     1
102
RTVSPost2010Prop29
280
     1
102
RTVSPost2010PropOp29
 70
     1
102
RTVSPost2010Prop30
280
     1
102
RTVSPost2010PropOp30
 70
     1
102
RTVSPost2010Prop31
280
     0
102
RTVSPost2010PropOp31
 70
     1
102
RTVSPost2010Prop32
280
     0
102
RTVSPost2010PropOp32
 70
     1
102
RTVSPost2010Prop33
280
     0
102
RTVSPost2010PropOp33
 70
     1
102
RTVSPost2010Prop34
280
     0
102
RTVSPost2010PropOp34
 70
     1
102
RTVSPost2010Prop35
280
     0
102
RTVSPost2010PropOp35
 70
     1
102
RTVSPost2010Prop36
280
     0
102
RTVSPost2010PropOp36
 70
     1
102
RTVSPost2010Prop37
 90
       50
102
RTVSPost2010PropOp37
 70
     1
102
RTVSPost2010Prop38
140
0.0
102
RTVSPost2010PropOp38
 70
     1
102
RTVSPost2010Prop39
140
1.0
102
RTVSPost2010PropOp39
 70
     1
102
RTVSPost2010Prop40
 90
        0
102
RTVSPost2010PropOp40
 70
     1
102
RTVSPost2010Prop41ColorIndex
 90
       18
102
RTVSPost2010Prop41ColorRGB
 90
        0
102
RTVSPost2010PropOp41
 70
     1
102
RTVSPost2010Prop42
 90
       50
102
RTVSPost2010PropOp42
 70
     1
102
RTVSPost2010Prop43
 90
        3
102
RTVSPost2010PropOp43
 70
     1
102
RTVSPost2010Prop44ColorIndex
 90
        5
102
RTVSPost2010Prop44ColorRGB
 90
      255
102
RTVSPost2010PropOp44
 70
     1
102
RTVSPost2010Prop45
280
     0
102
RTVSPost2010PropOp45
 70
     1
102
RTVSPost2010Prop46
 90
       50
102
RTVSPost2010PropOp46
 70
     1
102
RTVSPost2010Prop47
 90
       50
102
RTVSPost2010PropOp47
 70
     1
102
RTVSPost2010Prop48
 90
       50
102
RTVSPost2010PropOp48
 70
     1
102
RTVSPost2010Prop49
280
     0
102
RTVSPost2010PropOp49
 70
     1
102
RTVSPost2010Prop50
 90
       50
102
RTVSPost2010PropOp50
 70
     1
102
RTVSPost2010Prop51ColorIndex
 90
      256
102
RTVSPost2010Prop51ColorRGB
 90
-16777216
102
RTVSPost2010PropOp51
 70
     0
102
RTVSPost2010Prop52
140
1.0
102
RTVSPost2010PropOp52
 70
     0
102
RTVSPost2010Prop53
 90
        2
102
RTVSPost2010PropOp53
 70
     1
102
RTVSPost2010Prop54
  1
strokes_ogs.tif
102
RTVSPost2010PropOp54
 70
     1
102
RTVSPost2010Prop55
280
     0
102
RTVSPost2010PropOp55
 70
     1
102
RTVSPost2010Prop56
140
1.0
102
RTVSPost2010PropOp56
 70
     1
102
RTVSPost2010Prop57
140
1.0
102
RTVSPost2010PropOp57
 70
     1
102
RTVSPropertyOp0
 70
     0
102
RTVSPropertyOp1
 70
     0
102
RTVSPropertyOp2
 70
     0
102
RTVSPropertyOp3
 70
     0
102
RTVSPropertyOp4
 70
     0
102
RTVSPropertyOp5
 70
     0
102
RTVSPropertyOp6
 70
     0
102
RTVSPropertyOp7
 70
     0
102
RTVSPropertyOp8
 70
     0
102
RTVSPropertyOp9
 70
     0
102
RTVSPropertyOp10
 70
     0
102
RTVSPropertyOp11
 70
     0
102
RTVSPropertyOp12
 70
     0
102
RTVSPropertyOp13
 70
     0
102
RTVSPropertyOp14
 70
     2
102
RTVSPropertyOp15
 70
     0
102
RTVSPropertyOp16
 70
     0
102
RTVSPropertyOp17
 70
     0
102
RTVSPropertyOp18
 70
     0
102
RTVSPropertyOp19
 70
     0
102
RTVSPropertyOp20
 70
     0
102
RTVSPropertyOp21
 70
     0
102
RTVSPropertyOp22
 70
     0
102
RTVSPropertyOp23
 70
     0
102
RTVSPropertyOp24
 70
     0
102
RTVSPropertyOp25
 70
     0
102
RTVSPropertyOp26
 70
     0
102
RTVSPropertyOp27
 70
     0
102
RTVSPropertyOp28
 70
     1
102
RTVSPropertyOp29
 70
     1
102
RTVSPropertyOp30
 70
     1
102
RTVSPropertyOp31
 70
     1
102
RTVSPropertyOp32
 70
     1
102
RTVSPropertyOp33
 70
     1
102
RTVSPropertyOp34
 70
     1
102
RTVSPropertyOp35
 70
     1
102
RTVSPropertyOp36
 70
     1
102
RTVSPropertyOp37
 70
     1
102
RTVSPropertyOp38
 70
     1
102
RTVSPropertyOp39
 70
     1
102
RTVSPropertyOp40
 70
     1
102
RTVSPropertyOp41
 70
     1
102
RTVSPropertyOp42
 70
     1
102
RTVSPropertyOp43
 70
     1
102
RTVSPropertyOp44
 70
     1
102
RTVSPropertyOp45
 70
     1
102
RTVSPropertyOp46
 70
     1
102
RTVSPropertyOp47
 70
     1
102
RTVSPropertyOp48
 70
     1
102
RTVSPropertyOp49
 70
     1
102
RTVSPropertyOp50
 70
     1
102
RTVSPropertyOp51
 70
     0
102
RTVSPropertyOp52
 70
     0
102
RTVSPropertyOp53
 70
     1
102
RTVSPropertyOp54
 70
     1
102
RTVSPropertyOp55
 70
     1
102
RTVSPropertyOp56
 70
     1
102
RTVSPropertyOp57
 70
     1
102
RTVSPropertyOp58
 70
     1
102
RTVSPropertyOp59
 70
     1
102
RTVSPropertyOp60
 70
     1
102
RTVSPropertyOp61
 70
     1
102
RTVSPropertyOp62
 70
     1
  0
XRECORD
  5
45DD
102
{ACAD_REACTORS
330
45DC
102
}
330
45DC
100
AcDbXrecord
280
     1
102
RTVSPost2010Prop28
280
     0
102
RTVSPost2010PropOp28
 70
     1
102
RTVSPost2010Prop29
280
     1
102
RTVSPost2010PropOp29
 70
     1
102
RTVSPost2010Prop30
280
     1
102
RTVSPost2010PropOp30
 70
     1
102
RTVSPost2010Prop31
280
     0
102
RTVSPost2010PropOp31
 70
     1
102
RTVSPost2010Prop32
280
     0
102
RTVSPost2010PropOp32
 70
     1
102
RTVSPost2010Prop33
280
     0
102
RTVSPost2010PropOp33
 70
     1
102
RTVSPost2010Prop34
280
     0
102
RTVSPost2010PropOp34
 70
     1
102
RTVSPost2010Prop35
280
     0
102
RTVSPost2010PropOp35
 70
     1
102
RTVSPost2010Prop36
280
     0
102
RTVSPost2010PropOp36
 70
     1
102
RTVSPost2010Prop37
 90
       50
102
RTVSPost2010PropOp37
 70
     1
102
RTVSPost2010Prop38
140
0.0
102
RTVSPost2010PropOp38
 70
     1
102
RTVSPost2010Prop39
140
1.0
102
RTVSPost2010PropOp39
 70
     1
102
RTVSPost2010Prop40
 90
        0
102
RTVSPost2010PropOp40
 70
     1
102
RTVSPost2010Prop41ColorIndex
 90
       18
102
RTVSPost2010Prop41ColorRGB
 90
        0
102
RTVSPost2010PropOp41
 70
     1
102
RTVSPost2010Prop42
 90
       50
102
RTVSPost2010PropOp42
 70
     1
102
RTVSPost2010Prop43
 90
        3
102
RTVSPost2010PropOp43
 70
     1
102
RTVSPost2010Prop44ColorIndex
 90
        5
102
RTVSPost2010Prop44ColorRGB
 90
      255
102
RTVSPost2010PropOp44
 70
     1
102
RTVSPost2010Prop45
280
     0
102
RTVSPost2010PropOp45
 70
     1
102
RTVSPost2010Prop46
 90
       50
102
RTVSPost2010PropOp46
 70
     1
102
RTVSPost2010Prop47
 90
       50
102
RTVSPost2010PropOp47
 70
     1
102
RTVSPost2010Prop48
 90
       50
102
RTVSPost2010PropOp48
 70
     1
102
RTVSPost2010Prop49
280
     0
102
RTVSPost2010PropOp49
 70
     1
102
RTVSPost2010Prop50
 90
       50
102
RTVSPost2010PropOp50
 70
     1
102
RTVSPost2010Prop51ColorIndex
 90
      256
102
RTVSPost2010Prop51ColorRGB
 90
-16777216
102
RTVSPost2010PropOp51
 70
     0
102
RTVSPost2010Prop52
140
1.0
102
RTVSPost2010PropOp52
 70
     0
102
RTVSPost2010Prop53
 90
        2
102
RTVSPost2010PropOp53
 70
     1
102
RTVSPost2010Prop54
  1
strokes_ogs.tif
102
RTVSPost2010PropOp54
 70
     1
102
RTVSPost2010Prop55
280
     0
102
RTVSPost2010PropOp55
 70
     1
102
RTVSPost2010Prop56
140
1.0
102
RTVSPost2010PropOp56
 70
     1
102
RTVSPost2010Prop57
140
1.0
102
RTVSPost2010PropOp57
 70
     1
102
RTVSPropertyOp0
 70
     1
102
RTVSPropertyOp1
 70
     1
102
RTVSPropertyOp2
 70
     1
102
RTVSPropertyOp3
 70
     1
102
RTVSPropertyOp4
 70
     1
102
RTVSPropertyOp5
 70
     1
102
RTVSPropertyOp6
 70
     1
102
RTVSPropertyOp7
 70
     1
102
RTVSPropertyOp8
 70
     1
102
RTVSPropertyOp9
 70
     1
102
RTVSPropertyOp10
 70
     1
102
RTVSPropertyOp11
 70
     1
102
RTVSPropertyOp12
 70
     1
102
RTVSPropertyOp13
 70
     1
102
RTVSPropertyOp14
 70
     1
102
RTVSPropertyOp15
 70
     1
102
RTVSPropertyOp16
 70
     1
102
RTVSPropertyOp17
 70
     1
102
RTVSPropertyOp18
 70
     1
102
RTVSPropertyOp19
 70
     1
102
RTVSPropertyOp20
 70
     1
102
RTVSPropertyOp21
 70
     1
102
RTVSPropertyOp22
 70
     1
102
RTVSPropertyOp23
 70
     1
102
RTVSPropertyOp24
 70
     1
102
RTVSPropertyOp25
 70
     1
102
RTVSPropertyOp26
 70
     1
102
RTVSPropertyOp27
 70
     1
102
RTVSPropertyOp28
 70
     1
102
RTVSPropertyOp29
 70
     1
102
RTVSPropertyOp30
 70
     1
102
RTVSPropertyOp31
 70
     1
102
RTVSPropertyOp32
 70
     1
102
RTVSPropertyOp33
 70
     1
102
RTVSPropertyOp34
 70
     1
102
RTVSPropertyOp35
 70
     1
102
RTVSPropertyOp36
 70
     1
102
RTVSPropertyOp37
 70
     1
102
RTVSPropertyOp38
 70
     1
102
RTVSPropertyOp39
 70
     1
102
RTVSPropertyOp40
 70
     1
102
RTVSPropertyOp41
 70
     1
102
RTVSPropertyOp42
 70
     1
102
RTVSPropertyOp43
 70
     1
102
RTVSPropertyOp44
 70
     1
102
RTVSPropertyOp45
 70
     1
102
RTVSPropertyOp46
 70
     1
102
RTVSPropertyOp47
 70
     1
102
RTVSPropertyOp48
 70
     1
102
RTVSPropertyOp49
 70
     1
102
RTVSPropertyOp50
 70
     1
102
RTVSPropertyOp51
 70
     0
102
RTVSPropertyOp52
 70
     0
102
RTVSPropertyOp53
 70
     1
102
RTVSPropertyOp54
 70
     1
102
RTVSPropertyOp55
 70
     1
102
RTVSPropertyOp56
 70
     1
102
RTVSPropertyOp57
 70
     1
102
RTVSPropertyOp58
 70
     1
102
RTVSPropertyOp59
 70
     1
102
RTVSPropertyOp60
 70
     1
102
RTVSPropertyOp61
 70
     1
102
RTVSPropertyOp62
 70
     1
  0
XRECORD
  5
45FE
102
{ACAD_REACTORS
330
45FD
102
}
330
45FD
100
AcDbXrecord
280
     1
102
RTVSPost2010Prop28
280
     0
102
RTVSPost2010PropOp28
 70
     1
102
RTVSPost2010Prop29
280
     1
102
RTVSPost2010PropOp29
 70
     1
102
RTVSPost2010Prop30
280
     1
102
RTVSPost2010PropOp30
 70
     1
102
RTVSPost2010Prop31
280
     0
102
RTVSPost2010PropOp31
 70
     1
102
RTVSPost2010Prop32
280
     0
102
RTVSPost2010PropOp32
 70
     1
102
RTVSPost2010Prop33
280
     0
102
RTVSPost2010PropOp33
 70
     1
102
RTVSPost2010Prop34
280
     0
102
RTVSPost2010PropOp34
 70
     1
102
RTVSPost2010Prop35
280
     0
102
RTVSPost2010PropOp35
 70
     1
102
RTVSPost2010Prop36
280
     0
102
RTVSPost2010PropOp36
 70
     1
102
RTVSPost2010Prop37
 90
       50
102
RTVSPost2010PropOp37
 70
     1
102
RTVSPost2010Prop38
140
0.0
102
RTVSPost2010PropOp38
 70
     1
102
RTVSPost2010Prop39
140
1.0
102
RTVSPost2010PropOp39
 70
     1
102
RTVSPost2010Prop40
 90
        0
102
RTVSPost2010PropOp40
 70
     1
102
RTVSPost2010Prop41ColorIndex
 90
       18
102
RTVSPost2010Prop41ColorRGB
 90
        0
102
RTVSPost2010PropOp41
 70
     1
102
RTVSPost2010Prop42
 90
       50
102
RTVSPost2010PropOp42
 70
     1
102
RTVSPost2010Prop43
 90
        3
102
RTVSPost2010PropOp43
 70
     1
102
RTVSPost2010Prop44ColorIndex
 90
        5
102
RTVSPost2010Prop44ColorRGB
 90
      255
102
RTVSPost2010PropOp44
 70
     1
102
RTVSPost2010Prop45
280
     0
102
RTVSPost2010PropOp45
 70
     1
102
RTVSPost2010Prop46
 90
       50
102
RTVSPost2010PropOp46
 70
     1
102
RTVSPost2010Prop47
 90
       50
102
RTVSPost2010PropOp47
 70
     1
102
RTVSPost2010Prop48
 90
       50
102
RTVSPost2010PropOp48
 70
     1
102
RTVSPost2010Prop49
280
     0
102
RTVSPost2010PropOp49
 70
     1
102
RTVSPost2010Prop50
 90
       50
102
RTVSPost2010PropOp50
 70
     1
102
RTVSPost2010Prop51ColorIndex
 90
      256
102
RTVSPost2010Prop51ColorRGB
 90
-16777216
102
RTVSPost2010PropOp51
 70
     0
102
RTVSPost2010Prop52
140
1.0
102
RTVSPost2010PropOp52
 70
     0
102
RTVSPost2010Prop53
 90
        2
102
RTVSPost2010PropOp53
 70
     1
102
RTVSPost2010Prop54
  1
strokes_ogs.tif
102
RTVSPost2010PropOp54
 70
     1
102
RTVSPost2010Prop55
280
     0
102
RTVSPost2010PropOp55
 70
     1
102
RTVSPost2010Prop56
140
1.0
102
RTVSPost2010PropOp56
 70
     1
102
RTVSPost2010Prop57
140
1.0
102
RTVSPost2010PropOp57
 70
     1
102
RTVSPropertyOp0
 70
     1
102
RTVSPropertyOp1
 70
     1
102
RTVSPropertyOp2
 70
     1
102
RTVSPropertyOp3
 70
     1
102
RTVSPropertyOp4
 70
     1
102
RTVSPropertyOp5
 70
     1
102
RTVSPropertyOp6
 70
     1
102
RTVSPropertyOp7
 70
     1
102
RTVSPropertyOp8
 70
     1
102
RTVSPropertyOp9
 70
     1
102
RTVSPropertyOp10
 70
     1
102
RTVSPropertyOp11
 70
     1
102
RTVSPropertyOp12
 70
     1
102
RTVSPropertyOp13
 70
     1
102
RTVSPropertyOp14
 70
     1
102
RTVSPropertyOp15
 70
     1
102
RTVSPropertyOp16
 70
     1
102
RTVSPropertyOp17
 70
     1
102
RTVSPropertyOp18
 70
     1
102
RTVSPropertyOp19
 70
     1
102
RTVSPropertyOp20
 70
     1
102
RTVSPropertyOp21
 70
     1
102
RTVSPropertyOp22
 70
     1
102
RTVSPropertyOp23
 70
     1
102
RTVSPropertyOp24
 70
     1
102
RTVSPropertyOp25
 70
     1
102
RTVSPropertyOp26
 70
     1
102
RTVSPropertyOp27
 70
     1
102
RTVSPropertyOp28
 70
     1
102
RTVSPropertyOp29
 70
     1
102
RTVSPropertyOp30
 70
     1
102
RTVSPropertyOp31
 70
     1
102
RTVSPropertyOp32
 70
     1
102
RTVSPropertyOp33
 70
     1
102
RTVSPropertyOp34
 70
     1
102
RTVSPropertyOp35
 70
     1
102
RTVSPropertyOp36
 70
     1
102
RTVSPropertyOp37
 70
     1
102
RTVSPropertyOp38
 70
     1
102
RTVSPropertyOp39
 70
     1
102
RTVSPropertyOp40
 70
     1
102
RTVSPropertyOp41
 70
     1
102
RTVSPropertyOp42
 70
     1
102
RTVSPropertyOp43
 70
     1
102
RTVSPropertyOp44
 70
     1
102
RTVSPropertyOp45
 70
     1
102
RTVSPropertyOp46
 70
     1
102
RTVSPropertyOp47
 70
     1
102
RTVSPropertyOp48
 70
     1
102
RTVSPropertyOp49
 70
     1
102
RTVSPropertyOp50
 70
     1
102
RTVSPropertyOp51
 70
     0
102
RTVSPropertyOp52
 70
     0
102
RTVSPropertyOp53
 70
     1
102
RTVSPropertyOp54
 70
     1
102
RTVSPropertyOp55
 70
     1
102
RTVSPropertyOp56
 70
     1
102
RTVSPropertyOp57
 70
     1
102
RTVSPropertyOp58
 70
     1
102
RTVSPropertyOp59
 70
     1
102
RTVSPropertyOp60
 70
     1
102
RTVSPropertyOp61
 70
     1
102
RTVSPropertyOp62
 70
     1
  0
XRECORD
  5
45FC
102
{ACAD_REACTORS
330
45FB
102
}
330
45FB
100
AcDbXrecord
280
     1
102
RTVSPost2010Prop28
280
     0
102
RTVSPost2010PropOp28
 70
     1
102
RTVSPost2010Prop29
280
     1
102
RTVSPost2010PropOp29
 70
     1
102
RTVSPost2010Prop30
280
     1
102
RTVSPost2010PropOp30
 70
     1
102
RTVSPost2010Prop31
280
     0
102
RTVSPost2010PropOp31
 70
     1
102
RTVSPost2010Prop32
280
     0
102
RTVSPost2010PropOp32
 70
     1
102
RTVSPost2010Prop33
280
     0
102
RTVSPost2010PropOp33
 70
     1
102
RTVSPost2010Prop34
280
     0
102
RTVSPost2010PropOp34
 70
     1
102
RTVSPost2010Prop35
280
     0
102
RTVSPost2010PropOp35
 70
     1
102
RTVSPost2010Prop36
280
     0
102
RTVSPost2010PropOp36
 70
     1
102
RTVSPost2010Prop37
 90
       50
102
RTVSPost2010PropOp37
 70
     1
102
RTVSPost2010Prop38
140
0.0
102
RTVSPost2010PropOp38
 70
     1
102
RTVSPost2010Prop39
140
1.0
102
RTVSPost2010PropOp39
 70
     1
102
RTVSPost2010Prop40
 90
        0
102
RTVSPost2010PropOp40
 70
     1
102
RTVSPost2010Prop41ColorIndex
 90
       18
102
RTVSPost2010Prop41ColorRGB
 90
        0
102
RTVSPost2010PropOp41
 70
     1
102
RTVSPost2010Prop42
 90
       50
102
RTVSPost2010PropOp42
 70
     1
102
RTVSPost2010Prop43
 90
        3
102
RTVSPost2010PropOp43
 70
     1
102
RTVSPost2010Prop44ColorIndex
 90
        5
102
RTVSPost2010Prop44ColorRGB
 90
      255
102
RTVSPost2010PropOp44
 70
     1
102
RTVSPost2010Prop45
280
     0
102
RTVSPost2010PropOp45
 70
     1
102
RTVSPost2010Prop46
 90
       50
102
RTVSPost2010PropOp46
 70
     1
102
RTVSPost2010Prop47
 90
       50
102
RTVSPost2010PropOp47
 70
     1
102
RTVSPost2010Prop48
 90
       50
102
RTVSPost2010PropOp48
 70
     1
102
RTVSPost2010Prop49
280
     0
102
RTVSPost2010PropOp49
 70
     1
102
RTVSPost2010Prop50
 90
       50
102
RTVSPost2010PropOp50
 70
     1
102
RTVSPost2010Prop51ColorIndex
 90
      256
102
RTVSPost2010Prop51ColorRGB
 90
-16777216
102
RTVSPost2010PropOp51
 70
     0
102
RTVSPost2010Prop52
140
1.0
102
RTVSPost2010PropOp52
 70
     0
102
RTVSPost2010Prop53
 90
        2
102
RTVSPost2010PropOp53
 70
     1
102
RTVSPost2010Prop54
  1
strokes_ogs.tif
102
RTVSPost2010PropOp54
 70
     1
102
RTVSPost2010Prop55
280
     0
102
RTVSPost2010PropOp55
 70
     1
102
RTVSPost2010Prop56
140
1.0
102
RTVSPost2010PropOp56
 70
     1
102
RTVSPost2010Prop57
140
1.0
102
RTVSPost2010PropOp57
 70
     1
102
RTVSPropertyOp0
 70
     1
102
RTVSPropertyOp1
 70
     1
102
RTVSPropertyOp2
 70
     1
102
RTVSPropertyOp3
 70
     1
102
RTVSPropertyOp4
 70
     1
102
RTVSPropertyOp5
 70
     1
102
RTVSPropertyOp6
 70
     1
102
RTVSPropertyOp7
 70
     1
102
RTVSPropertyOp8
 70
     1
102
RTVSPropertyOp9
 70
     1
102
RTVSPropertyOp10
 70
     1
102
RTVSPropertyOp11
 70
     1
102
RTVSPropertyOp12
 70
     1
102
RTVSPropertyOp13
 70
     1
102
RTVSPropertyOp14
 70
     1
102
RTVSPropertyOp15
 70
     1
102
RTVSPropertyOp16
 70
     1
102
RTVSPropertyOp17
 70
     1
102
RTVSPropertyOp18
 70
     1
102
RTVSPropertyOp19
 70
     1
102
RTVSPropertyOp20
 70
     1
102
RTVSPropertyOp21
 70
     1
102
RTVSPropertyOp22
 70
     1
102
RTVSPropertyOp23
 70
     1
102
RTVSPropertyOp24
 70
     1
102
RTVSPropertyOp25
 70
     1
102
RTVSPropertyOp26
 70
     1
102
RTVSPropertyOp27
 70
     1
102
RTVSPropertyOp28
 70
     1
102
RTVSPropertyOp29
 70
     1
102
RTVSPropertyOp30
 70
     1
102
RTVSPropertyOp31
 70
     1
102
RTVSPropertyOp32
 70
     1
102
RTVSPropertyOp33
 70
     1
102
RTVSPropertyOp34
 70
     1
102
RTVSPropertyOp35
 70
     1
102
RTVSPropertyOp36
 70
     1
102
RTVSPropertyOp37
 70
     1
102
RTVSPropertyOp38
 70
     1
102
RTVSPropertyOp39
 70
     1
102
RTVSPropertyOp40
 70
     1
102
RTVSPropertyOp41
 70
     1
102
RTVSPropertyOp42
 70
     1
102
RTVSPropertyOp43
 70
     1
102
RTVSPropertyOp44
 70
     1
102
RTVSPropertyOp45
 70
     1
102
RTVSPropertyOp46
 70
     1
102
RTVSPropertyOp47
 70
     1
102
RTVSPropertyOp48
 70
     1
102
RTVSPropertyOp49
 70
     1
102
RTVSPropertyOp50
 70
     1
102
RTVSPropertyOp51
 70
     0
102
RTVSPropertyOp52
 70
     0
102
RTVSPropertyOp53
 70
     1
102
RTVSPropertyOp54
 70
     1
102
RTVSPropertyOp55
 70
     1
102
RTVSPropertyOp56
 70
     1
102
RTVSPropertyOp57
 70
     1
102
RTVSPropertyOp58
 70
     1
102
RTVSPropertyOp59
 70
     1
102
RTVSPropertyOp60
 70
     1
102
RTVSPropertyOp61
 70
     1
102
RTVSPropertyOp62
 70
     1
  0
XRECORD
  5
45F6
102
{ACAD_REACTORS
330
45F5
102
}
330
45F5
100
AcDbXrecord
280
     1
102
RTVSPost2010Prop28
280
     0
102
RTVSPost2010PropOp28
 70
     1
102
RTVSPost2010Prop29
280
     1
102
RTVSPost2010PropOp29
 70
     1
102
RTVSPost2010Prop30
280
     1
102
RTVSPost2010PropOp30
 70
     1
102
RTVSPost2010Prop31
280
     0
102
RTVSPost2010PropOp31
 70
     1
102
RTVSPost2010Prop32
280
     0
102
RTVSPost2010PropOp32
 70
     1
102
RTVSPost2010Prop33
280
     0
102
RTVSPost2010PropOp33
 70
     1
102
RTVSPost2010Prop34
280
     0
102
RTVSPost2010PropOp34
 70
     1
102
RTVSPost2010Prop35
280
     0
102
RTVSPost2010PropOp35
 70
     1
102
RTVSPost2010Prop36
280
     0
102
RTVSPost2010PropOp36
 70
     1
102
RTVSPost2010Prop37
 90
       50
102
RTVSPost2010PropOp37
 70
     1
102
RTVSPost2010Prop38
140
0.0
102
RTVSPost2010PropOp38
 70
     1
102
RTVSPost2010Prop39
140
1.0
102
RTVSPost2010PropOp39
 70
     1
102
RTVSPost2010Prop40
 90
        0
102
RTVSPost2010PropOp40
 70
     1
102
RTVSPost2010Prop41ColorIndex
 90
       18
102
RTVSPost2010Prop41ColorRGB
 90
        0
102
RTVSPost2010PropOp41
 70
     1
102
RTVSPost2010Prop42
 90
       50
102
RTVSPost2010PropOp42
 70
     1
102
RTVSPost2010Prop43
 90
        3
102
RTVSPost2010PropOp43
 70
     1
102
RTVSPost2010Prop44ColorIndex
 90
        5
102
RTVSPost2010Prop44ColorRGB
 90
      255
102
RTVSPost2010PropOp44
 70
     1
102
RTVSPost2010Prop45
280
     0
102
RTVSPost2010PropOp45
 70
     1
102
RTVSPost2010Prop46
 90
       50
102
RTVSPost2010PropOp46
 70
     1
102
RTVSPost2010Prop47
 90
       50
102
RTVSPost2010PropOp47
 70
     1
102
RTVSPost2010Prop48
 90
       50
102
RTVSPost2010PropOp48
 70
     1
102
RTVSPost2010Prop49
280
     0
102
RTVSPost2010PropOp49
 70
     1
102
RTVSPost2010Prop50
 90
       50
102
RTVSPost2010PropOp50
 70
     1
102
RTVSPost2010Prop51ColorIndex
 90
      256
102
RTVSPost2010Prop51ColorRGB
 90
-16777216
102
RTVSPost2010PropOp51
 70
     0
102
RTVSPost2010Prop52
140
1.0
102
RTVSPost2010PropOp52
 70
     0
102
RTVSPost2010Prop53
 90
        2
102
RTVSPost2010PropOp53
 70
     1
102
RTVSPost2010Prop54
  1
strokes_ogs.tif
102
RTVSPost2010PropOp54
 70
     1
102
RTVSPost2010Prop55
280
     0
102
RTVSPost2010PropOp55
 70
     1
102
RTVSPost2010Prop56
140
1.0
102
RTVSPost2010PropOp56
 70
     1
102
RTVSPost2010Prop57
140
1.0
102
RTVSPost2010PropOp57
 70
     1
102
RTVSPropertyOp0
 70
     1
102
RTVSPropertyOp1
 70
     1
102
RTVSPropertyOp2
 70
     1
102
RTVSPropertyOp3
 70
     1
102
RTVSPropertyOp4
 70
     1
102
RTVSPropertyOp5
 70
     1
102
RTVSPropertyOp6
 70
     1
102
RTVSPropertyOp7
 70
     1
102
RTVSPropertyOp8
 70
     1
102
RTVSPropertyOp9
 70
     1
102
RTVSPropertyOp10
 70
     1
102
RTVSPropertyOp11
 70
     1
102
RTVSPropertyOp12
 70
     1
102
RTVSPropertyOp13
 70
     1
102
RTVSPropertyOp14
 70
     1
102
RTVSPropertyOp15
 70
     1
102
RTVSPropertyOp16
 70
     1
102
RTVSPropertyOp17
 70
     1
102
RTVSPropertyOp18
 70
     1
102
RTVSPropertyOp19
 70
     1
102
RTVSPropertyOp20
 70
     1
102
RTVSPropertyOp21
 70
     1
102
RTVSPropertyOp22
 70
     1
102
RTVSPropertyOp23
 70
     1
102
RTVSPropertyOp24
 70
     1
102
RTVSPropertyOp25
 70
     1
102
RTVSPropertyOp26
 70
     1
102
RTVSPropertyOp27
 70
     1
102
RTVSPropertyOp28
 70
     1
102
RTVSPropertyOp29
 70
     1
102
RTVSPropertyOp30
 70
     1
102
RTVSPropertyOp31
 70
     1
102
RTVSPropertyOp32
 70
     1
102
RTVSPropertyOp33
 70
     1
102
RTVSPropertyOp34
 70
     1
102
RTVSPropertyOp35
 70
     1
102
RTVSPropertyOp36
 70
     1
102
RTVSPropertyOp37
 70
     1
102
RTVSPropertyOp38
 70
     1
102
RTVSPropertyOp39
 70
     1
102
RTVSPropertyOp40
 70
     1
102
RTVSPropertyOp41
 70
     1
102
RTVSPropertyOp42
 70
     1
102
RTVSPropertyOp43
 70
     1
102
RTVSPropertyOp44
 70
     1
102
RTVSPropertyOp45
 70
     1
102
RTVSPropertyOp46
 70
     1
102
RTVSPropertyOp47
 70
     1
102
RTVSPropertyOp48
 70
     1
102
RTVSPropertyOp49
 70
     1
102
RTVSPropertyOp50
 70
     1
102
RTVSPropertyOp51
 70
     0
102
RTVSPropertyOp52
 70
     0
102
RTVSPropertyOp53
 70
     1
102
RTVSPropertyOp54
 70
     1
102
RTVSPropertyOp55
 70
     1
102
RTVSPropertyOp56
 70
     1
102
RTVSPropertyOp57
 70
     1
102
RTVSPropertyOp58
 70
     1
102
RTVSPropertyOp59
 70
     1
102
RTVSPropertyOp60
 70
     1
102
RTVSPropertyOp61
 70
     1
102
RTVSPropertyOp62
 70
     1
  0
XRECORD
  5
45F8
102
{ACAD_REACTORS
330
45F7
102
}
330
45F7
100
AcDbXrecord
280
     1
102
RTVSPost2010Prop28
280
     0
102
RTVSPost2010PropOp28
 70
     1
102
RTVSPost2010Prop29
280
     1
102
RTVSPost2010PropOp29
 70
     1
102
RTVSPost2010Prop30
280
     1
102
RTVSPost2010PropOp30
 70
     1
102
RTVSPost2010Prop31
280
     0
102
RTVSPost2010PropOp31
 70
     1
102
RTVSPost2010Prop32
280
     0
102
RTVSPost2010PropOp32
 70
     1
102
RTVSPost2010Prop33
280
     0
102
RTVSPost2010PropOp33
 70
     1
102
RTVSPost2010Prop34
280
     0
102
RTVSPost2010PropOp34
 70
     1
102
RTVSPost2010Prop35
280
     0
102
RTVSPost2010PropOp35
 70
     1
102
RTVSPost2010Prop36
280
     0
102
RTVSPost2010PropOp36
 70
     1
102
RTVSPost2010Prop37
 90
       50
102
RTVSPost2010PropOp37
 70
     1
102
RTVSPost2010Prop38
140
0.0
102
RTVSPost2010PropOp38
 70
     1
102
RTVSPost2010Prop39
140
1.0
102
RTVSPost2010PropOp39
 70
     1
102
RTVSPost2010Prop40
 90
        0
102
RTVSPost2010PropOp40
 70
     1
102
RTVSPost2010Prop41ColorIndex
 90
       18
102
RTVSPost2010Prop41ColorRGB
 90
        0
102
RTVSPost2010PropOp41
 70
     1
102
RTVSPost2010Prop42
 90
       50
102
RTVSPost2010PropOp42
 70
     1
102
RTVSPost2010Prop43
 90
        3
102
RTVSPost2010PropOp43
 70
     1
102
RTVSPost2010Prop44ColorIndex
 90
        5
102
RTVSPost2010Prop44ColorRGB
 90
      255
102
RTVSPost2010PropOp44
 70
     1
102
RTVSPost2010Prop45
280
     0
102
RTVSPost2010PropOp45
 70
     1
102
RTVSPost2010Prop46
 90
       50
102
RTVSPost2010PropOp46
 70
     1
102
RTVSPost2010Prop47
 90
       50
102
RTVSPost2010PropOp47
 70
     1
102
RTVSPost2010Prop48
 90
       50
102
RTVSPost2010PropOp48
 70
     1
102
RTVSPost2010Prop49
280
     0
102
RTVSPost2010PropOp49
 70
     1
102
RTVSPost2010Prop50
 90
       50
102
RTVSPost2010PropOp50
 70
     1
102
RTVSPost2010Prop51ColorIndex
 90
      256
102
RTVSPost2010Prop51ColorRGB
 90
-16777216
102
RTVSPost2010PropOp51
 70
     0
102
RTVSPost2010Prop52
140
1.0
102
RTVSPost2010PropOp52
 70
     0
102
RTVSPost2010Prop53
 90
        2
102
RTVSPost2010PropOp53
 70
     1
102
RTVSPost2010Prop54
  1
strokes_ogs.tif
102
RTVSPost2010PropOp54
 70
     1
102
RTVSPost2010Prop55
280
     0
102
RTVSPost2010PropOp55
 70
     1
102
RTVSPost2010Prop56
140
1.0
102
RTVSPost2010PropOp56
 70
     1
102
RTVSPost2010Prop57
140
1.0
102
RTVSPost2010PropOp57
 70
     1
102
RTVSPropertyOp0
 70
     1
102
RTVSPropertyOp1
 70
     1
102
RTVSPropertyOp2
 70
     1
102
RTVSPropertyOp3
 70
     1
102
RTVSPropertyOp4
 70
     1
102
RTVSPropertyOp5
 70
     1
102
RTVSPropertyOp6
 70
     1
102
RTVSPropertyOp7
 70
     1
102
RTVSPropertyOp8
 70
     1
102
RTVSPropertyOp9
 70
     1
102
RTVSPropertyOp10
 70
     1
102
RTVSPropertyOp11
 70
     1
102
RTVSPropertyOp12
 70
     1
102
RTVSPropertyOp13
 70
     1
102
RTVSPropertyOp14
 70
     1
102
RTVSPropertyOp15
 70
     1
102
RTVSPropertyOp16
 70
     1
102
RTVSPropertyOp17
 70
     1
102
RTVSPropertyOp18
 70
     1
102
RTVSPropertyOp19
 70
     1
102
RTVSPropertyOp20
 70
     1
102
RTVSPropertyOp21
 70
     1
102
RTVSPropertyOp22
 70
     1
102
RTVSPropertyOp23
 70
     1
102
RTVSPropertyOp24
 70
     1
102
RTVSPropertyOp25
 70
     1
102
RTVSPropertyOp26
 70
     1
102
RTVSPropertyOp27
 70
     1
102
RTVSPropertyOp28
 70
     1
102
RTVSPropertyOp29
 70
     1
102
RTVSPropertyOp30
 70
     1
102
RTVSPropertyOp31
 70
     1
102
RTVSPropertyOp32
 70
     1
102
RTVSPropertyOp33
 70
     1
102
RTVSPropertyOp34
 70
     1
102
RTVSPropertyOp35
 70
     1
102
RTVSPropertyOp36
 70
     1
102
RTVSPropertyOp37
 70
     1
102
RTVSPropertyOp38
 70
     1
102
RTVSPropertyOp39
 70
     1
102
RTVSPropertyOp40
 70
     1
102
RTVSPropertyOp41
 70
     1
102
RTVSPropertyOp42
 70
     1
102
RTVSPropertyOp43
 70
     1
102
RTVSPropertyOp44
 70
     1
102
RTVSPropertyOp45
 70
     1
102
RTVSPropertyOp46
 70
     1
102
RTVSPropertyOp47
 70
     1
102
RTVSPropertyOp48
 70
     1
102
RTVSPropertyOp49
 70
     1
102
RTVSPropertyOp50
 70
     1
102
RTVSPropertyOp51
 70
     0
102
RTVSPropertyOp52
 70
     0
102
RTVSPropertyOp53
 70
     1
102
RTVSPropertyOp54
 70
     1
102
RTVSPropertyOp55
 70
     1
102
RTVSPropertyOp56
 70
     1
102
RTVSPropertyOp57
 70
     1
102
RTVSPropertyOp58
 70
     1
102
RTVSPropertyOp59
 70
     1
102
RTVSPropertyOp60
 70
     1
102
RTVSPropertyOp61
 70
     1
102
RTVSPropertyOp62
 70
     1
  0
XRECORD
  5
45E3
102
{ACAD_REACTORS
330
45E2
102
}
330
45E2
100
AcDbXrecord
280
     1
102
RTVSPost2010Prop28
280
     0
102
RTVSPost2010PropOp28
 70
     1
102
RTVSPost2010Prop29
280
     1
102
RTVSPost2010PropOp29
 70
     1
102
RTVSPost2010Prop30
280
     1
102
RTVSPost2010PropOp30
 70
     1
102
RTVSPost2010Prop31
280
     0
102
RTVSPost2010PropOp31
 70
     1
102
RTVSPost2010Prop32
280
     0
102
RTVSPost2010PropOp32
 70
     1
102
RTVSPost2010Prop33
280
     0
102
RTVSPost2010PropOp33
 70
     1
102
RTVSPost2010Prop34
280
     0
102
RTVSPost2010PropOp34
 70
     1
102
RTVSPost2010Prop35
280
     0
102
RTVSPost2010PropOp35
 70
     1
102
RTVSPost2010Prop36
280
     0
102
RTVSPost2010PropOp36
 70
     1
102
RTVSPost2010Prop37
 90
       50
102
RTVSPost2010PropOp37
 70
     1
102
RTVSPost2010Prop38
140
0.0
102
RTVSPost2010PropOp38
 70
     1
102
RTVSPost2010Prop39
140
1.0
102
RTVSPost2010PropOp39
 70
     1
102
RTVSPost2010Prop40
 90
        0
102
RTVSPost2010PropOp40
 70
     1
102
RTVSPost2010Prop41ColorIndex
 90
       18
102
RTVSPost2010Prop41ColorRGB
 90
        0
102
RTVSPost2010PropOp41
 70
     1
102
RTVSPost2010Prop42
 90
       50
102
RTVSPost2010PropOp42
 70
     1
102
RTVSPost2010Prop43
 90
        3
102
RTVSPost2010PropOp43
 70
     1
102
RTVSPost2010Prop44ColorIndex
 90
        5
102
RTVSPost2010Prop44ColorRGB
 90
      255
102
RTVSPost2010PropOp44
 70
     1
102
RTVSPost2010Prop45
280
     0
102
RTVSPost2010PropOp45
 70
     1
102
RTVSPost2010Prop46
 90
       50
102
RTVSPost2010PropOp46
 70
     1
102
RTVSPost2010Prop47
 90
       50
102
RTVSPost2010PropOp47
 70
     1
102
RTVSPost2010Prop48
 90
       50
102
RTVSPost2010PropOp48
 70
     1
102
RTVSPost2010Prop49
280
     0
102
RTVSPost2010PropOp49
 70
     1
102
RTVSPost2010Prop50
 90
       50
102
RTVSPost2010PropOp50
 70
     1
102
RTVSPost2010Prop51ColorIndex
 90
      256
102
RTVSPost2010Prop51ColorRGB
 90
-16777216
102
RTVSPost2010PropOp51
 70
     0
102
RTVSPost2010Prop52
140
1.0
102
RTVSPost2010PropOp52
 70
     0
102
RTVSPost2010Prop53
 90
        2
102
RTVSPost2010PropOp53
 70
     1
102
RTVSPost2010Prop54
  1
strokes_ogs.tif
102
RTVSPost2010PropOp54
 70
     1
102
RTVSPost2010Prop55
280
     0
102
RTVSPost2010PropOp55
 70
     1
102
RTVSPost2010Prop56
140
1.0
102
RTVSPost2010PropOp56
 70
     1
102
RTVSPost2010Prop57
140
1.0
102
RTVSPost2010PropOp57
 70
     1
102
RTVSPropertyOp0
 70
     1
102
RTVSPropertyOp1
 70
     1
102
RTVSPropertyOp2
 70
     1
102
RTVSPropertyOp3
 70
     1
102
RTVSPropertyOp4
 70
     1
102
RTVSPropertyOp5
 70
     1
102
RTVSPropertyOp6
 70
     1
102
RTVSPropertyOp7
 70
     1
102
RTVSPropertyOp8
 70
     1
102
RTVSPropertyOp9
 70
     1
102
RTVSPropertyOp10
 70
     1
102
RTVSPropertyOp11
 70
     1
102
RTVSPropertyOp12
 70
     1
102
RTVSPropertyOp13
 70
     1
102
RTVSPropertyOp14
 70
     1
102
RTVSPropertyOp15
 70
     1
102
RTVSPropertyOp16
 70
     1
102
RTVSPropertyOp17
 70
     1
102
RTVSPropertyOp18
 70
     1
102
RTVSPropertyOp19
 70
     1
102
RTVSPropertyOp20
 70
     1
102
RTVSPropertyOp21
 70
     1
102
RTVSPropertyOp22
 70
     1
102
RTVSPropertyOp23
 70
     1
102
RTVSPropertyOp24
 70
     1
102
RTVSPropertyOp25
 70
     1
102
RTVSPropertyOp26
 70
     1
102
RTVSPropertyOp27
 70
     1
102
RTVSPropertyOp28
 70
     1
102
RTVSPropertyOp29
 70
     1
102
RTVSPropertyOp30
 70
     1
102
RTVSPropertyOp31
 70
     1
102
RTVSPropertyOp32
 70
     1
102
RTVSPropertyOp33
 70
     1
102
RTVSPropertyOp34
 70
     1
102
RTVSPropertyOp35
 70
     1
102
RTVSPropertyOp36
 70
     1
102
RTVSPropertyOp37
 70
     1
102
RTVSPropertyOp38
 70
     1
102
RTVSPropertyOp39
 70
     1
102
RTVSPropertyOp40
 70
     1
102
RTVSPropertyOp41
 70
     1
102
RTVSPropertyOp42
 70
     1
102
RTVSPropertyOp43
 70
     1
102
RTVSPropertyOp44
 70
     1
102
RTVSPropertyOp45
 70
     1
102
RTVSPropertyOp46
 70
     1
102
RTVSPropertyOp47
 70
     1
102
RTVSPropertyOp48
 70
     1
102
RTVSPropertyOp49
 70
     1
102
RTVSPropertyOp50
 70
     1
102
RTVSPropertyOp51
 70
     0
102
RTVSPropertyOp52
 70
     0
102
RTVSPropertyOp53
 70
     1
102
RTVSPropertyOp54
 70
     1
102
RTVSPropertyOp55
 70
     1
102
RTVSPropertyOp56
 70
     1
102
RTVSPropertyOp57
 70
     1
102
RTVSPropertyOp58
 70
     1
102
RTVSPropertyOp59
 70
     1
102
RTVSPropertyOp60
 70
     1
102
RTVSPropertyOp61
 70
     1
102
RTVSPropertyOp62
 70
     1
  0
XRECORD
  5
45F2
102
{ACAD_REACTORS
330
45F1
102
}
330
45F1
100
AcDbXrecord
280
     1
102
RTVSPost2010Prop28
280
     0
102
RTVSPost2010PropOp28
 70
     1
102
RTVSPost2010Prop29
280
     1
102
RTVSPost2010PropOp29
 70
     1
102
RTVSPost2010Prop30
280
     1
102
RTVSPost2010PropOp30
 70
     1
102
RTVSPost2010Prop31
280
     0
102
RTVSPost2010PropOp31
 70
     1
102
RTVSPost2010Prop32
280
     0
102
RTVSPost2010PropOp32
 70
     1
102
RTVSPost2010Prop33
280
     0
102
RTVSPost2010PropOp33
 70
     1
102
RTVSPost2010Prop34
280
     0
102
RTVSPost2010PropOp34
 70
     1
102
RTVSPost2010Prop35
280
     0
102
RTVSPost2010PropOp35
 70
     1
102
RTVSPost2010Prop36
280
     0
102
RTVSPost2010PropOp36
 70
     1
102
RTVSPost2010Prop37
 90
       50
102
RTVSPost2010PropOp37
 70
     1
102
RTVSPost2010Prop38
140
0.0
102
RTVSPost2010PropOp38
 70
     1
102
RTVSPost2010Prop39
140
1.0
102
RTVSPost2010PropOp39
 70
     1
102
RTVSPost2010Prop40
 90
        0
102
RTVSPost2010PropOp40
 70
     1
102
RTVSPost2010Prop41ColorIndex
 90
       18
102
RTVSPost2010Prop41ColorRGB
 90
        0
102
RTVSPost2010PropOp41
 70
     1
102
RTVSPost2010Prop42
 90
       50
102
RTVSPost2010PropOp42
 70
     1
102
RTVSPost2010Prop43
 90
        3
102
RTVSPost2010PropOp43
 70
     1
102
RTVSPost2010Prop44ColorIndex
 90
        5
102
RTVSPost2010Prop44ColorRGB
 90
      255
102
RTVSPost2010PropOp44
 70
     1
102
RTVSPost2010Prop45
280
     0
102
RTVSPost2010PropOp45
 70
     1
102
RTVSPost2010Prop46
 90
       50
102
RTVSPost2010PropOp46
 70
     1
102
RTVSPost2010Prop47
 90
       50
102
RTVSPost2010PropOp47
 70
     1
102
RTVSPost2010Prop48
 90
       50
102
RTVSPost2010PropOp48
 70
     1
102
RTVSPost2010Prop49
280
     0
102
RTVSPost2010PropOp49
 70
     1
102
RTVSPost2010Prop50
 90
       50
102
RTVSPost2010PropOp50
 70
     1
102
RTVSPost2010Prop51ColorIndex
 90
      256
102
RTVSPost2010Prop51ColorRGB
 90
-16777216
102
RTVSPost2010PropOp51
 70
     0
102
RTVSPost2010Prop52
140
1.0
102
RTVSPost2010PropOp52
 70
     0
102
RTVSPost2010Prop53
 90
        2
102
RTVSPost2010PropOp53
 70
     1
102
RTVSPost2010Prop54
  1
strokes_ogs.tif
102
RTVSPost2010PropOp54
 70
     1
102
RTVSPost2010Prop55
280
     0
102
RTVSPost2010PropOp55
 70
     1
102
RTVSPost2010Prop56
140
1.0
102
RTVSPost2010PropOp56
 70
     1
102
RTVSPost2010Prop57
140
1.0
102
RTVSPost2010PropOp57
 70
     1
102
RTVSPropertyOp0
 70
     1
102
RTVSPropertyOp1
 70
     1
102
RTVSPropertyOp2
 70
     1
102
RTVSPropertyOp3
 70
     1
102
RTVSPropertyOp4
 70
     1
102
RTVSPropertyOp5
 70
     1
102
RTVSPropertyOp6
 70
     1
102
RTVSPropertyOp7
 70
     1
102
RTVSPropertyOp8
 70
     1
102
RTVSPropertyOp9
 70
     1
102
RTVSPropertyOp10
 70
     1
102
RTVSPropertyOp11
 70
     1
102
RTVSPropertyOp12
 70
     1
102
RTVSPropertyOp13
 70
     1
102
RTVSPropertyOp14
 70
     1
102
RTVSPropertyOp15
 70
     1
102
RTVSPropertyOp16
 70
     1
102
RTVSPropertyOp17
 70
     1
102
RTVSPropertyOp18
 70
     1
102
RTVSPropertyOp19
 70
     1
102
RTVSPropertyOp20
 70
     1
102
RTVSPropertyOp21
 70
     1
102
RTVSPropertyOp22
 70
     1
102
RTVSPropertyOp23
 70
     1
102
RTVSPropertyOp24
 70
     1
102
RTVSPropertyOp25
 70
     1
102
RTVSPropertyOp26
 70
     1
102
RTVSPropertyOp27
 70
     1
102
RTVSPropertyOp28
 70
     1
102
RTVSPropertyOp29
 70
     1
102
RTVSPropertyOp30
 70
     1
102
RTVSPropertyOp31
 70
     1
102
RTVSPropertyOp32
 70
     1
102
RTVSPropertyOp33
 70
     1
102
RTVSPropertyOp34
 70
     1
102
RTVSPropertyOp35
 70
     1
102
RTVSPropertyOp36
 70
     1
102
RTVSPropertyOp37
 70
     1
102
RTVSPropertyOp38
 70
     1
102
RTVSPropertyOp39
 70
     1
102
RTVSPropertyOp40
 70
     1
102
RTVSPropertyOp41
 70
     1
102
RTVSPropertyOp42
 70
     1
102
RTVSPropertyOp43
 70
     1
102
RTVSPropertyOp44
 70
     1
102
RTVSPropertyOp45
 70
     1
102
RTVSPropertyOp46
 70
     1
102
RTVSPropertyOp47
 70
     1
102
RTVSPropertyOp48
 70
     1
102
RTVSPropertyOp49
 70
     1
102
RTVSPropertyOp50
 70
     1
102
RTVSPropertyOp51
 70
     0
102
RTVSPropertyOp52
 70
     0
102
RTVSPropertyOp53
 70
     1
102
RTVSPropertyOp54
 70
     1
102
RTVSPropertyOp55
 70
     1
102
RTVSPropertyOp56
 70
     1
102
RTVSPropertyOp57
 70
     1
102
RTVSPropertyOp58
 70
     1
102
RTVSPropertyOp59
 70
     1
102
RTVSPropertyOp60
 70
     1
102
RTVSPropertyOp61
 70
     1
102
RTVSPropertyOp62
 70
     1
  0
XRECORD
  5
45FA
102
{ACAD_REACTORS
330
45F9
102
}
330
45F9
100
AcDbXrecord
280
     1
102
RTVSPost2010Prop28
280
     0
102
RTVSPost2010PropOp28
 70
     1
102
RTVSPost2010Prop29
280
     1
102
RTVSPost2010PropOp29
 70
     1
102
RTVSPost2010Prop30
280
     1
102
RTVSPost2010PropOp30
 70
     1
102
RTVSPost2010Prop31
280
     0
102
RTVSPost2010PropOp31
 70
     1
102
RTVSPost2010Prop32
280
     0
102
RTVSPost2010PropOp32
 70
     1
102
RTVSPost2010Prop33
280
     0
102
RTVSPost2010PropOp33
 70
     1
102
RTVSPost2010Prop34
280
     0
102
RTVSPost2010PropOp34
 70
     1
102
RTVSPost2010Prop35
280
     0
102
RTVSPost2010PropOp35
 70
     1
102
RTVSPost2010Prop36
280
     0
102
RTVSPost2010PropOp36
 70
     1
102
RTVSPost2010Prop37
 90
       50
102
RTVSPost2010PropOp37
 70
     1
102
RTVSPost2010Prop38
140
0.0
102
RTVSPost2010PropOp38
 70
     1
102
RTVSPost2010Prop39
140
1.0
102
RTVSPost2010PropOp39
 70
     1
102
RTVSPost2010Prop40
 90
        0
102
RTVSPost2010PropOp40
 70
     1
102
RTVSPost2010Prop41ColorIndex
 90
       18
102
RTVSPost2010Prop41ColorRGB
 90
        0
102
RTVSPost2010PropOp41
 70
     1
102
RTVSPost2010Prop42
 90
       50
102
RTVSPost2010PropOp42
 70
     1
102
RTVSPost2010Prop43
 90
        3
102
RTVSPost2010PropOp43
 70
     1
102
RTVSPost2010Prop44ColorIndex
 90
        5
102
RTVSPost2010Prop44ColorRGB
 90
      255
102
RTVSPost2010PropOp44
 70
     1
102
RTVSPost2010Prop45
280
     0
102
RTVSPost2010PropOp45
 70
     1
102
RTVSPost2010Prop46
 90
       50
102
RTVSPost2010PropOp46
 70
     1
102
RTVSPost2010Prop47
 90
       50
102
RTVSPost2010PropOp47
 70
     1
102
RTVSPost2010Prop48
 90
       50
102
RTVSPost2010PropOp48
 70
     1
102
RTVSPost2010Prop49
280
     0
102
RTVSPost2010PropOp49
 70
     1
102
RTVSPost2010Prop50
 90
       50
102
RTVSPost2010PropOp50
 70
     1
102
RTVSPost2010Prop51ColorIndex
 90
      256
102
RTVSPost2010Prop51ColorRGB
 90
-16777216
102
RTVSPost2010PropOp51
 70
     0
102
RTVSPost2010Prop52
140
1.0
102
RTVSPost2010PropOp52
 70
     0
102
RTVSPost2010Prop53
 90
        2
102
RTVSPost2010PropOp53
 70
     1
102
RTVSPost2010Prop54
  1
strokes_ogs.tif
102
RTVSPost2010PropOp54
 70
     1
102
RTVSPost2010Prop55
280
     0
102
RTVSPost2010PropOp55
 70
     1
102
RTVSPost2010Prop56
140
1.0
102
RTVSPost2010PropOp56
 70
     1
102
RTVSPost2010Prop57
140
1.0
102
RTVSPost2010PropOp57
 70
     1
102
RTVSPropertyOp0
 70
     1
102
RTVSPropertyOp1
 70
     1
102
RTVSPropertyOp2
 70
     1
102
RTVSPropertyOp3
 70
     1
102
RTVSPropertyOp4
 70
     1
102
RTVSPropertyOp5
 70
     1
102
RTVSPropertyOp6
 70
     1
102
RTVSPropertyOp7
 70
     1
102
RTVSPropertyOp8
 70
     1
102
RTVSPropertyOp9
 70
     1
102
RTVSPropertyOp10
 70
     1
102
RTVSPropertyOp11
 70
     1
102
RTVSPropertyOp12
 70
     1
102
RTVSPropertyOp13
 70
     1
102
RTVSPropertyOp14
 70
     1
102
RTVSPropertyOp15
 70
     1
102
RTVSPropertyOp16
 70
     1
102
RTVSPropertyOp17
 70
     1
102
RTVSPropertyOp18
 70
     1
102
RTVSPropertyOp19
 70
     1
102
RTVSPropertyOp20
 70
     1
102
RTVSPropertyOp21
 70
     1
102
RTVSPropertyOp22
 70
     1
102
RTVSPropertyOp23
 70
     1
102
RTVSPropertyOp24
 70
     1
102
RTVSPropertyOp25
 70
     1
102
RTVSPropertyOp26
 70
     1
102
RTVSPropertyOp27
 70
     1
102
RTVSPropertyOp28
 70
     1
102
RTVSPropertyOp29
 70
     1
102
RTVSPropertyOp30
 70
     1
102
RTVSPropertyOp31
 70
     1
102
RTVSPropertyOp32
 70
     1
102
RTVSPropertyOp33
 70
     1
102
RTVSPropertyOp34
 70
     1
102
RTVSPropertyOp35
 70
     1
102
RTVSPropertyOp36
 70
     1
102
RTVSPropertyOp37
 70
     1
102
RTVSPropertyOp38
 70
     1
102
RTVSPropertyOp39
 70
     1
102
RTVSPropertyOp40
 70
     1
102
RTVSPropertyOp41
 70
     1
102
RTVSPropertyOp42
 70
     1
102
RTVSPropertyOp43
 70
     1
102
RTVSPropertyOp44
 70
     1
102
RTVSPropertyOp45
 70
     1
102
RTVSPropertyOp46
 70
     1
102
RTVSPropertyOp47
 70
     1
102
RTVSPropertyOp48
 70
     1
102
RTVSPropertyOp49
 70
     1
102
RTVSPropertyOp50
 70
     1
102
RTVSPropertyOp51
 70
     0
102
RTVSPropertyOp52
 70
     0
102
RTVSPropertyOp53
 70
     1
102
RTVSPropertyOp54
 70
     1
102
RTVSPropertyOp55
 70
     1
102
RTVSPropertyOp56
 70
     1
102
RTVSPropertyOp57
 70
     1
102
RTVSPropertyOp58
 70
     1
102
RTVSPropertyOp59
 70
     1
102
RTVSPropertyOp60
 70
     1
102
RTVSPropertyOp61
 70
     1
102
RTVSPropertyOp62
 70
     1
  0
ENDSEC
  0
EOF
