  0
SECTION
  2
HEADER
  9
$ACADVER
  1
AC1015
  9
$ACADMAINTVER
 70
    20
  9
$DWGCODEPAGE
  3
ANSI_932
  9
$INSBASE
 10
0.0
 20
0.0
 30
0.0
  9
$EXTMIN
 10
-0.0865773456880561
 20
-0.0600554123266193
 30
-0.0000000349181948
  9
$EXTMAX
 10
552.0429284769516
 20
382.0293230907232
 30
0.0000000814935746
  9
$LIMMIN
 10
0.0
 20
0.0
  9
$LIMMAX
 10
2840.0
 20
1970.0
  9
$ORTHOMODE
 70
     0
  9
$REGENMODE
 70
     1
  9
$FILLMODE
 70
     1
  9
$QTEXTMODE
 70
     0
  9
$MIRRTEXT
 70
     1
  9
$LTSCALE
 40
1.0
  9
$ATTMODE
 70
     1
  9
$TEXTSIZE
 40
2.5
  9
$TRACEWID
 40
1.0
  9
$TEXTSTYLE
  7
Standard
  9
$CLAYER
  8
0
  9
$CELTYPE
  6
ByLayer
  9
$CECOLOR
 62
   256
  9
$CELTSCALE
 40
1.0
  9
$DISPSILH
 70
     0
  9
$DIMSCALE
 40
2.0
  9
$DIMASZ
 40
0.8
  9
$DIMEXO
 40
1.0
  9
$DIMDLI
 40
0.0
  9
$DIMRND
 40
0.0
  9
$DIMDLE
 40
0.0
  9
$DIMEXE
 40
0.0
  9
$DIMTP
 40
0.0
  9
$DIMTM
 40
0.0
  9
$DIMTXT
 40
2.0
  9
$DIMCEN
 40
2.5
  9
$DIMTSZ
 40
0.0
  9
$DIMTOL
 70
     0
  9
$DIMLIM
 70
     0
  9
$DIMTIH
 70
     0
  9
$DIMTOH
 70
     0
  9
$DIMSE1
 70
     0
  9
$DIMSE2
 70
     0
  9
$DIMTAD
 70
     2
  9
$DIMZIN
 70
     8
  9
$DIMBLK
  1

  9
$DIMASO
 70
     1
  9
$DIMSHO
 70
     1
  9
$DIMPOST
  1

  9
$DIMAPOST
  1

  9
$DIMALT
 70
     0
  9
$DIMALTD
 70
     4
  9
$DIMALTF
 40
0.0394
  9
$DIMLFAC
 40
1.0
  9
$DIMTOFL
 70
     1
  9
$DIMTVP
 40
0.0
  9
$DIMTIX
 70
     0
  9
$DIMSOXD
 70
     0
  9
$DIMSAH
 70
     1
  9
$DIMBLK1
  1
DOT
  9
$DIMBLK2
  1
DOT
  9
$DIMSTYLE
  2
STANDARD
  9
$DIMCLRD
 70
     0
  9
$DIMCLRE
 70
     0
  9
$DIMCLRT
 70
     0
  9
$DIMTFAC
 40
1.0
  9
$DIMGAP
 40
0.1
  9
$DIMJUST
 70
     0
  9
$DIMSD1
 70
     0
  9
$DIMSD2
 70
     0
  9
$DIMTOLJ
 70
     1
  9
$DIMTZIN
 70
     0
  9
$DIMALTZ
 70
     0
  9
$DIMALTTZ
 70
     0
  9
$DIMUPT
 70
     0
  9
$DIMDEC
 70
     4
  9
$DIMTDEC
 70
     4
  9
$DIMALTU
 70
     8
  9
$DIMALTTD
 70
     4
  9
$DIMTXSTY
  7
Standard
  9
$DIMAUNIT
 70
     0
  9
$DIMADEC
 70
     0
  9
$DIMALTRND
 40
0.0
  9
$DIMAZIN
 70
     0
  9
$DIMDSEP
 70
    46
  9
$DIMATFIT
 70
     3
  9
$DIMFRAC
 70
     0
  9
$DIMLDRBLK
  1
DOT
  9
$DIMLUNIT
 70
     2
  9
$DIMLWD
 70
    -2
  9
$DIMLWE
 70
    -2
  9
$DIMTMOVE
 70
     1
  9
$LUNITS
 70
     2
  9
$LUPREC
 70
     8
  9
$SKETCHINC
 40
1.0
  9
$FILLETRAD
 40
0.0
  9
$AUNITS
 70
     0
  9
$AUPREC
 70
     8
  9
$MENU
  1
.
  9
$ELEVATION
 40
0.0
  9
$PELEVATION
 40
0.0
  9
$THICKNESS
 40
0.0
  9
$LIMCHECK
 70
     0
  9
$CHAMFERA
 40
10.0
  9
$CHAMFERB
 40
10.0
  9
$CHAMFERC
 40
20.0
  9
$CHAMFERD
 40
0.0
  9
$SKPOLY
 70
     0
  9
$TDCREATE
 40
2453276.413761574
  9
$TDUCREATE
 40
2453276.038766620
  9
$TDUPDATE
 40
2459989.482581018
  9
$TDUUPDATE
 40
2459989.107581018
  9
$TDINDWG
 40
0.2561075347
  9
$TDUSRTIMER
 40
0.2561075347
  9
$USRTIMER
 70
     1
  9
$ANGBASE
 50
0.0
  9
$ANGDIR
 70
     0
  9
$PDMODE
 70
     0
  9
$PDSIZE
 40
0.0
  9
$PLINEWID
 40
0.0
  9
$SPLFRAME
 70
     0
  9
$SPLINETYPE
 70
     6
  9
$SPLINESEGS
 70
     8
  9
$HANDSEED
  5
472A
  9
$SURFTAB1
 70
     6
  9
$SURFTAB2
 70
     6
  9
$SURFTYPE
 70
     6
  9
$SURFU
 70
     6
  9
$SURFV
 70
     6
  9
$UCSBASE
  2

  9
$UCSNAME
  2

  9
$UCSORG
 10
0.0
 20
0.0
 30
0.0
  9
$UCSXDIR
 10
1.0
 20
0.0
 30
0.0
  9
$UCSYDIR
 10
0.0
 20
1.0
 30
0.0
  9
$UCSORTHOREF
  2

  9
$UCSORTHOVIEW
 70
     0
  9
$UCSORGTOP
 10
0.0
 20
0.0
 30
0.0
  9
$UCSORGBOTTOM
 10
0.0
 20
0.0
 30
0.0
  9
$UCSORGLEFT
 10
0.0
 20
0.0
 30
0.0
  9
$UCSORGRIGHT
 10
0.0
 20
0.0
 30
0.0
  9
$UCSORGFRONT
 10
0.0
 20
0.0
 30
0.0
  9
$UCSORGBACK
 10
0.0
 20
0.0
 30
0.0
  9
$PUCSBASE
  2

  9
$PUCSNAME
  2

  9
$PUCSORG
 10
0.0
 20
0.0
 30
0.0
  9
$PUCSXDIR
 10
1.0
 20
0.0
 30
0.0
  9
$PUCSYDIR
 10
0.0
 20
1.0
 30
0.0
  9
$PUCSORTHOREF
  2

  9
$PUCSORTHOVIEW
 70
     0
  9
$PUCSORGTOP
 10
0.0
 20
0.0
 30
0.0
  9
$PUCSORGBOTTOM
 10
0.0
 20
0.0
 30
0.0
  9
$PUCSORGLEFT
 10
0.0
 20
0.0
 30
0.0
  9
$PUCSORGRIGHT
 10
0.0
 20
0.0
 30
0.0
  9
$PUCSORGFRONT
 10
0.0
 20
0.0
 30
0.0
  9
$PUCSORGBACK
 10
0.0
 20
0.0
 30
0.0
  9
$USERI1
 70
     0
  9
$USERI2
 70
     0
  9
$USERI3
 70
     0
  9
$USERI4
 70
     0
  9
$USERI5
 70
     0
  9
$USERR1
 40
0.0
  9
$USERR2
 40
0.0
  9
$USERR3
 40
0.0
  9
$USERR4
 40
0.0
  9
$USERR5
 40
0.0
  9
$WORLDVIEW
 70
     1
  9
$SHADEDGE
 70
     2
  9
$SHADEDIF
 70
    70
  9
$TILEMODE
 70
     1
  9
$MAXACTVP
 70
    64
  9
$PINSBASE
 10
0.0
 20
0.0
 30
0.0
  9
$PLIMCHECK
 70
     0
  9
$PEXTMIN
 10
0.0
 20
0.0
 30
0.0
  9
$PEXTMAX
 10
0.0
 20
0.0
 30
0.0
  9
$PLIMMIN
 10
0.0
 20
0.0
  9
$PLIMMAX
 10
12.0
 20
9.0
  9
$UNITMODE
 70
     0
  9
$VISRETAIN
 70
     1
  9
$PLINEGEN
 70
     0
  9
$PSLTSCALE
 70
     1
  9
$TREEDEPTH
 70
  3020
  9
$CMLSTYLE
  2
Standard
  9
$CMLJUST
 70
     0
  9
$CMLSCALE
 40
20.0
  9
$PROXYGRAPHICS
 70
     1
  9
$MEASUREMENT
 70
     1
  9
$CELWEIGHT
370
    -1
  9
$ENDCAPS
280
     0
  9
$JOINSTYLE
280
     0
  9
$LWDISPLAY
290
     0
  9
$INSUNITS
 70
     4
  9
$HYPERLINKBASE
  1

  9
$STYLESHEET
  1
monochrome.stb
  9
$XEDIT
290
     1
  9
$CEPSNTYPE
380
     0
  9
$PSTYLEMODE
290
     1
  9
$FINGERPRINTGUID
  2
{B4E61C12-08AD-407D-A83C-7C7812CA1D8B}
  9
$VERSIONGUID
  2
{EBDCE1A0-5533-DE4D-860B-D7EE161C3BBC}
  9
$EXTNAMES
290
     1
  9
$PSVPSCALE
 40
0.0
  9
$OLESTARTUP
290
     0
  0
ENDSEC
  0
SECTION
  2
CLASSES
  0
CLASS
  1
ACDBDICTIONARYWDFLT
  2
AcDbDictionaryWithDefault
  3
ObjectDBX Classes
 90
        0
280
     0
281
     0
  0
CLASS
  1
ACDBPLACEHOLDER
  2
AcDbPlaceHolder
  3
ObjectDBX Classes
 90
        0
280
     0
281
     0
  0
CLASS
  1
LAYOUT
  2
AcDbLayout
  3
ObjectDBX Classes
 90
        0
280
     0
281
     0
  0
CLASS
  1
DICTIONARYVAR
  2
AcDbDictionaryVar
  3
ObjectDBX Classes
 90
        0
280
     0
281
     0
  0
CLASS
  1
SORTENTSTABLE
  2
AcDbSortentsTable
  3
ObjectDBX Classes
 90
        0
280
     0
281
     0
  0
CLASS
  1
MATERIAL
  2
AcDbMaterial
  3
ObjectDBX Classes
 90
     1153
280
     0
281
     0
  0
CLASS
  1
VISUALSTYLE
  2
AcDbVisualStyle
  3
ObjectDBX Classes
 90
     4095
280
     0
281
     0
  0
CLASS
  1
TABLESTYLE
  2
AcDbTableStyle
  3
ObjectDBX Classes
 90
     4095
280
     0
281
     0
  0
CLASS
  1
SCALE
  2
AcDbScale
  3
ObjectDBX Classes
 90
     1153
280
     0
281
     0
  0
CLASS
  1
MLEADERSTYLE
  2
AcDbMLeaderStyle
  3
ACDB_MLEADERSTYLE_CLASS
 90
     4095
280
     0
281
     0
  0
CLASS
  1
AEC_REFEDIT_STATUS_TRACKER
  2
AecDbRefEditStatusTracker
  3
AecArchBase80|Product Desc: Autodesk Architectural Desktop 2007 |Company: Autodesk,Inc. |WEB Address: www.autodesk.com
 90
    32897
280
     0
281
     0
  0
CLASS
  1
NPOCOLLECTION
  2
AcDbImpNonPersistentObjectsCollection
  3
ObjectDBX Classes
 90
    33921
280
     0
281
     0
  0
CLASS
  1
CELLSTYLEMAP
  2
AcDbCellStyleMap
  3
ObjectDBX Classes
 90
     1152
280
     0
281
     0
  0
CLASS
  1
ACDBSECTIONVIEWSTYLE
  2
AcDbSectionViewStyle
  3
ObjectDBX Classes
 90
     1025
280
     0
281
     0
  0
CLASS
  1
ACDBDETAILVIEWSTYLE
  2
AcDbDetailViewStyle
  3
ObjectDBX Classes
 90
     1025
280
     0
281
     0
  0
ENDSEC
  0
SECTION
  2
TABLES
  0
TABLE
  2
VPORT
  5
8
102
{ACAD_XDICTIONARY
360
3E7E
102
}
330
0
100
AcDbSymbolTable
 70
     1
  0
VPORT
  5
3DCE
330
8
100
AcDbSymbolTableRecord
100
AcDbViewportTableRecord
  2
*Active
 70
     0
 10
0.0
 20
0.0
 11
1.0
 21
1.0
 12
275.9781755656318
 22
190.9846338391983
 13
0.0
 23
0.0
 14
10.0
 24
10.0
 15
10.0
 25
10.0
 16
0.0
 26
0.0
 36
1.0
 17
0.0
 27
0.0
 37
0.0
 40
384.9196701956651
 41
2.122373300370828
 42
50.0
 43
0.0
 44
0.0
 50
0.0
 51
0.0
 71
     0
 72
   100
 73
     1
 74
     3
 75
     0
 76
     0
 77
     0
 78
     0
281
     0
 65
     1
110
0.0
120
0.0
130
0.0
111
1.0
121
0.0
131
0.0
112
0.0
122
1.0
132
0.0
 79
     0
146
0.0
1001
ACAD_NAV_VCDISPLAY
1070
     3
  0
ENDTAB
  0
TABLE
  2
LTYPE
  5
5
330
0
100
AcDbSymbolTable
 70
     4
  0
LTYPE
  5
14
330
5
100
AcDbSymbolTableRecord
100
AcDbLinetypeTableRecord
  2
ByBlock
 70
     0
  3

 72
    65
 73
     0
 40
0.0
  0
LTYPE
  5
15
330
5
100
AcDbSymbolTableRecord
100
AcDbLinetypeTableRecord
  2
ByLayer
 70
     0
  3

 72
    65
 73
     0
 40
0.0
  0
LTYPE
  5
16
330
5
100
AcDbSymbolTableRecord
100
AcDbLinetypeTableRecord
  2
Continuous
 70
     0
  3
Solid line
 72
    65
 73
     0
 40
0.0
  0
LTYPE
  5
2B0B
330
5
100
AcDbSymbolTableRecord
100
AcDbLinetypeTableRecord
  2
DASHED
 70
     0
  3
__ __ __ __ __ __ __ __ __ __ __ __ __ __ __ __
 72
    65
 73
     2
 40
0.75
 49
0.5
 74
     0
 49
-0.25
 74
     0
  0
LTYPE
  5
4493
330
5
100
AcDbSymbolTableRecord
100
AcDbLinetypeTableRecord
  2
DASHED1
 70
     0
  3
--  --  --  --  --  --  --  --  
 72
    65
 73
     2
 40
2.5
 49
1.25
 74
     0
 49
-1.25
 74
     0
  0
ENDTAB
  0
TABLE
  2
LAYER
  5
2
102
{ACAD_XDICTIONARY
360
2D
102
}
330
0
100
AcDbSymbolTable
 70
     8
  0
LAYER
  5
10
102
{ACAD_XDICTIONARY
360
3E70
102
}
330
2
100
AcDbSymbolTableRecord
100
AcDbLayerTableRecord
  2
0
 70
     0
 62
     7
  6
Continuous
290
     0
370
    -3
390
29
  0
LAYER
  5
2301
330
2
100
AcDbSymbolTableRecord
100
AcDbLayerTableRecord
  2
Defpoints
 70
     0
 62
     7
  6
Continuous
290
     0
370
    -3
390
F
  0
LAYER
  5
2388
102
{ACAD_XDICTIONARY
360
3E72
102
}
330
2
100
AcDbSymbolTableRecord
100
AcDbLayerTableRecord
  2
moji
 70
     0
 62
     7
  6
Continuous
370
    -3
390
29
  0
LAYER
  5
238A
102
{ACAD_XDICTIONARY
360
3E74
102
}
330
2
100
AcDbSymbolTableRecord
100
AcDbLayerTableRecord
  2
SUNPO
 70
     0
 62
     7
  6
Continuous
370
    -3
390
29
  0
LAYER
  5
2757
102
{ACAD_XDICTIONARY
360
3E76
102
}
330
2
100
AcDbSymbolTableRecord
100
AcDbLayerTableRecord
  2
KANAMONO
 70
     0
 62
     5
  6
Continuous
370
    -3
390
29
  0
LAYER
  5
2758
102
{ACAD_XDICTIONARY
360
3E78
102
}
330
2
100
AcDbSymbolTableRecord
100
AcDbLayerTableRecord
  2
KANAMONO_SCREW
 70
     0
 62
     4
  6
Continuous
370
    -3
390
29
  0
LAYER
  5
3F6D
102
{ACAD_XDICTIONARY
360
3F6E
102
}
330
2
100
AcDbSymbolTableRecord
100
AcDbLayerTableRecord
  2
WAKU
 70
     0
 62
     7
  6
Continuous
370
    -3
390
29
  0
LAYER
  5
4494
102
{ACAD_XDICTIONARY
360
4495
102
}
330
2
100
AcDbSymbolTableRecord
100
AcDbLayerTableRecord
  2
single
 70
     0
 62
     6
  6
Continuous
370
    -3
390
F
  0
ENDTAB
  0
TABLE
  2
STYLE
  5
3
330
0
100
AcDbSymbolTable
 70
     2
  0
STYLE
  5
11
330
3
100
AcDbSymbolTableRecord
100
AcDbTextStyleTableRecord
  2
Standard
 70
     0
 40
0.0
 41
1.0
 50
0.0
 71
     0
 42
2.5
  3

  4

1001
ACAD
1000
MS Gothic
1071
    32817
  0
STYLE
  5
3F6F
330
3
100
AcDbSymbolTableRecord
100
AcDbTextStyleTableRecord
  2
MSゴシック
 70
     0
 40
0.0
 41
1.0
 50
0.0
 71
     0
 42
2.5
  3

  4

1001
ACAD
1000
MS Gothic
1071
    32817
  0
ENDTAB
  0
TABLE
  2
VIEW
  5
6
330
0
100
AcDbSymbolTable
 70
     0
  0
ENDTAB
  0
TABLE
  2
UCS
  5
7
330
0
100
AcDbSymbolTable
 70
     0
  0
ENDTAB
  0
TABLE
  2
APPID
  5
9
330
0
100
AcDbSymbolTable
 70
     6
  0
APPID
  5
12
330
9
100
AcDbSymbolTableRecord
100
AcDbRegAppTableRecord
  2
ACAD
 70
     0
  0
APPID
  5
3EAE
330
9
100
AcDbSymbolTableRecord
100
AcDbRegAppTableRecord
  2
ACAD_MLEADERVER
 70
     0
  0
APPID
  5
3EF0
330
9
100
AcDbSymbolTableRecord
100
AcDbRegAppTableRecord
  2
ACAD_EXEMPT_FROM_CAD_STANDARDS
 70
     0
  0
APPID
  5
3F70
330
9
100
AcDbSymbolTableRecord
100
AcDbRegAppTableRecord
  2
ACAD_PSEXT
 70
     0
  0
APPID
  5
3F71
330
9
100
AcDbSymbolTableRecord
100
AcDbRegAppTableRecord
  2
ACAD_NAV_VCDISPLAY
 70
     0
  0
APPID
  5
4364
330
9
100
AcDbSymbolTableRecord
100
AcDbRegAppTableRecord
  2
AcadAnnoPO
 70
     0
  0
ENDTAB
  0
TABLE
  2
DIMSTYLE
  5
A
330
0
100
AcDbSymbolTable
 70
     2
100
AcDbDimStyleTable
 71
     1
340
22E4
  0
DIMSTYLE
105
22E4
330
A
100
AcDbSymbolTableRecord
100
AcDbDimStyleTableRecord
  2
STANDARD
 70
     0
 40
2.0
 41
0.8
 42
1.0
 43
0.0
 44
0.0
 73
     0
 74
     0
 77
     2
 78
     8
140
2.0
141
2.5
143
0.0394
147
0.1
171
     4
172
     1
173
     1
273
     8
274
     4
279
     1
340
11
341
903
343
903
344
903
  0
ENDTAB
  0
TABLE
  2
BLOCK_RECORD
  5
1
330
0
100
AcDbSymbolTable
 70
    10
  0
BLOCK_RECORD
  5
1F
102
{ACAD_XDICTIONARY
360
1C62
102
}
330
1
100
AcDbSymbolTableRecord
100
AcDbBlockTableRecord
  2
*Model_Space
340
22
  0
BLOCK_RECORD
  5
1CD0
330
1
100
AcDbSymbolTableRecord
100
AcDbBlockTableRecord
  2
*Paper_Space
340
1CD1
  0
BLOCK_RECORD
  5
903
330
1
100
AcDbSymbolTableRecord
100
AcDbBlockTableRecord
  2
_DOT
340
0
102
{BLKREFS
331
428B
331
428C
331
4294
331
4295
331
429D
331
429E
331
42A6
331
42A7
331
42AF
331
42B0
331
42B8
331
42B9
331
4544
331
4545
331
454A
331
454B
331
4550
331
4551
331
4556
331
4557
331
455C
331
455D
331
4562
331
4563
102
}
  0
BLOCK_RECORD
  5
2A86
330
1
100
AcDbSymbolTableRecord
100
AcDbBlockTableRecord
  2
s6r-60
340
0
310
2800000020000000200000000100080000000000000400000000000000000000000000000000000000000000000080000080000000808000800000008000800080800000C0C0C000C0DCC000F0CAA6000020400000206000002080000020A0000020C0000020E00000400000004020000040400000406000004080000040A0
310
000040C0000040E00000600000006020000060400000606000006080000060A0000060C0000060E00000800000008020000080400000806000008080000080A0000080C0000080E00000A0000000A0200000A0400000A0600000A0800000A0A00000A0C00000A0E00000C0000000C0200000C0400000C0600000C0800000C0
310
A00000C0C00000C0E00000E0000000E0200000E0400000E0600000E0800000E0A00000E0C00000E0E00040000000400020004000400040006000400080004000A0004000C0004000E00040200000402020004020400040206000402080004020A0004020C0004020E000404000004040200040404000404060004040800040
310
40A0004040C0004040E00040600000406020004060400040606000406080004060A0004060C0004060E00040800000408020004080400040806000408080004080A0004080C0004080E00040A0000040A0200040A0400040A0600040A0800040A0A00040A0C00040A0E00040C0000040C0200040C0400040C0600040C08000
310
40C0A00040C0C00040C0E00040E0000040E0200040E0400040E0600040E0800040E0A00040E0C00040E0E00080000000800020008000400080006000800080008000A0008000C0008000E00080200000802020008020400080206000802080008020A0008020C0008020E00080400000804020008040400080406000804080
310
008040A0008040C0008040E00080600000806020008060400080606000806080008060A0008060C0008060E00080800000808020008080400080806000808080008080A0008080C0008080E00080A0000080A0200080A0400080A0600080A0800080A0A00080A0C00080A0E00080C0000080C0200080C0400080C0600080C0
310
800080C0A00080C0C00080C0E00080E0000080E0200080E0400080E0600080E0800080E0A00080E0C00080E0E000C0000000C0002000C0004000C0006000C0008000C000A000C000C000C000E000C0200000C0202000C0204000C0206000C0208000C020A000C020C000C020E000C0400000C0402000C0404000C0406000C0
310
408000C040A000C040C000C040E000C0600000C0602000C0604000C0606000C0608000C060A000C060C000C060E000C0800000C0802000C0804000C0806000C0808000C080A000C080C000C080E000C0A00000C0A02000C0A04000C0A06000C0A08000C0A0A000C0A0C000C0A0E000C0C00000C0C02000C0C04000C0C06000
310
C0C08000C0C0A000F0FBFF00A4A0A000808080000000FF0000FF000000FFFF00FF000000FF00FF00FFFF0000FFFFFF00FFFFFFFFFFFFFFFFFFFFFFFFFFFFFFFFFFFFFFFFFFFFFFFFFFFFFFFFFFFFFFFFFFFFFFFFFFFFFFFFFFFFFFFFFFFFFFFFFEFFFFFFFFFFFFFFFFFFFFFFFFFFFFFFFFFFFFFFFFFFFFFFFFFFFFFFFFFFFF
310
FEFEFFFFFFFFFFFFFFFFFFFFFFFFFFFFFFFFFFFFFFFFFFFFFFFFFFFFFFFFFFFEFEFEFEFFFFFFFFFFFFFFFFFFFFFFFFFFFFFFFFFFFFFFFFFFFFFFFFFFFFFFFEFEFEFEFEFEFFFFFFFFFFFFFFFFFFFFFFFFFFFFFFFFFFFFFFFFFFFFFFFFFFFFFEFEFEFEFEFEFFFFFFFFFFFFFFFFFFFFFFFFFFFFFFFFFFFFFFFFFFFFFFFFFFFFFE
310
FEFEFEFEFEFFFFFFFFFFFFFFFFFFFFFFFFFFFFFFFFFFFFFFFFFFFFFFFFFFFFFEFEFEFEFEFEFFFFFFFFFFFFFFFFFFFFFFFFFFFFFFFFFFFFFFFFFFFFFFFFFFFFFEFEFEFEFEFEFFFFFFFFFFFFFFFFFFFFFFFFFFFFFFFFFFFFFFFFFFFFFFFFFFFFFEFEFEFEFEFEFFFFFFFFFFFFFFFFFFFFFFFFFFFFFFFFFFFFFFFFFFFFFFFFFFFF
310
FEFEFEFEFEFEFFFFFFFFFFFFFFFFFFFFFFFFFFFFFFFFFFFFFFFFFFFFFFFFFFFFFEFFFEFEFFFEFFFFFFFFFFFFFFFFFFFFFFFFFFFFFFFFFFFFFFFFFFFFFFFFFFFFFEFFFEFEFFFEFFFFFFFFFFFFFFFFFFFFFFFFFFFFFFFFFFFFFFFFFFFFFFFFFFFFFEFFFEFEFFFEFFFFFFFFFFFFFFFFFFFFFFFFFFFFFFFFFFFFFFFFFFFFFFFFFF
310
FFFFFEFEFEFFFEFFFFFFFFFFFFFFFFFFFFFFFFFFFFFFFFFFFFFFFFFFFFFFFFFFFFFFFEFFFFFEFFFFFFFFFFFFFFFFFFFFFFFFFFFFFFFFFFFFFFFFFFFFFFFFFFFFFFFFFEFEFEFEFFFFFFFFFFFFFFFFFFFFFFFFFFFFFFFFFFFFFFFFFFFFFFFFFFFFFFFFFEFEFEFEFFFFFFFFFFFFFFFFFFFFFFFFFFFFFFFFFFFFFFFFFFFFFFFFFF
310
FFFFFFFEFFFFFEFFFFFFFFFFFFFFFFFFFFFFFFFFFFFFFFFFFFFFFFFFFFFFFFFFFFFFFFFEFFFFFEFFFFFFFFFFFFFFFFFFFFFFFFFFFFFFFFFFFFFFFFFFFFFFFFFFFFFFFFFEFFFFFEFFFFFFFFFFFFFFFFFFFFFFFFFFFFFFFFFFFFFFFFFFFFFFFFFFFFFFFFFEFFFFFEFFFFFFFFFFFFFFFFFFFFFFFFFFFFFFFFFFFFFFFFFFFFFFFF
310
FFFFFFFFFEFFFFFEFFFFFFFFFFFFFFFFFFFFFFFFFFFFFFFFFFFFFFFFFFFFFFFFFFFFFFFFFEFFFFFEFFFFFFFFFFFFFFFFFFFFFFFFFFFFFFFFFFFFFFFFFFFFFFFFFFFFFFFFFEFFFFFEFFFFFFFFFFFFFFFFFFFFFFFFFFFFFFFFFFFFFFFFFFFFFFFFFFFFFFFFFEFFFFFEFFFFFFFFFFFFFFFFFFFFFFFFFFFFFFFFFFFFFFFFFFFFFF
310
FFFFFFFFFFFEFFFFFEFFFFFFFFFFFFFFFFFFFFFFFFFFFFFFFFFFFFFFFFFFFFFFFFFFFFFFFFFEFFFFFEFFFFFFFFFFFFFFFFFFFFFFFFFFFFFFFFFFFFFFFFFFFFFFFFFFFFFFFFFEFEFEFEFFFFFFFFFFFFFFFFFFFFFFFFFFFFFFFFFFFFFFFFFFFFFFFFFFFFFFFFFEFEFEFEFFFFFFFFFFFFFFFFFFFFFFFFFFFFFFFFFFFFFFFFFFFF
310
FFFFFFFFFFFFFEFEFEFEFFFFFFFFFFFFFFFFFFFFFFFFFFFFFFFFFFFFFFFFFFFFFFFFFFFFFFFFFFFFFFFFFFFFFFFFFFFFFFFFFFFFFFFFFFFF
1001
ACAD
1000
DesignCenter Data
1002
{
1070
     1
1070
     4
1002
}
  0
BLOCK_RECORD
  5
41CE
330
1
100
AcDbSymbolTableRecord
100
AcDbBlockTableRecord
  2
*D2
340
0
  0
BLOCK_RECORD
  5
41DA
330
1
100
AcDbSymbolTableRecord
100
AcDbBlockTableRecord
  2
*D3
340
0
  0
BLOCK_RECORD
  5
41E6
330
1
100
AcDbSymbolTableRecord
100
AcDbBlockTableRecord
  2
*D4
340
0
  0
BLOCK_RECORD
  5
41F2
330
1
100
AcDbSymbolTableRecord
100
AcDbBlockTableRecord
  2
*D5
340
0
  0
BLOCK_RECORD
  5
41FE
330
1
100
AcDbSymbolTableRecord
100
AcDbBlockTableRecord
  2
*D6
340
0
  0
BLOCK_RECORD
  5
420A
330
1
100
AcDbSymbolTableRecord
100
AcDbBlockTableRecord
  2
*D7
340
0
  0
BLOCK_RECORD
  5
43AE
330
1
100
AcDbSymbolTableRecord
100
AcDbBlockTableRecord
  2
up60_2020
340
0
310
28000000200000002000000001002000000000000010000001000000010000000000000000000000302821FF302821FF302821FF302821FF302821FF302821FF302821FF302821FF302821FF302821FF302821FF302821FF302821FF302821FF302821FF302821FF302821FF302821FF302821FF302821FF302821FF302821
310
FF302821FF302821FF302821FF302821FF302821FF302821FF302821FF302821FF302821FF302821FF302821FF302821FF302821FF302821FF302821FF302821FF302821FF302821FF302821FF302821FF302821FF302821FF302821FF302821FF302821FF302821FFFFFF00FF302821FF302821FF302821FF302821FF3028
310
21FF302821FF302821FF302821FF302821FF302821FF302821FF302821FF302821FF302821FF302821FF302821FF302821FF302821FF302821FF302821FF302821FF302821FF302821FF302821FF302821FF302821FF302821FF302821FF302821FF302821FFFFFF00FFFFFF00FF302821FF302821FF302821FF302821FF30
310
2821FF302821FF302821FF302821FF302821FF302821FF302821FF302821FF302821FF302821FF302821FF302821FF302821FF302821FF302821FF302821FF302821FF302821FF302821FF302821FF302821FF302821FF302821FF302821FF302821FF302821FFFFFF00FFFFFF00FF302821FF302821FF302821FF302821FF
310
302821FF302821FF302821FF302821FF302821FF302821FF302821FF302821FF302821FF302821FF302821FF302821FF302821FF302821FF302821FF302821FF302821FF302821FF302821FF302821FF302821FF302821FF302821FF302821FF302821FFFFFF00FFFFFF00FFFFFF00FFFFFF00FF302821FF302821FF302821
310
FF302821FF302821FF302821FF302821FF302821FF302821FF302821FF302821FF302821FF302821FF302821FF302821FF302821FF302821FF302821FF302821FF302821FF302821FF302821FF302821FF302821FF302821FF302821FF302821FF302821FFFFFF00FFFFFF00FFFFFF00FFFFFF00FF302821FF302821FF3028
310
21FF302821FF302821FF302821FF302821FF302821FF302821FF302821FF302821FF302821FF302821FF302821FF302821FF302821FF302821FF302821FF302821FF302821FF302821FF302821FF302821FF302821FF302821FF302821FF302821FF302821FFFFFF00FFFFFF00FFFFFF00FFFFFF00FF302821FF302821FF30
310
2821FF302821FF302821FF302821FF302821FF302821FF302821FF302821FF302821FF302821FF302821FF302821FF302821FF302821FF302821FF302821FF302821FF302821FF302821FF302821FF302821FF302821FF302821FF302821FF302821FF302821FFFFFF00FFFFFF00FFFFFF00FFFFFF00FF302821FF302821FF
310
302821FF302821FF302821FF302821FF302821FF302821FF302821FF302821FF302821FF302821FF302821FF302821FF302821FF302821FF302821FF302821FF302821FF302821FF302821FF302821FF302821FF302821FF302821FF302821FF302821FF302821FFFFFF00FFFFFF00FFFFFF00FFFFFF00FF302821FF302821
310
FF302821FF302821FF302821FF302821FF302821FF302821FF302821FF302821FF302821FF302821FF302821FF302821FF302821FF302821FF302821FF302821FF302821FF302821FF302821FF302821FF302821FF302821FF302821FF302821FF302821FF302821FFFFFF00FFFFFF00FFFFFF00FFFFFF00FF302821FF3028
310
21FF302821FF302821FF302821FF302821FF302821FF302821FF302821FF302821FF302821FF302821FF302821FF302821FF302821FF302821FF302821FF302821FF302821FF302821FF302821FF302821FF302821FF302821FF302821FF302821FF302821FF302821FFFFFF00FFFFFF00FFFFFF00FFFFFF00FF302821FF30
310
2821FF302821FF302821FF302821FF302821FF302821FF302821FF302821FF302821FF302821FF302821FF302821FF302821FF302821FF302821FF302821FF302821FF302821FF302821FF302821FF302821FF302821FF302821FF302821FF302821FF302821FF302821FFFFFF00FFFFFF00FFFFFF00FFFFFF00FF302821FF
310
302821FF302821FF302821FF302821FF302821FF302821FF302821FF302821FF302821FF302821FF302821FF302821FF302821FF302821FF302821FF302821FF302821FF302821FF302821FF302821FF302821FF302821FF302821FF302821FF302821FF302821FF302821FFFFFF00FFFFFF00FFFFFF00FFFFFF00FF302821
310
FF302821FF302821FF302821FF302821FF302821FF302821FF302821FF302821FF302821FF302821FF302821FF302821FF302821FF302821FF302821FF302821FF302821FF302821FF302821FF302821FF302821FF302821FF302821FF302821FF302821FF302821FF302821FFFFFF00FFFFFF00FFFFFF00FFFFFF00FF3028
310
21FF302821FF302821FF302821FF302821FF302821FF302821FF302821FF302821FF302821FF302821FF302821FF302821FF302821FF302821FF302821FF302821FF302821FF302821FF302821FF302821FF302821FF302821FF302821FF302821FF302821FF302821FF302821FFFFFF00FFFFFF00FFFFFF00FFFFFF00FF30
310
2821FF302821FF302821FF302821FF302821FF302821FF302821FF302821FF302821FF302821FF302821FF302821FF302821FF302821FF302821FF302821FF302821FF302821FF302821FF302821FF302821FF302821FF302821FF302821FF302821FF302821FF302821FF302821FFFFFF00FFFFFF00FFFFFF00FFFFFF00FF
310
302821FF302821FF302821FF302821FF302821FF302821FF302821FF302821FF302821FF302821FF302821FF302821FF302821FF302821FF302821FF302821FF302821FF302821FF302821FF302821FF302821FF302821FF302821FF302821FF302821FF302821FF302821FF302821FFFFFF00FFFFFF00FFFFFF00FFFFFF00
310
FF302821FF302821FF302821FF302821FF302821FF302821FF302821FF302821FF302821FF302821FF302821FF302821FF302821FF302821FF302821FF302821FF302821FF302821FF302821FF302821FF302821FF302821FF302821FF302821FF302821FF302821FF302821FF302821FFFFFF00FFFFFF00FFFFFF00FFFFFF
310
00FF302821FF302821FF302821FF302821FF302821FF302821FF302821FF302821FF302821FF302821FF302821FF302821FF302821FF302821FF302821FF302821FF302821FF302821FF302821FF302821FF302821FF302821FF302821FF302821FF302821FF302821FF302821FF302821FFFFFF00FFFFFF00FFFFFF00FFFF
310
FF00FF302821FF302821FF302821FF302821FF302821FF302821FF302821FF302821FF302821FF302821FF302821FF302821FF302821FF302821FF302821FF302821FF302821FF302821FF302821FF302821FF302821FF302821FF302821FF302821FF302821FF302821FF302821FF302821FFFFFF00FFFFFF00FFFFFF00FF
310
FFFF00FF302821FF302821FF302821FF302821FF302821FF302821FF302821FF302821FF302821FF302821FF302821FF302821FF302821FF302821FF302821FF302821FF302821FF302821FF302821FF302821FF302821FF302821FF302821FF302821FF302821FF302821FF302821FF302821FFFFFF00FFFFFF00FFFFFF00
310
FFFFFF00FF302821FF302821FF302821FF302821FF302821FF302821FF302821FF302821FF302821FF302821FF302821FF302821FF302821FF302821FF302821FF302821FF302821FF302821FF302821FF302821FF302821FF302821FF302821FF302821FF302821FF302821FF302821FF302821FFFFFF00FF302821FF3028
310
21FFFFFF00FF302821FF302821FF302821FF302821FF302821FF302821FF302821FF302821FF302821FF302821FF302821FF302821FF302821FF302821FF302821FF302821FF302821FF302821FF302821FF302821FF302821FF302821FF302821FF302821FF302821FF302821FF302821FF302821FFFFFF00FF302821FF30
310
2821FFFFFF00FF302821FF302821FF302821FF302821FF302821FF302821FF302821FF302821FF302821FF302821FF302821FF302821FF302821FF302821FF302821FF302821FF302821FF302821FF302821FF302821FF302821FF302821FF302821FF302821FF302821FF302821FF302821FF302821FFFFFF00FF302821FF
310
302821FFFFFF00FF302821FF302821FF302821FF302821FF302821FF302821FF302821FF302821FF302821FF302821FF302821FF302821FF302821FF302821FF302821FF302821FF302821FF302821FF302821FF302821FF302821FF302821FF302821FF302821FF302821FF302821FF302821FF302821FFFFFF00FF302821
310
FF302821FFFFFF00FF302821FF302821FF302821FF302821FF302821FF302821FF302821FF302821FF302821FF302821FF302821FF302821FF302821FF302821FF302821FF302821FF302821FF302821FF302821FF302821FF302821FF302821FF302821FF302821FF302821FF302821FF302821FF302821FFFFFF00FFFFFF
310
00FFFFFF00FFFFFF00FF302821FF302821FF302821FF302821FF302821FF302821FF302821FF302821FF302821FF302821FF302821FF302821FF302821FF302821FF302821FF302821FF302821FF302821FF302821FF302821FF302821FF302821FF302821FF302821FF302821FF302821FF302821FF302821FFFFFF00FFFF
310
FF00FFFFFF00FFFFFF00FF302821FF302821FF302821FF302821FF302821FF302821FF302821FF302821FF302821FF302821FF302821FF302821FF302821FF302821FF302821FF302821FF302821FF302821FF302821FF302821FF302821FF302821FF302821FF302821FF302821FF302821FF302821FF302821FFFFFF00FF
310
FFFF00FFFFFF00FFFFFF00FF302821FF302821FF302821FF302821FF302821FF302821FF302821FF302821FF302821FF302821FF302821FF302821FF302821FF302821FF302821FF302821FF302821FF302821FF302821FF302821FF302821FF302821FF302821FF302821FF302821FF302821FF302821FF302821FFFFFF00
310
FFFFFF00FFFFFF00FFFFFF00FF302821FF302821FF302821FF302821FF302821FF302821FF302821FF302821FF302821FF302821FF302821FF302821FF302821FF302821FF302821FF302821FF302821FF302821FF302821FF302821FF302821FF302821FF302821FF302821FF302821FF302821FF302821FF302821FFFFFF
310
00FFFFFF00FFFFFF00FFFFFF00FF302821FF302821FF302821FF302821FF302821FF302821FF302821FF302821FF302821FF302821FF302821FF302821FF302821FF302821FF302821FF302821FF302821FF302821FF302821FF302821FF302821FF302821FF302821FF302821FF302821FF302821FF302821FF302821FFFF
310
FF00FFFFFF00FFFFFF00FFFFFF00FF302821FF302821FF302821FF302821FF302821FF302821FF302821FF302821FF302821FF302821FF302821FF302821FF302821FF302821FF302821FF302821FF302821FF302821FF302821FF302821FF302821FF302821FF302821FF302821FF302821FF302821FF302821FF302821FF
310
302821FF302821FF302821FF302821FF302821FF302821FF302821FF302821FF302821FF302821FF302821FF302821FF302821FF302821FF302821FF302821FF302821FF302821FF
1001
ACAD
1000
DesignCenter Data
1002
{
1070
     1
1070
     4
1002
}
  0
ENDTAB
  0
ENDSEC
  0
SECTION
  2
BLOCKS
  0
BLOCK
  5
20
330
1F
100
AcDbEntity
  8
0
100
AcDbBlockBegin
  2
*Model_Space
 70
     0
 10
0.0
 20
0.0
 30
0.0
  3
*Model_Space
  1

  0
ENDBLK
  5
21
330
1F
100
AcDbEntity
  8
0
100
AcDbBlockEnd
  0
BLOCK
  5
1CD2
330
1CD0
100
AcDbEntity
 67
     1
  8
0
100
AcDbBlockBegin
  2
*Paper_Space
 70
     0
 10
0.0
 20
0.0
 30
0.0
  3
*Paper_Space
  1

  0
ENDBLK
  5
1CD3
330
1CD0
100
AcDbEntity
 67
     1
  8
0
100
AcDbBlockEnd
  0
BLOCK
  5
906
330
903
100
AcDbEntity
  8
0
100
AcDbBlockBegin
  2
_DOT
 70
     0
 10
0.0
 20
0.0
 30
0.0
  3
_DOT
  1

  0
LWPOLYLINE
  5
904
330
903
100
AcDbEntity
  8
0
  6
ByBlock
 62
     0
100
AcDbPolyline
 90
        2
 70
     1
 43
0.5
 10
-0.25
 20
0.0
 42
1.0
 10
0.25
 20
0.0
 42
1.0
  0
LINE
  5
905
330
903
100
AcDbEntity
  8
0
  6
ByBlock
 62
     0
100
AcDbLine
 10
-0.5
 20
0.0
 30
0.0
 11
-1.0
 21
0.0
 31
0.0
  0
ENDBLK
  5
907
330
903
100
AcDbEntity
  8
0
100
AcDbBlockEnd
  0
BLOCK
  5
2AD9
330
2A86
100
AcDbEntity
  8
0
 48
20.0
100
AcDbBlockBegin
  2
s6r-60
 70
     0
 10
0.0
 20
0.0
 30
0.0
  3
s6r-60
  1

  0
LWPOLYLINE
  5
2A87
330
2A86
100
AcDbEntity
  8
KANAMONO_SCREW
100
AcDbPolyline
 90
        7
 70
     0
 43
0.0
 10
3.0
 20
-29.5
 10
3.0
 20
-1.299999999999954
 10
4.0
 20
0.0
 10
4.0
 20
0.5
 10
-4.0
 20
0.5
 10
-4.0
 20
0.0
 10
4.0
 20
0.0
  0
LWPOLYLINE
  5
2A88
330
2A86
100
AcDbEntity
  8
KANAMONO_SCREW
100
AcDbPolyline
 90
        3
 70
     0
 43
0.0
 10
-4.0
 20
0.0
 10
-3.0
 20
-1.299999999999954
 10
-3.000000000000454
 20
-29.50000000000085
  0
LINE
  5
2A89
330
2A86
100
AcDbEntity
  8
KANAMONO_SCREW
100
AcDbLine
 10
0.0
 20
-63.29999999999995
 30
0.0
 11
-2.200000000000045
 21
-55.29999999999995
 31
0.0
  0
LINE
  5
2A8A
330
2A86
100
AcDbEntity
  8
KANAMONO_SCREW
100
AcDbLine
 10
2.200000000000045
 20
-55.29999999999995
 30
0.0
 11
0.0
 21
-63.29999999999995
 31
0.0
  0
LINE
  5
2A8B
330
2A86
100
AcDbEntity
  8
KANAMONO_SCREW
100
AcDbLine
 10
-0.2729385095193493
 20
-62.30749632902098
 30
0.0
 11
0.3532357144075604
 21
-62.01550649306478
 31
0.0
  0
ARC
  5
2A8C
330
2A86
100
AcDbEntity
  8
KANAMONO_SCREW
100
AcDbCircle
 10
-7.659849134879777
 20
-40.17943698590795
 30
0.0
 40
9.859876903588483
100
AcDbArc
 50
0.1359815000569386
 51
35.17074423212627
  0
LINE
  5
2A8D
330
2A86
100
AcDbEntity
  8
KANAMONO_SCREW
100
AcDbLine
 10
-2.199999999999931
 20
-40.43513805717942
 30
0.0
 11
1.608586036090741
 21
-38.65916522180817
 31
0.0
  0
ARC
  5
2A8E
330
2A86
100
AcDbEntity
  8
KANAMONO_SCREW
100
AcDbCircle
 10
7.65984913487955
 20
-40.17943698590795
 30
0.0
 40
9.859876903588483
100
AcDbArc
 50
144.8292557678737
 51
179.864018499943
  0
LINE
  5
2A8F
330
2A86
100
AcDbEntity
  8
KANAMONO_SCREW
100
AcDbLine
 10
-4.800000000000068
 20
-38.74999999999955
 30
0.0
 11
-4.800000000000068
 21
-42.99999999999989
 31
0.0
  0
LINE
  5
2A90
330
2A86
100
AcDbEntity
  8
KANAMONO_SCREW
100
AcDbLine
 10
4.799999999999954
 20
-42.99999999999989
 30
0.0
 11
4.799999999999954
 21
-38.74999999999977
 31
0.0
  0
LINE
  5
2A91
330
2A86
100
AcDbEntity
  8
KANAMONO_SCREW
100
AcDbLine
 10
2.200000000000045
 20
-59.5
 30
0.0
 11
3.800000000000181
 21
-59.50000000000011
 31
0.0
  0
LINE
  5
2A92
330
2A86
100
AcDbEntity
  8
KANAMONO_SCREW
100
AcDbLine
 10
-4.800000000000295
 20
-49.0
 30
0.0
 11
-4.800000000000181
 21
-50.99999999999977
 31
0.0
  0
LINE
  5
2A93
330
2A86
100
AcDbEntity
  8
KANAMONO_SCREW
100
AcDbLine
 10
-2.199999999999931
 20
-50.94481273529709
 30
0.0
 11
2.200000000000159
 21
-48.89305903941511
 31
0.0
  0
LINE
  5
2A94
330
2A86
100
AcDbEntity
  8
KANAMONO_SCREW
100
AcDbLine
 10
-2.200000000000045
 20
-59.49999999999988
 30
0.0
 11
-2.200000000000045
 21
-40.15603631653152
 31
0.0
  0
LINE
  5
2A95
330
2A86
100
AcDbEntity
  8
KANAMONO_SCREW
100
AcDbLine
 10
2.200000000000045
 20
-40.15603631653209
 30
0.0
 11
2.200000000000045
 21
-59.5
 31
0.0
  0
LINE
  5
2A96
330
2A86
100
AcDbEntity
  8
KANAMONO_SCREW
100
AcDbLine
 10
-1.980716023836066
 20
-56.09739627696012
 30
0.0
 11
2.200000000000045
 21
-54.147896378474
 31
0.0
  0
LINE
  5
2A97
330
2A86
100
AcDbEntity
  8
KANAMONO_SCREW
100
AcDbLine
 10
-3.299999999999954
 20
-55.49999999999989
 30
0.0
 11
-3.299999999999954
 21
-57.0
 31
0.0
  0
LINE
  5
2A98
330
2A86
100
AcDbEntity
  8
KANAMONO_SCREW
100
AcDbLine
 10
-1.126827266677764
 20
-59.20244630299066
 30
0.0
 11
1.45833446243796
 21
-57.99696559113477
 31
0.0
  0
LINE
  5
2A99
330
2A86
100
AcDbEntity
  8
KANAMONO_SCREW
100
AcDbLine
 10
-1.553771645256915
 20
-57.64992128997528
 30
0.0
 11
2.010883836453444
 21
-55.98769514016954
 31
0.0
  0
LINE
  5
2A9A
330
2A86
100
AcDbEntity
  8
KANAMONO_SCREW
100
AcDbLine
 10
-3.799999999999954
 20
-59.50000000000011
 30
0.0
 11
-2.200000000000045
 21
-59.49999999999988
 31
0.0
  0
LINE
  5
2A9B
330
2A86
100
AcDbEntity
  8
KANAMONO_SCREW
100
AcDbLine
 10
-4.800000000000068
 20
-57.0
 30
0.0
 11
-4.800000000000068
 21
-58.0
 31
0.0
  0
LINE
  5
2A9C
330
2A86
100
AcDbEntity
  8
KANAMONO_SCREW
100
AcDbLine
 10
-4.800000000000068
 20
-58.0
 30
0.0
 11
-3.799999999999954
 21
-59.50000000000011
 31
0.0
  0
LINE
  5
2A9D
330
2A86
100
AcDbEntity
  8
KANAMONO_SCREW
100
AcDbLine
 10
-3.299999999999954
 20
-57.0
 30
0.0
 11
-4.800000000000068
 21
-57.0
 31
0.0
  0
LINE
  5
2A9E
330
2A86
100
AcDbEntity
  8
KANAMONO_SCREW
100
AcDbLine
 10
-0.6998828880982729
 20
-60.75497131600582
 30
0.0
 11
0.9057850884225899
 21
-60.00623604209977
 31
0.0
  0
LINE
  5
2A9F
330
2A86
100
AcDbEntity
  8
KANAMONO_SCREW
100
AcDbLine
 10
-2.200000000000045
 20
-54.44803762800302
 30
0.0
 11
2.200000000000272
 21
-52.39628393212092
 31
0.0
  0
LINE
  5
2AA0
330
2A86
100
AcDbEntity
  8
KANAMONO_SCREW
100
AcDbLine
 10
-2.200000000000159
 20
-52.69642518165017
 30
0.0
 11
2.200000000000159
 21
-50.64467148576795
 31
0.0
  0
LINE
  5
2AA1
330
2A86
100
AcDbEntity
  8
KANAMONO_SCREW
100
AcDbLine
 10
-4.800000000000181
 20
-50.99999999999977
 30
0.0
 11
-3.300000000000068
 21
-51.49999999999988
 31
0.0
  0
LINE
  5
2AA2
330
2A86
100
AcDbEntity
  8
KANAMONO_SCREW
100
AcDbLine
 10
-4.800000000000181
 20
-53.0
 30
0.0
 11
-4.800000000000068
 21
-55.0
 31
0.0
  0
LINE
  5
2AA3
330
2A86
100
AcDbEntity
  8
KANAMONO_SCREW
100
AcDbLine
 10
-4.800000000000068
 20
-55.0
 30
0.0
 11
-3.299999999999954
 21
-55.49999999999989
 31
0.0
  0
LINE
  5
2AA4
330
2A86
100
AcDbEntity
  8
KANAMONO_SCREW
100
AcDbLine
 10
-3.300000000000068
 20
-53.0
 30
0.0
 11
-4.800000000000181
 21
-53.0
 31
0.0
  0
LINE
  5
2AA5
330
2A86
100
AcDbEntity
  8
KANAMONO_SCREW
100
AcDbLine
 10
-3.300000000000068
 20
-51.49999999999988
 30
0.0
 11
-3.300000000000068
 21
-53.0
 31
0.0
  0
LINE
  5
2AA6
330
2A86
100
AcDbEntity
  8
KANAMONO_SCREW
100
AcDbLine
 10
-4.800000000000181
 20
-40.00833404712671
 30
0.0
 11
-5.088567175761681
 21
-40.00833404712693
 31
0.0
  0
ARC
  5
2AA7
330
2A86
100
AcDbEntity
  8
KANAMONO_SCREW
100
AcDbCircle
 10
0.1473318668159891
 20
-42.20982178778513
 30
0.0
 40
5.679893225786392
100
AcDbArc
 50
157.1951788054447
 51
209.4219706231233
  0
LINE
  5
2AA8
330
2A86
100
AcDbEntity
  8
KANAMONO_SCREW
100
AcDbLine
 10
-4.800000000000068
 20
-45.0
 30
0.0
 11
-4.800000000000068
 21
-47.0
 31
0.0
  0
LINE
  5
2AA9
330
2A86
100
AcDbEntity
  8
KANAMONO_SCREW
100
AcDbLine
 10
-2.200000000000159
 20
-45.68997539623842
 30
0.0
 11
2.200000000000386
 21
-43.6382217003561
 31
0.0
  0
LINE
  5
2AAA
330
2A86
100
AcDbEntity
  8
KANAMONO_SCREW
100
AcDbLine
 10
-2.200000000000045
 20
-47.44158784259127
 30
0.0
 11
2.200000000000272
 21
-45.38983414670918
 31
0.0
  0
LINE
  5
2AAB
330
2A86
100
AcDbEntity
  8
KANAMONO_SCREW
100
AcDbLine
 10
-2.200000000000045
 20
-49.19320028894424
 30
0.0
 11
2.200000000000272
 21
-47.14144659306202
 31
0.0
  0
LINE
  5
2AAC
330
2A86
100
AcDbEntity
  8
KANAMONO_SCREW
100
AcDbLine
 10
-4.800000000000068
 20
-47.0
 30
0.0
 11
-3.300000000000181
 21
-47.49999999999988
 31
0.0
  0
LINE
  5
2AAD
330
2A86
100
AcDbEntity
  8
KANAMONO_SCREW
100
AcDbLine
 10
-3.300000000000181
 20
-49.0
 30
0.0
 11
-4.800000000000295
 21
-49.0
 31
0.0
  0
LINE
  5
2AAE
330
2A86
100
AcDbEntity
  8
KANAMONO_SCREW
100
AcDbLine
 10
-3.300000000000181
 20
-47.49999999999988
 30
0.0
 11
-3.300000000000181
 21
-49.0
 31
0.0
  0
LINE
  5
2AAF
330
2A86
100
AcDbEntity
  8
KANAMONO_SCREW
100
AcDbLine
 10
-2.200000000000045
 20
-43.93836294988534
 30
0.0
 11
2.200000000000272
 21
-41.88660925400324
 31
0.0
  0
LINE
  5
2AB0
330
2A86
100
AcDbEntity
  8
KANAMONO_SCREW
100
AcDbLine
 10
-2.200000000000045
 20
-42.18675050353249
 30
0.0
 11
2.200000000000272
 21
-40.13499680765028
 31
0.0
  0
LINE
  5
2AB1
330
2A86
100
AcDbEntity
  8
KANAMONO_SCREW
100
AcDbLine
 10
-3.300000000000181
 20
-44.99999999999988
 30
0.0
 11
-3.876239569296672
 21
-44.99999999999977
 31
0.0
  0
LINE
  5
2AB2
330
2A86
100
AcDbEntity
  8
KANAMONO_SCREW
100
AcDbLine
 10
-3.300000000000181
 20
-43.49999999999977
 30
0.0
 11
-3.300000000000181
 21
-44.99999999999988
 31
0.0
  0
LINE
  5
2AB3
330
2A86
100
AcDbEntity
  8
KANAMONO_SCREW
100
AcDbLine
 10
-4.800000000000068
 20
-42.99999999999989
 30
0.0
 11
-3.300000000000181
 21
-43.49999999999977
 31
0.0
  0
ARC
  5
2AB4
330
2A86
100
AcDbEntity
  8
KANAMONO_SCREW
100
AcDbCircle
 10
1.071092297519271
 20
-42.20982178778479
 30
0.0
 40
5.679893225786392
100
AcDbArc
 50
188.8781154175122
 51
209.4219706231233
  0
LINE
  5
2AB5
330
2A86
100
AcDbEntity
  8
KANAMONO_SCREW
100
AcDbLine
 10
4.800000000000068
 20
-51.00000000000012
 30
0.0
 11
4.799999999999954
 21
-49.00000000000011
 31
0.0
  0
LINE
  5
2AB6
330
2A86
100
AcDbEntity
  8
KANAMONO_SCREW
100
AcDbLine
 10
3.300000000000181
 20
-57.0
 30
0.0
 11
3.300000000000181
 21
-55.49999999999989
 31
0.0
  0
LINE
  5
2AB7
330
2A86
100
AcDbEntity
  8
KANAMONO_SCREW
100
AcDbLine
 10
4.800000000000181
 20
-58.00000000000011
 30
0.0
 11
4.800000000000181
 21
-57.00000000000011
 31
0.0
  0
LINE
  5
2AB8
330
2A86
100
AcDbEntity
  8
KANAMONO_SCREW
100
AcDbLine
 10
3.800000000000181
 20
-59.50000000000011
 30
0.0
 11
4.800000000000181
 21
-58.00000000000011
 31
0.0
  0
LINE
  5
2AB9
330
2A86
100
AcDbEntity
  8
KANAMONO_SCREW
100
AcDbLine
 10
4.800000000000181
 20
-57.00000000000011
 30
0.0
 11
3.300000000000181
 21
-57.0
 31
0.0
  0
LINE
  5
2ABA
330
2A86
100
AcDbEntity
  8
KANAMONO_SCREW
100
AcDbLine
 10
4.800000000000068
 20
-55.00000000000011
 30
0.0
 11
4.800000000000068
 21
-53.00000000000011
 31
0.0
  0
LINE
  5
2ABB
330
2A86
100
AcDbEntity
  8
KANAMONO_SCREW
100
AcDbLine
 10
3.300000000000068
 20
-53.0
 30
0.0
 11
3.300000000000068
 21
-51.49999999999988
 31
0.0
  0
LINE
  5
2ABC
330
2A86
100
AcDbEntity
  8
KANAMONO_SCREW
100
AcDbLine
 10
3.300000000000068
 20
-51.49999999999988
 30
0.0
 11
4.800000000000068
 21
-51.00000000000012
 31
0.0
  0
LINE
  5
2ABD
330
2A86
100
AcDbEntity
  8
KANAMONO_SCREW
100
AcDbLine
 10
4.800000000000068
 20
-53.00000000000011
 30
0.0
 11
3.300000000000068
 21
-53.0
 31
0.0
  0
LINE
  5
2ABE
330
2A86
100
AcDbEntity
  8
KANAMONO_SCREW
100
AcDbLine
 10
3.300000000000181
 20
-55.49999999999989
 30
0.0
 11
4.800000000000068
 21
-55.00000000000011
 31
0.0
  0
LINE
  5
2ABF
330
2A86
100
AcDbEntity
  8
KANAMONO_SCREW
100
AcDbLine
 10
4.799999999999954
 20
-47.0
 30
0.0
 11
4.799999999999954
 21
-45.0
 31
0.0
  0
LINE
  5
2AC0
330
2A86
100
AcDbEntity
  8
KANAMONO_SCREW
100
AcDbLine
 10
3.299999999999954
 20
-47.49999999999988
 30
0.0
 11
4.799999999999954
 21
-47.0
 31
0.0
  0
LINE
  5
2AC1
330
2A86
100
AcDbEntity
  8
KANAMONO_SCREW
100
AcDbLine
 10
4.799999999999954
 20
-49.00000000000011
 30
0.0
 11
3.299999999999954
 21
-49.0
 31
0.0
  0
LINE
  5
2AC2
330
2A86
100
AcDbEntity
  8
KANAMONO_SCREW
100
AcDbLine
 10
3.299999999999954
 20
-49.0
 30
0.0
 11
3.299999999999954
 21
-47.49999999999988
 31
0.0
  0
LINE
  5
2AC3
330
2A86
100
AcDbEntity
  8
KANAMONO_SCREW
100
AcDbLine
 10
4.799999999999954
 20
-40.00833404712671
 30
0.0
 11
5.088567175761454
 21
-40.00833404712693
 31
0.0
  0
ARC
  5
2AC4
330
2A86
100
AcDbEntity
  8
KANAMONO_SCREW
100
AcDbCircle
 10
-1.071092297519498
 20
-42.20982178778479
 30
0.0
 40
5.679893225786392
100
AcDbArc
 50
330.5780293768767
 51
351.1218845824877
  0
LINE
  5
2AC5
330
2A86
100
AcDbEntity
  8
KANAMONO_SCREW
100
AcDbLine
 10
3.299999999999954
 20
-44.99999999999988
 30
0.0
 11
3.299999999999954
 21
-43.49999999999977
 31
0.0
  0
LINE
  5
2AC6
330
2A86
100
AcDbEntity
  8
KANAMONO_SCREW
100
AcDbLine
 10
3.299999999999954
 20
-43.49999999999977
 30
0.0
 11
4.799999999999954
 21
-42.99999999999989
 31
0.0
  0
LINE
  5
2AC7
330
2A86
100
AcDbEntity
  8
KANAMONO_SCREW
100
AcDbLine
 10
3.876239569296672
 20
-44.99999999999977
 30
0.0
 11
3.299999999999954
 21
-44.99999999999988
 31
0.0
  0
ARC
  5
2AC8
330
2A86
100
AcDbEntity
  8
KANAMONO_SCREW
100
AcDbCircle
 10
-0.1473318668162165
 20
-42.20982178778513
 30
0.0
 40
5.679893225786392
100
AcDbArc
 50
330.5780293768767
 51
22.8048211945553
  0
LINE
  5
2AC9
330
2A86
100
AcDbEntity
  8
KANAMONO_SCREW
100
AcDbLine
 10
3.0
 20
-27.5
 30
0.0
 11
-3.0
 21
-27.5
 31
0.0
  0
LINE
  5
2ACA
330
2A86
100
AcDbEntity
  8
KANAMONO_SCREW
100
AcDbLine
 10
3.0
 20
-28.5
 30
0.0
 11
-3.0
 21
-28.5
 31
0.0
  0
LINE
  5
2ACB
330
2A86
100
AcDbEntity
  8
KANAMONO_SCREW
100
AcDbLine
 10
3.0
 20
-29.5
 30
0.0
 11
-3.0
 21
-29.5
 31
0.0
  0
ARC
  5
2ACC
330
2A86
100
AcDbEntity
  8
KANAMONO_SCREW
100
AcDbCircle
 10
26.87278604750498
 20
-40.11321782546042
 30
0.0
 40
31.70210937541362
100
AcDbArc
 50
160.44086710814
 51
177.535472548574
  0
LINE
  5
2ACD
330
2A86
100
AcDbEntity
  8
KANAMONO_SCREW
100
AcDbLine
 10
-1.499669838132945
 20
-38.35695629311101
 30
0.0
 11
1.097300952475279
 21
-37.14596892544558
 31
0.0
  0
LINE
  5
2ACE
330
2A86
100
AcDbEntity
  8
KANAMONO_SCREW
100
AcDbLine
 10
-0.400000000000091
 20
-34.49999999999989
 30
0.0
 11
0.3999999999998636
 21
-34.49999999999989
 31
0.0
  0
LINE
  5
2ACF
330
2A86
100
AcDbEntity
  8
KANAMONO_SCREW
100
AcDbLine
 10
-0.8481885289712636
 20
-36.30155312315106
 30
0.0
 11
0.6599209906190709
 21
-35.5983101048297
 31
0.0
  0
ARC
  5
2AD0
330
2A86
100
AcDbEntity
  8
KANAMONO_SCREW
100
AcDbCircle
 10
-26.8727860475052
 20
-40.11321782546042
 30
0.0
 40
31.70210937541362
100
AcDbArc
 50
2.464527451426015
 51
19.55913289186
  0
LINE
  5
2AD1
330
2A86
100
AcDbEntity
  8
KANAMONO_SCREW
100
AcDbLine
 10
-3.0
 20
-1.299999999999954
 30
0.0
 11
3.0
 21
-1.299999999999954
 31
0.0
  0
LINE
  5
2AD2
330
2A86
100
AcDbEntity
  8
KANAMONO_SCREW
100
AcDbLine
 10
-4.399999999999977
 20
1.200000000000045
 30
0.0
 11
4.399999999999977
 21
1.200000000000045
 31
0.0
  0
LINE
  5
2AD3
330
2A86
100
AcDbEntity
  8
KANAMONO_SCREW
100
AcDbLine
 10
-4.399999999999977
 20
1.700000000000045
 30
0.0
 11
4.399999999999977
 21
1.700000000000045
 31
0.0
  0
LINE
  5
2AD4
330
2A86
100
AcDbEntity
  8
KANAMONO_SCREW
100
AcDbLine
 10
-2.200000000000045
 20
-1.299999999999954
 30
0.0
 11
2.200000000000045
 21
-1.299999999999954
 31
0.0
  0
LINE
  5
2AD5
330
2A86
100
AcDbEntity
  8
KANAMONO_SCREW
100
AcDbLine
 10
-4.399999999999977
 20
1.200000000000045
 30
0.0
 11
-4.399999999999863
 21
1.700000000000045
 31
0.0
  0
LINE
  5
2AD6
330
2A86
100
AcDbEntity
  8
KANAMONO_SCREW
100
AcDbLine
 10
-3.783999999999991
 20
0.5
 30
0.0
 11
-4.399999999999977
 21
1.200000000000045
 31
0.0
  0
LINE
  5
2AD7
330
2A86
100
AcDbEntity
  8
KANAMONO_SCREW
100
AcDbLine
 10
4.399999999999977
 20
1.700000000000045
 30
0.0
 11
4.399999999999977
 21
1.200000000000045
 31
0.0
  0
LINE
  5
2AD8
330
2A86
100
AcDbEntity
  8
KANAMONO_SCREW
100
AcDbLine
 10
4.399999999999977
 20
1.200000000000045
 30
0.0
 11
3.783999999999991
 21
0.5
 31
0.0
  0
ENDBLK
  5
2ADA
330
2A86
100
AcDbEntity
  8
0
 48
20.0
100
AcDbBlockEnd
  0
BLOCK
  5
41CF
330
41CE
100
AcDbEntity
  8
0
100
AcDbBlockBegin
  2
*D2
 70
     1
 10
0.0
 20
0.0
 30
0.0
  3
*D2
  1

  0
LINE
  5
4288
330
41CE
100
AcDbEntity
  8
SUNPO
  6
Continuous
 62
     0
370
    -2
100
AcDbLine
 10
376.4128698583923
 20
149.6580258733942
 30
0.0
 11
376.4128698583923
 21
128.6135059189237
 31
0.0
  0
LINE
  5
4289
330
41CE
100
AcDbEntity
  8
SUNPO
  6
Continuous
 62
     0
370
    -2
100
AcDbLine
 10
266.4128698583922
 20
149.1580258733943
 30
0.0
 11
266.4128698583922
 21
128.6135059189237
 31
0.0
  0
LINE
  5
428A
330
41CE
100
AcDbEntity
  8
SUNPO
  6
Continuous
 62
     0
370
    -2
100
AcDbLine
 10
374.8128698583922
 20
128.6135059189237
 30
0.0
 11
268.0128698583922
 21
128.6135059189237
 31
0.0
  0
INSERT
  5
428B
330
41CE
100
AcDbEntity
  8
SUNPO
  6
Continuous
 62
     0
370
    -2
100
AcDbBlockReference
  2
_DOT
 10
376.4128698583923
 20
128.6135059189237
 30
0.0
 41
1.6
 42
1.6
 43
1.6
  0
INSERT
  5
428C
330
41CE
100
AcDbEntity
  8
SUNPO
  6
Continuous
 62
     0
370
    -2
100
AcDbBlockReference
  2
_DOT
 10
266.4128698583922
 20
128.6135059189237
 30
0.0
 41
1.6
 42
1.6
 43
1.6
 50
180.0
  0
MTEXT
  5
428D
330
41CE
100
AcDbEntity
  8
SUNPO
  6
Continuous
 62
     0
100
AcDbMText
 10
321.4128698583922
 20
126.4135059189237
 30
0.0
 40
4.0
 41
0.0
 71
     5
 72
     1
  1
\A1;110
 73
     1
 44
1.0
1001
ACAD
1000
MTEXTBEGIN
1070
    73
1070
     1
1070
    44
1040
1.0
1070
    74
1070
     0
1000
MTEXTEND
  0
POINT
  5
428E
330
41CE
100
AcDbEntity
  8
Defpoints
  6
Continuous
 62
     0
100
AcDbPoint
 10
376.4128698583923
 20
151.6580258733942
 30
0.0
  0
POINT
  5
428F
330
41CE
100
AcDbEntity
  8
Defpoints
  6
Continuous
 62
     0
100
AcDbPoint
 10
266.4128698583922
 20
151.1580258733943
 30
0.0
  0
POINT
  5
4290
330
41CE
100
AcDbEntity
  8
Defpoints
  6
Continuous
 62
     0
100
AcDbPoint
 10
266.4128698583922
 20
128.6135059189237
 30
0.0
  0
ENDBLK
  5
41D0
330
41CE
100
AcDbEntity
  8
0
100
AcDbBlockEnd
  0
BLOCK
  5
41DB
330
41DA
100
AcDbEntity
  8
0
100
AcDbBlockBegin
  2
*D3
 70
     1
 10
0.0
 20
0.0
 30
0.0
  3
*D3
  1

  0
LINE
  5
4291
330
41DA
100
AcDbEntity
  8
SUNPO
  6
Continuous
 62
     0
370
    -2
100
AcDbLine
 10
236.4128698583925
 20
103.0580258733948
 30
0.0
 11
236.4128698583925
 21
81.08795213356994
 31
0.0
  0
LINE
  5
4292
330
41DA
100
AcDbEntity
  8
SUNPO
  6
Continuous
 62
     0
370
    -2
100
AcDbLine
 10
376.4128698583923
 20
149.6580258733942
 30
0.0
 11
376.4128698583923
 21
81.08795213356994
 31
0.0
  0
LINE
  5
4293
330
41DA
100
AcDbEntity
  8
SUNPO
  6
Continuous
 62
     0
370
    -2
100
AcDbLine
 10
238.0128698583924
 20
81.08795213356994
 30
0.0
 11
374.8128698583922
 21
81.08795213356994
 31
0.0
  0
INSERT
  5
4294
330
41DA
100
AcDbEntity
  8
SUNPO
  6
Continuous
 62
     0
370
    -2
100
AcDbBlockReference
  2
_DOT
 10
236.4128698583925
 20
81.08795213356994
 30
0.0
 41
1.6
 42
1.6
 43
1.6
 50
180.0
  0
INSERT
  5
4295
330
41DA
100
AcDbEntity
  8
SUNPO
  6
Continuous
 62
     0
370
    -2
100
AcDbBlockReference
  2
_DOT
 10
376.4128698583923
 20
81.08795213356994
 30
0.0
 41
1.6
 42
1.6
 43
1.6
  0
MTEXT
  5
4296
330
41DA
100
AcDbEntity
  8
SUNPO
  6
Continuous
 62
     0
100
AcDbMText
 10
306.4128698583924
 20
78.88795213356994
 30
0.0
 40
4.0
 41
0.0
 71
     5
 72
     1
  1
\A1;140
 73
     1
 44
1.0
1001
ACAD
1000
MTEXTBEGIN
1070
    73
1070
     1
1070
    44
1040
1.0
1070
    74
1070
     0
1000
MTEXTEND
  0
POINT
  5
4297
330
41DA
100
AcDbEntity
  8
Defpoints
  6
Continuous
 62
     0
100
AcDbPoint
 10
236.4128698583925
 20
105.0580258733948
 30
0.0
  0
POINT
  5
4298
330
41DA
100
AcDbEntity
  8
Defpoints
  6
Continuous
 62
     0
100
AcDbPoint
 10
376.4128698583923
 20
151.6580258733942
 30
0.0
  0
POINT
  5
4299
330
41DA
100
AcDbEntity
  8
Defpoints
  6
Continuous
 62
     0
100
AcDbPoint
 10
376.4128698583923
 20
81.08795213356994
 30
0.0
  0
ENDBLK
  5
41DC
330
41DA
100
AcDbEntity
  8
0
100
AcDbBlockEnd
  0
BLOCK
  5
41E7
330
41E6
100
AcDbEntity
  8
0
100
AcDbBlockBegin
  2
*D4
 70
     1
 10
0.0
 20
0.0
 30
0.0
  3
*D4
  1

  0
LINE
  5
429A
330
41E6
100
AcDbEntity
  8
SUNPO
  6
Continuous
 62
     0
370
    -2
100
AcDbLine
 10
236.4128698583925
 20
202.0580258733948
 30
0.0
 11
236.4128698583925
 21
212.3973712014699
 31
0.0
  0
LINE
  5
429B
330
41E6
100
AcDbEntity
  8
SUNPO
  6
Continuous
 62
     0
370
    -2
100
AcDbLine
 10
336.4128698583925
 20
180.8580258733948
 30
0.0
 11
336.4128698583925
 21
212.3973712014699
 31
0.0
  0
LINE
  5
429C
330
41E6
100
AcDbEntity
  8
SUNPO
  6
Continuous
 62
     0
370
    -2
100
AcDbLine
 10
238.0128698583924
 20
212.3973712014699
 30
0.0
 11
334.8128698583924
 21
212.3973712014699
 31
0.0
  0
INSERT
  5
429D
330
41E6
100
AcDbEntity
  8
SUNPO
  6
Continuous
 62
     0
370
    -2
100
AcDbBlockReference
  2
_DOT
 10
236.4128698583925
 20
212.3973712014699
 30
0.0
 41
1.6
 42
1.6
 43
1.6
 50
180.0
  0
INSERT
  5
429E
330
41E6
100
AcDbEntity
  8
SUNPO
  6
Continuous
 62
     0
370
    -2
100
AcDbBlockReference
  2
_DOT
 10
336.4128698583925
 20
212.3973712014699
 30
0.0
 41
1.6
 42
1.6
 43
1.6
  0
MTEXT
  5
429F
330
41E6
100
AcDbEntity
  8
SUNPO
  6
Continuous
 62
     0
100
AcDbMText
 10
286.4128698583925
 20
214.5973712014699
 30
0.0
 40
4.0
 41
0.0
 71
     5
 72
     1
  1
\A1;100
 73
     1
 44
1.0
1001
ACAD
1000
MTEXTBEGIN
1070
    73
1070
     1
1070
    44
1040
1.0
1070
    74
1070
     0
1000
MTEXTEND
  0
POINT
  5
42A0
330
41E6
100
AcDbEntity
  8
Defpoints
  6
Continuous
 62
     0
100
AcDbPoint
 10
236.4128698583925
 20
200.0580258733948
 30
0.0
  0
POINT
  5
42A1
330
41E6
100
AcDbEntity
  8
Defpoints
  6
Continuous
 62
     0
100
AcDbPoint
 10
336.4128698583925
 20
178.8580258733948
 30
0.0
  0
POINT
  5
42A2
330
41E6
100
AcDbEntity
  8
Defpoints
  6
Continuous
 62
     0
100
AcDbPoint
 10
336.4128698583925
 20
212.3973712014699
 30
0.0
  0
ENDBLK
  5
41E8
330
41E6
100
AcDbEntity
  8
0
100
AcDbBlockEnd
  0
BLOCK
  5
41F3
330
41F2
100
AcDbEntity
  8
0
100
AcDbBlockBegin
  2
*D5
 70
     1
 10
0.0
 20
0.0
 30
0.0
  3
*D5
  1

  0
LINE
  5
42A3
330
41F2
100
AcDbEntity
  8
SUNPO
  6
Continuous
 62
     0
370
    -2
100
AcDbLine
 10
234.4128698583926
 20
105.0580258733949
 30
0.0
 11
211.9947425036218
 21
105.0580258733949
 31
0.0
  0
LINE
  5
42A4
330
41F2
100
AcDbEntity
  8
SUNPO
  6
Continuous
 62
     0
370
    -2
100
AcDbLine
 10
234.4128698583926
 20
200.058025873395
 30
0.0
 11
211.9947425036218
 21
200.058025873395
 31
0.0
  0
LINE
  5
42A5
330
41F2
100
AcDbEntity
  8
SUNPO
  6
Continuous
 62
     0
370
    -2
100
AcDbLine
 10
211.9947425036218
 20
106.6580258733949
 30
0.0
 11
211.9947425036218
 21
198.4580258733949
 31
0.0
  0
INSERT
  5
42A6
330
41F2
100
AcDbEntity
  8
SUNPO
  6
Continuous
 62
     0
370
    -2
100
AcDbBlockReference
  2
_DOT
 10
211.9947425036218
 20
105.0580258733949
 30
0.0
 41
1.6
 42
1.6
 43
1.6
 50
270.0
  0
INSERT
  5
42A7
330
41F2
100
AcDbEntity
  8
SUNPO
  6
Continuous
 62
     0
370
    -2
100
AcDbBlockReference
  2
_DOT
 10
211.9947425036218
 20
200.058025873395
 30
0.0
 41
1.6
 42
1.6
 43
1.6
 50
90.0
  0
MTEXT
  5
42A8
330
41F2
100
AcDbEntity
  8
SUNPO
  6
Continuous
 62
     0
100
AcDbMText
 10
209.7947425036218
 20
152.5580258733948
 30
0.0
 40
4.0
 41
0.0
 71
     5
 72
     1
  1
\A1;95
 11
0.0000000000000001
 21
1.0
 31
0.0
 73
     1
 44
1.0
1001
ACAD
1000
MTEXTBEGIN
1070
    73
1070
     1
1070
    44
1040
1.0
1070
    74
1070
     0
1000
MTEXTEND
  0
POINT
  5
42A9
330
41F2
100
AcDbEntity
  8
Defpoints
  6
Continuous
 62
     0
100
AcDbPoint
 10
236.4128698583926
 20
105.0580258733949
 30
0.0
  0
POINT
  5
42AA
330
41F2
100
AcDbEntity
  8
Defpoints
  6
Continuous
 62
     0
100
AcDbPoint
 10
236.4128698583926
 20
200.058025873395
 30
0.0
  0
POINT
  5
42AB
330
41F2
100
AcDbEntity
  8
Defpoints
  6
Continuous
 62
     0
100
AcDbPoint
 10
211.9947425036218
 20
200.058025873395
 30
0.0
  0
ENDBLK
  5
41F4
330
41F2
100
AcDbEntity
  8
0
100
AcDbBlockEnd
  0
BLOCK
  5
41FF
330
41FE
100
AcDbEntity
  8
0
100
AcDbBlockBegin
  2
*D6
 70
     1
 10
0.0
 20
0.0
 30
0.0
  3
*D6
  1

  0
LINE
  5
42AC
330
41FE
100
AcDbEntity
  8
SUNPO
  6
Continuous
 62
     0
370
    -2
100
AcDbLine
 10
236.4128698583925
 20
202.0580258733948
 30
0.0
 11
236.4128698583925
 21
205.8469044353916
 31
0.0
  0
LINE
  5
42AD
330
41FE
100
AcDbEntity
  8
SUNPO
  6
Continuous
 62
     0
370
    -2
100
AcDbLine
 10
256.4128698583925
 20
202.0580258733948
 30
0.0
 11
256.4128698583925
 21
205.8469044353916
 31
0.0
  0
LINE
  5
42AE
330
41FE
100
AcDbEntity
  8
SUNPO
  6
Continuous
 62
     0
370
    -2
100
AcDbLine
 10
238.0128698583924
 20
205.8469044353916
 30
0.0
 11
254.8128698583925
 21
205.8469044353916
 31
0.0
  0
INSERT
  5
42AF
330
41FE
100
AcDbEntity
  8
SUNPO
  6
Continuous
 62
     0
370
    -2
100
AcDbBlockReference
  2
_DOT
 10
236.4128698583925
 20
205.8469044353916
 30
0.0
 41
1.6
 42
1.6
 43
1.6
 50
180.0
  0
INSERT
  5
42B0
330
41FE
100
AcDbEntity
  8
SUNPO
  6
Continuous
 62
     0
370
    -2
100
AcDbBlockReference
  2
_DOT
 10
256.4128698583925
 20
205.8469044353916
 30
0.0
 41
1.6
 42
1.6
 43
1.6
  0
MTEXT
  5
42B1
330
41FE
100
AcDbEntity
  8
SUNPO
  6
Continuous
 62
     0
100
AcDbMText
 10
246.4128698583925
 20
208.0469044353915
 30
0.0
 40
4.0
 41
0.0
 71
     5
 72
     1
  1
\A1;20
 73
     1
 44
1.0
1001
ACAD
1000
MTEXTBEGIN
1070
    73
1070
     1
1070
    44
1040
1.0
1070
    74
1070
     0
1000
MTEXTEND
  0
POINT
  5
42B2
330
41FE
100
AcDbEntity
  8
Defpoints
  6
Continuous
 62
     0
100
AcDbPoint
 10
236.4128698583925
 20
200.0580258733948
 30
0.0
  0
POINT
  5
42B3
330
41FE
100
AcDbEntity
  8
Defpoints
  6
Continuous
 62
     0
100
AcDbPoint
 10
256.4128698583925
 20
200.0580258733948
 30
0.0
  0
POINT
  5
42B4
330
41FE
100
AcDbEntity
  8
Defpoints
  6
Continuous
 62
     0
100
AcDbPoint
 10
256.4128698583925
 20
205.8469044353916
 30
0.0
  0
ENDBLK
  5
4200
330
41FE
100
AcDbEntity
  8
0
100
AcDbBlockEnd
  0
BLOCK
  5
420B
330
420A
100
AcDbEntity
  8
0
100
AcDbBlockBegin
  2
*D7
 70
     1
 10
0.0
 20
0.0
 30
0.0
  3
*D7
  1

  0
LINE
  5
42B5
330
420A
100
AcDbEntity
  8
SUNPO
  6
Continuous
 62
     0
370
    -2
100
AcDbLine
 10
373.3898698583918
 20
152.8580258733941
 30
0.0
 11
390.0392134932905
 21
152.8580258733941
 31
0.0
  0
LINE
  5
42B6
330
420A
100
AcDbEntity
  8
SUNPO
  6
Continuous
 62
     0
370
    -2
100
AcDbLine
 10
337.9129007262935
 20
178.3580258733948
 30
0.0
 11
390.0392134932905
 21
178.3580258733948
 31
0.0
  0
LINE
  5
42B7
330
420A
100
AcDbEntity
  8
SUNPO
  6
Continuous
 62
     0
370
    -2
100
AcDbLine
 10
390.0392134932905
 20
154.4580258733941
 30
0.0
 11
390.0392134932905
 21
176.7580258733948
 31
0.0
  0
INSERT
  5
42B8
330
420A
100
AcDbEntity
  8
SUNPO
  6
Continuous
 62
     0
370
    -2
100
AcDbBlockReference
  2
_DOT
 10
390.0392134932905
 20
152.8580258733941
 30
0.0
 41
1.6
 42
1.6
 43
1.6
 50
270.0
  0
INSERT
  5
42B9
330
420A
100
AcDbEntity
  8
SUNPO
  6
Continuous
 62
     0
370
    -2
100
AcDbBlockReference
  2
_DOT
 10
390.0392134932905
 20
178.3580258733948
 30
0.0
 41
1.6
 42
1.6
 43
1.6
 50
90.0
  0
MTEXT
  5
42BA
330
420A
100
AcDbEntity
  8
SUNPO
  6
Continuous
 62
     0
100
AcDbMText
 10
392.2392134932904
 20
165.6080258733943
 30
0.0
 40
4.0
 41
0.0
 71
     5
 72
     1
  1
\A1;25.5
 11
0.0000000000000001
 21
1.0
 31
0.0
 73
     1
 44
1.0
1001
ACAD
1000
MTEXTBEGIN
1070
    73
1070
     1
1070
    44
1040
1.0
1070
    74
1070
     0
1000
MTEXTEND
  0
POINT
  5
42BB
330
420A
100
AcDbEntity
  8
Defpoints
  6
Continuous
 62
     0
100
AcDbPoint
 10
371.3898698583918
 20
152.8580258733941
 30
0.0
  0
POINT
  5
42BC
330
420A
100
AcDbEntity
  8
Defpoints
  6
Continuous
 62
     0
100
AcDbPoint
 10
335.9129007262935
 20
178.3580258733948
 30
0.0
  0
POINT
  5
42BD
330
420A
100
AcDbEntity
  8
Defpoints
  6
Continuous
 62
     0
100
AcDbPoint
 10
390.0392134932905
 20
178.3580258733948
 30
0.0
  0
ENDBLK
  5
420C
330
420A
100
AcDbEntity
  8
0
100
AcDbBlockEnd
  0
BLOCK
  5
43AF
330
43AE
100
AcDbEntity
  8
0
100
AcDbBlockBegin
  2
up60_2020
 70
     0
 10
0.0
 20
0.0
 30
0.0
  3
up60_2020
  1

  0
LINE
  5
43B0
330
43AE
100
AcDbEntity
  8
KANAMONO_SCREW
100
AcDbLine
 10
2.789999999999736
 20
-31.56499999999937
 30
0.0
 11
2.789999999999736
 21
-2.864999999999326
 31
0.0
  0
LINE
  5
43B1
330
43AE
100
AcDbEntity
  8
KANAMONO_SCREW
100
AcDbLine
 10
-2.790000000000077
 20
-31.56499999999937
 30
0.0
 11
-2.789999999995984
 21
-2.864999999999326
 31
0.0
  0
LINE
  5
43B2
330
43AE
100
AcDbEntity
  8
KANAMONO_SCREW
100
AcDbLine
 10
0.2499999999998863
 20
-10.56499999999937
 30
0.0
 11
0.2499999999998863
 21
-2.864999999999781
 31
0.0
  0
LINE
  5
43B3
330
43AE
100
AcDbEntity
  8
KANAMONO_SCREW
100
AcDbLine
 10
3.390000000000782
 20
-8.66499999999587
 30
0.0
 11
2.789999999999736
 21
-10.56499999999937
 31
0.0
  0
LINE
  5
43B4
330
43AE
100
AcDbEntity
  8
KANAMONO_SCREW
100
AcDbLine
 10
-2.790000000000077
 20
-10.56499999999937
 30
0.0
 11
-3.389999999999076
 21
-8.665000000003146
 31
0.0
  0
LINE
  5
43B5
330
43AE
100
AcDbEntity
  8
KANAMONO_SCREW
100
AcDbLine
 10
0.2499999999998863
 20
-10.56499999999937
 30
0.0
 11
-0.0000000000002274
 21
-8.665000000003146
 31
0.0
  0
LINE
  5
43B6
330
43AE
100
AcDbEntity
  8
KANAMONO_SCREW
100
AcDbLine
 10
-0.0000000000014779
 20
-8.665000000000645
 30
0.0
 11
-0.2499999999965894
 21
-10.56499999999528
 31
0.0
  0
LINE
  5
43B7
330
43AE
100
AcDbEntity
  8
KANAMONO_SCREW
100
AcDbLine
 10
-0.2499999999965894
 20
-10.56499999999528
 30
0.0
 11
-0.2499999999943157
 21
-2.86500000001115
 31
0.0
  0
LINE
  5
43B8
330
43AE
100
AcDbEntity
  8
KANAMONO_SCREW
100
AcDbLine
 10
-0.0000000000014779
 20
-8.665000000000645
 30
0.0
 11
0.0000000000001137
 21
-3.36500000001115
 31
0.0
  0
LINE
  5
43B9
330
43AE
100
AcDbEntity
  8
KANAMONO_SCREW
100
AcDbLine
 10
3.390000000000782
 20
-8.66499999999587
 30
0.0
 11
3.390000000002373
 21
-3.364999999999099
 31
0.0
  0
LINE
  5
43BA
330
43AE
100
AcDbEntity
  8
KANAMONO_SCREW
100
AcDbLine
 10
-3.389999999999076
 20
-8.665000000003146
 30
0.0
 11
-3.389999999997371
 21
-3.364999999999554
 31
0.0
  0
LINE
  5
43BB
330
43AE
100
AcDbEntity
  8
KANAMONO_SCREW
100
AcDbLine
 10
3.390000000002373
 20
-3.364999999999099
 30
0.0
 11
2.790000000002578
 21
-2.864999999999326
 31
0.0
  0
LINE
  5
43BC
330
43AE
100
AcDbEntity
  8
KANAMONO_SCREW
100
AcDbLine
 10
-2.789999999997462
 20
-2.864999999999326
 30
0.0
 11
-3.389999999997371
 21
-3.364999999999554
 31
0.0
  0
LINE
  5
43BD
330
43AE
100
AcDbEntity
  8
KANAMONO_SCREW
100
AcDbLine
 10
0.2499999999998863
 20
-2.864999999999781
 30
0.0
 11
0.0000000000001137
 21
-3.364999999999554
 31
0.0
  0
LINE
  5
43BE
330
43AE
100
AcDbEntity
  8
KANAMONO_SCREW
100
AcDbLine
 10
0.0000000000001137
 20
-3.364999999999554
 30
0.0
 11
-0.2499999999943157
 21
-2.86500000001115
 31
0.0
  0
LINE
  5
43BF
330
43AE
100
AcDbEntity
  8
KANAMONO_SCREW
100
AcDbLine
 10
2.890000000000213
 20
-2.864999999999326
 30
0.0
 11
-2.889999999999872
 21
-2.864999999999326
 31
0.0
  0
LINE
  5
43C0
330
43AE
100
AcDbEntity
  8
KANAMONO_SCREW
100
AcDbLine
 10
2.890000000000213
 20
-2.864999999999326
 30
0.0
 11
3.675000000000068
 21
-2.014999999999417
 31
0.0
  0
LINE
  5
43C1
330
43AE
100
AcDbEntity
  8
KANAMONO_SCREW
100
AcDbLine
 10
-2.889999999999872
 20
-2.864999999999326
 30
0.0
 11
-3.674999999999954
 21
-2.014999999999645
 31
0.0
  0
LINE
  5
43C2
330
43AE
100
AcDbEntity
  8
KANAMONO_SCREW
100
AcDbLine
 10
3.675000000000068
 20
-2.014999999999417
 30
0.0
 11
-3.674999999999954
 21
-2.014999999999645
 31
0.0
  0
LINE
  5
43C3
330
43AE
100
AcDbEntity
  8
KANAMONO_SCREW
100
AcDbLine
 10
3.675000000000068
 20
-2.014999999999417
 30
0.0
 11
3.675000000000068
 21
-1.564999999999372
 31
0.0
  0
LINE
  5
43C4
330
43AE
100
AcDbEntity
  8
KANAMONO_SCREW
100
AcDbLine
 10
3.675000000000068
 20
-1.564999999999372
 30
0.0
 11
-3.674999999999954
 21
-1.564999999999372
 31
0.0
  0
LINE
  5
43C5
330
43AE
100
AcDbEntity
  8
KANAMONO_SCREW
100
AcDbLine
 10
-3.674999999999954
 20
-2.014999999999645
 30
0.0
 11
-3.674999999999954
 21
-1.564999999999372
 31
0.0
  0
ARC
  5
43C6
330
43AE
100
AcDbEntity
  8
KANAMONO_SCREW
100
AcDbCircle
 10
1.249999999999772
 20
-30.86499999999956
 30
0.0
 40
0.5999999999999998
100
AcDbArc
 50
270.0
 51
0.0
  0
LINE
  5
43C7
330
43AE
100
AcDbEntity
  8
KANAMONO_SCREW
100
AcDbLine
 10
1.849999999999795
 20
-30.86499999999956
 30
0.0
 11
1.849999999999795
 21
-22.66499999999928
 31
0.0
  0
ARC
  5
43C8
330
43AE
100
AcDbEntity
  8
KANAMONO_SCREW
100
AcDbCircle
 10
-1.250000000000227
 20
-30.86499999999956
 30
0.0
 40
0.5999999999999998
100
AcDbArc
 50
180.0
 51
270.0
  0
LINE
  5
43C9
330
43AE
100
AcDbEntity
  8
KANAMONO_SCREW
100
AcDbLine
 10
-1.850000000000363
 20
-30.86499999999956
 30
0.0
 11
-1.850000000000363
 21
-22.66499999999928
 31
0.0
  0
LINE
  5
43CA
330
43AE
100
AcDbEntity
  8
KANAMONO_SCREW
100
AcDbLine
 10
-1.250000000000227
 20
-31.46499999999946
 30
0.0
 11
1.249999999999772
 21
-31.46499999999946
 31
0.0
  0
LINE
  5
43CB
330
43AE
100
AcDbEntity
  8
KANAMONO_SCREW
100
AcDbLine
 10
3.389999999999872
 20
-24.06499999999915
 30
0.0
 11
2.789999999999963
 21
-23.56499999999937
 31
0.0
  0
LINE
  5
43CC
330
43AE
100
AcDbEntity
  8
KANAMONO_SCREW
100
AcDbLine
 10
3.389999999999872
 20
-36.56499999999937
 30
0.0
 11
3.389999999999872
 21
-24.06499999999915
 31
0.0
  0
LINE
  5
43CD
330
43AE
100
AcDbEntity
  8
KANAMONO_SCREW
100
AcDbLine
 10
-2.789999999999963
 20
-23.56499999999937
 30
0.0
 11
-3.3900000000001
 21
-24.0649999999996
 31
0.0
  0
LINE
  5
43CE
330
43AE
100
AcDbEntity
  8
KANAMONO_SCREW
100
AcDbLine
 10
-3.3900000000001
 20
-36.5649999999996
 30
0.0
 11
-3.3900000000001
 21
-24.0649999999996
 31
0.0
  0
ARC
  5
43CF
330
43AE
100
AcDbEntity
  8
KANAMONO_SCREW
100
AcDbCircle
 10
1.249999999999772
 20
-22.66499999999928
 30
0.0
 40
0.5999999999999998
100
AcDbArc
 50
0.0
 51
90.0
  0
LINE
  5
43D0
330
43AE
100
AcDbEntity
  8
KANAMONO_SCREW
100
AcDbLine
 10
1.249999999999772
 20
-22.06499999999937
 30
0.0
 11
-1.250000000000227
 21
-22.06499999999937
 31
0.0
  0
ARC
  5
43D1
330
43AE
100
AcDbEntity
  8
KANAMONO_SCREW
100
AcDbCircle
 10
-1.250000000000227
 20
-22.66499999999928
 30
0.0
 40
0.5999999999999998
100
AcDbArc
 50
90.0
 51
180.0
  0
LINE
  5
43D2
330
43AE
100
AcDbEntity
  8
KANAMONO_SCREW
100
AcDbLine
 10
2.889999999999872
 20
-33.36499999999956
 30
0.0
 11
2.889999999999872
 21
-31.56499999999937
 31
0.0
  0
LINE
  5
43D3
330
43AE
100
AcDbEntity
  8
KANAMONO_SCREW
100
AcDbLine
 10
2.889999999999872
 20
-38.76499999999964
 30
0.0
 11
2.889999999999872
 21
-36.96499999999924
 31
0.0
  0
LINE
  5
43D4
330
43AE
100
AcDbEntity
  8
KANAMONO_SCREW
100
AcDbLine
 10
-2.8900000000001
 20
-33.36499999999956
 30
0.0
 11
-2.8900000000001
 21
-31.56499999999937
 31
0.0
  0
LINE
  5
43D5
330
43AE
100
AcDbEntity
  8
KANAMONO_SCREW
100
AcDbLine
 10
-2.8900000000001
 20
-38.76499999999964
 30
0.0
 11
-2.8900000000001
 21
-36.96499999999924
 31
0.0
  0
LINE
  5
43D6
330
43AE
100
AcDbEntity
  8
KANAMONO_SCREW
100
AcDbLine
 10
2.789999999999736
 20
-36.36499999999933
 30
0.0
 11
1.999999999999772
 21
-36.36499999999933
 31
0.0
  0
LINE
  5
43D7
330
43AE
100
AcDbEntity
  8
KANAMONO_SCREW
100
AcDbLine
 10
2.789999999999736
 20
-36.96499999999924
 30
0.0
 11
2.789999999999736
 21
-33.36499999999956
 31
0.0
  0
LINE
  5
43D8
330
43AE
100
AcDbEntity
  8
KANAMONO_SCREW
100
AcDbLine
 10
2.789999999999736
 20
-35.86499999999933
 30
0.0
 11
1.999999999999772
 21
-35.86499999999933
 31
0.0
  0
LINE
  5
43D9
330
43AE
100
AcDbEntity
  8
KANAMONO_SCREW
100
AcDbLine
 10
2.789999999999736
 20
-35.36499999999933
 30
0.0
 11
1.999999999999772
 21
-35.36499999999933
 31
0.0
  0
LINE
  5
43DA
330
43AE
100
AcDbEntity
  8
KANAMONO_SCREW
100
AcDbLine
 10
2.789999999999736
 20
-34.86499999999933
 30
0.0
 11
1.999999999999772
 21
-34.86499999999933
 31
0.0
  0
LINE
  5
43DB
330
43AE
100
AcDbEntity
  8
KANAMONO_SCREW
100
AcDbLine
 10
2.789999999999736
 20
-34.36499999999933
 30
0.0
 11
1.999999999999772
 21
-34.36499999999933
 31
0.0
  0
LINE
  5
43DC
330
43AE
100
AcDbEntity
  8
KANAMONO_SCREW
100
AcDbLine
 10
2.789999999999736
 20
-33.86499999999933
 30
0.0
 11
1.999999999999772
 21
-33.86499999999933
 31
0.0
  0
LINE
  5
43DD
330
43AE
100
AcDbEntity
  8
KANAMONO_SCREW
100
AcDbLine
 10
-2.000000000000227
 20
-36.36499999999933
 30
0.0
 11
-2.789999999999963
 21
-36.36499999999933
 31
0.0
  0
LINE
  5
43DE
330
43AE
100
AcDbEntity
  8
KANAMONO_SCREW
100
AcDbLine
 10
-2.000000000000227
 20
-35.86499999999933
 30
0.0
 11
-2.789999999999963
 21
-35.86499999999933
 31
0.0
  0
LINE
  5
43DF
330
43AE
100
AcDbEntity
  8
KANAMONO_SCREW
100
AcDbLine
 10
-2.789999999999963
 20
-36.96499999999924
 30
0.0
 11
-2.790000000000077
 21
-33.36499999999956
 31
0.0
  0
LINE
  5
43E0
330
43AE
100
AcDbEntity
  8
KANAMONO_SCREW
100
AcDbLine
 10
-2.000000000000227
 20
-35.36499999999933
 30
0.0
 11
-2.790000000000077
 21
-35.36499999999933
 31
0.0
  0
LINE
  5
43E1
330
43AE
100
AcDbEntity
  8
KANAMONO_SCREW
100
AcDbLine
 10
-2.000000000000227
 20
-34.86499999999933
 30
0.0
 11
-2.790000000000077
 21
-34.86499999999933
 31
0.0
  0
LINE
  5
43E2
330
43AE
100
AcDbEntity
  8
KANAMONO_SCREW
100
AcDbLine
 10
-2.000000000000227
 20
-34.36499999999933
 30
0.0
 11
-2.790000000000077
 21
-34.36499999999933
 31
0.0
  0
LINE
  5
43E3
330
43AE
100
AcDbEntity
  8
KANAMONO_SCREW
100
AcDbLine
 10
-2.000000000000227
 20
-33.86499999999933
 30
0.0
 11
-2.790000000000077
 21
-33.86499999999933
 31
0.0
  0
LINE
  5
43E4
330
43AE
100
AcDbEntity
  8
KANAMONO_SCREW
100
AcDbLine
 10
2.889999999999872
 20
-33.36499999999956
 30
0.0
 11
1.999999999999772
 21
-33.36499999999956
 31
0.0
  0
LINE
  5
43E5
330
43AE
100
AcDbEntity
  8
KANAMONO_SCREW
100
AcDbLine
 10
1.999999999999772
 20
-38.76499999999964
 30
0.0
 11
1.999999999999772
 21
-33.36499999999956
 31
0.0
  0
LINE
  5
43E6
330
43AE
100
AcDbEntity
  8
KANAMONO_SCREW
100
AcDbLine
 10
-2.000000000000227
 20
-38.76499999999806
 30
0.0
 11
-2.000000000000227
 21
-33.36499999999956
 31
0.0
  0
LINE
  5
43E7
330
43AE
100
AcDbEntity
  8
KANAMONO_SCREW
100
AcDbLine
 10
-2.000000000000227
 20
-33.36499999999956
 30
0.0
 11
-2.8900000000001
 21
-33.36499999999956
 31
0.0
  0
LINE
  5
43E8
330
43AE
100
AcDbEntity
  8
KANAMONO_SCREW
100
AcDbLine
 10
2.889999999999872
 20
-31.56499999999937
 30
0.0
 11
-2.8900000000001
 21
-31.56499999999937
 31
0.0
  0
LINE
  5
43E9
330
43AE
100
AcDbEntity
  8
KANAMONO_SCREW
100
AcDbLine
 10
1.350000306161518
 20
-32.56499999999937
 30
0.0
 11
-2.8900000000001
 21
-32.56499999999937
 31
0.0
  0
LINE
  5
43EA
330
43AE
100
AcDbEntity
  8
KANAMONO_SCREW
100
AcDbLine
 10
2.889999999999872
 20
-32.56499999999937
 30
0.0
 11
1.6500003061617
 21
-32.56499999999937
 31
0.0
  0
LINE
  5
43EB
330
43AE
100
AcDbEntity
  8
KANAMONO_SCREW
100
AcDbLine
 10
1.6500003061617
 20
-33.96991029241235
 30
0.0
 11
1.6500003061617
 21
-32.36499999999978
 31
0.0
  0
LINE
  5
43EC
330
43AE
100
AcDbEntity
  8
KANAMONO_SCREW
100
AcDbLine
 10
1.6500003061617
 20
-32.36499999999978
 30
0.0
 11
1.350000306161518
 21
-32.36499999999978
 31
0.0
  0
LINE
  5
43ED
330
43AE
100
AcDbEntity
  8
KANAMONO_SCREW
100
AcDbLine
 10
1.350000306161518
 20
-33.96991029241235
 30
0.0
 11
1.350000306161518
 21
-32.36499999999978
 31
0.0
  0
ARC
  5
43EE
330
43AE
100
AcDbEntity
  8
KANAMONO_SCREW
100
AcDbCircle
 10
-0.3500000000001364
 20
-37.16008960261365
 30
0.0
 40
1.3
100
AcDbArc
 50
122.858397292397
 51
180.0
  0
LINE
  5
43EF
330
43AE
100
AcDbEntity
  8
KANAMONO_SCREW
100
AcDbLine
 10
-1.650000000000204
 20
-37.56499999999937
 30
0.0
 11
-1.650000000000204
 21
-37.16008960261365
 31
0.0
  0
ARC
  5
43F0
330
43AE
100
AcDbEntity
  8
KANAMONO_SCREW
100
AcDbCircle
 10
-0.3500000000001364
 20
-37.16008960261365
 30
0.0
 40
1.0
100
AcDbArc
 50
122.8583972924123
 51
180.0
  0
LINE
  5
43F1
330
43AE
100
AcDbEntity
  8
KANAMONO_SCREW
100
AcDbLine
 10
-1.350000000000022
 20
-37.56499999999937
 30
0.0
 11
-1.350000000000022
 21
-37.16008960261365
 31
0.0
  0
ARC
  5
43F2
330
43AE
100
AcDbEntity
  8
KANAMONO_SCREW
100
AcDbCircle
 10
0.3500003061615189
 20
-33.96991029241235
 30
0.0
 40
1.0
100
AcDbArc
 50
302.8583972924124
 51
0.0
  0
LINE
  5
43F3
330
43AE
100
AcDbEntity
  8
KANAMONO_SCREW
100
AcDbLine
 10
-0.8925646552850139
 20
-36.32007555818586
 30
0.0
 11
1.055334358031473
 21
-35.06192855016843
 31
0.0
  0
ARC
  5
43F4
330
43AE
100
AcDbEntity
  8
KANAMONO_SCREW
100
AcDbCircle
 10
0.3500003061615189
 20
-33.96991029241235
 30
0.0
 40
1.3
100
AcDbArc
 50
302.858397292397
 51
0.0
  0
LINE
  5
43F5
330
43AE
100
AcDbEntity
  8
KANAMONO_SCREW
100
AcDbLine
 10
-1.055334051870204
 20
-36.06807134485757
 30
0.0
 11
0.8925649614463964
 21
-34.80992433684014
 31
0.0
  0
LINE
  5
43F6
330
43AE
100
AcDbEntity
  8
KANAMONO_SCREW
100
AcDbLine
 10
-1.350000000000022
 20
-37.56499999999937
 30
0.0
 11
-1.650000000000204
 21
-37.56499999999937
 31
0.0
  0
LINE
  5
43F7
330
43AE
100
AcDbEntity
  8
KANAMONO_SCREW
100
AcDbLine
 10
-1.650000000000204
 20
-38.66991039738514
 30
0.0
 11
-1.650000000000204
 21
-38.26499999999942
 31
0.0
  0
LINE
  5
43F8
330
43AE
100
AcDbEntity
  8
KANAMONO_SCREW
100
AcDbLine
 10
-1.350000000000022
 20
-38.26499999999942
 30
0.0
 11
-1.650000000000204
 21
-38.26499999999942
 31
0.0
  0
LINE
  5
43F9
330
43AE
100
AcDbEntity
  8
KANAMONO_SCREW
100
AcDbLine
 10
-1.350000000000022
 20
-38.66991039738514
 30
0.0
 11
-1.350000000000022
 21
-38.26499999999942
 31
0.0
  0
ARC
  5
43FA
330
43AE
100
AcDbEntity
  8
KANAMONO_SCREW
100
AcDbCircle
 10
0.1500003061614734
 20
-52.73090980663505
 30
0.0
 40
1.0
100
AcDbArc
 50
0.0
 51
57.141602707603
  0
LINE
  5
43FB
330
43AE
100
AcDbEntity
  8
KANAMONO_SCREW
100
AcDbLine
 10
1.150000306161473
 20
-55.2990901933631
 30
0.0
 11
1.150000306161473
 21
-52.73090980663505
 31
0.0
  0
LINE
  5
43FC
330
43AE
100
AcDbEntity
  8
KANAMONO_SCREW
100
AcDbLine
 10
-1.055334051870204
 20
-50.76192865514122
 30
0.0
 11
0.6925649614461236
 21
-51.89089576220749
 31
0.0
  0
ARC
  5
43FD
330
43AE
100
AcDbEntity
  8
KANAMONO_SCREW
100
AcDbCircle
 10
0.1500003061614734
 20
-55.2990901933631
 30
0.0
 40
1.0
100
AcDbArc
 50
302.858397292397
 51
0.0
  0
LINE
  5
43FE
330
43AE
100
AcDbEntity
  8
KANAMONO_SCREW
100
AcDbLine
 10
0.4446659481299094
 20
-56.29922208772177
 30
0.0
 11
0.6925649614461236
 21
-56.13910423779088
 31
0.0
  0
ARC
  5
43FF
330
43AE
100
AcDbEntity
  8
KANAMONO_SCREW
100
AcDbCircle
 10
0.1500003061614734
 20
-55.2990901933631
 30
0.0
 40
1.3
100
AcDbArc
 50
302.8583972924124
 51
0.0
  0
LINE
  5
4400
330
43AE
100
AcDbEntity
  8
KANAMONO_SCREW
100
AcDbLine
 10
0.6074353447150998
 20
-56.55122630105006
 30
0.0
 11
0.8553343580317687
 21
-56.39110845111918
 31
0.0
  0
LINE
  5
4401
330
43AE
100
AcDbEntity
  8
KANAMONO_SCREW
100
AcDbLine
 10
1.450000306161427
 20
-55.2990901933631
 30
0.0
 11
1.450000306161427
 21
-52.73090980663505
 31
0.0
  0
ARC
  5
4402
330
43AE
100
AcDbEntity
  8
KANAMONO_SCREW
100
AcDbCircle
 10
0.1500003061614734
 20
-52.73090980663505
 30
0.0
 40
1.3
100
AcDbArc
 50
0.0
 51
57.141602707603
  0
LINE
  5
4403
330
43AE
100
AcDbEntity
  8
KANAMONO_SCREW
100
AcDbLine
 10
-0.8925646552850139
 20
-50.50992444181315
 30
0.0
 11
0.8553343580315413
 21
-51.6388915488792
 31
0.0
  0
ARC
  5
4404
330
43AE
100
AcDbEntity
  8
KANAMONO_SCREW
100
AcDbCircle
 10
-0.3500000000001364
 20
-38.66991039738514
 30
0.0
 40
1.3
100
AcDbArc
 50
180.0
 51
237.141602707603
  0
ARC
  5
4405
330
43AE
100
AcDbEntity
  8
KANAMONO_SCREW
100
AcDbCircle
 10
-0.3500000000001364
 20
-38.66991039738514
 30
0.0
 40
1.0
100
AcDbArc
 50
180.0
 51
237.1416027075877
  0
ARC
  5
4406
330
43AE
100
AcDbEntity
  8
KANAMONO_SCREW
100
AcDbCircle
 10
0.3500003061615189
 20
-44.16991029241194
 30
0.0
 40
1.0
100
AcDbArc
 50
302.858397292397
 51
0.0
  0
LINE
  5
4407
330
43AE
100
AcDbEntity
  8
KANAMONO_SCREW
100
AcDbLine
 10
-1.055334051870204
 20
-39.76192865514122
 30
0.0
 11
0.892564961446169
 21
-41.02007566315887
 31
0.0
  0
LINE
  5
4408
330
43AE
100
AcDbEntity
  8
KANAMONO_SCREW
100
AcDbLine
 10
1.350000306161518
 20
-44.16991029241194
 30
0.0
 11
1.350000306161518
 21
-41.86008970758644
 31
0.0
  0
ARC
  5
4409
330
43AE
100
AcDbEntity
  8
KANAMONO_SCREW
100
AcDbCircle
 10
0.3500003061615189
 20
-41.86008970758644
 30
0.0
 40
1.0
100
AcDbArc
 50
0.0
 51
57.141602707603
  0
LINE
  5
440A
330
43AE
100
AcDbEntity
  8
KANAMONO_SCREW
100
AcDbLine
 10
-0.8925646552850139
 20
-39.50992444181293
 30
0.0
 11
1.055334358031473
 21
-40.76807144983058
 31
0.0
  0
ARC
  5
440B
330
43AE
100
AcDbEntity
  8
KANAMONO_SCREW
100
AcDbCircle
 10
0.3500003061615189
 20
-41.86008970758644
 30
0.0
 40
1.3
100
AcDbArc
 50
0.0
 51
57.141602707603
  0
LINE
  5
440C
330
43AE
100
AcDbEntity
  8
KANAMONO_SCREW
100
AcDbLine
 10
1.650000306161473
 20
-44.16991029241194
 30
0.0
 11
1.650000306161473
 21
-41.86008970758644
 31
0.0
  0
ARC
  5
440D
330
43AE
100
AcDbEntity
  8
KANAMONO_SCREW
100
AcDbCircle
 10
0.3500003061615189
 20
-44.16991029241194
 30
0.0
 40
1.3
100
AcDbArc
 50
302.858397292397
 51
0.0
  0
ARC
  5
440E
330
43AE
100
AcDbEntity
  8
KANAMONO_SCREW
100
AcDbCircle
 10
-0.3500000000001364
 20
-49.66991039738513
 30
0.0
 40
1.3
100
AcDbArc
 50
180.0
 51
237.141602707603
  0
ARC
  5
440F
330
43AE
100
AcDbEntity
  8
KANAMONO_SCREW
100
AcDbCircle
 10
-0.3500000000001364
 20
-49.66991039738513
 30
0.0
 40
1.0
100
AcDbArc
 50
180.0
 51
237.1416027075877
  0
LINE
  5
4410
330
43AE
100
AcDbEntity
  8
KANAMONO_SCREW
100
AcDbLine
 10
-1.650000000000204
 20
-49.66991039738513
 30
0.0
 11
-1.650000000000204
 21
-47.36008960261346
 31
0.0
  0
LINE
  5
4411
330
43AE
100
AcDbEntity
  8
KANAMONO_SCREW
100
AcDbLine
 10
-1.055334051870204
 20
-46.26807134485716
 30
0.0
 11
0.892564961446169
 21
-45.00992433683973
 31
0.0
  0
ARC
  5
4412
330
43AE
100
AcDbEntity
  8
KANAMONO_SCREW
100
AcDbCircle
 10
-0.3500000000001364
 20
-47.36008960261346
 30
0.0
 40
1.3
100
AcDbArc
 50
122.858397292397
 51
180.0
  0
LINE
  5
4413
330
43AE
100
AcDbEntity
  8
KANAMONO_SCREW
100
AcDbLine
 10
-1.350000000000022
 20
-49.66991039738513
 30
0.0
 11
-1.350000000000022
 21
-47.36008960261346
 31
0.0
  0
LINE
  5
4414
330
43AE
100
AcDbEntity
  8
KANAMONO_SCREW
100
AcDbLine
 10
-0.8925646552850139
 20
-46.52007555818545
 30
0.0
 11
1.055334358031473
 21
-45.26192855016802
 31
0.0
  0
ARC
  5
4415
330
43AE
100
AcDbEntity
  8
KANAMONO_SCREW
100
AcDbCircle
 10
-0.3500000000001364
 20
-47.36008960261346
 30
0.0
 40
1.0
100
AcDbArc
 50
122.8583972924123
 51
180.0
  0
ARC
  5
4416
330
43AE
100
AcDbEntity
  8
KANAMONO_SCREW
100
AcDbCircle
 10
1.149999999999863
 20
-57.39124034547785
 30
0.0
 40
1.0
100
AcDbArc
 50
122.8583972924123
 51
180.0
  0
ARC
  5
4417
330
43AE
100
AcDbEntity
  8
KANAMONO_SCREW
100
AcDbCircle
 10
1.149999999999863
 20
-57.39124034547785
 30
0.0
 40
1.3
100
AcDbArc
 50
122.858397292397
 51
180.0
  0
LINE
  5
4418
330
43AE
100
AcDbEntity
  8
KANAMONO_SCREW
100
AcDbLine
 10
-0.1500000000003183
 20
-57.56499999999937
 30
0.0
 11
-0.1500000000003183
 21
-57.39124034547785
 31
0.0
  0
LINE
  5
4419
330
43AE
100
AcDbEntity
  8
KANAMONO_SCREW
100
AcDbLine
 10
0.1499999999998636
 20
-57.56499999999937
 30
0.0
 11
0.1499999999998636
 21
-57.39124034547785
 31
0.0
  0
LINE
  5
441A
330
43AE
100
AcDbEntity
  8
KANAMONO_SCREW
100
AcDbLine
 10
0.1499999999998636
 20
-57.56499999999937
 30
0.0
 11
-0.1500000000003183
 21
-57.56499999999937
 31
0.0
  0
LINE
  5
441B
330
43AE
100
AcDbEntity
  8
KANAMONO_SCREW
100
AcDbLine
 10
3.224999999999795
 20
-42.56499999999937
 30
0.0
 11
2.140943284395007
 21
-42.56499999999937
 31
0.0
  0
LINE
  5
441C
330
43AE
100
AcDbEntity
  8
KANAMONO_SCREW
100
AcDbLine
 10
-2.1410526315791
 20
-42.56499999999937
 30
0.0
 11
-3.225000000000136
 21
-42.56499999999937
 31
0.0
  0
LINE
  5
441D
330
43AE
100
AcDbEntity
  8
KANAMONO_SCREW
100
AcDbLine
 10
3.163624561810024
 20
-41.96499999999923
 30
0.0
 11
2.118689081596016
 21
-41.96499999999923
 31
0.0
  0
LINE
  5
441E
330
43AE
100
AcDbEntity
  8
KANAMONO_SCREW
100
AcDbLine
 10
3.110729824967847
 20
-41.36499999999933
 30
0.0
 11
2.096434878796571
 21
-41.36499999999933
 31
0.0
  0
LINE
  5
441F
330
43AE
100
AcDbEntity
  8
KANAMONO_SCREW
100
AcDbLine
 10
3.057835088125898
 20
-40.76499999999964
 30
0.0
 11
2.07418067599724
 21
-40.76499999999964
 31
0.0
  0
LINE
  5
4420
330
43AE
100
AcDbEntity
  8
KANAMONO_SCREW
100
AcDbLine
 10
3.004940351283607
 20
-40.16499999999928
 30
0.0
 11
2.051926473198136
 21
-40.16499999999928
 31
0.0
  0
LINE
  5
4421
330
43AE
100
AcDbEntity
  8
KANAMONO_SCREW
100
AcDbLine
 10
2.952045614441317
 20
-39.56499999999937
 30
0.0
 11
2.029672270398805
 21
-39.56499999999937
 31
0.0
  0
LINE
  5
4422
330
43AE
100
AcDbEntity
  8
KANAMONO_SCREW
100
AcDbLine
 10
-2.007423822715054
 20
-38.96499999999924
 30
0.0
 11
-2.899150571437985
 21
-38.96499999999924
 31
0.0
  0
LINE
  5
4423
330
43AE
100
AcDbEntity
  8
KANAMONO_SCREW
100
AcDbLine
 10
-2.029695290859081
 20
-39.56499999999937
 30
0.0
 11
-2.952045308280048
 21
-39.56499999999937
 31
0.0
  0
LINE
  5
4424
330
43AE
100
AcDbEntity
  8
KANAMONO_SCREW
100
AcDbLine
 10
-2.051966759002993
 20
-40.16499999999928
 30
0.0
 11
-3.004940045122339
 21
-40.16499999999928
 31
0.0
  0
LINE
  5
4425
330
43AE
100
AcDbEntity
  8
KANAMONO_SCREW
100
AcDbLine
 10
-2.074238227147134
 20
-40.76499999999964
 30
0.0
 11
-3.057834781964288
 21
-40.76499999999964
 31
0.0
  0
LINE
  5
4426
330
43AE
100
AcDbEntity
  8
KANAMONO_SCREW
100
AcDbLine
 10
-2.09650969529116
 20
-41.36499999999933
 30
0.0
 11
-3.110729518806465
 21
-41.36499999999933
 31
0.0
  0
LINE
  5
4427
330
43AE
100
AcDbEntity
  8
KANAMONO_SCREW
100
AcDbLine
 10
-2.118781163435073
 20
-41.96499999999923
 30
0.0
 11
-3.163624255648528
 21
-41.96499999999923
 31
0.0
  0
LINE
  5
4428
330
43AE
100
AcDbEntity
  8
KANAMONO_SCREW
100
AcDbLine
 10
2.141070321496044
 20
-42.56842507261512
 30
0.0
 11
1.999999999999772
 21
-38.76499999999964
 31
0.0
  0
LINE
  5
4429
330
43AE
100
AcDbEntity
  8
KANAMONO_SCREW
100
AcDbLine
 10
-2.1410526315791
 20
-42.56499999999937
 30
0.0
 11
-2.000000000000227
 21
-38.76499999999964
 31
0.0
  0
LINE
  5
442A
330
43AE
100
AcDbEntity
  8
KANAMONO_SCREW
100
AcDbLine
 10
2.149999663219205
 20
-44.26499999999964
 30
0.0
 11
2.141070321496044
 21
-42.56842507261512
 31
0.0
  0
LINE
  5
442B
330
43AE
100
AcDbEntity
  8
KANAMONO_SCREW
100
AcDbLine
 10
-2.150000000000204
 20
-44.26499999999964
 30
0.0
 11
-2.141007727306259
 21
-42.55646818812965
 31
0.0
  0
LINE
  5
442C
330
43AE
100
AcDbEntity
  8
KANAMONO_SCREW
100
AcDbLine
 10
2.89915087759914
 20
-38.96499999999924
 30
0.0
 11
2.001052631578772
 21
-38.96499999999924
 31
0.0
  0
LINE
  5
442D
330
43AE
100
AcDbEntity
  8
KANAMONO_SCREW
100
AcDbLine
 10
-2.000000000000227
 20
-36.96499999999924
 30
0.0
 11
-2.8900000000001
 21
-36.96499999999924
 31
0.0
  0
LINE
  5
442E
330
43AE
100
AcDbEntity
  8
KANAMONO_SCREW
100
AcDbLine
 10
2.889999999999872
 20
-36.96499999999924
 30
0.0
 11
1.999999999999772
 21
-36.96499999999924
 31
0.0
  0
LINE
  5
442F
330
43AE
100
AcDbEntity
  8
KANAMONO_SCREW
100
AcDbLine
 10
-2.000000000000227
 20
-38.76499999999964
 30
0.0
 11
-2.8900000000001
 21
-38.76499999999964
 31
0.0
  0
LINE
  5
4430
330
43AE
100
AcDbEntity
  8
KANAMONO_SCREW
100
AcDbLine
 10
2.889999999999872
 20
-38.76499999999964
 30
0.0
 11
1.999999999999772
 21
-38.76499999999964
 31
0.0
  0
LINE
  5
4431
330
43AE
100
AcDbEntity
  8
KANAMONO_SCREW
100
AcDbLine
 10
3.063636669798029
 20
-42.56499999999914
 30
0.0
 11
2.728636669797992
 21
-38.76499999999919
 31
0.0
  0
LINE
  5
4432
330
43AE
100
AcDbEntity
  8
KANAMONO_SCREW
100
AcDbLine
 10
-3.063636363636533
 20
-42.56499999999914
 30
0.0
 11
-2.728636363636496
 21
-38.76499999999919
 31
0.0
  0
LINE
  5
4433
330
43AE
100
AcDbEntity
  8
KANAMONO_SCREW
100
AcDbLine
 10
-2.140000000000213
 20
-44.66499999999927
 30
0.0
 11
-3.206518992490828
 21
-44.66499999999951
 31
0.0
  0
LINE
  5
4434
330
43AE
100
AcDbEntity
  8
KANAMONO_SCREW
100
AcDbLine
 10
-2.125000000000227
 20
-45.26499999999964
 30
0.0
 11
-3.191518992490728
 21
-45.26499999999964
 31
0.0
  0
LINE
  5
4435
330
43AE
100
AcDbEntity
  8
KANAMONO_SCREW
100
AcDbLine
 10
-2.110000000000354
 20
-45.86499999999932
 30
0.0
 11
-3.176518992490628
 21
-45.86499999999932
 31
0.0
  0
LINE
  5
4436
330
43AE
100
AcDbEntity
  8
KANAMONO_SCREW
100
AcDbLine
 10
-2.095000000000254
 20
-46.46499999999924
 30
0.0
 11
-3.161518992490755
 21
-46.46499999999924
 31
0.0
  0
LINE
  5
4437
330
43AE
100
AcDbEntity
  8
KANAMONO_SCREW
100
AcDbLine
 10
-2.080000000000154
 20
-47.06499999999937
 30
0.0
 11
-3.146518992490655
 21
-47.06499999999937
 31
0.0
  0
LINE
  5
4438
330
43AE
100
AcDbEntity
  8
KANAMONO_SCREW
100
AcDbLine
 10
-2.065000000000281
 20
-47.6649999999995
 30
0.0
 11
-3.131518992490555
 21
-47.6649999999995
 31
0.0
  0
LINE
  5
4439
330
43AE
100
AcDbEntity
  8
KANAMONO_SCREW
100
AcDbLine
 10
3.206518961871324
 20
-44.66499999999927
 30
0.0
 11
2.139999663219327
 21
-44.66499999999927
 31
0.0
  0
LINE
  5
443A
330
43AE
100
AcDbEntity
  8
KANAMONO_SCREW
100
AcDbLine
 10
3.191518961871224
 20
-45.26499999999964
 30
0.0
 11
2.124999663219341
 21
-45.26499999999964
 31
0.0
  0
LINE
  5
443B
330
43AE
100
AcDbEntity
  8
KANAMONO_SCREW
100
AcDbLine
 10
3.176518961871352
 20
-45.86499999999932
 30
0.0
 11
2.109999663219241
 21
-45.86499999999932
 31
0.0
  0
LINE
  5
443C
330
43AE
100
AcDbEntity
  8
KANAMONO_SCREW
100
AcDbLine
 10
3.161518961871252
 20
-46.46499999999924
 30
0.0
 11
2.094999663219141
 21
-46.46499999999924
 31
0.0
  0
LINE
  5
443D
330
43AE
100
AcDbEntity
  8
KANAMONO_SCREW
100
AcDbLine
 10
3.146518961871379
 20
-47.06499999999937
 30
0.0
 11
2.096048853145816
 21
-47.06499999999937
 31
0.0
  0
LINE
  5
443E
330
43AE
100
AcDbEntity
  8
KANAMONO_SCREW
100
AcDbLine
 10
3.13151896187162
 20
-47.66499999999928
 30
0.0
 11
2.064999663219396
 21
-47.66499999999928
 31
0.0
  0
LINE
  5
443F
330
43AE
100
AcDbEntity
  8
KANAMONO_SCREW
100
AcDbLine
 10
2.963636363665273
 20
-48.26498652761916
 30
0.0
 11
3.063636363665295
 21
-44.26498652761916
 31
0.0
  0
LINE
  5
4440
330
43AE
100
AcDbEntity
  8
KANAMONO_SCREW
100
AcDbLine
 10
-2.96363636363651
 20
-48.26499999999964
 30
0.0
 11
-3.063636363636533
 21
-44.26499999999964
 31
0.0
  0
LINE
  5
4441
330
43AE
100
AcDbEntity
  8
KANAMONO_SCREW
100
AcDbLine
 10
2.749999999999772
 20
-53.76499999999964
 30
0.0
 11
2.83636363636333
 21
-49.96499999999946
 31
0.0
  0
LINE
  5
4442
330
43AE
100
AcDbEntity
  8
KANAMONO_SCREW
100
AcDbLine
 10
2.998636669797861
 20
-53.16499999999928
 30
0.0
 11
1.898026315789479
 21
-53.16499999999928
 31
0.0
  0
LINE
  5
4443
330
43AE
100
AcDbEntity
  8
KANAMONO_SCREW
100
AcDbLine
 10
3.012273033434325
 20
-52.56499999999937
 30
0.0
 11
1.921052631578731
 21
-52.56499999999937
 31
0.0
  0
LINE
  5
4444
330
43AE
100
AcDbEntity
  8
KANAMONO_SCREW
100
AcDbLine
 10
3.025909397070563
 20
-51.96499999999947
 30
0.0
 11
1.944078947368211
 21
-51.96499999999947
 31
0.0
  0
LINE
  5
4445
330
43AE
100
AcDbEntity
  8
KANAMONO_SCREW
100
AcDbLine
 10
3.039545760707028
 20
-51.36499999999955
 30
0.0
 11
1.967105263157691
 21
-51.36499999999955
 31
0.0
  0
LINE
  5
4446
330
43AE
100
AcDbEntity
  8
KANAMONO_SCREW
100
AcDbLine
 10
3.053182124343265
 20
-50.76499999999964
 30
0.0
 11
2.01315789473665
 21
-50.76499999999964
 31
0.0
  0
LINE
  5
4447
330
43AE
100
AcDbEntity
  8
KANAMONO_SCREW
100
AcDbLine
 10
-2.013157894736991
 20
-50.76499999999964
 30
0.0
 11
-3.055032972211165
 21
-50.76499999999964
 31
0.0
  0
LINE
  5
4448
330
43AE
100
AcDbEntity
  8
KANAMONO_SCREW
100
AcDbLine
 10
-1.967105263158146
 20
-51.36499999999955
 30
0.0
 11
-3.044192331607746
 21
-51.36499999999955
 31
0.0
  0
LINE
  5
4449
330
43AE
100
AcDbEntity
  8
KANAMONO_SCREW
100
AcDbLine
 10
-1.944078947368552
 20
-51.96499999999947
 30
0.0
 11
-3.033351691004213
 21
-51.96499999999947
 31
0.0
  0
LINE
  5
444A
330
43AE
100
AcDbEntity
  8
KANAMONO_SCREW
100
AcDbLine
 10
-1.921052631579073
 20
-52.56499999999937
 30
0.0
 11
-3.022511050401135
 21
-52.56499999999937
 31
0.0
  0
LINE
  5
444B
330
43AE
100
AcDbEntity
  8
KANAMONO_SCREW
100
AcDbLine
 10
-1.898026315789707
 20
-53.16499999999951
 30
0.0
 11
-3.011670409797716
 21
-53.16499999999951
 31
0.0
  0
LINE
  5
444C
330
43AE
100
AcDbEntity
  8
KANAMONO_SCREW
100
AcDbLine
 10
-2.150000000000204
 20
-44.26499999999964
 30
0.0
 11
-3.225000000000136
 21
-44.26499999999964
 31
0.0
  0
LINE
  5
444D
330
43AE
100
AcDbEntity
  8
KANAMONO_SCREW
100
AcDbLine
 10
3.224999999999795
 20
-44.26499999999964
 30
0.0
 11
2.149999663219205
 21
-44.26499999999964
 31
0.0
  0
LINE
  5
444E
330
43AE
100
AcDbEntity
  8
KANAMONO_SCREW
100
AcDbLine
 10
2.05000000002883
 20
-48.26498652761916
 30
0.0
 11
2.150000000028626
 21
-44.26498652761916
 31
0.0
  0
LINE
  5
444F
330
43AE
100
AcDbEntity
  8
KANAMONO_SCREW
100
AcDbLine
 10
-2.050000000000181
 20
-48.26499999999896
 30
0.0
 11
-2.150000000000204
 21
-44.26499999999896
 31
0.0
  0
LINE
  5
4450
330
43AE
100
AcDbEntity
  8
KANAMONO_SCREW
100
AcDbLine
 10
3.224999999999795
 20
-44.26499999999964
 30
0.0
 11
3.224999999999795
 21
-42.56499999999937
 31
0.0
  0
LINE
  5
4451
330
43AE
100
AcDbEntity
  8
KANAMONO_SCREW
100
AcDbLine
 10
-3.225000000000136
 20
-44.26499999999964
 30
0.0
 11
-3.225000000000136
 21
-42.56499999999937
 31
0.0
  0
LINE
  5
4452
330
43AE
100
AcDbEntity
  8
KANAMONO_SCREW
100
AcDbLine
 10
-2.750000000000227
 20
-53.76499999999964
 30
0.0
 11
-2.925000000000181
 21
-49.96499999999946
 31
0.0
  0
LINE
  5
4453
330
43AE
100
AcDbEntity
  8
KANAMONO_SCREW
100
AcDbLine
 10
2.749999999999772
 20
-58.16499999999928
 30
0.0
 11
2.749999999999772
 21
-55.56499999999937
 31
0.0
  0
LINE
  5
4454
330
43AE
100
AcDbEntity
  8
KANAMONO_SCREW
100
AcDbLine
 10
-2.750000000000227
 20
-58.16499999999951
 30
0.0
 11
-2.750000000000227
 21
-55.56499999999937
 31
0.0
  0
LINE
  5
4455
330
43AE
100
AcDbEntity
  8
KANAMONO_SCREW
100
AcDbLine
 10
3.064545760706891
 20
-50.26499999999964
 30
0.0
 11
2.027929979067039
 21
-50.26499999999964
 31
0.0
  0
LINE
  5
4456
330
43AE
100
AcDbEntity
  8
KANAMONO_SCREW
100
AcDbLine
 10
2.999999999999772
 20
-53.76499999999964
 30
0.0
 11
1.874999999999772
 21
-53.76499999999964
 31
0.0
  0
LINE
  5
4457
330
43AE
100
AcDbEntity
  8
KANAMONO_SCREW
100
AcDbLine
 10
-2.036184210526471
 20
-50.26499999999964
 30
0.0
 11
-3.064066839380529
 21
-50.26499999999964
 31
0.0
  0
LINE
  5
4458
330
43AE
100
AcDbEntity
  8
KANAMONO_SCREW
100
AcDbLine
 10
3.08636394252494
 20
-49.96499999999946
 30
0.0
 11
3.125000306161382
 21
-48.26499999999964
 31
0.0
  0
LINE
  5
4459
330
43AE
100
AcDbEntity
  8
KANAMONO_SCREW
100
AcDbLine
 10
-3.086363636363671
 20
-49.96499999999946
 30
0.0
 11
-3.125000000000227
 21
-48.26499999999964
 31
0.0
  0
LINE
  5
445A
330
43AE
100
AcDbEntity
  8
KANAMONO_SCREW
100
AcDbLine
 10
-2.050000000000181
 20
-49.96499999999946
 30
0.0
 11
-3.086363636363671
 21
-49.96499999999946
 31
0.0
  0
LINE
  5
445B
330
43AE
100
AcDbEntity
  8
KANAMONO_SCREW
100
AcDbLine
 10
3.08636394252494
 20
-49.96499999999946
 30
0.0
 11
2.049999999999954
 21
-49.96499999999946
 31
0.0
  0
LINE
  5
445C
330
43AE
100
AcDbEntity
  8
KANAMONO_SCREW
100
AcDbLine
 10
-2.050000000000181
 20
-48.26499999999964
 30
0.0
 11
-3.125000000000227
 21
-48.26499999999964
 31
0.0
  0
LINE
  5
445D
330
43AE
100
AcDbEntity
  8
KANAMONO_SCREW
100
AcDbLine
 10
3.124999999999772
 20
-48.26499999999964
 30
0.0
 11
2.049999999999727
 21
-48.26499999999964
 31
0.0
  0
LINE
  5
445E
330
43AE
100
AcDbEntity
  8
KANAMONO_SCREW
100
AcDbLine
 10
1.874999999999772
 20
-53.76499999999964
 30
0.0
 11
2.049999999999727
 21
-49.96499999999946
 31
0.0
  0
LINE
  5
445F
330
43AE
100
AcDbEntity
  8
KANAMONO_SCREW
100
AcDbLine
 10
-1.875000000000227
 20
-53.76499999999964
 30
0.0
 11
-2.050000000000181
 21
-49.96499999999946
 31
0.0
  0
LINE
  5
4460
330
43AE
100
AcDbEntity
  8
KANAMONO_SCREW
100
AcDbLine
 10
0.0000003061617235
 20
-61.06499999999937
 30
0.0
 11
-1.396311994552661
 21
-59.24979400907137
 31
0.0
  0
ARC
  5
4461
330
43AE
100
AcDbEntity
  8
KANAMONO_SCREW
100
AcDbCircle
 10
-1.000000000000227
 20
-58.94493862864647
 30
0.0
 40
0.5
100
AcDbArc
 50
180.0
 51
217.5685920288021
  0
LINE
  5
4462
330
43AE
100
AcDbEntity
  8
KANAMONO_SCREW
100
AcDbLine
 10
-1.500000000000113
 20
-58.76200569932348
 30
0.0
 11
-1.500000000000113
 21
-58.9449386286467
 31
0.0
  0
LINE
  5
4463
330
43AE
100
AcDbEntity
  8
KANAMONO_SCREW
100
AcDbLine
 10
0.0000003061617235
 20
-60.5649999999996
 30
0.0
 11
-1.410368800544915
 21
-58.7315201612812
 31
0.0
  0
ARC
  5
4464
330
43AE
100
AcDbEntity
  8
KANAMONO_SCREW
100
AcDbCircle
 10
-1.450000000000272
 20
-58.76200569932348
 30
0.0
 40
0.05
100
AcDbArc
 50
37.56859202884636
 51
180.0
  0
LINE
  5
4465
330
43AE
100
AcDbEntity
  8
KANAMONO_SCREW
100
AcDbLine
 10
1.500000306161723
 20
-58.76200569932348
 30
0.0
 11
1.500000306161723
 21
-58.94493862864647
 31
0.0
  0
LINE
  5
4466
330
43AE
100
AcDbEntity
  8
KANAMONO_SCREW
100
AcDbLine
 10
-0.0000000000004547
 20
-60.5649999999996
 30
0.0
 11
1.410369106706525
 21
-58.73152016128097
 31
0.0
  0
ARC
  5
4467
330
43AE
100
AcDbEntity
  8
KANAMONO_SCREW
100
AcDbCircle
 10
1.450000306161427
 20
-58.76200569932348
 30
0.0
 40
0.05
100
AcDbArc
 50
0.0
 51
142.4314079710051
  0
LINE
  5
4468
330
43AE
100
AcDbEntity
  8
KANAMONO_SCREW
100
AcDbLine
 10
-0.0000000000002274
 20
-61.06499999999937
 30
0.0
 11
1.396312300713816
 21
-59.24979400907137
 31
0.0
  0
ARC
  5
4469
330
43AE
100
AcDbEntity
  8
KANAMONO_SCREW
100
AcDbCircle
 10
1.000000306161723
 20
-58.94493862864647
 30
0.0
 40
0.5
100
AcDbArc
 50
322.4314079711771
 51
0.0
  0
LINE
  5
446A
330
43AE
100
AcDbEntity
  8
KANAMONO_SCREW
100
AcDbLine
 10
-1.500000000000113
 20
-56.46200569932353
 30
0.0
 11
-1.500000000000113
 21
-56.64493862864606
 31
0.0
  0
LINE
  5
446B
330
43AE
100
AcDbEntity
  8
KANAMONO_SCREW
100
AcDbLine
 10
1.500000306161723
 20
-56.46200569932353
 30
0.0
 11
1.500000306161723
 21
-56.64493862864606
 31
0.0
  0
LINE
  5
446C
330
43AE
100
AcDbEntity
  8
KANAMONO_SCREW
100
AcDbLine
 10
0.0000003061617235
 20
-58.26499999999964
 30
0.0
 11
-1.410368800544915
 21
-56.43152016128079
 31
0.0
  0
ARC
  5
446D
330
43AE
100
AcDbEntity
  8
KANAMONO_SCREW
100
AcDbCircle
 10
-1.450000000000272
 20
-56.46200569932353
 30
0.0
 40
0.05
100
AcDbArc
 50
37.56859202884636
 51
180.0
  0
LINE
  5
446E
330
43AE
100
AcDbEntity
  8
KANAMONO_SCREW
100
AcDbLine
 10
0.0000003061617235
 20
-58.76499999999964
 30
0.0
 11
-1.396311994552661
 21
-56.94979400907095
 31
0.0
  0
ARC
  5
446F
330
43AE
100
AcDbEntity
  8
KANAMONO_SCREW
100
AcDbCircle
 10
-1.000000000000227
 20
-56.64493862864606
 30
0.0
 40
0.5
100
AcDbArc
 50
180.0
 51
217.5685920288229
  0
LINE
  5
4470
330
43AE
100
AcDbEntity
  8
KANAMONO_SCREW
100
AcDbLine
 10
-0.0000000000002274
 20
-58.26499999999964
 30
0.0
 11
1.410369106706525
 21
-56.43152016128079
 31
0.0
  0
ARC
  5
4471
330
43AE
100
AcDbEntity
  8
KANAMONO_SCREW
100
AcDbCircle
 10
1.450000306161427
 20
-56.46200569932353
 30
0.0
 40
0.05
100
AcDbArc
 50
0.0
 51
142.4314079710051
  0
LINE
  5
4472
330
43AE
100
AcDbEntity
  8
KANAMONO_SCREW
100
AcDbLine
 10
-0.0000000000002274
 20
-58.76499999999964
 30
0.0
 11
1.396312300714043
 21
-56.94979400907119
 31
0.0
  0
ARC
  5
4473
330
43AE
100
AcDbEntity
  8
KANAMONO_SCREW
100
AcDbCircle
 10
1.000000306161723
 20
-56.64493862864606
 30
0.0
 40
0.5
100
AcDbArc
 50
322.4314079711562
 51
0.0
  0
LINE
  5
4474
330
43AE
100
AcDbEntity
  8
KANAMONO_SCREW
100
AcDbLine
 10
-1.875000000000227
 20
-53.76499999999964
 30
0.0
 11
-3.000000000000227
 21
-53.76499999999964
 31
0.0
  0
LINE
  5
4475
330
43AE
100
AcDbEntity
  8
KANAMONO_SCREW
100
AcDbLine
 10
-1.875000000000227
 20
-55.56499999999937
 30
0.0
 11
-3.000000000000227
 21
-55.56499999999937
 31
0.0
  0
LINE
  5
4476
330
43AE
100
AcDbEntity
  8
KANAMONO_SCREW
100
AcDbLine
 10
2.999999999999772
 20
-55.56499999999937
 30
0.0
 11
1.874999999999772
 21
-55.56499999999937
 31
0.0
  0
LINE
  5
4477
330
43AE
100
AcDbEntity
  8
KANAMONO_SCREW
100
AcDbLine
 10
-1.875000000000227
 20
-58.16499999999951
 30
0.0
 11
-3.000000000000227
 21
-58.16499999999951
 31
0.0
  0
LINE
  5
4478
330
43AE
100
AcDbEntity
  8
KANAMONO_SCREW
100
AcDbLine
 10
2.999158339380528
 20
-58.16499999999928
 30
0.0
 11
1.874999999999772
 21
-58.16499999999928
 31
0.0
  0
LINE
  5
4479
330
43AE
100
AcDbEntity
  8
KANAMONO_SCREW
100
AcDbLine
 10
-1.875000000000227
 20
-56.61499999999955
 30
0.0
 11
-2.925000000000181
 21
-56.61499999999955
 31
0.0
  0
LINE
  5
447A
330
43AE
100
AcDbEntity
  8
KANAMONO_SCREW
100
AcDbLine
 10
1.874999999999772
 20
-58.16499999999928
 30
0.0
 11
1.874999999999772
 21
-55.56499999999937
 31
0.0
  0
LINE
  5
447B
330
43AE
100
AcDbEntity
  8
KANAMONO_SCREW
100
AcDbLine
 10
-1.875000000000227
 20
-58.16499999999951
 30
0.0
 11
-1.875000000000227
 21
-55.56499999999937
 31
0.0
  0
LINE
  5
447C
330
43AE
100
AcDbEntity
  8
KANAMONO_SCREW
100
AcDbLine
 10
-1.875000000000227
 20
-57.61499999999955
 30
0.0
 11
-2.925000000000181
 21
-57.61499999999955
 31
0.0
  0
LINE
  5
447D
330
43AE
100
AcDbEntity
  8
KANAMONO_SCREW
100
AcDbLine
 10
2.924999999999727
 20
-57.61499999999955
 30
0.0
 11
1.874999999999772
 21
-57.61499999999955
 31
0.0
  0
LINE
  5
447E
330
43AE
100
AcDbEntity
  8
KANAMONO_SCREW
100
AcDbLine
 10
-1.875000000000227
 20
-57.11499999999955
 30
0.0
 11
-2.925000000000181
 21
-57.11499999999955
 31
0.0
  0
LINE
  5
447F
330
43AE
100
AcDbEntity
  8
KANAMONO_SCREW
100
AcDbLine
 10
2.924999999999727
 20
-57.11499999999955
 30
0.0
 11
1.874999999999772
 21
-57.11499999999955
 31
0.0
  0
LINE
  5
4480
330
43AE
100
AcDbEntity
  8
KANAMONO_SCREW
100
AcDbLine
 10
2.924999999999727
 20
-56.61499999999955
 30
0.0
 11
1.874999999999772
 21
-56.61499999999955
 31
0.0
  0
LINE
  5
4481
330
43AE
100
AcDbEntity
  8
KANAMONO_SCREW
100
AcDbLine
 10
-1.875000000000227
 20
-56.11499999999955
 30
0.0
 11
-2.925000000000181
 21
-56.11499999999955
 31
0.0
  0
LINE
  5
4482
330
43AE
100
AcDbEntity
  8
KANAMONO_SCREW
100
AcDbLine
 10
2.924999999999727
 20
-56.11499999999955
 30
0.0
 11
1.874999999999772
 21
-56.11499999999955
 31
0.0
  0
LINE
  5
4483
330
43AE
100
AcDbEntity
  8
KANAMONO_SCREW
100
AcDbLine
 10
-3.000000000000227
 20
-55.56499999999937
 30
0.0
 11
-3.000000000000227
 21
-53.76499999999964
 31
0.0
  0
LINE
  5
4484
330
43AE
100
AcDbEntity
  8
KANAMONO_SCREW
100
AcDbLine
 10
2.999999999999772
 20
-55.56499999999937
 30
0.0
 11
2.999999999999772
 21
-53.76499999999964
 31
0.0
  0
LINE
  5
4485
330
43AE
100
AcDbEntity
  8
KANAMONO_SCREW
100
AcDbLine
 10
2.099999999999681
 20
-61.56499999999937
 30
0.0
 11
2.999999999999772
 21
-58.16499999999928
 31
0.0
  0
LINE
  5
4486
330
43AE
100
AcDbEntity
  8
KANAMONO_SCREW
100
AcDbLine
 10
2.099999999999681
 20
-61.56499999999937
 30
0.0
 11
-2.100000000000136
 21
-61.56499999999937
 31
0.0
  0
LINE
  5
4487
330
43AE
100
AcDbEntity
  8
KANAMONO_SCREW
100
AcDbLine
 10
-2.100000000000136
 20
-61.56499999999937
 30
0.0
 11
-3.000000000000227
 21
-58.16499999999951
 31
0.0
  0
LINE
  5
4488
330
43AE
100
AcDbEntity
  8
KANAMONO_SCREW
100
AcDbLine
 10
3.389999999999872
 20
-36.56499999999937
 30
0.0
 11
2.889999999999872
 21
-38.46499999999924
 31
0.0
  0
LINE
  5
4489
330
43AE
100
AcDbEntity
  8
KANAMONO_SCREW
100
AcDbLine
 10
-2.8900000000001
 20
-38.46499999999924
 30
0.0
 11
-3.3900000000001
 21
-36.5649999999996
 31
0.0
  0
ARC
  5
448A
330
43AE
100
AcDbEntity
  8
KANAMONO_SCREW
100
AcDbCircle
 10
7.78312947083998
 20
-59.75998416990387
 30
0.0
 40
9.382689926641683
100
AcDbArc
 50
191.0915488138293
 51
213.9505323537957
  0
ARC
  5
448B
330
43AE
100
AcDbEntity
  8
KANAMONO_SCREW
100
AcDbCircle
 10
-7.783129470840208
 20
-59.75998416990387
 30
0.0
 40
9.382689926641683
100
AcDbArc
 50
326.0494676462043
 51
348.9084511861707
  0
LINE
  5
448C
330
43AE
100
AcDbEntity
  8
KANAMONO_SCREW
100
AcDbLine
 10
4.500000000000113
 20
0.0
 30
0.0
 11
-4.5
 21
0.0
 31
0.0
  0
LINE
  5
448D
330
43AE
100
AcDbEntity
  8
KANAMONO_SCREW
100
AcDbLine
 10
4.500000000000113
 20
-0.7399999999997818
 30
0.0
 11
-4.5
 21
-0.7399999999997818
 31
0.0
  0
LINE
  5
448E
330
43AE
100
AcDbEntity
  8
KANAMONO_SCREW
100
AcDbLine
 10
4.500000000000113
 20
0.0
 30
0.0
 11
4.500000000000113
 21
-0.7399999999997818
 31
0.0
  0
LINE
  5
448F
330
43AE
100
AcDbEntity
  8
KANAMONO_SCREW
100
AcDbLine
 10
-4.5
 20
0.0
 30
0.0
 11
-4.5
 21
-0.7399999999997818
 31
0.0
  0
LINE
  5
4490
330
43AE
100
AcDbEntity
  8
KANAMONO_SCREW
100
AcDbLine
 10
3.675000000000068
 20
-1.564999999999827
 30
0.0
 11
4.500000000000113
 21
-0.7399999999997818
 31
0.0
  0
LINE
  5
4491
330
43AE
100
AcDbEntity
  8
KANAMONO_SCREW
100
AcDbLine
 10
-3.675000000000295
 20
-1.564999999999372
 30
0.0
 11
-4.5
 21
-0.7399999999997818
 31
0.0
  0
ENDBLK
  5
4492
330
43AE
100
AcDbEntity
  8
0
100
AcDbBlockEnd
  0
ENDSEC
  0
SECTION
  2
ENTITIES
  0
LINE
  5
3660
330
1F
100
AcDbEntity
  8
moji
100
AcDbLine
 10
154.7503306999999
 20
222.1899750566628
 30
0.0
 11
329.7503306999999
 21
222.1899750566627
 31
0.0
  0
LINE
  5
3661
330
1F
100
AcDbEntity
  8
moji
100
AcDbLine
 10
154.7503307
 20
222.1899750566628
 30
0.0
 11
154.7503306999999
 21
285.1899750566628
 31
0.0
  0
LINE
  5
3662
330
1F
100
AcDbEntity
  8
moji
100
AcDbLine
 10
194.7503307
 20
222.1899750566628
 30
0.0
 11
194.7503306999999
 21
285.1899750566628
 31
0.0
  0
TEXT
  5
3663
330
1F
100
AcDbEntity
  8
moji
100
AcDbText
 10
157.2503306999999
 20
230.6899750566628
 30
0.0
 40
4.0
  1
　　　　　特注
100
AcDbText
  0
LINE
  5
3665
330
1F
100
AcDbEntity
  8
moji
100
AcDbLine
 10
154.7503306999999
 20
236.1899750566628
 30
0.0
 11
329.7503306999999
 21
236.1899750566628
 31
0.0
  0
TEXT
  5
3667
330
1F
100
AcDbEntity
  8
moji
100
AcDbText
 10
157.2503306999999
 20
244.6899750566627
 30
0.0
 40
4.0
  1
表面処理　標準
100
AcDbText
  0
TEXT
  5
3668
330
1F
100
AcDbEntity
  8
moji
100
AcDbText
 10
197.2503306999999
 20
272.6899750566627
 30
0.0
 40
4.0
  1
A6063S-T5
100
AcDbText
  0
TEXT
  5
3669
330
1F
100
AcDbEntity
  8
moji
100
AcDbText
 10
157.2503306999999
 20
272.6899750566627
 30
0.0
 40
4.0
  1
材質
100
AcDbText
  0
LINE
  5
366A
330
1F
100
AcDbEntity
  8
moji
100
AcDbLine
 10
154.7503306999999
 20
271.1899750566626
 30
0.0
 11
329.7503306999999
 21
271.1899750566626
 31
0.0
  0
LINE
  5
366B
330
1F
100
AcDbEntity
  8
moji
100
AcDbLine
 10
154.7503306999999
 20
278.1899750566627
 30
0.0
 11
329.7503306999999
 21
278.1899750566627
 31
0.0
  0
LINE
  5
366D
330
1F
100
AcDbEntity
  8
moji
100
AcDbLine
 10
262.2503306999999
 20
250.1899750566628
 30
0.0
 11
262.2503307
 21
285.1899750566627
 31
0.0
  0
LINE
  5
366E
330
1F
100
AcDbEntity
  8
moji
100
AcDbLine
 10
329.7503307000001
 20
222.1899750566628
 30
0.0
 11
329.7503306999999
 21
285.1899750566627
 31
0.0
  0
TEXT
  5
366F
330
1F
100
AcDbEntity
  8
moji
100
AcDbText
 10
157.2503306999999
 20
286.6899750566627
 30
0.0
 40
4.0
  1
シングルエッジＴ２５
100
AcDbText
  0
LINE
  5
3670
330
1F
100
AcDbEntity
  8
moji
100
AcDbLine
 10
154.7503306999999
 20
285.1899750566627
 30
0.0
 11
329.7503306999999
 21
285.1899750566627
 31
0.0
  0
TEXT
  5
3671
330
1F
100
AcDbEntity
  8
moji
100
AcDbText
 10
197.2503306999999
 20
279.6899750566627
 30
0.0
 40
4.0
  1
本体
100
AcDbText
  0
TEXT
  5
3672
330
1F
100
AcDbEntity
  8
moji
100
AcDbText
 10
264.7503307
 20
279.6899750566627
 30
0.0
 40
4.0
  1
ジョイント板
100
AcDbText
  0
TEXT
  5
3673
330
1F
100
AcDbEntity
  8
moji
100
AcDbText
 10
264.7503307
 20
272.6899750566626
 30
0.0
 40
4.0
  1
A1050B-H24
100
AcDbText
  0
LINE
  5
3674
330
1F
100
AcDbEntity
  8
moji
100
AcDbLine
 10
154.7503307
 20
257.1899750566628
 30
0.0
 11
329.7503307000001
 21
257.1899750566628
 31
0.0
  0
LINE
  5
3675
330
1F
100
AcDbEntity
  8
moji
100
AcDbLine
 10
194.7503306999999
 20
264.1899750566627
 30
0.0
 11
329.7503307000001
 21
264.1899750566627
 31
0.0
  0
LINE
  5
3676
330
1F
100
AcDbEntity
  8
moji
100
AcDbLine
 10
228.5003307
 20
271.1899750566626
 30
0.0
 11
228.5003307
 21
257.1899750566628
 31
0.0
  0
LINE
  5
3677
330
1F
100
AcDbEntity
  8
moji
100
AcDbLine
 10
296.0003307
 20
271.1899750566626
 30
0.0
 11
296.0003307
 21
257.1899750566628
 31
0.0
  0
LINE
  5
3678
330
1F
100
AcDbEntity
  8
moji
100
AcDbLine
 10
154.7503307
 20
250.1899750566628
 30
0.0
 11
329.7503307000001
 21
250.1899750566628
 31
0.0
  0
TEXT
  5
3679
330
1F
100
AcDbEntity
  8
moji
100
AcDbText
 10
157.2503306999999
 20
265.6899750566627
 30
0.0
 40
4.0
  1
規格(mm)
100
AcDbText
  0
TEXT
  5
367A
330
1F
100
AcDbEntity
  8
moji
100
AcDbText
 10
197.2503307
 20
265.6899750566627
 30
0.0
 40
4.0
  1
長さ
100
AcDbText
  0
TEXT
  5
367B
330
1F
100
AcDbEntity
  8
moji
100
AcDbText
 10
231.0003307
 20
265.6899750566627
 30
0.0
 40
4.0
  1
厚さ
100
AcDbText
  0
TEXT
  5
367C
330
1F
100
AcDbEntity
  8
moji
100
AcDbText
 10
197.2503306999999
 20
258.6899750566626
 30
0.0
 40
4.0
  1
2000
100
AcDbText
  0
TEXT
  5
367D
330
1F
100
AcDbEntity
  8
moji
100
AcDbText
 10
231.0003307
 20
258.6899750566626
 30
0.0
 40
4.0
  1
1.7～2.0
100
AcDbText
  0
TEXT
  5
367E
330
1F
100
AcDbEntity
  8
moji
100
AcDbText
 10
264.7503307
 20
265.6899750566625
 30
0.0
 40
4.0
  1
長さ
100
AcDbText
  0
TEXT
  5
367F
330
1F
100
AcDbEntity
  8
moji
100
AcDbText
 10
264.7503307
 20
258.6899750566626
 30
0.0
 40
4.0
  1
80
100
AcDbText
  0
TEXT
  5
3680
330
1F
100
AcDbEntity
  8
moji
100
AcDbText
 10
298.5003306999999
 20
265.6899750566625
 30
0.0
 40
4.0
  1
厚さ
100
AcDbText
  0
TEXT
  5
3681
330
1F
100
AcDbEntity
  8
moji
100
AcDbText
 10
298.5003306999999
 20
258.6899750566626
 30
0.0
 40
4.0
  1
0.6
100
AcDbText
  0
TEXT
  5
3682
330
1F
100
AcDbEntity
  8
moji
100
AcDbText
 10
157.2503307
 20
251.6899750566627
 30
0.0
 40
4.0
  1
ビス穴
100
AcDbText
  0
TEXT
  5
3683
330
1F
100
AcDbEntity
  8
moji
100
AcDbText
 10
197.2503307
 20
251.6899750566627
 30
0.0
 40
4.0
  1
7穴　300mm間隔
100
AcDbText
  0
TEXT
  5
3E6D
330
1F
100
AcDbEntity
  8
moji
100
AcDbText
 10
197.2503306999998
 20
223.6899750566628
 30
0.0
 40
4.0
  1
アクリル樹脂系塗装（デュラクロン他）
100
AcDbText
  0
TEXT
  5
3E6E
330
1F
100
AcDbEntity
  8
moji
100
AcDbText
 10
197.2503306999998
 20
230.6899750566628
 30
0.0
 40
4.0
  1
2次電解着色（ブロンズ）
100
AcDbText
  0
TEXT
  5
3E6F
330
1F
100
AcDbEntity
  8
moji
100
AcDbText
 10
197.2503306999998
 20
244.6899750566627
 30
0.0
 40
4.0
  1
JIS H 8602-2010 A1種
100
AcDbText
  0
LINE
  5
3F84
330
1F
100
AcDbEntity
  8
0
100
AcDbLine
 10
0.0
 20
369.9999999999997
 30
0.0
 11
552.0000000000001
 21
369.999999999999
 31
0.0
  0
TEXT
  5
3F85
330
1F
100
AcDbEntity
  8
WAKU
100
AcDbText
 10
529.507614213198
 20
372.0000000000001
 30
0.0
 40
6.0
  1
set25
  7
MSゴシック
 72
     2
 11
549.0000000000001
 21
372.0000000000001
 31
0.0
100
AcDbText
  0
TEXT
  5
3F87
330
1F
100
AcDbEntity
  8
WAKU
100
AcDbText
 10
3.0
 20
372.0000000000001
 30
0.0
 40
8.0
  1
アルミ雨仕舞材／勾配屋根用
  7
MSゴシック
100
AcDbText
  0
TEXT
  5
3F88
330
1F
100
AcDbEntity
  8
WAKU
100
AcDbText
 10
3.0
 20
360.0000000000008
 30
0.0
 40
6.0
  1
シングルエッジＴ２５／ケラバアルミ金物 断熱２５ｍｍ用
  7
MSゴシック
100
AcDbText
  0
TEXT
  5
3F89
330
1F
100
AcDbEntity
  8
WAKU
100
AcDbText
 10
521.7106598984773
 20
360.000000000001
 30
0.0
 40
6.0
  1
1/2(A4)
  7
MSゴシック
 72
     2
 11
549.0000000000001
 21
360.000000000001
 31
0.0
100
AcDbText
  0
LINE
  5
4535
330
1F
100
AcDbEntity
  8
0
100
AcDbLine
 10
96.00000000000001
 20
59.00000000000003
 30
0.0
 11
456.0
 21
59.00000000000003
 31
0.0
  0
LINE
  5
4536
330
1F
100
AcDbEntity
  8
0
100
AcDbLine
 10
456.0
 20
59.00000000000003
 30
0.0
 11
456.0
 21
299.0
 31
0.0
  0
LINE
  5
4537
330
1F
100
AcDbEntity
  8
0
100
AcDbLine
 10
456.0
 20
299.0
 30
0.0
 11
96.00000000000001
 21
299.0
 31
0.0
  0
LINE
  5
4538
330
1F
100
AcDbEntity
  8
0
100
AcDbLine
 10
96.00000000000001
 20
299.0
 30
0.0
 11
96.00000000000001
 21
59.00000000000003
 31
0.0
  0
LINE
  5
4539
330
1F
100
AcDbEntity
  8
WAKU
100
AcDbLine
 10
552.0000000000001
 20
358.0
 30
0.0
 11
0.0
 21
358.0
 31
0.0
  0
LINE
  5
453A
330
1F
100
AcDbEntity
  8
WAKU
100
AcDbLine
 10
0.0
 20
358.0
 30
0.0
 11
0.0
 21
382.0000000000001
 31
0.0
  0
LINE
  5
453B
330
1F
100
AcDbEntity
  8
WAKU
100
AcDbLine
 10
0.0
 20
382.0000000000001
 30
0.0
 11
552.0000000000001
 21
382.0000000000001
 31
0.0
  0
LINE
  5
453C
330
1F
100
AcDbEntity
  8
WAKU
100
AcDbLine
 10
552.0000000000001
 20
382.0000000000001
 30
0.0
 11
552.0000000000001
 21
358.0
 31
0.0
  0
LINE
  5
453D
330
1F
100
AcDbEntity
  8
WAKU
100
AcDbLine
 10
0.0
 20
0.0
 30
0.0
 11
552.0000000000001
 21
0.0
 31
0.0
  0
LINE
  5
453E
330
1F
100
AcDbEntity
  8
WAKU
100
AcDbLine
 10
552.0000000000001
 20
0.0
 30
0.0
 11
552.0000000000001
 21
382.0000000000001
 31
0.0
  0
LINE
  5
453F
330
1F
100
AcDbEntity
  8
WAKU
100
AcDbLine
 10
552.0000000000001
 20
382.0000000000001
 30
0.0
 11
0.0
 21
382.0000000000001
 31
0.0
  0
LINE
  5
4540
330
1F
100
AcDbEntity
  8
WAKU
100
AcDbLine
 10
0.0
 20
382.0000000000001
 30
0.0
 11
0.0
 21
0.0
 31
0.0
  0
LINE
  5
4541
330
1F
100
AcDbEntity
  8
SUNPO
  6
Continuous
100
AcDbLine
 10
376.4128698583923
 20
149.6580258733942
 30
0.0
 11
376.4128698583923
 21
128.6135059189237
 31
0.0
  0
LINE
  5
4542
330
1F
100
AcDbEntity
  8
SUNPO
  6
Continuous
100
AcDbLine
 10
266.4128698583922
 20
149.1580258733943
 30
0.0
 11
266.4128698583922
 21
128.6135059189237
 31
0.0
  0
LINE
  5
4543
330
1F
100
AcDbEntity
  8
SUNPO
  6
Continuous
100
AcDbLine
 10
374.8128698583922
 20
128.6135059189237
 30
0.0
 11
268.0128698583922
 21
128.6135059189237
 31
0.0
  0
INSERT
  5
4544
330
1F
100
AcDbEntity
  8
SUNPO
  6
Continuous
100
AcDbBlockReference
  2
_DOT
 10
376.4128698583923
 20
128.6135059189237
 30
0.0
 41
1.6
 42
1.6
 43
1.6
  0
INSERT
  5
4545
330
1F
100
AcDbEntity
  8
SUNPO
  6
Continuous
100
AcDbBlockReference
  2
_DOT
 10
266.4128698583922
 20
128.6135059189237
 30
0.0
 41
1.6
 42
1.6
 43
1.6
 50
180.0
  0
MTEXT
  5
4546
330
1F
100
AcDbEntity
  8
SUNPO
  6
Continuous
100
AcDbMText
 10
321.4128698583922
 20
126.4135059189237
 30
0.0
 40
4.0
 41
0.0
 71
     5
 72
     1
  1
\A1;110
 73
     1
 44
1.0
1001
ACAD
1000
MTEXTBEGIN
1070
    73
1070
     1
1070
    44
1040
1.0
1070
    74
1070
     0
1000
MTEXTEND
  0
LINE
  5
4547
330
1F
100
AcDbEntity
  8
SUNPO
  6
Continuous
100
AcDbLine
 10
236.4128698583925
 20
103.0580258733948
 30
0.0
 11
236.4128698583925
 21
81.08795213356994
 31
0.0
  0
LINE
  5
4548
330
1F
100
AcDbEntity
  8
SUNPO
  6
Continuous
100
AcDbLine
 10
376.4128698583923
 20
149.6580258733942
 30
0.0
 11
376.4128698583923
 21
81.08795213356994
 31
0.0
  0
LINE
  5
4549
330
1F
100
AcDbEntity
  8
SUNPO
  6
Continuous
100
AcDbLine
 10
238.0128698583924
 20
81.08795213356994
 30
0.0
 11
374.8128698583922
 21
81.08795213356994
 31
0.0
  0
INSERT
  5
454A
330
1F
100
AcDbEntity
  8
SUNPO
  6
Continuous
100
AcDbBlockReference
  2
_DOT
 10
236.4128698583925
 20
81.08795213356994
 30
0.0
 41
1.6
 42
1.6
 43
1.6
 50
180.0
  0
INSERT
  5
454B
330
1F
100
AcDbEntity
  8
SUNPO
  6
Continuous
100
AcDbBlockReference
  2
_DOT
 10
376.4128698583923
 20
81.08795213356994
 30
0.0
 41
1.6
 42
1.6
 43
1.6
  0
MTEXT
  5
454C
330
1F
100
AcDbEntity
  8
SUNPO
  6
Continuous
100
AcDbMText
 10
306.4128698583924
 20
78.88795213356994
 30
0.0
 40
4.0
 41
0.0
 71
     5
 72
     1
  1
\A1;140
 73
     1
 44
1.0
1001
ACAD
1000
MTEXTBEGIN
1070
    73
1070
     1
1070
    44
1040
1.0
1070
    74
1070
     0
1000
MTEXTEND
  0
LINE
  5
454D
330
1F
100
AcDbEntity
  8
SUNPO
  6
Continuous
100
AcDbLine
 10
236.4128698583925
 20
202.0580258733948
 30
0.0
 11
236.4128698583925
 21
212.3973712014699
 31
0.0
  0
LINE
  5
454E
330
1F
100
AcDbEntity
  8
SUNPO
  6
Continuous
100
AcDbLine
 10
336.4128698583925
 20
180.8580258733948
 30
0.0
 11
336.4128698583925
 21
212.3973712014699
 31
0.0
  0
LINE
  5
454F
330
1F
100
AcDbEntity
  8
SUNPO
  6
Continuous
100
AcDbLine
 10
238.0128698583924
 20
212.3973712014699
 30
0.0
 11
334.8128698583924
 21
212.3973712014699
 31
0.0
  0
INSERT
  5
4550
330
1F
100
AcDbEntity
  8
SUNPO
  6
Continuous
100
AcDbBlockReference
  2
_DOT
 10
236.4128698583925
 20
212.3973712014699
 30
0.0
 41
1.6
 42
1.6
 43
1.6
 50
180.0
  0
INSERT
  5
4551
330
1F
100
AcDbEntity
  8
SUNPO
  6
Continuous
100
AcDbBlockReference
  2
_DOT
 10
336.4128698583925
 20
212.3973712014699
 30
0.0
 41
1.6
 42
1.6
 43
1.6
  0
MTEXT
  5
4552
330
1F
100
AcDbEntity
  8
SUNPO
  6
Continuous
100
AcDbMText
 10
286.4128698583925
 20
214.5973712014699
 30
0.0
 40
4.0
 41
0.0
 71
     5
 72
     1
  1
\A1;100
 73
     1
 44
1.0
1001
ACAD
1000
MTEXTBEGIN
1070
    73
1070
     1
1070
    44
1040
1.0
1070
    74
1070
     0
1000
MTEXTEND
  0
LINE
  5
4553
330
1F
100
AcDbEntity
  8
SUNPO
  6
Continuous
100
AcDbLine
 10
234.4128698583926
 20
105.0580258733949
 30
0.0
 11
211.9947425036218
 21
105.0580258733949
 31
0.0
  0
LINE
  5
4554
330
1F
100
AcDbEntity
  8
SUNPO
  6
Continuous
100
AcDbLine
 10
234.4128698583926
 20
200.058025873395
 30
0.0
 11
211.9947425036218
 21
200.058025873395
 31
0.0
  0
LINE
  5
4555
330
1F
100
AcDbEntity
  8
SUNPO
  6
Continuous
100
AcDbLine
 10
211.9947425036218
 20
106.6580258733949
 30
0.0
 11
211.9947425036218
 21
198.4580258733949
 31
0.0
  0
INSERT
  5
4556
330
1F
100
AcDbEntity
  8
SUNPO
  6
Continuous
100
AcDbBlockReference
  2
_DOT
 10
211.9947425036218
 20
105.0580258733949
 30
0.0
 41
1.6
 42
1.6
 43
1.6
 50
270.0
  0
INSERT
  5
4557
330
1F
100
AcDbEntity
  8
SUNPO
  6
Continuous
100
AcDbBlockReference
  2
_DOT
 10
211.9947425036218
 20
200.058025873395
 30
0.0
 41
1.6
 42
1.6
 43
1.6
 50
90.0
  0
MTEXT
  5
4558
330
1F
100
AcDbEntity
  8
SUNPO
  6
Continuous
100
AcDbMText
 10
209.7947425036218
 20
152.5580258733948
 30
0.0
 40
4.0
 41
0.0
 71
     5
 72
     1
  1
\A1;95
 11
0.0000000000000001
 21
1.0
 31
0.0
 73
     1
 44
1.0
1001
ACAD
1000
MTEXTBEGIN
1070
    73
1070
     1
1070
    44
1040
1.0
1070
    74
1070
     0
1000
MTEXTEND
  0
LINE
  5
4559
330
1F
100
AcDbEntity
  8
SUNPO
  6
Continuous
100
AcDbLine
 10
236.4128698583925
 20
202.0580258733948
 30
0.0
 11
236.4128698583925
 21
205.8469044353916
 31
0.0
  0
LINE
  5
455A
330
1F
100
AcDbEntity
  8
SUNPO
  6
Continuous
100
AcDbLine
 10
256.4128698583925
 20
202.0580258733948
 30
0.0
 11
256.4128698583925
 21
205.8469044353916
 31
0.0
  0
LINE
  5
455B
330
1F
100
AcDbEntity
  8
SUNPO
  6
Continuous
100
AcDbLine
 10
238.0128698583924
 20
205.8469044353916
 30
0.0
 11
254.8128698583925
 21
205.8469044353916
 31
0.0
  0
INSERT
  5
455C
330
1F
100
AcDbEntity
  8
SUNPO
  6
Continuous
100
AcDbBlockReference
  2
_DOT
 10
236.4128698583925
 20
205.8469044353916
 30
0.0
 41
1.6
 42
1.6
 43
1.6
 50
180.0
  0
INSERT
  5
455D
330
1F
100
AcDbEntity
  8
SUNPO
  6
Continuous
100
AcDbBlockReference
  2
_DOT
 10
256.4128698583925
 20
205.8469044353916
 30
0.0
 41
1.6
 42
1.6
 43
1.6
  0
MTEXT
  5
455E
330
1F
100
AcDbEntity
  8
SUNPO
  6
Continuous
100
AcDbMText
 10
246.4128698583925
 20
208.0469044353915
 30
0.0
 40
4.0
 41
0.0
 71
     5
 72
     1
  1
\A1;20
 73
     1
 44
1.0
1001
ACAD
1000
MTEXTBEGIN
1070
    73
1070
     1
1070
    44
1040
1.0
1070
    74
1070
     0
1000
MTEXTEND
  0
LINE
  5
455F
330
1F
100
AcDbEntity
  8
SUNPO
  6
Continuous
100
AcDbLine
 10
373.3898698583918
 20
152.8580258733941
 30
0.0
 11
390.0392134932905
 21
152.8580258733941
 31
0.0
  0
LINE
  5
4560
330
1F
100
AcDbEntity
  8
SUNPO
  6
Continuous
100
AcDbLine
 10
337.9129007262935
 20
178.3580258733948
 30
0.0
 11
390.0392134932905
 21
178.3580258733948
 31
0.0
  0
LINE
  5
4561
330
1F
100
AcDbEntity
  8
SUNPO
  6
Continuous
100
AcDbLine
 10
390.0392134932905
 20
154.4580258733941
 30
0.0
 11
390.0392134932905
 21
176.7580258733948
 31
0.0
  0
INSERT
  5
4562
330
1F
100
AcDbEntity
  8
SUNPO
  6
Continuous
100
AcDbBlockReference
  2
_DOT
 10
390.0392134932905
 20
152.8580258733941
 30
0.0
 41
1.6
 42
1.6
 43
1.6
 50
270.0
  0
INSERT
  5
4563
330
1F
100
AcDbEntity
  8
SUNPO
  6
Continuous
100
AcDbBlockReference
  2
_DOT
 10
390.0392134932905
 20
178.3580258733948
 30
0.0
 41
1.6
 42
1.6
 43
1.6
 50
90.0
  0
MTEXT
  5
4564
330
1F
100
AcDbEntity
  8
SUNPO
  6
Continuous
100
AcDbMText
 10
392.2392134932904
 20
165.6080258733943
 30
0.0
 40
4.0
 41
0.0
 71
     5
 72
     1
  1
\A1;25.5
 11
0.0000000000000001
 21
1.0
 31
0.0
 73
     1
 44
1.0
1001
ACAD
1000
MTEXTBEGIN
1070
    73
1070
     1
1070
    44
1040
1.0
1070
    74
1070
     0
1000
MTEXTEND
  0
LINE
  5
4565
330
1F
100
AcDbEntity
  8
KANAMONO
100
AcDbLine
 10
265.9798698567397
 20
150.9081131705483
 30
0.0
 11
266.4128698583922
 21
151.1580258733943
 31
0.0
  0
LINE
  5
4566
330
1F
100
AcDbEntity
  8
KANAMONO
100
AcDbLine
 10
266.4128698583922
 20
151.1580258733943
 30
0.0
 11
375.9128698583922
 21
151.1580258733943
 31
0.0
  0
ARC
  5
4567
330
1F
100
AcDbEntity
  8
KANAMONO
100
AcDbCircle
 10
375.9128698583922
 20
151.6580258733942
 30
0.0
 40
0.5
100
AcDbArc
 50
270.0
 51
81.23149842894816
  0
LINE
  5
4568
330
1F
100
AcDbEntity
  8
KANAMONO
100
AcDbLine
 10
375.9890911250729
 20
152.152182041529
 30
0.0
 11
371.4356000228738
 21
152.8545199746111
 31
0.0
  0
ARC
  5
4569
330
1F
100
AcDbEntity
  8
KANAMONO
100
AcDbCircle
 10
371.3898698583918
 20
152.5580258733824
 30
0.0
 40
0.3000000000116618
100
AcDbArc
 50
81.23200000017073
 51
90.00000000002172
  0
LINE
  5
456A
330
1F
100
AcDbEntity
  8
KANAMONO
100
AcDbLine
 10
371.3898698583916
 20
152.858025873394
 30
0.0
 11
356.9614698583923
 21
152.8580258733941
 31
0.0
  0
ARC
  5
456B
330
1F
100
AcDbEntity
  8
KANAMONO
100
AcDbCircle
 10
356.9614698583923
 20
152.5580258736611
 30
0.0
 40
0.299999999732961
100
AcDbArc
 50
90.0
 51
134.9669268609744
  0
LINE
  5
456C
330
1F
100
AcDbEntity
  8
KANAMONO
100
AcDbLine
 10
356.7494603096304
 20
152.770280322551
 30
0.0
 11
356.6250018924097
 21
152.6458938386997
 31
0.0
  0
ARC
  5
456D
330
1F
100
AcDbEntity
  8
KANAMONO
100
AcDbCircle
 10
356.4129018995911
 20
152.8581164900794
 30
0.0
 40
0.3000414316594946
100
AcDbArc
 50
225.0079093776209
 51
314.983437561551
  0
LINE
  5
456E
330
1F
100
AcDbEntity
  8
KANAMONO
100
AcDbLine
 10
356.2007698583925
 20
152.6459258733943
 30
0.0
 11
356.0765018927484
 21
152.77015790775
 31
0.0
  0
ARC
  5
456F
330
1F
100
AcDbEntity
  8
KANAMONO
100
AcDbCircle
 10
355.8643264601177
 20
152.5579211082045
 30
0.0
 40
0.3001047705274196
100
AcDbArc
 50
45.00828455197543
 51
90.01080638054293
  0
LINE
  5
4570
330
1F
100
AcDbEntity
  8
KANAMONO
100
AcDbLine
 10
355.8642698582815
 20
152.8580258733942
 30
0.0
 11
316.9614698583923
 21
152.8580258733941
 31
0.0
  0
ARC
  5
4571
330
1F
100
AcDbEntity
  8
KANAMONO
100
AcDbCircle
 10
316.9614698583923
 20
152.5580258736611
 30
0.0
 40
0.299999999732961
100
AcDbArc
 50
90.0
 51
134.9669268609744
  0
LINE
  5
4572
330
1F
100
AcDbEntity
  8
KANAMONO
100
AcDbLine
 10
316.7494603096304
 20
152.770280322551
 30
0.0
 11
316.6250018924097
 21
152.6458938386997
 31
0.0
  0
ARC
  5
4573
330
1F
100
AcDbEntity
  8
KANAMONO
100
AcDbCircle
 10
316.4129018995911
 20
152.8581164900794
 30
0.0
 40
0.3000414316594946
100
AcDbArc
 50
225.0079093776209
 51
314.983437561551
  0
LINE
  5
4574
330
1F
100
AcDbEntity
  8
KANAMONO
100
AcDbLine
 10
316.2007698583925
 20
152.6459258733943
 30
0.0
 11
316.0765018927484
 21
152.77015790775
 31
0.0
  0
ARC
  5
4575
330
1F
100
AcDbEntity
  8
KANAMONO
100
AcDbCircle
 10
315.8643264601177
 20
152.5579211082045
 30
0.0
 40
0.3001047705274196
100
AcDbArc
 50
45.00828455197543
 51
90.01080638054293
  0
LINE
  5
4576
330
1F
100
AcDbEntity
  8
KANAMONO
100
AcDbLine
 10
315.8642698582814
 20
152.8580258733942
 30
0.0
 11
289.1128698583925
 21
152.858025873394
 31
0.0
  0
ARC
  5
4577
330
1F
100
AcDbEntity
  8
KANAMONO
100
AcDbCircle
 10
289.1128698583925
 20
153.8580258733942
 30
0.0
 40
1.000000000000198
100
AcDbArc
 50
180.0000000000016
 51
270.0
  0
LINE
  5
4578
330
1F
100
AcDbEntity
  8
KANAMONO
100
AcDbLine
 10
288.1128698583923
 20
153.8580258733942
 30
0.0
 11
288.1128698583925
 21
177.3580258733942
 31
0.0
  0
ARC
  5
4579
330
1F
100
AcDbEntity
  8
KANAMONO
100
AcDbCircle
 10
289.1128698583925
 20
177.3580258733942
 30
0.0
 40
1.0
100
AcDbArc
 50
90.0
 51
180.0
  0
LINE
  5
457A
330
1F
100
AcDbEntity
  8
KANAMONO
100
AcDbLine
 10
289.1128698583925
 20
178.3580258733942
 30
0.0
 11
335.9128698583922
 21
178.3580258733941
 31
0.0
  0
ARC
  5
457B
330
1F
100
AcDbEntity
  8
KANAMONO
100
AcDbCircle
 10
335.9128852817544
 20
178.8580246909636
 30
0.0
 40
0.4999988178073148
100
AcDbArc
 50
269.9982326087091
 51
81.23376739128982
  0
LINE
  5
457C
330
1F
100
AcDbEntity
  8
KANAMONO
100
AcDbLine
 10
335.9890867991942
 20
179.352182708756
 30
0.0
 11
331.4356000228738
 21
180.0545199746118
 31
0.0
  0
ARC
  5
457D
330
1F
100
AcDbEntity
  8
KANAMONO
100
AcDbCircle
 10
331.3898698583916
 20
179.7580258733815
 30
0.0
 40
0.3000000000132521
100
AcDbArc
 50
81.2320000001956
 51
89.9999999998263
  0
LINE
  5
457E
330
1F
100
AcDbEntity
  8
KANAMONO
100
AcDbLine
 10
331.3898698583926
 20
180.0580258733947
 30
0.0
 11
311.962869858392
 21
180.0580258733939
 31
0.0
  0
ARC
  5
457F
330
1F
100
AcDbEntity
  8
KANAMONO
100
AcDbCircle
 10
311.9628698583925
 20
180.3580258733942
 30
0.0
 40
0.3000000000002387
100
AcDbArc
 50
180.0
 51
269.9999999999023
  0
ARC
  5
4580
330
1F
100
AcDbEntity
  8
KANAMONO
100
AcDbCircle
 10
311.4628698583922
 20
180.3580258733942
 30
0.0
 40
0.2000000000000455
100
AcDbArc
 50
0.0000000000081422
 51
90.0
  0
LINE
  5
4581
330
1F
100
AcDbEntity
  8
KANAMONO
100
AcDbLine
 10
311.4628698583922
 20
180.5580258733942
 30
0.0
 11
311.3628698583923
 21
180.5580258733942
 31
0.0
  0
ARC
  5
4582
330
1F
100
AcDbEntity
  8
KANAMONO
100
AcDbCircle
 10
311.3628698583924
 20
180.3580258733943
 30
0.0
 40
0.1999999999999034
100
AcDbArc
 50
90.00000000003257
 51
180.0000000000244
  0
ARC
  5
4583
330
1F
100
AcDbEntity
  8
KANAMONO
100
AcDbCircle
 10
310.8628698583924
 20
180.3580258733941
 30
0.0
 40
0.3000000000000682
100
AcDbArc
 50
270.0000000000216
 51
0.0000000000217126
  0
LINE
  5
4584
330
1F
100
AcDbEntity
  8
KANAMONO
100
AcDbLine
 10
310.8628698583925
 20
180.058025873394
 30
0.0
 11
296.962869858392
 21
180.0580258733939
 31
0.0
  0
ARC
  5
4585
330
1F
100
AcDbEntity
  8
KANAMONO
100
AcDbCircle
 10
296.9628698583925
 20
180.3580258733942
 30
0.0
 40
0.3000000000002387
100
AcDbArc
 50
180.0
 51
269.9999999999023
  0
ARC
  5
4586
330
1F
100
AcDbEntity
  8
KANAMONO
100
AcDbCircle
 10
296.4628698583922
 20
180.3580258733942
 30
0.0
 40
0.2000000000000455
100
AcDbArc
 50
0.0000000000081422
 51
90.0
  0
LINE
  5
4587
330
1F
100
AcDbEntity
  8
KANAMONO
100
AcDbLine
 10
296.4628698583922
 20
180.5580258733942
 30
0.0
 11
296.3628698583923
 21
180.5580258733942
 31
0.0
  0
ARC
  5
4588
330
1F
100
AcDbEntity
  8
KANAMONO
100
AcDbCircle
 10
296.3628698583924
 20
180.3580258733943
 30
0.0
 40
0.1999999999999034
100
AcDbArc
 50
90.00000000003257
 51
180.0000000000244
  0
ARC
  5
4589
330
1F
100
AcDbEntity
  8
KANAMONO
100
AcDbCircle
 10
295.8628698583924
 20
180.3580258733941
 30
0.0
 40
0.3000000000000682
100
AcDbArc
 50
270.0000000000216
 51
0.0000000000217126
  0
LINE
  5
458A
330
1F
100
AcDbEntity
  8
KANAMONO
100
AcDbLine
 10
295.8628698583925
 20
180.058025873394
 30
0.0
 11
281.9628698583922
 21
180.0580258733939
 31
0.0
  0
ARC
  5
458B
330
1F
100
AcDbEntity
  8
KANAMONO
100
AcDbCircle
 10
281.9628698583926
 20
180.3580258733943
 30
0.0
 40
0.3000000000003524
100
AcDbArc
 50
180.0000000000217
 51
269.9999999999239
  0
ARC
  5
458C
330
1F
100
AcDbEntity
  8
KANAMONO
100
AcDbCircle
 10
281.4628698583923
 20
180.3580258733943
 30
0.0
 40
0.1999999999999318
100
AcDbArc
 50
359.9999999999756
 51
89.99999999996743
  0
LINE
  5
458D
330
1F
100
AcDbEntity
  8
KANAMONO
100
AcDbLine
 10
281.4628698583924
 20
180.5580258733942
 30
0.0
 11
281.3628698583925
 21
180.5580258733942
 31
0.0
  0
ARC
  5
458E
330
1F
100
AcDbEntity
  8
KANAMONO
100
AcDbCircle
 10
281.3628698583926
 20
180.3580258733943
 30
0.0
 40
0.1999999999999034
100
AcDbArc
 50
90.00000000003257
 51
180.0000000000244
  0
ARC
  5
458F
330
1F
100
AcDbEntity
  8
KANAMONO
100
AcDbCircle
 10
280.8628698583925
 20
180.3580258733942
 30
0.0
 40
0.3000000000001819
100
AcDbArc
 50
270.0
 51
0.0
  0
LINE
  5
4590
330
1F
100
AcDbEntity
  8
KANAMONO
100
AcDbLine
 10
280.8628698583925
 20
180.058025873394
 30
0.0
 11
266.9628698583924
 21
180.0580258733942
 31
0.0
  0
ARC
  5
4591
330
1F
100
AcDbEntity
  8
KANAMONO
100
AcDbCircle
 10
266.9628698583921
 20
180.3580258733942
 30
0.0
 40
0.3000000000000682
100
AcDbArc
 50
180.0000000000108
 51
270.0000000000652
  0
ARC
  5
4592
330
1F
100
AcDbEntity
  8
KANAMONO
100
AcDbCircle
 10
266.4628698583919
 20
180.3580258733947
 30
0.0
 40
0.2000000000001023
100
AcDbArc
 50
359.9999999998535
 51
89.99999999985345
  0
LINE
  5
4593
330
1F
100
AcDbEntity
  8
KANAMONO
100
AcDbLine
 10
266.4628698583924
 20
180.5580258733948
 30
0.0
 11
266.3628698583921
 21
180.5580258733942
 31
0.0
  0
ARC
  5
4594
330
1F
100
AcDbEntity
  8
KANAMONO
100
AcDbCircle
 10
266.3628698583924
 20
180.3580258733945
 30
0.0
 40
0.199999999999676
100
AcDbArc
 50
90.00000000009769
 51
180.0000000000895
  0
ARC
  5
4595
330
1F
100
AcDbEntity
  8
KANAMONO
100
AcDbCircle
 10
265.8628698583931
 20
180.3580258733945
 30
0.0
 40
0.2999999999996135
100
AcDbArc
 50
269.9999999998914
 51
359.9999999999403
  0
LINE
  5
4596
330
1F
100
AcDbEntity
  8
KANAMONO
100
AcDbLine
 10
265.8628698583925
 20
180.0580258733949
 30
0.0
 11
251.4358698583924
 21
180.0580258733947
 31
0.0
  0
LINE
  5
4597
330
1F
100
AcDbEntity
  8
KANAMONO
100
AcDbLine
 10
251.4358698583924
 20
180.0580258733947
 30
0.0
 11
251.4129951075165
 21
180.0571525117478
 31
0.0
  0
LINE
  5
4598
330
1F
100
AcDbEntity
  8
KANAMONO
100
AcDbLine
 10
251.4129951075165
 20
180.0571525117478
 30
0.0
 11
251.3902698583925
 21
180.0546258733944
 31
0.0
  0
LINE
  5
4599
330
1F
100
AcDbEntity
  8
KANAMONO
100
AcDbLine
 10
251.3902698583925
 20
180.0546258733944
 30
0.0
 11
238.7585698583925
 21
178.1112258733943
 31
0.0
  0
ARC
  5
459A
330
1F
100
AcDbEntity
  8
KANAMONO
100
AcDbCircle
 10
238.71287162548
 20
178.4077266858132
 30
0.0
 40
0.3000017670887832
100
AcDbArc
 50
180.0001551595913
 51
278.7617774437328
  0
LINE
  5
459B
330
1F
100
AcDbEntity
  8
KANAMONO
100
AcDbLine
 10
238.4128698583922
 20
178.4077258733947
 30
0.0
 11
238.4128698583922
 21
197.7580258733947
 31
0.0
  0
ARC
  5
459C
330
1F
100
AcDbEntity
  8
KANAMONO
100
AcDbCircle
 10
238.7128698583923
 20
197.7580258733947
 30
0.0
 40
0.3000000000000966
100
AcDbArc
 50
89.99999999998371
 51
179.9999999999837
  0
LINE
  5
459D
330
1F
100
AcDbEntity
  8
KANAMONO
100
AcDbLine
 10
238.7128698583924
 20
198.0580258733948
 30
0.0
 11
253.5854698583926
 21
198.0580258733948
 31
0.0
  0
ARC
  5
459E
330
1F
100
AcDbEntity
  8
KANAMONO
100
AcDbCircle
 10
253.5854698583924
 20
197.7580258733947
 30
0.0
 40
0.3000000000000398
100
AcDbArc
 50
355.0000000000042
 51
89.99999999995656
  0
LINE
  5
459F
330
1F
100
AcDbEntity
  8
KANAMONO
100
AcDbLine
 10
253.8843282678199
 20
197.7318791505704
 30
0.0
 11
253.7929698583925
 21
196.6869258733946
 31
0.0
  0
ARC
  5
45A0
330
1F
100
AcDbEntity
  8
KANAMONO
100
AcDbCircle
 10
254.2910652738279
 20
196.6433278265281
 30
0.0
 40
0.4999998325682412
100
AcDbArc
 50
174.9976775441215
 51
314.9921103712963
  0
LINE
  5
45A1
330
1F
100
AcDbEntity
  8
KANAMONO
100
AcDbLine
 10
254.6445698583925
 20
196.2897258733943
 30
0.0
 11
256.3250698583924
 21
197.9702258733946
 31
0.0
  0
ARC
  5
45A2
330
1F
100
AcDbEntity
  8
KANAMONO
100
AcDbCircle
 10
256.1127027231796
 20
198.1823591099411
 30
0.0
 40
0.3001671370523838
100
AcDbArc
 50
315.0315698311421
 51
359.9936564096256
  0
LINE
  5
45A3
330
1F
100
AcDbEntity
  8
KANAMONO
100
AcDbLine
 10
256.4128698583922
 20
198.1823258764748
 30
0.0
 11
256.4128698583922
 21
199.7580258733947
 31
0.0
  0
ARC
  5
45A4
330
1F
100
AcDbEntity
  8
KANAMONO
100
AcDbCircle
 10
256.1128698583922
 20
199.7580258733949
 30
0.0
 40
0.3000000000000682
100
AcDbArc
 50
359.9999999999783
 51
89.99999999993486
  0
LINE
  5
45A5
330
1F
100
AcDbEntity
  8
KANAMONO
100
AcDbLine
 10
256.1128698583925
 20
200.058025873395
 30
0.0
 11
236.7128698583924
 21
200.0580258733948
 31
0.0
  0
ARC
  5
45A6
330
1F
100
AcDbEntity
  8
KANAMONO
100
AcDbCircle
 10
236.7128698583923
 20
199.7580258733947
 30
0.0
 40
0.3000000000000966
100
AcDbArc
 50
89.99999999998371
 51
179.9999999999837
  0
LINE
  5
45A7
330
1F
100
AcDbEntity
  8
KANAMONO
100
AcDbLine
 10
236.4128698583922
 20
199.7580258733947
 30
0.0
 11
236.4128698583922
 21
105.3580258733939
 31
0.0
  0
ARC
  5
45A8
330
1F
100
AcDbEntity
  8
KANAMONO
100
AcDbCircle
 10
236.7128698583924
 20
105.3580258733939
 30
0.0
 40
0.300000000000125
100
AcDbArc
 50
180.0
 51
270.0000000000108
  0
LINE
  5
45A9
330
1F
100
AcDbEntity
  8
KANAMONO
100
AcDbLine
 10
236.7128698583924
 20
105.0580258733938
 30
0.0
 11
240.7128698583924
 21
105.0580258733938
 31
0.0
  0
ARC
  5
45AA
330
1F
100
AcDbEntity
  8
KANAMONO
100
AcDbCircle
 10
240.7128698583923
 20
105.3580258733936
 30
0.0
 40
0.2999999999998408
100
AcDbArc
 50
270.0000000000216
 51
0.0000000000217126
  0
LINE
  5
45AB
330
1F
100
AcDbEntity
  8
KANAMONO
100
AcDbLine
 10
241.0128698583922
 20
105.3580258733937
 30
0.0
 11
241.0128698583926
 21
108.1580258733941
 31
0.0
  0
ARC
  5
45AC
330
1F
100
AcDbEntity
  8
KANAMONO
100
AcDbCircle
 10
241.9128698583928
 20
108.1580258733942
 30
0.0
 40
0.9000000000002046
100
AcDbArc
 50
118.0720000000382
 51
180.0000000000054
  0
ARC
  5
45AD
330
1F
100
AcDbEntity
  8
KANAMONO
100
AcDbCircle
 10
241.1128698583783
 20
109.6580258733474
 30
0.0
 40
0.8000000000344833
100
AcDbArc
 50
298.0730347411351
 51
118.0719999975332
  0
ARC
  5
45AE
330
1F
100
AcDbEntity
  8
KANAMONO
100
AcDbCircle
 10
241.912869858323
 20
108.1580258734132
 30
0.0
 40
2.499999999930795
100
AcDbArc
 50
118.0723311151824
 51
180.0000000004393
  0
LINE
  5
45AF
330
1F
100
AcDbEntity
  8
KANAMONO
100
AcDbLine
 10
239.4128698583922
 20
108.1580258733941
 30
0.0
 11
239.4128698583922
 21
106.9580258733942
 31
0.0
  0
ARC
  5
45B0
330
1F
100
AcDbEntity
  8
KANAMONO
100
AcDbCircle
 10
239.1128698583921
 20
106.9580258733942
 30
0.0
 40
0.3000000000001819
100
AcDbArc
 50
270.0
 51
0.0
  0
LINE
  5
45B1
330
1F
100
AcDbEntity
  8
KANAMONO
100
AcDbLine
 10
239.1128698583921
 20
106.6580258733941
 30
0.0
 11
238.4128698583922
 21
106.6580258733942
 31
0.0
  0
ARC
  5
45B2
330
1F
100
AcDbEntity
  8
KANAMONO
100
AcDbCircle
 10
238.4128698583923
 20
106.958025873394
 30
0.0
 40
0.2999999999997982
100
AcDbArc
 50
179.9999999999593
 51
269.9999999999838
  0
LINE
  5
45B3
330
1F
100
AcDbEntity
  8
KANAMONO
100
AcDbLine
 10
238.1128698583925
 20
106.9580258733942
 30
0.0
 11
238.1128698583925
 21
164.9338258733948
 31
0.0
  0
ARC
  5
45B4
330
1F
100
AcDbEntity
  8
KANAMONO
100
AcDbCircle
 10
238.4127152508837
 20
164.933825873395
 30
0.0
 40
0.2998453924912212
100
AcDbArc
 50
134.979109884369
 51
180.0000000000271
  0
LINE
  5
45B5
330
1F
100
AcDbEntity
  8
KANAMONO
100
AcDbLine
 10
238.2007698583921
 20
165.1459258733944
 30
0.0
 11
238.3250018927483
 21
165.2701938390386
 31
0.0
  0
ARC
  5
45B6
330
1F
100
AcDbEntity
  8
KANAMONO
100
AcDbCircle
 10
238.1127650985201
 20
165.4823692663539
 30
0.0
 40
0.3001047630090632
100
AcDbArc
 50
315.008284551922
 51
359.9917154482583
  0
LINE
  5
45B7
330
1F
100
AcDbEntity
  8
KANAMONO
100
AcDbLine
 10
238.412869858392
 20
165.4823258733946
 30
0.0
 11
238.4128698583922
 21
176.0807258733943
 31
0.0
  0
ARC
  5
45B8
330
1F
100
AcDbEntity
  8
KANAMONO
100
AcDbCircle
 10
238.7128698583923
 20
176.0807258733943
 30
0.0
 40
0.3000000000000398
100
AcDbArc
 50
98.19301245558825
 51
179.9999999999945
  0
LINE
  5
45B9
330
1F
100
AcDbEntity
  8
KANAMONO
100
AcDbLine
 10
238.6701173912418
 20
176.3776639587801
 30
0.0
 11
251.5202535428416
 21
178.3545375118774
 31
0.0
  0
LINE
  5
45BA
330
1F
100
AcDbEntity
  8
KANAMONO
100
AcDbLine
 10
251.5202535428416
 20
178.3545375118774
 30
0.0
 11
251.5658698583925
 21
178.3580258733949
 31
0.0
  0
LINE
  5
45BB
330
1F
100
AcDbEntity
  8
KANAMONO
100
AcDbLine
 10
251.5658698583925
 20
178.3580258733949
 30
0.0
 11
285.4128698583922
 21
178.3580258733949
 31
0.0
  0
ARC
  5
45BC
330
1F
100
AcDbEntity
  8
KANAMONO
100
AcDbCircle
 10
285.4128698583919
 20
177.3580258733946
 30
0.0
 40
1.000000000000369
100
AcDbArc
 50
359.9999999999789
 51
89.99999999998046
  0
LINE
  5
45BD
330
1F
100
AcDbEntity
  8
KANAMONO
100
AcDbLine
 10
286.4128698583922
 20
177.3580258733942
 30
0.0
 11
286.4128698583922
 21
153.8580258733942
 31
0.0
  0
ARC
  5
45BE
330
1F
100
AcDbEntity
  8
KANAMONO
100
AcDbCircle
 10
285.4128698583922
 20
153.8580258733941
 30
0.0
 40
1.000000000000056
100
AcDbArc
 50
270.0000000000033
 51
0.0000000000032569
  0
LINE
  5
45BF
330
1F
100
AcDbEntity
  8
KANAMONO
100
AcDbLine
 10
285.4128698583922
 20
152.8580258733941
 30
0.0
 11
266.0377698583925
 21
152.8580258733941
 31
0.0
  0
ARC
  5
45C0
330
1F
100
AcDbEntity
  8
KANAMONO
100
AcDbCircle
 10
266.0377698583925
 20
152.5580751271216
 30
0.0
 40
0.2999507462724864
100
AcDbArc
 50
90.0
 51
120.0054320411347
  0
LINE
  5
45C1
330
1F
100
AcDbEntity
  8
KANAMONO
100
AcDbLine
 10
265.8877698583924
 20
152.8178258733946
 30
0.0
 11
265.1298698583923
 21
152.3803258733947
 31
0.0
  0
ARC
  5
45C2
330
1F
100
AcDbEntity
  8
KANAMONO
100
AcDbCircle
 10
265.3798515311813
 20
151.9473227315386
 30
0.0
 40
0.499982557283397
100
AcDbArc
 50
119.9987289275967
 51
210.0007383023012
  0
LINE
  5
45C3
330
1F
100
AcDbEntity
  8
KANAMONO
100
AcDbLine
 10
264.9468571564999
 20
151.6973258733946
 30
0.0
 11
265.2952153869887
 21
151.0939913104303
 31
0.0
  0
ARC
  5
45C4
330
1F
100
AcDbEntity
  8
KANAMONO
100
AcDbCircle
 10
265.7298698569007
 20
151.3411258725348
 30
0.0
 40
0.5000000000010224
100
AcDbArc
 50
209.6215671022517
 51
299.9999999786227
  0
LINE
  5
45C5
330
1F
100
AcDbEntity
  8
KANAMONO_SCREW
100
AcDbLine
 10
319.202879242802
 20
123.3081164900795
 30
0.0
 11
319.202879242802
 21
152.0081164900795
 31
0.0
  0
LINE
  5
45C6
330
1F
100
AcDbEntity
  8
KANAMONO_SCREW
100
AcDbLine
 10
313.6228792428022
 20
123.3081164900795
 30
0.0
 11
313.6228792428063
 21
152.0081164900795
 31
0.0
  0
LINE
  5
45C7
330
1F
100
AcDbEntity
  8
KANAMONO_SCREW
100
AcDbLine
 10
316.6628792428022
 20
144.3081164900795
 30
0.0
 11
316.6628792428022
 21
152.0081164900791
 31
0.0
  0
LINE
  5
45C8
330
1F
100
AcDbEntity
  8
KANAMONO_SCREW
100
AcDbLine
 10
319.8028792428031
 20
146.208116490083
 30
0.0
 11
319.202879242802
 21
144.3081164900795
 31
0.0
  0
LINE
  5
45C9
330
1F
100
AcDbEntity
  8
KANAMONO_SCREW
100
AcDbLine
 10
313.6228792428022
 20
144.3081164900795
 30
0.0
 11
313.0228792428032
 21
146.2081164900757
 31
0.0
  0
LINE
  5
45CA
330
1F
100
AcDbEntity
  8
KANAMONO_SCREW
100
AcDbLine
 10
316.6628792428022
 20
144.3081164900795
 30
0.0
 11
316.412879242802
 21
146.2081164900757
 31
0.0
  0
LINE
  5
45CB
330
1F
100
AcDbEntity
  8
KANAMONO_SCREW
100
AcDbLine
 10
316.4128792428008
 20
146.2081164900782
 30
0.0
 11
316.1628792428057
 21
144.3081164900836
 31
0.0
  0
LINE
  5
45CC
330
1F
100
AcDbEntity
  8
KANAMONO_SCREW
100
AcDbLine
 10
316.1628792428057
 20
144.3081164900836
 30
0.0
 11
316.1628792428079
 21
152.0081164900677
 31
0.0
  0
LINE
  5
45CD
330
1F
100
AcDbEntity
  8
KANAMONO_SCREW
100
AcDbLine
 10
316.4128792428008
 20
146.2081164900782
 30
0.0
 11
316.4128792428024
 21
151.5081164900677
 31
0.0
  0
LINE
  5
45CE
330
1F
100
AcDbEntity
  8
KANAMONO_SCREW
100
AcDbLine
 10
319.8028792428031
 20
146.208116490083
 30
0.0
 11
319.8028792428047
 21
151.5081164900798
 31
0.0
  0
LINE
  5
45CF
330
1F
100
AcDbEntity
  8
KANAMONO_SCREW
100
AcDbLine
 10
313.0228792428032
 20
146.2081164900757
 30
0.0
 11
313.0228792428049
 21
151.5081164900793
 31
0.0
  0
LINE
  5
45D0
330
1F
100
AcDbEntity
  8
KANAMONO_SCREW
100
AcDbLine
 10
319.8028792428047
 20
151.5081164900798
 30
0.0
 11
319.2028792428049
 21
152.0081164900795
 31
0.0
  0
LINE
  5
45D1
330
1F
100
AcDbEntity
  8
KANAMONO_SCREW
100
AcDbLine
 10
313.6228792428048
 20
152.0081164900795
 30
0.0
 11
313.0228792428049
 21
151.5081164900793
 31
0.0
  0
LINE
  5
45D2
330
1F
100
AcDbEntity
  8
KANAMONO_SCREW
100
AcDbLine
 10
316.6628792428022
 20
152.0081164900791
 30
0.0
 11
316.4128792428024
 21
151.5081164900793
 31
0.0
  0
LINE
  5
45D3
330
1F
100
AcDbEntity
  8
KANAMONO_SCREW
100
AcDbLine
 10
316.4128792428024
 20
151.5081164900793
 30
0.0
 11
316.1628792428079
 21
152.0081164900677
 31
0.0
  0
LINE
  5
45D4
330
1F
100
AcDbEntity
  8
KANAMONO_SCREW
100
AcDbLine
 10
319.3028792428025
 20
152.0081164900795
 30
0.0
 11
313.5228792428024
 21
152.0081164900795
 31
0.0
  0
LINE
  5
45D5
330
1F
100
AcDbEntity
  8
KANAMONO_SCREW
100
AcDbLine
 10
319.3028792428025
 20
152.0081164900795
 30
0.0
 11
320.0878792428023
 21
152.8581164900795
 31
0.0
  0
LINE
  5
45D6
330
1F
100
AcDbEntity
  8
KANAMONO_SCREW
100
AcDbLine
 10
313.5228792428024
 20
152.0081164900795
 30
0.0
 11
312.7378792428023
 21
152.8581164900792
 31
0.0
  0
LINE
  5
45D7
330
1F
100
AcDbEntity
  8
KANAMONO_SCREW
100
AcDbLine
 10
320.0878792428023
 20
152.8581164900795
 30
0.0
 11
312.7378792428023
 21
152.8581164900792
 31
0.0
  0
LINE
  5
45D8
330
1F
100
AcDbEntity
  8
KANAMONO_SCREW
100
AcDbLine
 10
320.0878792428023
 20
152.8581164900795
 30
0.0
 11
320.0878792428023
 21
153.3081164900795
 31
0.0
  0
LINE
  5
45D9
330
1F
100
AcDbEntity
  8
KANAMONO_SCREW
100
AcDbLine
 10
320.0878792428023
 20
153.3081164900795
 30
0.0
 11
312.7378792428023
 21
153.3081164900795
 31
0.0
  0
LINE
  5
45DA
330
1F
100
AcDbEntity
  8
KANAMONO_SCREW
100
AcDbLine
 10
312.7378792428023
 20
152.8581164900792
 30
0.0
 11
312.7378792428023
 21
153.3081164900795
 31
0.0
  0
ARC
  5
45DB
330
1F
100
AcDbEntity
  8
KANAMONO_SCREW
100
AcDbCircle
 10
317.662879242802
 20
124.0081164900793
 30
0.0
 40
0.5999999999999998
100
AcDbArc
 50
270.0
 51
0.0
  0
LINE
  5
45DC
330
1F
100
AcDbEntity
  8
KANAMONO_SCREW
100
AcDbLine
 10
318.2628792428021
 20
124.0081164900793
 30
0.0
 11
318.2628792428021
 21
132.2081164900796
 31
0.0
  0
ARC
  5
45DD
330
1F
100
AcDbEntity
  8
KANAMONO_SCREW
100
AcDbCircle
 10
315.1628792428021
 20
124.0081164900793
 30
0.0
 40
0.5999999999999998
100
AcDbArc
 50
180.0
 51
270.0
  0
LINE
  5
45DE
330
1F
100
AcDbEntity
  8
KANAMONO_SCREW
100
AcDbLine
 10
314.5628792428019
 20
124.0081164900793
 30
0.0
 11
314.5628792428019
 21
132.2081164900796
 31
0.0
  0
LINE
  5
45DF
330
1F
100
AcDbEntity
  8
KANAMONO_SCREW
100
AcDbLine
 10
315.1628792428021
 20
123.4081164900794
 30
0.0
 11
317.662879242802
 21
123.4081164900794
 31
0.0
  0
LINE
  5
45E0
330
1F
100
AcDbEntity
  8
KANAMONO_SCREW
100
AcDbLine
 10
319.8028792428021
 20
130.8081164900797
 30
0.0
 11
319.2028792428022
 21
131.3081164900795
 31
0.0
  0
LINE
  5
45E1
330
1F
100
AcDbEntity
  8
KANAMONO_SCREW
100
AcDbLine
 10
319.8028792428021
 20
118.3081164900795
 30
0.0
 11
319.8028792428021
 21
130.8081164900797
 31
0.0
  0
LINE
  5
45E2
330
1F
100
AcDbEntity
  8
KANAMONO_SCREW
100
AcDbLine
 10
313.6228792428023
 20
131.3081164900795
 30
0.0
 11
313.0228792428022
 21
130.8081164900793
 31
0.0
  0
LINE
  5
45E3
330
1F
100
AcDbEntity
  8
KANAMONO_SCREW
100
AcDbLine
 10
313.0228792428022
 20
118.3081164900793
 30
0.0
 11
313.0228792428022
 21
130.8081164900793
 31
0.0
  0
ARC
  5
45E4
330
1F
100
AcDbEntity
  8
KANAMONO_SCREW
100
AcDbCircle
 10
317.662879242802
 20
132.2081164900796
 30
0.0
 40
0.5999999999999998
100
AcDbArc
 50
0.0
 51
90.0
  0
LINE
  5
45E5
330
1F
100
AcDbEntity
  8
KANAMONO_SCREW
100
AcDbLine
 10
317.662879242802
 20
132.8081164900795
 30
0.0
 11
315.1628792428021
 21
132.8081164900795
 31
0.0
  0
ARC
  5
45E6
330
1F
100
AcDbEntity
  8
KANAMONO_SCREW
100
AcDbCircle
 10
315.1628792428021
 20
132.2081164900796
 30
0.0
 40
0.5999999999999998
100
AcDbArc
 50
90.0
 51
180.0
  0
LINE
  5
45E7
330
1F
100
AcDbEntity
  8
KANAMONO_SCREW
100
AcDbLine
 10
319.3028792428021
 20
121.5081164900793
 30
0.0
 11
319.3028792428021
 21
123.3081164900795
 31
0.0
  0
LINE
  5
45E8
330
1F
100
AcDbEntity
  8
KANAMONO_SCREW
100
AcDbLine
 10
319.3028792428021
 20
116.1081164900792
 30
0.0
 11
319.3028792428021
 21
117.9081164900796
 31
0.0
  0
LINE
  5
45E9
330
1F
100
AcDbEntity
  8
KANAMONO_SCREW
100
AcDbLine
 10
313.5228792428021
 20
121.5081164900793
 30
0.0
 11
313.5228792428021
 21
123.3081164900795
 31
0.0
  0
LINE
  5
45EA
330
1F
100
AcDbEntity
  8
KANAMONO_SCREW
100
AcDbLine
 10
313.5228792428021
 20
116.1081164900792
 30
0.0
 11
313.5228792428021
 21
117.9081164900796
 31
0.0
  0
LINE
  5
45EB
330
1F
100
AcDbEntity
  8
KANAMONO_SCREW
100
AcDbLine
 10
319.202879242802
 20
118.5081164900795
 30
0.0
 11
318.412879242802
 21
118.5081164900795
 31
0.0
  0
LINE
  5
45EC
330
1F
100
AcDbEntity
  8
KANAMONO_SCREW
100
AcDbLine
 10
319.202879242802
 20
117.9081164900796
 30
0.0
 11
319.202879242802
 21
121.5081164900793
 31
0.0
  0
LINE
  5
45ED
330
1F
100
AcDbEntity
  8
KANAMONO_SCREW
100
AcDbLine
 10
319.202879242802
 20
119.0081164900796
 30
0.0
 11
318.412879242802
 21
119.0081164900796
 31
0.0
  0
LINE
  5
45EE
330
1F
100
AcDbEntity
  8
KANAMONO_SCREW
100
AcDbLine
 10
319.202879242802
 20
119.5081164900795
 30
0.0
 11
318.412879242802
 21
119.5081164900795
 31
0.0
  0
LINE
  5
45EF
330
1F
100
AcDbEntity
  8
KANAMONO_SCREW
100
AcDbLine
 10
319.202879242802
 20
120.0081164900796
 30
0.0
 11
318.412879242802
 21
120.0081164900796
 31
0.0
  0
LINE
  5
45F0
330
1F
100
AcDbEntity
  8
KANAMONO_SCREW
100
AcDbLine
 10
319.202879242802
 20
120.5081164900795
 30
0.0
 11
318.412879242802
 21
120.5081164900795
 31
0.0
  0
LINE
  5
45F1
330
1F
100
AcDbEntity
  8
KANAMONO_SCREW
100
AcDbLine
 10
319.202879242802
 20
121.0081164900795
 30
0.0
 11
318.412879242802
 21
121.0081164900795
 31
0.0
  0
LINE
  5
45F2
330
1F
100
AcDbEntity
  8
KANAMONO_SCREW
100
AcDbLine
 10
314.412879242802
 20
118.5081164900795
 30
0.0
 11
313.6228792428023
 21
118.5081164900795
 31
0.0
  0
LINE
  5
45F3
330
1F
100
AcDbEntity
  8
KANAMONO_SCREW
100
AcDbLine
 10
314.412879242802
 20
119.0081164900796
 30
0.0
 11
313.6228792428023
 21
119.0081164900796
 31
0.0
  0
LINE
  5
45F4
330
1F
100
AcDbEntity
  8
KANAMONO_SCREW
100
AcDbLine
 10
313.6228792428023
 20
117.9081164900796
 30
0.0
 11
313.6228792428022
 21
121.5081164900793
 31
0.0
  0
LINE
  5
45F5
330
1F
100
AcDbEntity
  8
KANAMONO_SCREW
100
AcDbLine
 10
314.412879242802
 20
119.5081164900795
 30
0.0
 11
313.6228792428022
 21
119.5081164900795
 31
0.0
  0
LINE
  5
45F6
330
1F
100
AcDbEntity
  8
KANAMONO_SCREW
100
AcDbLine
 10
314.412879242802
 20
120.0081164900796
 30
0.0
 11
313.6228792428022
 21
120.0081164900796
 31
0.0
  0
LINE
  5
45F7
330
1F
100
AcDbEntity
  8
KANAMONO_SCREW
100
AcDbLine
 10
314.412879242802
 20
120.5081164900795
 30
0.0
 11
313.6228792428022
 21
120.5081164900795
 31
0.0
  0
LINE
  5
45F8
330
1F
100
AcDbEntity
  8
KANAMONO_SCREW
100
AcDbLine
 10
314.412879242802
 20
121.0081164900795
 30
0.0
 11
313.6228792428022
 21
121.0081164900795
 31
0.0
  0
LINE
  5
45F9
330
1F
100
AcDbEntity
  8
KANAMONO_SCREW
100
AcDbLine
 10
319.3028792428021
 20
121.5081164900793
 30
0.0
 11
318.412879242802
 21
121.5081164900793
 31
0.0
  0
LINE
  5
45FA
330
1F
100
AcDbEntity
  8
KANAMONO_SCREW
100
AcDbLine
 10
318.412879242802
 20
116.1081164900792
 30
0.0
 11
318.412879242802
 21
121.5081164900793
 31
0.0
  0
LINE
  5
45FB
330
1F
100
AcDbEntity
  8
KANAMONO_SCREW
100
AcDbLine
 10
314.412879242802
 20
116.1081164900808
 30
0.0
 11
314.412879242802
 21
121.5081164900793
 31
0.0
  0
LINE
  5
45FC
330
1F
100
AcDbEntity
  8
KANAMONO_SCREW
100
AcDbLine
 10
314.412879242802
 20
121.5081164900793
 30
0.0
 11
313.5228792428021
 21
121.5081164900793
 31
0.0
  0
LINE
  5
45FD
330
1F
100
AcDbEntity
  8
KANAMONO_SCREW
100
AcDbLine
 10
319.3028792428021
 20
123.3081164900795
 30
0.0
 11
313.5228792428021
 21
123.3081164900795
 31
0.0
  0
LINE
  5
45FE
330
1F
100
AcDbEntity
  8
KANAMONO_SCREW
100
AcDbLine
 10
317.7628795489638
 20
122.3081164900795
 30
0.0
 11
313.5228792428021
 21
122.3081164900795
 31
0.0
  0
LINE
  5
45FF
330
1F
100
AcDbEntity
  8
KANAMONO_SCREW
100
AcDbLine
 10
319.3028792428021
 20
122.3081164900795
 30
0.0
 11
318.0628795489639
 21
122.3081164900795
 31
0.0
  0
LINE
  5
4600
330
1F
100
AcDbEntity
  8
KANAMONO_SCREW
100
AcDbLine
 10
318.0628795489639
 20
120.9032061976665
 30
0.0
 11
318.0628795489639
 21
122.5081164900791
 31
0.0
  0
LINE
  5
4601
330
1F
100
AcDbEntity
  8
KANAMONO_SCREW
100
AcDbLine
 10
318.0628795489639
 20
122.5081164900791
 30
0.0
 11
317.7628795489638
 21
122.5081164900791
 31
0.0
  0
LINE
  5
4602
330
1F
100
AcDbEntity
  8
KANAMONO_SCREW
100
AcDbLine
 10
317.7628795489638
 20
120.9032061976665
 30
0.0
 11
317.7628795489638
 21
122.5081164900791
 31
0.0
  0
ARC
  5
4603
330
1F
100
AcDbEntity
  8
KANAMONO_SCREW
100
AcDbCircle
 10
316.0628792428021
 20
117.7130268874652
 30
0.0
 40
1.3
100
AcDbArc
 50
122.858397292397
 51
180.0
  0
LINE
  5
4604
330
1F
100
AcDbEntity
  8
KANAMONO_SCREW
100
AcDbLine
 10
314.7628792428021
 20
117.3081164900795
 30
0.0
 11
314.7628792428021
 21
117.7130268874652
 31
0.0
  0
ARC
  5
4605
330
1F
100
AcDbEntity
  8
KANAMONO_SCREW
100
AcDbCircle
 10
316.0628792428021
 20
117.7130268874652
 30
0.0
 40
1.0
100
AcDbArc
 50
122.8583972924123
 51
180.0
  0
LINE
  5
4606
330
1F
100
AcDbEntity
  8
KANAMONO_SCREW
100
AcDbLine
 10
315.0628792428022
 20
117.3081164900795
 30
0.0
 11
315.0628792428022
 21
117.7130268874652
 31
0.0
  0
ARC
  5
4607
330
1F
100
AcDbEntity
  8
KANAMONO_SCREW
100
AcDbCircle
 10
316.7628795489638
 20
120.9032061976665
 30
0.0
 40
1.0
100
AcDbArc
 50
302.8583972924124
 51
0.0
  0
LINE
  5
4608
330
1F
100
AcDbEntity
  8
KANAMONO_SCREW
100
AcDbLine
 10
315.5203145875173
 20
118.553040931893
 30
0.0
 11
317.4682136008337
 21
119.8111879399105
 31
0.0
  0
ARC
  5
4609
330
1F
100
AcDbEntity
  8
KANAMONO_SCREW
100
AcDbCircle
 10
316.7628795489638
 20
120.9032061976665
 30
0.0
 40
1.3
100
AcDbArc
 50
302.858397292397
 51
0.0
  0
LINE
  5
460A
330
1F
100
AcDbEntity
  8
KANAMONO_SCREW
100
AcDbLine
 10
315.3575451909321
 20
118.8050451452213
 30
0.0
 11
317.3054442042487
 21
120.0631921532387
 31
0.0
  0
LINE
  5
460B
330
1F
100
AcDbEntity
  8
KANAMONO_SCREW
100
AcDbLine
 10
315.0628792428022
 20
117.3081164900795
 30
0.0
 11
314.7628792428021
 21
117.3081164900795
 31
0.0
  0
LINE
  5
460C
330
1F
100
AcDbEntity
  8
KANAMONO_SCREW
100
AcDbLine
 10
314.7628792428021
 20
116.2032060926937
 30
0.0
 11
314.7628792428021
 21
116.6081164900795
 31
0.0
  0
LINE
  5
460D
330
1F
100
AcDbEntity
  8
KANAMONO_SCREW
100
AcDbLine
 10
315.0628792428022
 20
116.6081164900795
 30
0.0
 11
314.7628792428021
 21
116.6081164900795
 31
0.0
  0
LINE
  5
460E
330
1F
100
AcDbEntity
  8
KANAMONO_SCREW
100
AcDbLine
 10
315.0628792428022
 20
116.2032060926937
 30
0.0
 11
315.0628792428022
 21
116.6081164900795
 31
0.0
  0
ARC
  5
460F
330
1F
100
AcDbEntity
  8
KANAMONO_SCREW
100
AcDbCircle
 10
316.5628795489638
 20
102.1422066834438
 30
0.0
 40
1.0
100
AcDbArc
 50
0.0
 51
57.141602707603
  0
LINE
  5
4610
330
1F
100
AcDbEntity
  8
KANAMONO_SCREW
100
AcDbLine
 10
317.5628795489637
 20
99.5740262967158
 30
0.0
 11
317.5628795489637
 21
102.1422066834438
 31
0.0
  0
LINE
  5
4611
330
1F
100
AcDbEntity
  8
KANAMONO_SCREW
100
AcDbLine
 10
315.3575451909321
 20
104.1111878349377
 30
0.0
 11
317.1054442042484
 21
102.9822207278714
 31
0.0
  0
ARC
  5
4612
330
1F
100
AcDbEntity
  8
KANAMONO_SCREW
100
AcDbCircle
 10
316.5628795489638
 20
99.5740262967158
 30
0.0
 40
1.0
100
AcDbArc
 50
302.858397292397
 51
0.0
  0
LINE
  5
4613
330
1F
100
AcDbEntity
  8
KANAMONO_SCREW
100
AcDbLine
 10
316.8575451909322
 20
98.57389440235714
 30
0.0
 11
317.1054442042484
 21
98.73401225228802
 31
0.0
  0
ARC
  5
4614
330
1F
100
AcDbEntity
  8
KANAMONO_SCREW
100
AcDbCircle
 10
316.5628795489638
 20
99.5740262967158
 30
0.0
 40
1.3
100
AcDbArc
 50
302.8583972924124
 51
0.0
  0
LINE
  5
4615
330
1F
100
AcDbEntity
  8
KANAMONO_SCREW
100
AcDbLine
 10
317.0203145875174
 20
98.32189018902884
 30
0.0
 11
317.2682136008341
 21
98.48200803895972
 31
0.0
  0
LINE
  5
4616
330
1F
100
AcDbEntity
  8
KANAMONO_SCREW
100
AcDbLine
 10
317.8628795489637
 20
99.5740262967158
 30
0.0
 11
317.8628795489637
 21
102.1422066834438
 31
0.0
  0
ARC
  5
4617
330
1F
100
AcDbEntity
  8
KANAMONO_SCREW
100
AcDbCircle
 10
316.5628795489638
 20
102.1422066834438
 30
0.0
 40
1.3
100
AcDbArc
 50
0.0
 51
57.141602707603
  0
LINE
  5
4618
330
1F
100
AcDbEntity
  8
KANAMONO_SCREW
100
AcDbLine
 10
315.5203145875173
 20
104.3631920482657
 30
0.0
 11
317.2682136008338
 21
103.2342249411997
 31
0.0
  0
ARC
  5
4619
330
1F
100
AcDbEntity
  8
KANAMONO_SCREW
100
AcDbCircle
 10
316.0628792428021
 20
116.2032060926937
 30
0.0
 40
1.3
100
AcDbArc
 50
180.0
 51
237.141602707603
  0
ARC
  5
461A
330
1F
100
AcDbEntity
  8
KANAMONO_SCREW
100
AcDbCircle
 10
316.0628792428021
 20
116.2032060926937
 30
0.0
 40
1.0
100
AcDbArc
 50
180.0
 51
237.1416027075877
  0
ARC
  5
461B
330
1F
100
AcDbEntity
  8
KANAMONO_SCREW
100
AcDbCircle
 10
316.7628795489638
 20
110.7032061976669
 30
0.0
 40
1.0
100
AcDbArc
 50
302.858397292397
 51
0.0
  0
LINE
  5
461C
330
1F
100
AcDbEntity
  8
KANAMONO_SCREW
100
AcDbLine
 10
315.3575451909321
 20
115.1111878349377
 30
0.0
 11
317.3054442042484
 21
113.85304082692
 31
0.0
  0
LINE
  5
461D
330
1F
100
AcDbEntity
  8
KANAMONO_SCREW
100
AcDbLine
 10
317.7628795489638
 20
110.7032061976669
 30
0.0
 11
317.7628795489638
 21
113.0130267824924
 31
0.0
  0
ARC
  5
461E
330
1F
100
AcDbEntity
  8
KANAMONO_SCREW
100
AcDbCircle
 10
316.7628795489638
 20
113.0130267824924
 30
0.0
 40
1.0
100
AcDbArc
 50
0.0
 51
57.141602707603
  0
LINE
  5
461F
330
1F
100
AcDbEntity
  8
KANAMONO_SCREW
100
AcDbLine
 10
315.5203145875173
 20
115.3631920482659
 30
0.0
 11
317.4682136008337
 21
114.1050450402483
 31
0.0
  0
ARC
  5
4620
330
1F
100
AcDbEntity
  8
KANAMONO_SCREW
100
AcDbCircle
 10
316.7628795489638
 20
113.0130267824924
 30
0.0
 40
1.3
100
AcDbArc
 50
0.0
 51
57.141602707603
  0
LINE
  5
4621
330
1F
100
AcDbEntity
  8
KANAMONO_SCREW
100
AcDbLine
 10
318.0628795489637
 20
110.7032061976669
 30
0.0
 11
318.0628795489637
 21
113.0130267824924
 31
0.0
  0
ARC
  5
4622
330
1F
100
AcDbEntity
  8
KANAMONO_SCREW
100
AcDbCircle
 10
316.7628795489638
 20
110.7032061976669
 30
0.0
 40
1.3
100
AcDbArc
 50
302.858397292397
 51
0.0
  0
ARC
  5
4623
330
1F
100
AcDbEntity
  8
KANAMONO_SCREW
100
AcDbCircle
 10
316.0628792428021
 20
105.2032060926937
 30
0.0
 40
1.3
100
AcDbArc
 50
180.0
 51
237.141602707603
  0
ARC
  5
4624
330
1F
100
AcDbEntity
  8
KANAMONO_SCREW
100
AcDbCircle
 10
316.0628792428021
 20
105.2032060926937
 30
0.0
 40
1.0
100
AcDbArc
 50
180.0
 51
237.1416027075877
  0
LINE
  5
4625
330
1F
100
AcDbEntity
  8
KANAMONO_SCREW
100
AcDbLine
 10
314.7628792428021
 20
105.2032060926937
 30
0.0
 11
314.7628792428021
 21
107.5130268874654
 31
0.0
  0
LINE
  5
4626
330
1F
100
AcDbEntity
  8
KANAMONO_SCREW
100
AcDbLine
 10
315.3575451909321
 20
108.6050451452217
 30
0.0
 11
317.3054442042484
 21
109.8631921532391
 31
0.0
  0
ARC
  5
4627
330
1F
100
AcDbEntity
  8
KANAMONO_SCREW
100
AcDbCircle
 10
316.0628792428021
 20
107.5130268874654
 30
0.0
 40
1.3
100
AcDbArc
 50
122.858397292397
 51
180.0
  0
LINE
  5
4628
330
1F
100
AcDbEntity
  8
KANAMONO_SCREW
100
AcDbLine
 10
315.0628792428022
 20
105.2032060926937
 30
0.0
 11
315.0628792428022
 21
107.5130268874654
 31
0.0
  0
LINE
  5
4629
330
1F
100
AcDbEntity
  8
KANAMONO_SCREW
100
AcDbLine
 10
315.5203145875173
 20
108.3530409318934
 30
0.0
 11
317.4682136008337
 21
109.6111879399108
 31
0.0
  0
ARC
  5
462A
330
1F
100
AcDbEntity
  8
KANAMONO_SCREW
100
AcDbCircle
 10
316.0628792428021
 20
107.5130268874654
 30
0.0
 40
1.0
100
AcDbArc
 50
122.8583972924123
 51
180.0
  0
ARC
  5
462B
330
1F
100
AcDbEntity
  8
KANAMONO_SCREW
100
AcDbCircle
 10
317.5628792428021
 20
97.48187614460105
 30
0.0
 40
1.0
100
AcDbArc
 50
122.8583972924123
 51
180.0
  0
ARC
  5
462C
330
1F
100
AcDbEntity
  8
KANAMONO_SCREW
100
AcDbCircle
 10
317.5628792428021
 20
97.48187614460105
 30
0.0
 40
1.3
100
AcDbArc
 50
122.858397292397
 51
180.0
  0
LINE
  5
462D
330
1F
100
AcDbEntity
  8
KANAMONO_SCREW
100
AcDbLine
 10
316.2628792428019
 20
97.30811649007954
 30
0.0
 11
316.2628792428019
 21
97.48187614460105
 31
0.0
  0
LINE
  5
462E
330
1F
100
AcDbEntity
  8
KANAMONO_SCREW
100
AcDbLine
 10
316.5628792428021
 20
97.30811649007954
 30
0.0
 11
316.5628792428021
 21
97.48187614460105
 31
0.0
  0
LINE
  5
462F
330
1F
100
AcDbEntity
  8
KANAMONO_SCREW
100
AcDbLine
 10
316.5628792428021
 20
97.30811649007954
 30
0.0
 11
316.2628792428019
 21
97.30811649007954
 31
0.0
  0
LINE
  5
4630
330
1F
100
AcDbEntity
  8
KANAMONO_SCREW
100
AcDbLine
 10
319.6378792428021
 20
112.3081164900795
 30
0.0
 11
318.5538225271973
 21
112.3081164900795
 31
0.0
  0
LINE
  5
4631
330
1F
100
AcDbEntity
  8
KANAMONO_SCREW
100
AcDbLine
 10
314.2718266112232
 20
112.3081164900795
 30
0.0
 11
313.1878792428021
 21
112.3081164900795
 31
0.0
  0
LINE
  5
4632
330
1F
100
AcDbEntity
  8
KANAMONO_SCREW
100
AcDbLine
 10
319.5765038046123
 20
112.9081164900796
 30
0.0
 11
318.5315683243983
 21
112.9081164900796
 31
0.0
  0
LINE
  5
4633
330
1F
100
AcDbEntity
  8
KANAMONO_SCREW
100
AcDbLine
 10
319.5236090677701
 20
113.5081164900795
 30
0.0
 11
318.5093141215988
 21
113.5081164900795
 31
0.0
  0
LINE
  5
4634
330
1F
100
AcDbEntity
  8
KANAMONO_SCREW
100
AcDbLine
 10
319.4707143309281
 20
114.1081164900792
 30
0.0
 11
318.4870599187995
 21
114.1081164900792
 31
0.0
  0
LINE
  5
4635
330
1F
100
AcDbEntity
  8
KANAMONO_SCREW
100
AcDbLine
 10
319.4178195940859
 20
114.7081164900796
 30
0.0
 11
318.4648057160004
 21
114.7081164900796
 31
0.0
  0
LINE
  5
4636
330
1F
100
AcDbEntity
  8
KANAMONO_SCREW
100
AcDbLine
 10
319.3649248572436
 20
115.3081164900795
 30
0.0
 11
318.4425515132011
 21
115.3081164900795
 31
0.0
  0
LINE
  5
4637
330
1F
100
AcDbEntity
  8
KANAMONO_SCREW
100
AcDbLine
 10
314.4054554200872
 20
115.9081164900796
 30
0.0
 11
313.5137286713643
 21
115.9081164900796
 31
0.0
  0
LINE
  5
4638
330
1F
100
AcDbEntity
  8
KANAMONO_SCREW
100
AcDbLine
 10
314.3831839519432
 20
115.3081164900795
 30
0.0
 11
313.4608339345222
 21
115.3081164900795
 31
0.0
  0
LINE
  5
4639
330
1F
100
AcDbEntity
  8
KANAMONO_SCREW
100
AcDbLine
 10
314.3609124837993
 20
114.7081164900796
 30
0.0
 11
313.4079391976799
 21
114.7081164900796
 31
0.0
  0
LINE
  5
463A
330
1F
100
AcDbEntity
  8
KANAMONO_SCREW
100
AcDbLine
 10
314.3386410156551
 20
114.1081164900792
 30
0.0
 11
313.355044460838
 21
114.1081164900792
 31
0.0
  0
LINE
  5
463B
330
1F
100
AcDbEntity
  8
KANAMONO_SCREW
100
AcDbLine
 10
314.3163695475111
 20
113.5081164900795
 30
0.0
 11
313.3021497239958
 21
113.5081164900795
 31
0.0
  0
LINE
  5
463C
330
1F
100
AcDbEntity
  8
KANAMONO_SCREW
100
AcDbLine
 10
314.2940980793672
 20
112.9081164900796
 30
0.0
 11
313.2492549871537
 21
112.9081164900796
 31
0.0
  0
LINE
  5
463D
330
1F
100
AcDbEntity
  8
KANAMONO_SCREW
100
AcDbLine
 10
318.5539495642983
 20
112.3046914174637
 30
0.0
 11
318.412879242802
 21
116.1081164900792
 31
0.0
  0
LINE
  5
463E
330
1F
100
AcDbEntity
  8
KANAMONO_SCREW
100
AcDbLine
 10
314.2718266112232
 20
112.3081164900795
 30
0.0
 11
314.412879242802
 21
116.1081164900792
 31
0.0
  0
LINE
  5
463F
330
1F
100
AcDbEntity
  8
KANAMONO_SCREW
100
AcDbLine
 10
318.5628789060215
 20
110.6081164900792
 30
0.0
 11
318.5539495642983
 21
112.3046914174637
 31
0.0
  0
LINE
  5
4640
330
1F
100
AcDbEntity
  8
KANAMONO_SCREW
100
AcDbLine
 10
314.2628792428021
 20
110.6081164900792
 30
0.0
 11
314.271871515496
 21
112.3166483019492
 31
0.0
  0
LINE
  5
4641
330
1F
100
AcDbEntity
  8
KANAMONO_SCREW
100
AcDbLine
 10
319.3120301204014
 20
115.9081164900796
 30
0.0
 11
318.413931874381
 21
115.9081164900796
 31
0.0
  0
LINE
  5
4642
330
1F
100
AcDbEntity
  8
KANAMONO_SCREW
100
AcDbLine
 10
314.412879242802
 20
117.9081164900796
 30
0.0
 11
313.5228792428021
 21
117.9081164900796
 31
0.0
  0
LINE
  5
4643
330
1F
100
AcDbEntity
  8
KANAMONO_SCREW
100
AcDbLine
 10
319.3028792428021
 20
117.9081164900796
 30
0.0
 11
318.412879242802
 21
117.9081164900796
 31
0.0
  0
LINE
  5
4644
330
1F
100
AcDbEntity
  8
KANAMONO_SCREW
100
AcDbLine
 10
314.412879242802
 20
116.1081164900792
 30
0.0
 11
313.5228792428021
 21
116.1081164900792
 31
0.0
  0
LINE
  5
4645
330
1F
100
AcDbEntity
  8
KANAMONO_SCREW
100
AcDbLine
 10
319.3028792428021
 20
116.1081164900792
 30
0.0
 11
318.412879242802
 21
116.1081164900792
 31
0.0
  0
LINE
  5
4646
330
1F
100
AcDbEntity
  8
KANAMONO_SCREW
100
AcDbLine
 10
319.4765159126003
 20
112.3081164900797
 30
0.0
 11
319.1415159126003
 21
116.1081164900797
 31
0.0
  0
LINE
  5
4647
330
1F
100
AcDbEntity
  8
KANAMONO_SCREW
100
AcDbLine
 10
313.3492428791657
 20
112.3081164900797
 30
0.0
 11
313.6842428791658
 21
116.1081164900797
 31
0.0
  0
LINE
  5
4648
330
1F
100
AcDbEntity
  8
KANAMONO_SCREW
100
AcDbLine
 10
314.272879242802
 20
110.2081164900796
 30
0.0
 11
313.2063602503114
 21
110.2081164900794
 31
0.0
  0
LINE
  5
4649
330
1F
100
AcDbEntity
  8
KANAMONO_SCREW
100
AcDbLine
 10
314.2878792428021
 20
109.6081164900792
 30
0.0
 11
313.2213602503115
 21
109.6081164900792
 31
0.0
  0
LINE
  5
464A
330
1F
100
AcDbEntity
  8
KANAMONO_SCREW
100
AcDbLine
 10
314.3028792428019
 20
109.0081164900795
 30
0.0
 11
313.2363602503116
 21
109.0081164900795
 31
0.0
  0
LINE
  5
464B
330
1F
100
AcDbEntity
  8
KANAMONO_SCREW
100
AcDbLine
 10
314.317879242802
 20
108.4081164900796
 30
0.0
 11
313.2513602503115
 21
108.4081164900796
 31
0.0
  0
LINE
  5
464C
330
1F
100
AcDbEntity
  8
KANAMONO_SCREW
100
AcDbLine
 10
314.3328792428021
 20
107.8081164900795
 30
0.0
 11
313.2663602503116
 21
107.8081164900795
 31
0.0
  0
LINE
  5
464D
330
1F
100
AcDbEntity
  8
KANAMONO_SCREW
100
AcDbLine
 10
314.347879242802
 20
107.2081164900794
 30
0.0
 11
313.2813602503117
 21
107.2081164900794
 31
0.0
  0
LINE
  5
464E
330
1F
100
AcDbEntity
  8
KANAMONO_SCREW
100
AcDbLine
 10
319.6193982046736
 20
110.2081164900796
 30
0.0
 11
318.5528789060216
 21
110.2081164900796
 31
0.0
  0
LINE
  5
464F
330
1F
100
AcDbEntity
  8
KANAMONO_SCREW
100
AcDbLine
 10
319.6043982046735
 20
109.6081164900792
 30
0.0
 11
318.5378789060216
 21
109.6081164900792
 31
0.0
  0
LINE
  5
4650
330
1F
100
AcDbEntity
  8
KANAMONO_SCREW
100
AcDbLine
 10
319.5893982046736
 20
109.0081164900795
 30
0.0
 11
318.5228789060215
 21
109.0081164900795
 31
0.0
  0
LINE
  5
4651
330
1F
100
AcDbEntity
  8
KANAMONO_SCREW
100
AcDbLine
 10
319.5743982046735
 20
108.4081164900796
 30
0.0
 11
318.5078789060214
 21
108.4081164900796
 31
0.0
  0
LINE
  5
4652
330
1F
100
AcDbEntity
  8
KANAMONO_SCREW
100
AcDbLine
 10
319.5593982046736
 20
107.8081164900795
 30
0.0
 11
318.5089280959481
 21
107.8081164900795
 31
0.0
  0
LINE
  5
4653
330
1F
100
AcDbEntity
  8
KANAMONO_SCREW
100
AcDbLine
 10
319.5443982046739
 20
107.2081164900796
 30
0.0
 11
318.4778789060217
 21
107.2081164900796
 31
0.0
  0
LINE
  5
4654
330
1F
100
AcDbEntity
  8
KANAMONO_SCREW
100
AcDbLine
 10
319.3765156064675
 20
106.6081299624597
 30
0.0
 11
319.4765156064676
 21
110.6081299624597
 31
0.0
  0
LINE
  5
4655
330
1F
100
AcDbEntity
  8
KANAMONO_SCREW
100
AcDbLine
 10
313.4492428791658
 20
106.6081164900792
 30
0.0
 11
313.3492428791657
 21
110.6081164900792
 31
0.0
  0
LINE
  5
4656
330
1F
100
AcDbEntity
  8
KANAMONO_SCREW
100
AcDbLine
 10
319.162879242802
 20
101.1081164900792
 30
0.0
 11
319.2492428791656
 21
104.9081164900794
 31
0.0
  0
LINE
  5
4657
330
1F
100
AcDbEntity
  8
KANAMONO_SCREW
100
AcDbLine
 10
319.4115159126001
 20
101.7081164900796
 30
0.0
 11
318.3109055585918
 21
101.7081164900796
 31
0.0
  0
LINE
  5
4658
330
1F
100
AcDbEntity
  8
KANAMONO_SCREW
100
AcDbLine
 10
319.4251522762366
 20
102.3081164900795
 30
0.0
 11
318.333931874381
 21
102.3081164900795
 31
0.0
  0
LINE
  5
4659
330
1F
100
AcDbEntity
  8
KANAMONO_SCREW
100
AcDbLine
 10
319.4387886398728
 20
102.9081164900794
 30
0.0
 11
318.3569581901705
 21
102.9081164900794
 31
0.0
  0
LINE
  5
465A
330
1F
100
AcDbEntity
  8
KANAMONO_SCREW
100
AcDbLine
 10
319.4524250035093
 20
103.5081164900793
 30
0.0
 11
318.37998450596
 21
103.5081164900793
 31
0.0
  0
LINE
  5
465B
330
1F
100
AcDbEntity
  8
KANAMONO_SCREW
100
AcDbLine
 10
319.4660613671455
 20
104.1081164900792
 30
0.0
 11
318.4260371375389
 21
104.1081164900792
 31
0.0
  0
LINE
  5
465C
330
1F
100
AcDbEntity
  8
KANAMONO_SCREW
100
AcDbLine
 10
314.3997213480653
 20
104.1081164900792
 30
0.0
 11
313.3578462705911
 21
104.1081164900792
 31
0.0
  0
LINE
  5
465D
330
1F
100
AcDbEntity
  8
KANAMONO_SCREW
100
AcDbLine
 10
314.4457739796441
 20
103.5081164900793
 30
0.0
 11
313.3686869111945
 21
103.5081164900793
 31
0.0
  0
LINE
  5
465E
330
1F
100
AcDbEntity
  8
KANAMONO_SCREW
100
AcDbLine
 10
314.4688002954337
 20
102.9081164900794
 30
0.0
 11
313.379527551798
 21
102.9081164900794
 31
0.0
  0
LINE
  5
465F
330
1F
100
AcDbEntity
  8
KANAMONO_SCREW
100
AcDbLine
 10
314.4918266112232
 20
102.3081164900795
 30
0.0
 11
313.3903681924011
 21
102.3081164900795
 31
0.0
  0
LINE
  5
4660
330
1F
100
AcDbEntity
  8
KANAMONO_SCREW
100
AcDbLine
 10
314.5148529270126
 20
101.7081164900794
 30
0.0
 11
313.4012088330046
 21
101.7081164900794
 31
0.0
  0
LINE
  5
4661
330
1F
100
AcDbEntity
  8
KANAMONO_SCREW
100
AcDbLine
 10
314.2628792428021
 20
110.6081164900792
 30
0.0
 11
313.1878792428021
 21
110.6081164900792
 31
0.0
  0
LINE
  5
4662
330
1F
100
AcDbEntity
  8
KANAMONO_SCREW
100
AcDbLine
 10
319.6378792428021
 20
110.6081164900792
 30
0.0
 11
318.5628789060215
 21
110.6081164900792
 31
0.0
  0
LINE
  5
4663
330
1F
100
AcDbEntity
  8
KANAMONO_SCREW
100
AcDbLine
 10
318.4628792428311
 20
106.6081299624597
 30
0.0
 11
318.5628792428309
 21
110.6081299624597
 31
0.0
  0
LINE
  5
4664
330
1F
100
AcDbEntity
  8
KANAMONO_SCREW
100
AcDbLine
 10
314.3628792428021
 20
106.6081164900799
 30
0.0
 11
314.2628792428021
 21
110.6081164900799
 31
0.0
  0
LINE
  5
4665
330
1F
100
AcDbEntity
  8
KANAMONO_SCREW
100
AcDbLine
 10
319.6378792428021
 20
110.6081164900792
 30
0.0
 11
319.6378792428021
 21
112.3081164900795
 31
0.0
  0
LINE
  5
4666
330
1F
100
AcDbEntity
  8
KANAMONO_SCREW
100
AcDbLine
 10
313.1878792428021
 20
110.6081164900792
 30
0.0
 11
313.1878792428021
 21
112.3081164900795
 31
0.0
  0
LINE
  5
4667
330
1F
100
AcDbEntity
  8
KANAMONO_SCREW
100
AcDbLine
 10
313.662879242802
 20
101.1081164900792
 30
0.0
 11
313.4878792428021
 21
104.9081164900794
 31
0.0
  0
LINE
  5
4668
330
1F
100
AcDbEntity
  8
KANAMONO_SCREW
100
AcDbLine
 10
319.162879242802
 20
96.70811649007962
 30
0.0
 11
319.162879242802
 21
99.30811649007953
 31
0.0
  0
LINE
  5
4669
330
1F
100
AcDbEntity
  8
KANAMONO_SCREW
100
AcDbLine
 10
313.662879242802
 20
96.70811649007939
 30
0.0
 11
313.662879242802
 21
99.30811649007953
 31
0.0
  0
LINE
  5
466A
330
1F
100
AcDbEntity
  8
KANAMONO_SCREW
100
AcDbLine
 10
319.4774250035091
 20
104.6081164900792
 30
0.0
 11
318.4408092218693
 21
104.6081164900792
 31
0.0
  0
LINE
  5
466B
330
1F
100
AcDbEntity
  8
KANAMONO_SCREW
100
AcDbLine
 10
319.4128792428021
 20
101.1081164900792
 30
0.0
 11
318.2878792428021
 21
101.1081164900792
 31
0.0
  0
LINE
  5
466C
330
1F
100
AcDbEntity
  8
KANAMONO_SCREW
100
AcDbLine
 10
314.3766950322758
 20
104.6081164900792
 30
0.0
 11
313.3488124034217
 21
104.6081164900792
 31
0.0
  0
LINE
  5
466D
330
1F
100
AcDbEntity
  8
KANAMONO_SCREW
100
AcDbLine
 10
319.4992431853272
 20
104.9081164900794
 30
0.0
 11
319.5378795489637
 21
106.6081164900792
 31
0.0
  0
LINE
  5
466E
330
1F
100
AcDbEntity
  8
KANAMONO_SCREW
100
AcDbLine
 10
313.3265156064386
 20
104.9081164900794
 30
0.0
 11
313.287879242802
 21
106.6081164900792
 31
0.0
  0
LINE
  5
466F
330
1F
100
AcDbEntity
  8
KANAMONO_SCREW
100
AcDbLine
 10
314.3628792428021
 20
104.9081164900794
 30
0.0
 11
313.3265156064386
 21
104.9081164900794
 31
0.0
  0
LINE
  5
4670
330
1F
100
AcDbEntity
  8
KANAMONO_SCREW
100
AcDbLine
 10
319.4992431853272
 20
104.9081164900794
 30
0.0
 11
318.4628792428022
 21
104.9081164900794
 31
0.0
  0
LINE
  5
4671
330
1F
100
AcDbEntity
  8
KANAMONO_SCREW
100
AcDbLine
 10
314.3628792428021
 20
106.6081164900792
 30
0.0
 11
313.287879242802
 21
106.6081164900792
 31
0.0
  0
LINE
  5
4672
330
1F
100
AcDbEntity
  8
KANAMONO_SCREW
100
AcDbLine
 10
319.537879242802
 20
106.6081164900792
 30
0.0
 11
318.462879242802
 21
106.6081164900792
 31
0.0
  0
LINE
  5
4673
330
1F
100
AcDbEntity
  8
KANAMONO_SCREW
100
AcDbLine
 10
318.2878792428021
 20
101.1081164900792
 30
0.0
 11
318.462879242802
 21
104.9081164900794
 31
0.0
  0
LINE
  5
4674
330
1F
100
AcDbEntity
  8
KANAMONO_SCREW
100
AcDbLine
 10
314.537879242802
 20
101.1081164900792
 30
0.0
 11
314.3628792428021
 21
104.9081164900794
 31
0.0
  0
LINE
  5
4675
330
1F
100
AcDbEntity
  8
KANAMONO_SCREW
100
AcDbLine
 10
316.412879548964
 20
93.80811649007952
 30
0.0
 11
315.0165672482496
 21
95.62332248100753
 31
0.0
  0
ARC
  5
4676
330
1F
100
AcDbEntity
  8
KANAMONO_SCREW
100
AcDbCircle
 10
315.4128792428021
 20
95.92817786143243
 30
0.0
 40
0.5
100
AcDbArc
 50
180.0
 51
217.5685920288021
  0
LINE
  5
4677
330
1F
100
AcDbEntity
  8
KANAMONO_SCREW
100
AcDbLine
 10
314.9128792428022
 20
96.11111079075541
 30
0.0
 11
314.9128792428022
 21
95.9281778614322
 31
0.0
  0
LINE
  5
4678
330
1F
100
AcDbEntity
  8
KANAMONO_SCREW
100
AcDbLine
 10
316.412879548964
 20
94.3081164900793
 30
0.0
 11
315.0025104422573
 21
96.1415963287977
 31
0.0
  0
ARC
  5
4679
330
1F
100
AcDbEntity
  8
KANAMONO_SCREW
100
AcDbCircle
 10
314.962879242802
 20
96.11111079075541
 30
0.0
 40
0.05
100
AcDbArc
 50
37.56859202884636
 51
180.0
  0
LINE
  5
467A
330
1F
100
AcDbEntity
  8
KANAMONO_SCREW
100
AcDbLine
 10
317.912879548964
 20
96.11111079075541
 30
0.0
 11
317.912879548964
 21
95.92817786143243
 31
0.0
  0
LINE
  5
467B
330
1F
100
AcDbEntity
  8
KANAMONO_SCREW
100
AcDbLine
 10
316.4128792428018
 20
94.3081164900793
 30
0.0
 11
317.8232483495088
 21
96.14159632879793
 31
0.0
  0
ARC
  5
467C
330
1F
100
AcDbEntity
  8
KANAMONO_SCREW
100
AcDbCircle
 10
317.8628795489637
 20
96.11111079075541
 30
0.0
 40
0.05
100
AcDbArc
 50
0.0
 51
142.4314079710051
  0
LINE
  5
467D
330
1F
100
AcDbEntity
  8
KANAMONO_SCREW
100
AcDbLine
 10
316.412879242802
 20
93.80811649007952
 30
0.0
 11
317.8091915435161
 21
95.62332248100753
 31
0.0
  0
ARC
  5
467E
330
1F
100
AcDbEntity
  8
KANAMONO_SCREW
100
AcDbCircle
 10
317.412879548964
 20
95.92817786143243
 30
0.0
 40
0.5
100
AcDbArc
 50
322.4314079711771
 51
0.0
  0
LINE
  5
467F
330
1F
100
AcDbEntity
  8
KANAMONO_SCREW
100
AcDbLine
 10
314.9128792428022
 20
98.41111079075538
 30
0.0
 11
314.9128792428022
 21
98.22817786143284
 31
0.0
  0
LINE
  5
4680
330
1F
100
AcDbEntity
  8
KANAMONO_SCREW
100
AcDbLine
 10
317.912879548964
 20
98.41111079075538
 30
0.0
 11
317.912879548964
 21
98.22817786143284
 31
0.0
  0
LINE
  5
4681
330
1F
100
AcDbEntity
  8
KANAMONO_SCREW
100
AcDbLine
 10
316.412879548964
 20
96.60811649007925
 30
0.0
 11
315.0025104422573
 21
98.44159632879811
 31
0.0
  0
ARC
  5
4682
330
1F
100
AcDbEntity
  8
KANAMONO_SCREW
100
AcDbCircle
 10
314.962879242802
 20
98.41111079075538
 30
0.0
 40
0.05
100
AcDbArc
 50
37.56859202884636
 51
180.0
  0
LINE
  5
4683
330
1F
100
AcDbEntity
  8
KANAMONO_SCREW
100
AcDbLine
 10
316.412879548964
 20
96.10811649007926
 30
0.0
 11
315.0165672482496
 21
97.92332248100795
 31
0.0
  0
ARC
  5
4684
330
1F
100
AcDbEntity
  8
KANAMONO_SCREW
100
AcDbCircle
 10
315.4128792428021
 20
98.22817786143284
 30
0.0
 40
0.5
100
AcDbArc
 50
180.0
 51
217.5685920288229
  0
LINE
  5
4685
330
1F
100
AcDbEntity
  8
KANAMONO_SCREW
100
AcDbLine
 10
316.412879242802
 20
96.60811649007925
 30
0.0
 11
317.8232483495088
 21
98.44159632879811
 31
0.0
  0
ARC
  5
4686
330
1F
100
AcDbEntity
  8
KANAMONO_SCREW
100
AcDbCircle
 10
317.8628795489637
 20
98.41111079075538
 30
0.0
 40
0.05
100
AcDbArc
 50
0.0
 51
142.4314079710051
  0
LINE
  5
4687
330
1F
100
AcDbEntity
  8
KANAMONO_SCREW
100
AcDbLine
 10
316.412879242802
 20
96.10811649007926
 30
0.0
 11
317.8091915435163
 21
97.92332248100771
 31
0.0
  0
ARC
  5
4688
330
1F
100
AcDbEntity
  8
KANAMONO_SCREW
100
AcDbCircle
 10
317.412879548964
 20
98.22817786143284
 30
0.0
 40
0.5
100
AcDbArc
 50
322.4314079711562
 51
0.0
  0
LINE
  5
4689
330
1F
100
AcDbEntity
  8
KANAMONO_SCREW
100
AcDbLine
 10
314.537879242802
 20
101.1081164900792
 30
0.0
 11
313.4128792428021
 21
101.1081164900792
 31
0.0
  0
LINE
  5
468A
330
1F
100
AcDbEntity
  8
KANAMONO_SCREW
100
AcDbLine
 10
314.537879242802
 20
99.30811649007953
 30
0.0
 11
313.4128792428021
 21
99.30811649007953
 31
0.0
  0
LINE
  5
468B
330
1F
100
AcDbEntity
  8
KANAMONO_SCREW
100
AcDbLine
 10
319.4128792428021
 20
99.30811649007953
 30
0.0
 11
318.2878792428021
 21
99.30811649007953
 31
0.0
  0
LINE
  5
468C
330
1F
100
AcDbEntity
  8
KANAMONO_SCREW
100
AcDbLine
 10
314.537879242802
 20
96.70811649007939
 30
0.0
 11
313.4128792428021
 21
96.70811649007939
 31
0.0
  0
LINE
  5
468D
330
1F
100
AcDbEntity
  8
KANAMONO_SCREW
100
AcDbLine
 10
319.4120375821828
 20
96.70811649007962
 30
0.0
 11
318.2878792428021
 21
96.70811649007962
 31
0.0
  0
LINE
  5
468E
330
1F
100
AcDbEntity
  8
KANAMONO_SCREW
100
AcDbLine
 10
314.537879242802
 20
98.25811649007935
 30
0.0
 11
313.4878792428021
 21
98.25811649007935
 31
0.0
  0
LINE
  5
468F
330
1F
100
AcDbEntity
  8
KANAMONO_SCREW
100
AcDbLine
 10
318.2878792428021
 20
96.70811649007962
 30
0.0
 11
318.2878792428021
 21
99.30811649007953
 31
0.0
  0
LINE
  5
4690
330
1F
100
AcDbEntity
  8
KANAMONO_SCREW
100
AcDbLine
 10
314.537879242802
 20
96.70811649007939
 30
0.0
 11
314.537879242802
 21
99.30811649007953
 31
0.0
  0
LINE
  5
4691
330
1F
100
AcDbEntity
  8
KANAMONO_SCREW
100
AcDbLine
 10
314.537879242802
 20
97.25811649007935
 30
0.0
 11
313.4878792428021
 21
97.25811649007935
 31
0.0
  0
LINE
  5
4692
330
1F
100
AcDbEntity
  8
KANAMONO_SCREW
100
AcDbLine
 10
319.337879242802
 20
97.25811649007935
 30
0.0
 11
318.2878792428021
 21
97.25811649007935
 31
0.0
  0
LINE
  5
4693
330
1F
100
AcDbEntity
  8
KANAMONO_SCREW
100
AcDbLine
 10
314.537879242802
 20
97.75811649007934
 30
0.0
 11
313.4878792428021
 21
97.75811649007934
 31
0.0
  0
LINE
  5
4694
330
1F
100
AcDbEntity
  8
KANAMONO_SCREW
100
AcDbLine
 10
319.337879242802
 20
97.75811649007934
 30
0.0
 11
318.2878792428021
 21
97.75811649007934
 31
0.0
  0
LINE
  5
4695
330
1F
100
AcDbEntity
  8
KANAMONO_SCREW
100
AcDbLine
 10
319.337879242802
 20
98.25811649007935
 30
0.0
 11
318.2878792428021
 21
98.25811649007935
 31
0.0
  0
LINE
  5
4696
330
1F
100
AcDbEntity
  8
KANAMONO_SCREW
100
AcDbLine
 10
314.537879242802
 20
98.75811649007935
 30
0.0
 11
313.4878792428021
 21
98.75811649007935
 31
0.0
  0
LINE
  5
4697
330
1F
100
AcDbEntity
  8
KANAMONO_SCREW
100
AcDbLine
 10
319.337879242802
 20
98.75811649007935
 30
0.0
 11
318.2878792428021
 21
98.75811649007935
 31
0.0
  0
LINE
  5
4698
330
1F
100
AcDbEntity
  8
KANAMONO_SCREW
100
AcDbLine
 10
313.4128792428021
 20
99.30811649007953
 30
0.0
 11
313.4128792428021
 21
101.1081164900792
 31
0.0
  0
LINE
  5
4699
330
1F
100
AcDbEntity
  8
KANAMONO_SCREW
100
AcDbLine
 10
319.4128792428021
 20
99.30811649007953
 30
0.0
 11
319.4128792428021
 21
101.1081164900792
 31
0.0
  0
LINE
  5
469A
330
1F
100
AcDbEntity
  8
KANAMONO_SCREW
100
AcDbLine
 10
318.5128792428019
 20
93.30811649007953
 30
0.0
 11
319.4128792428021
 21
96.70811649007962
 31
0.0
  0
LINE
  5
469B
330
1F
100
AcDbEntity
  8
KANAMONO_SCREW
100
AcDbLine
 10
318.5128792428019
 20
93.30811649007953
 30
0.0
 11
314.3128792428021
 21
93.30811649007953
 31
0.0
  0
LINE
  5
469C
330
1F
100
AcDbEntity
  8
KANAMONO_SCREW
100
AcDbLine
 10
314.3128792428021
 20
93.30811649007953
 30
0.0
 11
313.4128792428021
 21
96.70811649007939
 31
0.0
  0
LINE
  5
469D
330
1F
100
AcDbEntity
  8
KANAMONO_SCREW
100
AcDbLine
 10
319.8028792428021
 20
118.3081164900795
 30
0.0
 11
319.3028792428021
 21
116.4081164900796
 31
0.0
  0
LINE
  5
469E
330
1F
100
AcDbEntity
  8
KANAMONO_SCREW
100
AcDbLine
 10
313.5228792428021
 20
116.4081164900796
 30
0.0
 11
313.0228792428022
 21
118.3081164900793
 31
0.0
  0
ARC
  5
469F
330
1F
100
AcDbEntity
  8
KANAMONO_SCREW
100
AcDbCircle
 10
324.1960087136423
 20
95.11313232017503
 30
0.0
 40
9.382689926641683
100
AcDbArc
 50
191.0915488138293
 51
213.950532353797
  0
ARC
  5
46A0
330
1F
100
AcDbEntity
  8
KANAMONO_SCREW
100
AcDbCircle
 10
308.6297497719621
 20
95.11313232017503
 30
0.0
 40
9.382689926641683
100
AcDbArc
 50
326.049467646203
 51
348.9084511861707
  0
LINE
  5
46A1
330
1F
100
AcDbEntity
  8
KANAMONO_SCREW
100
AcDbLine
 10
320.9128792428024
 20
154.8731164900789
 30
0.0
 11
311.9128792428023
 21
154.8731164900789
 31
0.0
  0
LINE
  5
46A2
330
1F
100
AcDbEntity
  8
KANAMONO_SCREW
100
AcDbLine
 10
320.9128792428024
 20
154.1331164900791
 30
0.0
 11
311.9128792428023
 21
154.1331164900791
 31
0.0
  0
LINE
  5
46A3
330
1F
100
AcDbEntity
  8
KANAMONO_SCREW
100
AcDbLine
 10
320.9128792428024
 20
154.8731164900789
 30
0.0
 11
320.9128792428024
 21
154.1331164900791
 31
0.0
  0
LINE
  5
46A4
330
1F
100
AcDbEntity
  8
KANAMONO_SCREW
100
AcDbLine
 10
311.9128792428023
 20
154.8731164900789
 30
0.0
 11
311.9128792428023
 21
154.1331164900791
 31
0.0
  0
LINE
  5
46A5
330
1F
100
AcDbEntity
  8
KANAMONO_SCREW
100
AcDbLine
 10
320.0878792428023
 20
153.308116490079
 30
0.0
 11
320.9128792428024
 21
154.1331164900791
 31
0.0
  0
LINE
  5
46A6
330
1F
100
AcDbEntity
  8
KANAMONO_SCREW
100
AcDbLine
 10
312.737879242802
 20
153.3081164900795
 30
0.0
 11
311.9128792428023
 21
154.1331164900791
 31
0.0
  0
LINE
  5
46A7
330
1F
100
AcDbEntity
  8
KANAMONO_SCREW
  6
DASHED1
100
AcDbLine
 10
351.9129018995911
 20
154.8730750592749
 30
0.0
 11
360.9129018995912
 21
154.8730750592749
 31
0.0
  0
LINE
  5
46A8
330
1F
100
AcDbEntity
  8
KANAMONO_SCREW
  6
DASHED1
100
AcDbLine
 10
360.9129018995912
 20
154.8730750592749
 30
0.0
 11
360.9129018995911
 21
154.1330750592751
 31
0.0
  0
LINE
  5
46A9
330
1F
100
AcDbEntity
  8
KANAMONO_SCREW
  6
DASHED1
100
AcDbLine
 10
360.9129018995911
 20
154.1330750592751
 30
0.0
 11
360.0879018995916
 21
153.3080750592755
 31
0.0
  0
LINE
  5
46AA
330
1F
100
AcDbEntity
  8
KANAMONO_SCREW
  6
DASHED1
100
AcDbLine
 10
360.0879018995916
 20
153.3080750592755
 30
0.0
 11
360.0879018995911
 21
152.8580750592755
 31
0.0
  0
LINE
  5
46AB
330
1F
100
AcDbEntity
  8
KANAMONO_SCREW
  6
DASHED1
100
AcDbLine
 10
360.0879018995911
 20
152.8580750592755
 30
0.0
 11
359.3029018995913
 21
152.0080750592756
 31
0.0
  0
LINE
  5
46AC
330
1F
100
AcDbEntity
  8
KANAMONO_SCREW
  6
DASHED1
100
AcDbLine
 10
359.3029018995913
 20
152.0080750592756
 30
0.0
 11
359.2029018995936
 21
152.0080750592756
 31
0.0
  0
LINE
  5
46AD
330
1F
100
AcDbEntity
  8
KANAMONO_SCREW
  6
DASHED1
100
AcDbLine
 10
359.2029018995936
 20
152.0080750592756
 30
0.0
 11
359.8029018995934
 21
151.5080750592758
 31
0.0
  0
LINE
  5
46AE
330
1F
100
AcDbEntity
  8
KANAMONO_SCREW
  6
DASHED1
100
AcDbLine
 10
359.8029018995934
 20
151.5080750592758
 30
0.0
 11
359.8029018995918
 21
146.208075059279
 31
0.0
  0
LINE
  5
46AF
330
1F
100
AcDbEntity
  8
KANAMONO_SCREW
  6
DASHED1
100
AcDbLine
 10
359.8029018995918
 20
146.208075059279
 30
0.0
 11
359.2029018995908
 21
144.3080750592755
 31
0.0
  0
LINE
  5
46B0
330
1F
100
AcDbEntity
  8
KANAMONO_SCREW
  6
DASHED1
100
AcDbLine
 10
359.2029018995908
 20
144.3080750592755
 30
0.0
 11
359.2029018995908
 21
131.3080750592757
 31
0.0
  0
LINE
  5
46B1
330
1F
100
AcDbEntity
  8
KANAMONO_SCREW
  6
DASHED1
100
AcDbLine
 10
359.2029018995908
 20
131.3080750592757
 30
0.0
 11
359.802901899591
 21
130.8080750592757
 31
0.0
  0
LINE
  5
46B2
330
1F
100
AcDbEntity
  8
KANAMONO_SCREW
  6
DASHED1
100
AcDbLine
 10
359.802901899591
 20
130.8080750592757
 30
0.0
 11
359.802901899591
 21
118.3080750592755
 31
0.0
  0
LINE
  5
46B3
330
1F
100
AcDbEntity
  8
KANAMONO_SCREW
  6
DASHED1
100
AcDbLine
 10
359.802901899591
 20
118.3080750592755
 30
0.0
 11
359.302901899591
 21
116.4080750592756
 31
0.0
  0
LINE
  5
46B4
330
1F
100
AcDbEntity
  8
KANAMONO_SCREW
  6
DASHED1
100
AcDbLine
 10
359.302901899591
 20
116.4080750592756
 30
0.0
 11
359.302901899591
 21
116.1080750592752
 31
0.0
  0
LINE
  5
46B5
330
1F
100
AcDbEntity
  8
KANAMONO_SCREW
  6
DASHED1
100
AcDbLine
 10
359.302901899591
 20
116.1080750592752
 30
0.0
 11
359.1415385693891
 21
116.1080750592752
 31
0.0
  0
LINE
  5
46B6
330
1F
100
AcDbEntity
  8
KANAMONO_SCREW
  6
DASHED1
100
AcDbLine
 10
359.1415385693891
 20
116.1080750592752
 30
0.0
 11
359.4765385693891
 21
112.3080750592757
 31
0.0
  0
LINE
  5
46B7
330
1F
100
AcDbEntity
  8
KANAMONO_SCREW
  6
DASHED1
100
AcDbLine
 10
359.4765385693891
 20
112.3080750592757
 30
0.0
 11
359.6379018995909
 21
112.3080750592755
 31
0.0
  0
LINE
  5
46B8
330
1F
100
AcDbEntity
  8
KANAMONO_SCREW
  6
DASHED1
100
AcDbLine
 10
359.6379018995909
 20
112.3080750592755
 30
0.0
 11
359.6379018995909
 21
110.6080750592752
 31
0.0
  0
LINE
  5
46B9
330
1F
100
AcDbEntity
  8
KANAMONO_SCREW
  6
DASHED1
100
AcDbLine
 10
359.6379018995909
 20
110.6080750592752
 30
0.0
 11
359.4765379264468
 21
110.6080750592752
 31
0.0
  0
LINE
  5
46BA
330
1F
100
AcDbEntity
  8
KANAMONO_SCREW
  6
DASHED1
100
AcDbLine
 10
359.4765379264468
 20
110.6080750592752
 30
0.0
 11
359.3765382632564
 21
106.6080885316557
 31
0.0
  0
LINE
  5
46BB
330
1F
100
AcDbEntity
  8
KANAMONO_SCREW
  6
DASHED1
100
AcDbLine
 10
359.3765382632564
 20
106.6080885316557
 30
0.0
 11
359.5379022057525
 21
106.6080750592752
 31
0.0
  0
LINE
  5
46BC
330
1F
100
AcDbEntity
  8
KANAMONO_SCREW
  6
DASHED1
100
AcDbLine
 10
359.5379022057525
 20
106.6080750592752
 30
0.0
 11
359.499265842116
 21
104.9080750592754
 31
0.0
  0
LINE
  5
46BD
330
1F
100
AcDbEntity
  8
KANAMONO_SCREW
  6
DASHED1
100
AcDbLine
 10
359.499265842116
 20
104.9080750592754
 30
0.0
 11
359.2492655359544
 21
104.9080750592754
 31
0.0
  0
LINE
  5
46BE
330
1F
100
AcDbEntity
  8
KANAMONO_SCREW
  6
DASHED1
100
AcDbLine
 10
359.2492655359544
 20
104.9080750592754
 30
0.0
 11
359.1629018995909
 21
101.1080750592752
 31
0.0
  0
LINE
  5
46BF
330
1F
100
AcDbEntity
  8
KANAMONO_SCREW
  6
DASHED1
100
AcDbLine
 10
359.1629018995909
 20
101.1080750592752
 30
0.0
 11
359.4129018995908
 21
101.1080750592752
 31
0.0
  0
LINE
  5
46C0
330
1F
100
AcDbEntity
  8
KANAMONO_SCREW
  6
DASHED1
100
AcDbLine
 10
359.4129018995908
 20
101.1080750592752
 30
0.0
 11
359.4129018995908
 21
99.30807505927564
 31
0.0
  0
LINE
  5
46C1
330
1F
100
AcDbEntity
  8
KANAMONO_SCREW
  6
DASHED1
100
AcDbLine
 10
359.4129018995908
 20
99.30807505927564
 30
0.0
 11
359.1629018995909
 21
99.30807505927564
 31
0.0
  0
LINE
  5
46C2
330
1F
100
AcDbEntity
  8
KANAMONO_SCREW
  6
DASHED1
100
AcDbLine
 10
359.1629018995909
 20
99.30807505927564
 30
0.0
 11
359.1629018995909
 21
96.70807505927573
 31
0.0
  0
LINE
  5
46C3
330
1F
100
AcDbEntity
  8
KANAMONO_SCREW
  6
DASHED1
100
AcDbLine
 10
359.1629018995909
 20
96.70807505927573
 30
0.0
 11
359.4129018995908
 21
96.70807505927573
 31
0.0
  0
LINE
  5
46C4
330
1F
100
AcDbEntity
  8
KANAMONO_SCREW
  6
DASHED1
100
AcDbLine
 10
359.4129018995908
 20
96.70807505927573
 30
0.0
 11
358.5129018995906
 21
93.30807505927529
 31
0.0
  0
LINE
  5
46C5
330
1F
100
AcDbEntity
  8
KANAMONO_SCREW
  6
DASHED1
100
AcDbLine
 10
358.5129018995906
 20
93.30807505927529
 30
0.0
 11
357.8372035641223
 21
93.30807505927529
 31
0.0
  0
ARC
  5
46C6
330
1F
100
AcDbEntity
  8
KANAMONO_SCREW
  6
DASHED1
100
AcDbCircle
 10
348.6297724287513
 20
95.11309088937249
 30
0.0
 40
9.382689926641541
100
AcDbArc
 50
326.0494676462092
 51
348.9084511861626
  0
ARC
  5
46C7
330
1F
100
AcDbEntity
  8
KANAMONO_SCREW
  6
DASHED1
100
AcDbCircle
 10
364.1960313704296
 20
95.1130908893708
 30
0.0
 40
9.382689926640878
100
AcDbArc
 50
191.0915488138277
 51
213.950532353781
  0
LINE
  5
46C8
330
1F
100
AcDbEntity
  8
KANAMONO_SCREW
  6
DASHED1
100
AcDbLine
 10
354.988600235059
 20
93.30807505927529
 30
0.0
 11
354.3129018995906
 21
93.30807505927529
 31
0.0
  0
LINE
  5
46C9
330
1F
100
AcDbEntity
  8
KANAMONO_SCREW
  6
DASHED1
100
AcDbLine
 10
354.3129018995906
 20
93.30807505927529
 30
0.0
 11
353.4129018995904
 21
96.70807505927573
 31
0.0
  0
LINE
  5
46CA
330
1F
100
AcDbEntity
  8
KANAMONO_SCREW
  6
DASHED1
100
AcDbLine
 10
353.4129018995904
 20
96.70807505927573
 30
0.0
 11
353.6629018995904
 21
96.70807505927573
 31
0.0
  0
LINE
  5
46CB
330
1F
100
AcDbEntity
  8
KANAMONO_SCREW
  6
DASHED1
100
AcDbLine
 10
353.6629018995904
 20
96.70807505927573
 30
0.0
 11
353.6629018995904
 21
99.30807505927564
 31
0.0
  0
LINE
  5
46CC
330
1F
100
AcDbEntity
  8
KANAMONO_SCREW
  6
DASHED1
100
AcDbLine
 10
353.6629018995904
 20
99.30807505927564
 30
0.0
 11
353.4129018995904
 21
99.30807505927564
 31
0.0
  0
LINE
  5
46CD
330
1F
100
AcDbEntity
  8
KANAMONO_SCREW
  6
DASHED1
100
AcDbLine
 10
353.4129018995904
 20
99.30807505927564
 30
0.0
 11
353.4129018995904
 21
101.1080750592752
 31
0.0
  0
LINE
  5
46CE
330
1F
100
AcDbEntity
  8
KANAMONO_SCREW
  6
DASHED1
100
AcDbLine
 10
353.4129018995904
 20
101.1080750592752
 30
0.0
 11
353.6629018995904
 21
101.1080750592752
 31
0.0
  0
LINE
  5
46CF
330
1F
100
AcDbEntity
  8
KANAMONO_SCREW
  6
DASHED1
100
AcDbLine
 10
353.6629018995904
 20
101.1080750592752
 30
0.0
 11
353.5765382632269
 21
104.9080750592754
 31
0.0
  0
LINE
  5
46D0
330
1F
100
AcDbEntity
  8
KANAMONO_SCREW
  6
DASHED1
100
AcDbLine
 10
353.5765382632269
 20
104.9080750592754
 30
0.0
 11
353.3265379570652
 21
104.9080750592754
 31
0.0
  0
LINE
  5
46D1
330
1F
100
AcDbEntity
  8
KANAMONO_SCREW
  6
DASHED1
100
AcDbLine
 10
353.3265379570652
 20
104.9080750592754
 30
0.0
 11
353.2879015934288
 21
106.6080750592752
 31
0.0
  0
LINE
  5
46D2
330
1F
100
AcDbEntity
  8
KANAMONO_SCREW
  6
DASHED1
100
AcDbLine
 10
353.2879015934288
 20
106.6080750592752
 30
0.0
 11
353.4492655359249
 21
106.6080885316557
 31
0.0
  0
LINE
  5
46D3
330
1F
100
AcDbEntity
  8
KANAMONO_SCREW
  6
DASHED1
100
AcDbLine
 10
353.4492655359249
 20
106.6080885316557
 30
0.0
 11
353.3492658727344
 21
110.6080750592752
 31
0.0
  0
LINE
  5
46D4
330
1F
100
AcDbEntity
  8
KANAMONO_SCREW
  6
DASHED1
100
AcDbLine
 10
353.3492658727344
 20
110.6080750592752
 30
0.0
 11
353.1879018995904
 21
110.6080750592752
 31
0.0
  0
LINE
  5
46D5
330
1F
100
AcDbEntity
  8
KANAMONO_SCREW
  6
DASHED1
100
AcDbLine
 10
353.1879018995904
 20
110.6080750592752
 30
0.0
 11
353.1879018995904
 21
112.3080750592755
 31
0.0
  0
LINE
  5
46D6
330
1F
100
AcDbEntity
  8
KANAMONO_SCREW
  6
DASHED1
100
AcDbLine
 10
353.1879018995904
 20
112.3080750592755
 30
0.0
 11
353.3492652297921
 21
112.3080750592757
 31
0.0
  0
LINE
  5
46D7
330
1F
100
AcDbEntity
  8
KANAMONO_SCREW
  6
DASHED1
100
AcDbLine
 10
353.3492652297921
 20
112.3080750592757
 30
0.0
 11
353.6842652297922
 21
116.1080750592752
 31
0.0
  0
LINE
  5
46D8
330
1F
100
AcDbEntity
  8
KANAMONO_SCREW
  6
DASHED1
100
AcDbLine
 10
353.6842652297922
 20
116.1080750592752
 30
0.0
 11
353.5229018995903
 21
116.1080750592752
 31
0.0
  0
LINE
  5
46D9
330
1F
100
AcDbEntity
  8
KANAMONO_SCREW
  6
DASHED1
100
AcDbLine
 10
353.5229018995903
 20
116.1080750592752
 30
0.0
 11
353.5229018995903
 21
116.4080750592756
 31
0.0
  0
LINE
  5
46DA
330
1F
100
AcDbEntity
  8
KANAMONO_SCREW
  6
DASHED1
100
AcDbLine
 10
353.5229018995903
 20
116.4080750592756
 30
0.0
 11
353.0229018995903
 21
118.3080750592755
 31
0.0
  0
LINE
  5
46DB
330
1F
100
AcDbEntity
  8
KANAMONO_SCREW
  6
DASHED1
100
AcDbLine
 10
353.0229018995903
 20
118.3080750592755
 30
0.0
 11
353.0229018995903
 21
130.8080750592757
 31
0.0
  0
LINE
  5
46DC
330
1F
100
AcDbEntity
  8
KANAMONO_SCREW
  6
DASHED1
100
AcDbLine
 10
353.0229018995903
 20
130.8080750592757
 30
0.0
 11
353.6229018995904
 21
131.3080750592757
 31
0.0
  0
LINE
  5
46DD
330
1F
100
AcDbEntity
  8
KANAMONO_SCREW
  6
DASHED1
100
AcDbLine
 10
353.6229018995904
 20
131.3080750592757
 30
0.0
 11
353.6229018995904
 21
144.3080750592755
 31
0.0
  0
LINE
  5
46DE
330
1F
100
AcDbEntity
  8
KANAMONO_SCREW
  6
DASHED1
100
AcDbLine
 10
353.6229018995904
 20
144.3080750592755
 30
0.0
 11
353.0229018995894
 21
146.208075059279
 31
0.0
  0
LINE
  5
46DF
330
1F
100
AcDbEntity
  8
KANAMONO_SCREW
  6
DASHED1
100
AcDbLine
 10
353.0229018995894
 20
146.208075059279
 30
0.0
 11
353.0229018995878
 21
151.5080750592758
 31
0.0
  0
LINE
  5
46E0
330
1F
100
AcDbEntity
  8
KANAMONO_SCREW
  6
DASHED1
100
AcDbLine
 10
353.0229018995878
 20
151.5080750592758
 30
0.0
 11
353.6229018995876
 21
152.0080750592756
 31
0.0
  0
LINE
  5
46E1
330
1F
100
AcDbEntity
  8
KANAMONO_SCREW
  6
DASHED1
100
AcDbLine
 10
353.6229018995876
 20
152.0080750592756
 30
0.0
 11
353.52290189959
 21
152.0080750592756
 31
0.0
  0
LINE
  5
46E2
330
1F
100
AcDbEntity
  8
KANAMONO_SCREW
  6
DASHED1
100
AcDbLine
 10
353.52290189959
 20
152.0080750592756
 30
0.0
 11
352.7379018995901
 21
152.8580750592755
 31
0.0
  0
LINE
  5
46E3
330
1F
100
AcDbEntity
  8
KANAMONO_SCREW
  6
DASHED1
100
AcDbLine
 10
352.7379018995901
 20
152.8580750592755
 30
0.0
 11
352.7379018995897
 21
153.3080750592755
 31
0.0
  0
LINE
  5
46E4
330
1F
100
AcDbEntity
  8
KANAMONO_SCREW
  6
DASHED1
100
AcDbLine
 10
352.7379018995897
 20
153.3080750592755
 30
0.0
 11
351.9129018995902
 21
154.1330750592751
 31
0.0
  0
LINE
  5
46E5
330
1F
100
AcDbEntity
  8
KANAMONO_SCREW
  6
DASHED1
100
AcDbLine
 10
351.9129018995902
 20
154.1330750592751
 30
0.0
 11
351.9129018995911
 21
154.8730750592749
 31
0.0
  0
ENDSEC
  0
SECTION
  2
OBJECTS
  0
DICTIONARY
  5
C
330
0
100
AcDbDictionary
281
     1
  3
ACAD_CIP_PREVIOUS_PRODUCT_INFO
350
3F6C
  3
ACAD_COLOR
350
3DFD
  3
ACAD_DETAILVIEWSTYLE
350
3F67
  3
ACAD_GROUP
350
D
  3
ACAD_LAYOUT
350
1A
  3
ACAD_MATERIAL
350
3DD0
  3
ACAD_MLEADERSTYLE
350
3E12
  3
ACAD_MLINESTYLE
350
17
  3
ACAD_PLOTSETTINGS
350
19
  3
ACAD_PLOTSTYLENAME
350
E
  3
ACAD_SCALELIST
350
3E00
  3
ACAD_SECTIONVIEWSTYLE
350
3F65
  3
ACAD_TABLESTYLE
350
3DFE
  3
ACAD_VISUALSTYLE
350
3DE9
  3
ACDB_RECOMPOSE_DATA
350
46E8
  3
AcDbVariableDictionary
350
1835
  3
AEC_PROPERTY_SET_DEFS
350
3E44
  3
DWGPROPS
350
46E9
  0
DICTIONARY
  5
3E7E
330
8
100
AcDbDictionary
280
     1
281
     1
  0
DICTIONARY
  5
2D
330
2
100
AcDbDictionary
280
     1
281
     1
  3
ACAD_LAYERFILTERS
360
2E
  3
ACAD_LAYERSTATES
360
918
  0
DICTIONARY
  5
3E70
330
10
100
AcDbDictionary
280
     1
281
     1
  3
ADSK_XREC_LAYER_RECONCILED
360
3E71
  0
DICTIONARY
  5
3E72
330
2388
100
AcDbDictionary
280
     1
281
     1
  3
ADSK_XREC_LAYER_RECONCILED
360
3E73
  0
DICTIONARY
  5
3E74
330
238A
100
AcDbDictionary
280
     1
281
     1
  3
ADSK_XREC_LAYER_RECONCILED
360
3E75
  0
DICTIONARY
  5
3E76
330
2757
100
AcDbDictionary
280
     1
281
     1
  3
ADSK_XREC_LAYER_RECONCILED
360
3E77
  0
DICTIONARY
  5
3E78
330
2758
100
AcDbDictionary
280
     1
281
     1
  3
ADSK_XREC_LAYER_RECONCILED
360
3E79
  0
DICTIONARY
  5
3F6E
330
3F6D
100
AcDbDictionary
280
     1
281
     1
  0
DICTIONARY
  5
4495
330
4494
100
AcDbDictionary
280
     1
281
     1
  0
DICTIONARY
  5
1C62
330
1F
100
AcDbDictionary
280
     1
281
     1
  3
ACAD_SORTENTS
360
1C63
  0
XRECORD
  5
3F6C
102
{ACAD_REACTORS
330
C
102
}
330
C
100
AcDbXrecord
280
     1
300
ACD
300
2022
300

  0
DICTIONARY
  5
3DFD
102
{ACAD_REACTORS
330
C
102
}
330
C
100
AcDbDictionary
281
     1
  0
DICTIONARY
  5
3F67
102
{ACAD_REACTORS
330
C
102
}
330
C
100
AcDbDictionary
281
     1
  3
Metric50
350
3F68
  0
DICTIONARY
  5
D
102
{ACAD_REACTORS
330
C
102
}
330
C
100
AcDbDictionary
281
     1
  0
DICTIONARY
  5
1A
102
{ACAD_REACTORS
330
C
102
}
330
C
100
AcDbDictionary
281
     1
  3
Model
350
22
  3
\U+FF9A\U+FF72\U+FF71\U+FF73\U+FF841
350
1CD1
  0
DICTIONARY
  5
3DD0
102
{ACAD_REACTORS
330
C
102
}
330
C
100
AcDbDictionary
281
     1
  3
ByBlock
350
3DD9
  3
ByLayer
350
3DD1
  3
Global
350
3DE1
  0
DICTIONARY
  5
3E12
102
{ACAD_REACTORS
330
C
102
}
330
C
100
AcDbDictionary
281
     1
  3
Standard
350
3E13
  0
DICTIONARY
  5
17
102
{ACAD_REACTORS
330
C
102
}
330
C
100
AcDbDictionary
281
     1
  3
Standard
350
18
  0
DICTIONARY
  5
19
102
{ACAD_REACTORS
330
C
102
}
330
C
100
AcDbDictionary
281
     1
  0
ACDBDICTIONARYWDFLT
  5
E
102
{ACAD_REACTORS
330
C
102
}
330
C
100
AcDbDictionary
281
     1
  3
Normal
350
F
  3
通常
350
29
100
AcDbDictionaryWithDefault
340
F
  0
DICTIONARY
  5
3E00
102
{ACAD_REACTORS
330
C
102
}
330
C
100
AcDbDictionary
281
     1
  3
A0
350
3E01
  3
A1
350
3E02
  3
A2
350
3E03
  3
A3
350
3E04
  3
A4
350
3E05
  3
A5
350
3E06
  3
A6
350
3E07
  3
A7
350
3E08
  3
A8
350
3E09
  3
A9
350
3E0A
  3
B0
350
3E0B
  3
B1
350
3E0C
  3
B2
350
3E0D
  3
B3
350
3E0E
  3
B4
350
3E0F
  3
B5
350
3E10
  3
B6
350
3E11
  0
DICTIONARY
  5
3F65
102
{ACAD_REACTORS
330
C
102
}
330
C
100
AcDbDictionary
281
     1
  3
Metric50
350
3F66
  0
DICTIONARY
  5
3DFE
102
{ACAD_REACTORS
330
C
102
}
330
C
100
AcDbDictionary
281
     1
  3
Standard
350
3DFF
  0
DICTIONARY
  5
3DE9
102
{ACAD_REACTORS
330
C
102
}
330
C
100
AcDbDictionary
281
     1
  3
2dWireframe
350
3DEF
  3
3D Hidden
350
3DF1
  3
3dWireframe
350
3DF0
  3
Basic
350
3DEE
  3
Brighten
350
3DF5
  3
ColorChange
350
3DF9
  3
Conceptual
350
3DF2
  3
Dim
350
3DF4
  3
EdgeColorOff
350
3DFC
  3
Facepattern
350
3DF8
  3
Flat
350
3DEA
  3
FlatWithEdges
350
3DEB
  3
Gouraud
350
3DEC
  3
GouraudWithEdges
350
3DED
  3
Hidden
350
3F5F
  3
JitterOff
350
3DFA
  3
Linepattern
350
3DF7
  3
OverhangOff
350
3DFB
  3
Realistic
350
3DF3
  3
Shaded
350
3F64
  3
Shaded with edges
350
3F63
  3
Shades of Gray
350
3F60
  3
Sketchy
350
3F61
  3
Thicken
350
3DF6
  3
Wireframe
350
3F5E
  3
X-Ray
350
3F62
  0
XRECORD
  5
46E8
102
{ACAD_REACTORS
330
C
102
}
330
C
100
AcDbXrecord
280
     1
 90
        1
330
3DFF
  0
DICTIONARY
  5
1835
102
{ACAD_REACTORS
330
C
102
}
330
C
100
AcDbDictionary
281
     1
  3
CANNOSCALE
350
3EB1
  3
CMLEADERSTYLE
350
3EB0
  3
CTABLESTYLE
350
3EAF
  3
CVIEWDETAILSTYLE
350
3FCF
  3
CVIEWSECTIONSTYLE
350
3FD0
  3
DIMASSOC
350
3EB3
  3
INDEXCTL
350
3EB2
  3
SORTENTS
350
1836
  3
XCLIPFRAME
350
46E6
  0
DICTIONARY
  5
3E44
102
{ACAD_REACTORS
330
C
102
}
330
C
100
AcDbDictionary
281
     1
  0
XRECORD
  5
46E9
102
{ACAD_REACTORS
330
C
102
}
330
C
100
AcDbXrecord
280
     1
  1
DWGPROPS COOKIE
  2

  3

  4

  6

  7

  8
2020009
  9

300
=
301
=
302
=
303
=
304
=
305
=
306
=
307
=
308
=
309
=
 40
0.2561075347222222
 41
2453276.413761574
 42
2459989.482581018
  1

 90
        0
  0
DICTIONARY
  5
2E
102
{ACAD_REACTORS
330
2D
102
}
330
2D
100
AcDbDictionary
280
     1
281
     1
  0
DICTIONARY
  5
918
102
{ACAD_REACTORS
330
2D
102
}
330
2D
100
AcDbDictionary
281
     1
  0
XRECORD
  5
3E71
102
{ACAD_REACTORS
330
3E70
102
}
330
3E70
100
AcDbXrecord
280
     1
290
     1
  0
XRECORD
  5
3E73
102
{ACAD_REACTORS
330
3E72
102
}
330
3E72
100
AcDbXrecord
280
     1
290
     1
  0
XRECORD
  5
3E75
102
{ACAD_REACTORS
330
3E74
102
}
330
3E74
100
AcDbXrecord
280
     1
290
     1
  0
XRECORD
  5
3E77
102
{ACAD_REACTORS
330
3E76
102
}
330
3E76
100
AcDbXrecord
280
     1
290
     1
  0
XRECORD
  5
3E79
102
{ACAD_REACTORS
330
3E78
102
}
330
3E78
100
AcDbXrecord
280
     1
290
     1
  0
SORTENTSTABLE
  5
1C63
102
{ACAD_REACTORS
330
1C62
102
}
330
1C62
100
AcDbSortentsTable
330
1F
331
3660
  5
3665
331
3661
  5
3667
331
3662
  5
3668
331
3663
  5
3669
331
3665
  5
366A
331
3667
  5
366B
331
3668
  5
366D
331
3669
  5
366E
331
366A
  5
366F
331
366B
  5
3670
331
366D
  5
3671
331
366E
  5
3672
331
366F
  5
3673
331
3670
  5
3674
331
3671
  5
3675
331
3672
  5
3676
331
3673
  5
3677
331
3674
  5
3678
331
3675
  5
3679
331
3676
  5
367A
331
3677
  5
367B
331
3678
  5
367C
331
3679
  5
367D
331
367A
  5
367E
331
367B
  5
367F
331
367C
  5
3680
331
367D
  5
3681
331
367E
  5
3682
331
367F
  5
3683
331
3680
  5
3E6D
331
3681
  5
3E6E
331
3682
  5
3E6F
331
3683
  5
3F84
331
3E6D
  5
3F85
331
3E6E
  5
3F87
331
3E6F
  5
3F88
331
3F84
  5
4538
331
3F85
  5
4539
331
3F87
  5
453E
331
3F88
  5
453F
331
3F89
  5
4540
331
4535
  5
3660
331
4536
  5
3661
331
4537
  5
3662
331
4538
  5
3663
331
4539
  5
3F89
331
453A
  5
4535
331
453B
  5
4536
331
453C
  5
4537
331
453D
  5
453A
331
453E
  5
453B
331
453F
  5
453C
331
4540
  5
453D
  0
ACDBDETAILVIEWSTYLE
  5
3F68
102
{ACAD_XDICTIONARY
360
4728
102
}
102
{ACAD_REACTORS
330
3F67
102
}
330
3F67
100
AcDbModelDocViewStyle
 70
     0
  3
Metric50
290
     0
100
AcDbDetailViewStyle
 70
     0
 71
     0
 90
        3
 71
     1
340
11
 40
5.0
340
0
 40
5.0
300

 40
0.0
280
     1
 71
     2
340
16
 90
       25
 71
     3
340
11
 40
5.0
 90
        0
 40
15.0
 90
        1
300
%<\AcVar ViewDetailId>% (%<\AcVar ViewScale \f "%sn">%)
 71
     4
340
16
 90
       25
340
16
 90
       25
280
     0
1001
ACAD
1000
AcRTDxfName
1000
ACDBDETAILVIEWSTYLE
  0
LAYOUT
  5
22
102
{ACAD_XDICTIONARY
360
46EA
102
}
102
{ACAD_REACTORS
330
1A
102
}
330
1A
100
AcDbPlotSettings
  1

  2
Canon LBP3800 LIPSLX
  4
A4
  6

 40
5.873749732971191
 41
5.873747825622558
 42
5.873748779296875
 43
5.873748779296875
 44
209.9733276367187
 45
296.9259948730469
 46
0.61
 47
0.59
 48
444.9983463649091
 49
-1090.000000918417
140
2395.001653364909
141
1659.999999081583
142
1.0
143
10.0
 70
 11940
 72
     1
 73
     1
 74
     2
  7
monochrome.ctb
 75
     0
147
0.1
148
0.0
149
0.0
100
AcDbLayout
  1
Model
 70
     1
 71
     0
 10
0.0
 20
0.0
 11
12.0
 21
9.0
 12
0.0
 22
0.0
 32
0.0
 14
0.0
 24
0.0
 34
0.0
 15
0.0
 25
0.0
 35
0.0
146
0.0
 13
0.0
 23
0.0
 33
0.0
 16
1.0
 26
0.0
 36
0.0
 17
0.0
 27
1.0
 37
0.0
 76
     0
330
1F
331
3DCE
  0
LAYOUT
  5
1CD1
102
{ACAD_XDICTIONARY
360
46EC
102
}
102
{ACAD_REACTORS
330
1A
102
}
330
1A
100
AcDbPlotSettings
  1

  2
\\ek_srv\Canon LBP-880 LIPS4
  4

  6

 40
0.0
 41
0.0
 42
0.0
 43
0.0
 44
0.0
 45
0.0
 46
0.0
 47
0.0
 48
0.0
 49
0.0
140
0.0
141
0.0
142
1.0
143
1.0
 70
   688
 72
     0
 73
     0
 74
     5
  7
monochrome.ctb
 75
    16
147
1.0
148
0.0
149
0.0
100
AcDbLayout
  1
\U+FF9A\U+FF72\U+FF71\U+FF73\U+FF841
 70
     1
 71
     1
 10
0.0
 20
0.0
 11
12.0
 21
9.0
 12
0.0
 22
0.0
 32
0.0
 14
0.0
 24
0.0
 34
0.0
 15
0.0
 25
0.0
 35
0.0
146
0.0
 13
0.0
 23
0.0
 33
0.0
 16
1.0
 26
0.0
 36
0.0
 17
0.0
 27
1.0
 37
0.0
 76
     0
330
1CD0
  0
MATERIAL
  5
3DD9
102
{ACAD_XDICTIONARY
360
3DDA
102
}
102
{ACAD_REACTORS
330
3DD0
102
}
330
3DD0
100
AcDbMaterial
  1
ByBlock
 72
     0
 43
0.0008202099737533
 43
0.0
 43
0.0
 43
0.0
 43
0.0
 43
0.0008202099737533
 43
0.0
 43
0.0
 43
0.0
 43
0.0
 43
1.0
 43
0.0
 43
0.0
 43
0.0
 43
0.0
 43
1.0
 77
     0
 47
0.0008202099737533
 47
0.0
 47
0.0
 47
0.0
 47
0.0
 47
0.0008202099737533
 47
0.0
 47
0.0
 47
0.0
 47
0.0
 47
1.0
 47
0.0
 47
0.0
 47
0.0
 47
0.0
 47
1.0
171
     0
 49
0.0008202099737533
 49
0.0
 49
0.0
 49
0.0
 49
0.0
 49
0.0008202099737533
 49
0.0
 49
0.0
 49
0.0
 49
0.0
 49
1.0
 49
0.0
 49
0.0
 49
0.0
 49
0.0
 49
1.0
175
     0
142
0.0008202099737533
142
0.0
142
0.0
142
0.0
142
0.0
142
0.0008202099737533
142
0.0
142
0.0
142
0.0
142
0.0
142
1.0
142
0.0
142
0.0
142
0.0
142
0.0
142
1.0
179
     0
144
0.0008202099737533
144
0.0
144
0.0
144
0.0
144
0.0
144
0.0008202099737533
144
0.0
144
0.0
144
0.0
144
0.0
144
1.0
144
0.0
144
0.0
144
0.0
144
0.0
144
1.0
147
0.0008202099737533
147
0.0
147
0.0
147
0.0
147
0.0
147
0.0008202099737533
147
0.0
147
0.0
147
0.0
147
0.0
147
1.0
147
0.0
147
0.0
147
0.0
147
0.0
147
1.0
  0
MATERIAL
  5
3DD1
102
{ACAD_XDICTIONARY
360
3DD2
102
}
102
{ACAD_REACTORS
330
3DD0
102
}
330
3DD0
100
AcDbMaterial
  1
ByLayer
 72
     0
 43
0.0008202099737533
 43
0.0
 43
0.0
 43
0.0
 43
0.0
 43
0.0008202099737533
 43
0.0
 43
0.0
 43
0.0
 43
0.0
 43
1.0
 43
0.0
 43
0.0
 43
0.0
 43
0.0
 43
1.0
 77
     0
 47
0.0008202099737533
 47
0.0
 47
0.0
 47
0.0
 47
0.0
 47
0.0008202099737533
 47
0.0
 47
0.0
 47
0.0
 47
0.0
 47
1.0
 47
0.0
 47
0.0
 47
0.0
 47
0.0
 47
1.0
171
     0
 49
0.0008202099737533
 49
0.0
 49
0.0
 49
0.0
 49
0.0
 49
0.0008202099737533
 49
0.0
 49
0.0
 49
0.0
 49
0.0
 49
1.0
 49
0.0
 49
0.0
 49
0.0
 49
0.0
 49
1.0
175
     0
142
0.0008202099737533
142
0.0
142
0.0
142
0.0
142
0.0
142
0.0008202099737533
142
0.0
142
0.0
142
0.0
142
0.0
142
1.0
142
0.0
142
0.0
142
0.0
142
0.0
142
1.0
179
     0
144
0.0008202099737533
144
0.0
144
0.0
144
0.0
144
0.0
144
0.0008202099737533
144
0.0
144
0.0
144
0.0
144
0.0
144
1.0
144
0.0
144
0.0
144
0.0
144
0.0
144
1.0
147
0.0008202099737533
147
0.0
147
0.0
147
0.0
147
0.0
147
0.0008202099737533
147
0.0
147
0.0
147
0.0
147
0.0
147
1.0
147
0.0
147
0.0
147
0.0
147
0.0
147
1.0
  0
MATERIAL
  5
3DE1
102
{ACAD_XDICTIONARY
360
3DE2
102
}
102
{ACAD_REACTORS
330
3DD0
102
}
330
3DD0
100
AcDbMaterial
  1
Global
 72
     0
 43
0.0008202099737533
 43
0.0
 43
0.0
 43
0.0
 43
0.0
 43
0.0008202099737533
 43
0.0
 43
0.0
 43
0.0
 43
0.0
 43
1.0
 43
0.0
 43
0.0
 43
0.0
 43
0.0
 43
1.0
 77
     0
 47
0.0008202099737533
 47
0.0
 47
0.0
 47
0.0
 47
0.0
 47
0.0008202099737533
 47
0.0
 47
0.0
 47
0.0
 47
0.0
 47
1.0
 47
0.0
 47
0.0
 47
0.0
 47
0.0
 47
1.0
171
     0
 49
0.0008202099737533
 49
0.0
 49
0.0
 49
0.0
 49
0.0
 49
0.0008202099737533
 49
0.0
 49
0.0
 49
0.0
 49
0.0
 49
1.0
 49
0.0
 49
0.0
 49
0.0
 49
0.0
 49
1.0
175
     0
142
0.0008202099737533
142
0.0
142
0.0
142
0.0
142
0.0
142
0.0008202099737533
142
0.0
142
0.0
142
0.0
142
0.0
142
1.0
142
0.0
142
0.0
142
0.0
142
0.0
142
1.0
179
     0
144
0.0008202099737533
144
0.0
144
0.0
144
0.0
144
0.0
144
0.0008202099737533
144
0.0
144
0.0
144
0.0
144
0.0
144
1.0
144
0.0
144
0.0
144
0.0
144
0.0
144
1.0
147
0.0008202099737533
147
0.0
147
0.0
147
0.0
147
0.0
147
0.0008202099737533
147
0.0
147
0.0
147
0.0
147
0.0
147
1.0
147
0.0
147
0.0
147
0.0
147
0.0
147
1.0
  0
MLEADERSTYLE
  5
3E13
102
{ACAD_REACTORS
330
3E12
102
}
330
3E12
100
AcDbMLeaderStyle
170
     2
171
     1
172
     0
 90
        2
 40
0.0
 41
0.0
173
     1
 91
-1056964608
340
14
 92
       -2
290
     1
 42
2.0
291
     1
 43
0.36
  3
Standard
 44
4.0
300

342
11
174
     1
178
     6
175
     1
176
     0
 93
-1056964608
 45
4.0
292
     0
297
     0
 46
4.0
 94
-1056964608
 47
1.0
 49
1.0
140
1.0
293
     1
141
0.0
294
     1
177
     0
142
1.0
295
     0
296
     0
143
0.125
1001
ACAD_MLEADERVER
1070
     2
  0
MLINESTYLE
  5
18
102
{ACAD_REACTORS
330
17
102
}
330
17
100
AcDbMlineStyle
  2
STANDARD
 70
     0
  3

 62
   256
 51
90.0
 52
90.0
 71
     2
 49
0.5
 62
   256
  6
BYLAYER
 49
-0.5
 62
   256
  6
BYLAYER
  0
ACDBPLACEHOLDER
  5
F
102
{ACAD_REACTORS
330
E
102
}
330
E
  0
ACDBPLACEHOLDER
  5
29
102
{ACAD_REACTORS
330
E
102
}
330
E
  0
SCALE
  5
3E01
102
{ACAD_REACTORS
330
3E00
102
}
330
3E00
100
AcDbScale
 70
     0
300
1:1
140
1.0
141
1.0
290
     1
  0
SCALE
  5
3E02
102
{ACAD_REACTORS
330
3E00
102
}
330
3E00
100
AcDbScale
 70
     0
300
1:2
140
1.0
141
2.0
290
     0
  0
SCALE
  5
3E03
102
{ACAD_REACTORS
330
3E00
102
}
330
3E00
100
AcDbScale
 70
     0
300
1:4
140
1.0
141
4.0
290
     0
  0
SCALE
  5
3E04
102
{ACAD_REACTORS
330
3E00
102
}
330
3E00
100
AcDbScale
 70
     0
300
1:5
140
1.0
141
5.0
290
     0
  0
SCALE
  5
3E05
102
{ACAD_REACTORS
330
3E00
102
}
330
3E00
100
AcDbScale
 70
     0
300
1:8
140
1.0
141
8.0
290
     0
  0
SCALE
  5
3E06
102
{ACAD_REACTORS
330
3E00
102
}
330
3E00
100
AcDbScale
 70
     0
300
1:10
140
1.0
141
10.0
290
     0
  0
SCALE
  5
3E07
102
{ACAD_REACTORS
330
3E00
102
}
330
3E00
100
AcDbScale
 70
     0
300
1:16
140
1.0
141
16.0
290
     0
  0
SCALE
  5
3E08
102
{ACAD_REACTORS
330
3E00
102
}
330
3E00
100
AcDbScale
 70
     0
300
1:20
140
1.0
141
20.0
290
     0
  0
SCALE
  5
3E09
102
{ACAD_REACTORS
330
3E00
102
}
330
3E00
100
AcDbScale
 70
     0
300
1:30
140
1.0
141
30.0
290
     0
  0
SCALE
  5
3E0A
102
{ACAD_REACTORS
330
3E00
102
}
330
3E00
100
AcDbScale
 70
     0
300
1:40
140
1.0
141
40.0
290
     0
  0
SCALE
  5
3E0B
102
{ACAD_REACTORS
330
3E00
102
}
330
3E00
100
AcDbScale
 70
     0
300
1:50
140
1.0
141
50.0
290
     0
  0
SCALE
  5
3E0C
102
{ACAD_REACTORS
330
3E00
102
}
330
3E00
100
AcDbScale
 70
     0
300
1:100
140
1.0
141
100.0
290
     0
  0
SCALE
  5
3E0D
102
{ACAD_REACTORS
330
3E00
102
}
330
3E00
100
AcDbScale
 70
     0
300
2:1
140
2.0
141
1.0
290
     0
  0
SCALE
  5
3E0E
102
{ACAD_REACTORS
330
3E00
102
}
330
3E00
100
AcDbScale
 70
     0
300
4:1
140
4.0
141
1.0
290
     0
  0
SCALE
  5
3E0F
102
{ACAD_REACTORS
330
3E00
102
}
330
3E00
100
AcDbScale
 70
     0
300
8:1
140
8.0
141
1.0
290
     0
  0
SCALE
  5
3E10
102
{ACAD_REACTORS
330
3E00
102
}
330
3E00
100
AcDbScale
 70
     0
300
10:1
140
10.0
141
1.0
290
     0
  0
SCALE
  5
3E11
102
{ACAD_REACTORS
330
3E00
102
}
330
3E00
100
AcDbScale
 70
     0
300
100:1
140
100.0
141
1.0
290
     0
  0
ACDBSECTIONVIEWSTYLE
  5
3F66
102
{ACAD_XDICTIONARY
360
4726
102
}
102
{ACAD_REACTORS
330
3F65
102
}
330
3F65
100
AcDbModelDocViewStyle
 70
     0
  3
Metric50
290
     0
100
AcDbSectionViewStyle
 70
     0
 71
     0
 90
      102
 71
     1
340
11
 40
5.0
340
0
340
0
 40
5.0
300
I, O, Q, S, X, Z
 40
10.0
 90
        0
 40
2.5
 90
        0
 71
     2
340
16
 90
       25
340
16
 90
       50
 40
5.0
 40
2.5
 40
5.0
 71
     3
340
11
 40
5.0
 90
        0
 40
15.0
 90
        1
300
%<\AcVar ViewSectionStartId>%-%<\AcVar ViewSectionEndId>% (%<\AcVar ViewScale \f "%sn">%)
 71
     4
300
ANSI31
 40
1.0
 90
        0
290
     0
290
     0
 90
        6
 40
0.0
 40
1.570796326794896
 40
0.2617993877991494
 40
1.308996938995747
 40
-0.2617993877991494
 40
1.832595714594046
1001
ACAD
1000
AcRTDxfName
1000
ACDBSECTIONVIEWSTYLE
  0
TABLESTYLE
  5
3DFF
102
{ACAD_XDICTIONARY
360
3E7A
102
}
102
{ACAD_REACTORS
330
3DFE
102
}
330
3DFE
100
AcDbTableStyle
  3
Standard
 70
     0
 71
     0
 40
1.5
 41
1.5
280
     0
281
     0
  7
Standard
140
4.5
170
     2
 62
     0
 63
     7
283
     0
274
    -2
284
     1
 64
     0
275
    -2
285
     1
 65
     0
276
    -2
286
     1
 66
     0
277
    -2
287
     1
 67
     0
278
    -2
288
     1
 68
     0
279
    -2
289
     1
 69
     0
  7
Standard
140
6.0
170
     5
 62
     0
 63
     7
283
     0
274
    -2
284
     1
 64
     0
275
    -2
285
     1
 65
     0
276
    -2
286
     1
 66
     0
277
    -2
287
     1
 67
     0
278
    -2
288
     1
 68
     0
279
    -2
289
     1
 69
     0
  7
Standard
140
4.5
170
     5
 62
     0
 63
     7
283
     0
274
    -2
284
     1
 64
     0
275
    -2
285
     1
 65
     0
276
    -2
286
     1
 66
     0
277
    -2
287
     1
 67
     0
278
    -2
288
     1
 68
     0
279
    -2
289
     1
 69
     0
  0
VISUALSTYLE
  5
3DEF
102
{ACAD_XDICTIONARY
360
46FB
102
}
102
{ACAD_REACTORS
330
3DE9
102
}
330
3DE9
100
AcDbVisualStyle
  2
2dWireframe
 70
     4
 71
     0
 72
     2
 73
     0
 90
        0
 40
-0.6
 41
-30.0
 62
     5
 63
     7
 74
     1
 91
        4
 64
     7
 65
   257
 75
     1
175
     1
 42
1.0
 92
        0
 66
   257
 43
1.0
 76
     1
 77
     6
 78
     2
 67
     7
 79
     5
170
     0
171
     0
290
     0
174
     0
 93
        1
 44
0.0
173
     0
291
     0
 45
0.0
1001
ACAD
1000
AcDbSavedByObjectVersion
1070
     0
  0
VISUALSTYLE
  5
3DF1
102
{ACAD_XDICTIONARY
360
46FF
102
}
102
{ACAD_REACTORS
330
3DE9
102
}
330
3DE9
100
AcDbVisualStyle
  2
3D Hidden
 70
     6
 71
     1
 72
     2
 73
     2
 90
        0
 40
-0.6
 41
-30.0
 62
     5
 63
     7
 74
     2
 91
        2
 64
     7
 65
   257
 75
     2
175
     1
 42
179.0
 92
        0
 66
   257
 43
1.0
 76
     1
 77
     6
 78
     2
 67
     7
 79
     3
170
     0
171
     0
290
     0
174
     0
 93
        1
 44
0.0
173
     0
291
     0
 45
0.0
1001
ACAD
1000
AcDbSavedByObjectVersion
1070
     0
  0
VISUALSTYLE
  5
3DF0
102
{ACAD_XDICTIONARY
360
46FD
102
}
102
{ACAD_REACTORS
330
3DE9
102
}
330
3DE9
100
AcDbVisualStyle
  2
3dWireframe
 70
     5
 71
     0
 72
     2
 73
     0
 90
        0
 40
-0.6
 41
-30.0
 62
     5
 63
     7
 74
     1
 91
        4
 64
     7
 65
   257
 75
     1
175
     1
 42
1.0
 92
        0
 66
   257
 43
1.0
 76
     1
 77
     6
 78
     2
 67
     7
 79
     5
170
     0
171
     0
290
     0
174
     0
 93
        1
 44
0.0
173
     0
291
     0
 45
0.0
1001
ACAD
1000
AcDbSavedByObjectVersion
1070
     0
  0
VISUALSTYLE
  5
3DEE
102
{ACAD_XDICTIONARY
360
46F9
102
}
102
{ACAD_REACTORS
330
3DE9
102
}
330
3DE9
100
AcDbVisualStyle
  2
Basic
 70
     7
 71
     1
 72
     0
 73
     1
 90
        0
 40
-0.6
 41
-30.0
 62
     5
 63
     7
 74
     0
 91
        4
 64
     7
 65
   257
 75
     1
175
     1
 42
1.0
 92
        8
 66
     7
 43
1.0
 76
     1
 77
     6
 78
     2
 67
     7
 79
     5
170
     0
171
     0
290
     0
174
     0
 93
        1
 44
0.0
173
     0
291
     1
 45
0.0
1001
ACAD
1000
AcDbSavedByObjectVersion
1070
     0
  0
VISUALSTYLE
  5
3DF5
102
{ACAD_XDICTIONARY
360
4707
102
}
102
{ACAD_REACTORS
330
3DE9
102
}
330
3DE9
100
AcDbVisualStyle
  2
Brighten
 70
    12
 71
     2
 72
     2
 73
     0
 90
        0
 40
-0.6
 41
-30.0
 62
     5
 63
     7
 74
     1
 91
        4
 64
     7
 65
   257
 75
     1
175
     1
 42
1.0
 92
        8
 66
     7
 43
1.0
 76
     1
 77
     6
 78
     2
 67
     7
 79
     5
170
     0
171
     0
290
     0
174
     0
 93
        1
 44
50.0
173
     0
291
     1
 45
0.0
1001
ACAD
1000
AcDbSavedByObjectVersion
1070
     0
  0
VISUALSTYLE
  5
3DF9
102
{ACAD_XDICTIONARY
360
470F
102
}
102
{ACAD_REACTORS
330
3DE9
102
}
330
3DE9
100
AcDbVisualStyle
  2
ColorChange
 70
    16
 71
     2
 72
     2
 73
     3
 90
        0
 40
-0.6
 41
-30.0
 62
     5
 63
     8
 74
     1
 91
        4
 64
     7
 65
   257
 75
     1
175
     1
 42
1.0
 92
        8
 66
     8
 43
1.0
 76
     1
 77
     6
 78
     2
 67
     7
 79
     5
170
     0
171
     0
290
     0
174
     0
 93
        1
 44
0.0
173
     0
291
     1
 45
0.0
1001
ACAD
1000
AcDbSavedByObjectVersion
1070
     0
  0
VISUALSTYLE
  5
3DF2
102
{ACAD_XDICTIONARY
360
4701
102
}
102
{ACAD_REACTORS
330
3DE9
102
}
330
3DE9
100
AcDbVisualStyle
  2
Conceptual
 70
     9
 71
     3
 72
     2
 73
     0
 90
        0
 40
-0.6
 41
-30.0
 62
     5
 63
     7
 74
     2
 91
        2
 64
     7
 65
   257
 75
     1
175
     1
 42
179.0
 92
        8
 66
     7
 43
1.0
 76
     1
 77
     6
 78
     2
 67
     7
 79
     3
170
     0
171
     0
290
     0
174
     0
 93
        1
 44
0.0
173
     0
291
     0
 45
0.0
1001
ACAD
1000
AcDbSavedByObjectVersion
1070
     0
  0
VISUALSTYLE
  5
3DF4
102
{ACAD_XDICTIONARY
360
4705
102
}
102
{ACAD_REACTORS
330
3DE9
102
}
330
3DE9
100
AcDbVisualStyle
  2
Dim
 70
    11
 71
     2
 72
     2
 73
     0
 90
        0
 40
-0.6
 41
-30.0
 62
     5
 63
     7
 74
     1
 91
        4
 64
     7
 65
   257
 75
     1
175
     1
 42
1.0
 92
        8
 66
     7
 43
1.0
 76
     1
 77
     6
 78
     2
 67
     7
 79
     5
170
     0
171
     0
290
     0
174
     0
 93
        1
 44
-50.0
173
     0
291
     1
 45
0.0
1001
ACAD
1000
AcDbSavedByObjectVersion
1070
     0
  0
VISUALSTYLE
  5
3DFC
102
{ACAD_XDICTIONARY
360
4715
102
}
102
{ACAD_REACTORS
330
3DE9
102
}
330
3DE9
100
AcDbVisualStyle
  2
EdgeColorOff
 70
    22
 71
     2
 72
     2
 73
     0
 90
        0
 40
-0.6
 41
-30.0
 62
     5
 63
     7
 74
     1
 91
        4
 64
     7
 65
   257
 75
     1
175
     1
 42
1.0
 92
        8
 66
     7
 43
1.0
 76
     1
 77
     6
 78
     2
 67
     7
 79
     5
170
     0
171
     0
290
     0
174
     0
 93
        1
 44
0.0
173
     0
291
     1
 45
0.0
1001
ACAD
1000
AcDbSavedByObjectVersion
1070
     0
  0
VISUALSTYLE
  5
3DF8
102
{ACAD_XDICTIONARY
360
470D
102
}
102
{ACAD_REACTORS
330
3DE9
102
}
330
3DE9
100
AcDbVisualStyle
  2
Facepattern
 70
    15
 71
     2
 72
     2
 73
     0
 90
        0
 40
-0.6
 41
-30.0
 62
     5
 63
     7
 74
     1
 91
        4
 64
     7
 65
   257
 75
     1
175
     1
 42
1.0
 92
        8
 66
     7
 43
1.0
 76
     1
 77
     6
 78
     2
 67
     7
 79
     5
170
     0
171
     0
290
     0
174
     0
 93
        1
 44
0.0
173
     0
291
     1
 45
0.0
1001
ACAD
1000
AcDbSavedByObjectVersion
1070
     0
  0
VISUALSTYLE
  5
3DEA
102
{ACAD_XDICTIONARY
360
46F1
102
}
102
{ACAD_REACTORS
330
3DE9
102
}
330
3DE9
100
AcDbVisualStyle
  2
Flat
 70
     0
 71
     2
 72
     1
 73
     1
 90
        2
 40
-0.6
 41
30.0
 62
     5
 63
     7
 74
     0
 91
        4
 64
     7
 65
   257
 75
     1
175
     1
 42
1.0
 92
        8
 66
     7
 43
1.0
 76
     1
 77
     6
 78
     2
 67
     7
 79
     5
170
     0
171
     0
290
     0
174
     0
 93
       13
 44
0.0
173
     0
291
     1
 45
0.0
1001
ACAD
1000
AcDbSavedByObjectVersion
1070
     0
  0
VISUALSTYLE
  5
3DEB
102
{ACAD_XDICTIONARY
360
46F3
102
}
102
{ACAD_REACTORS
330
3DE9
102
}
330
3DE9
100
AcDbVisualStyle
  2
FlatWithEdges
 70
     1
 71
     2
 72
     1
 73
     1
 90
        2
 40
-0.6
 41
30.0
 62
     5
 63
     7
 74
     1
 91
        4
 64
     7
 65
   257
 75
     1
175
     1
 42
1.0
 92
        0
 66
   257
 43
1.0
 76
     1
 77
     6
 78
     2
 67
     7
 79
     5
170
     0
171
     0
290
     0
174
     0
 93
       13
 44
0.0
173
     0
291
     1
 45
0.0
1001
ACAD
1000
AcDbSavedByObjectVersion
1070
     0
  0
VISUALSTYLE
  5
3DEC
102
{ACAD_XDICTIONARY
360
46F5
102
}
102
{ACAD_REACTORS
330
3DE9
102
}
330
3DE9
100
AcDbVisualStyle
  2
Gouraud
 70
     2
 71
     2
 72
     2
 73
     1
 90
        2
 40
-0.6
 41
30.0
 62
     5
 63
     7
 74
     0
 91
        4
 64
     7
 65
   257
 75
     1
175
     1
 42
1.0
 92
        0
 66
     7
 43
1.0
 76
     1
 77
     6
 78
     2
 67
     7
 79
     5
170
     0
171
     0
290
     0
174
     0
 93
       13
 44
0.0
173
     0
291
     1
 45
0.0
1001
ACAD
1000
AcDbSavedByObjectVersion
1070
     0
  0
VISUALSTYLE
  5
3DED
102
{ACAD_XDICTIONARY
360
46F7
102
}
102
{ACAD_REACTORS
330
3DE9
102
}
330
3DE9
100
AcDbVisualStyle
  2
GouraudWithEdges
 70
     3
 71
     2
 72
     2
 73
     1
 90
        2
 40
-0.6
 41
30.0
 62
     5
 63
     7
 74
     1
 91
        4
 64
     7
 65
   257
 75
     1
175
     1
 42
1.0
 92
        0
 66
   257
 43
1.0
 76
     1
 77
     6
 78
     2
 67
     7
 79
     5
170
     0
171
     0
290
     0
174
     0
 93
       13
 44
0.0
173
     0
291
     1
 45
0.0
1001
ACAD
1000
AcDbSavedByObjectVersion
1070
     0
  0
VISUALSTYLE
  5
3F5F
102
{ACAD_XDICTIONARY
360
471A
102
}
102
{ACAD_REACTORS
330
3DE9
102
}
330
3DE9
100
AcDbVisualStyle
  2
Hidden
 70
     6
 71
     1
 72
     2
 73
     2
 90
        0
 40
-0.6
 41
-30.0
 62
     5
 63
     7
 74
     2
 91
        2
 64
     7
 65
   257
 75
     2
175
     1
 42
40.0
 92
        0
 66
   257
 43
1.0
 76
     1
 77
     6
 78
     2
 67
     7
 79
     3
170
     0
171
     0
290
     0
174
     0
 93
        1
 44
0.0
173
     0
291
     0
 45
0.0
1001
ACAD
1000
AcDbSavedByObjectVersion
1070
     0
  0
VISUALSTYLE
  5
3DFA
102
{ACAD_XDICTIONARY
360
4711
102
}
102
{ACAD_REACTORS
330
3DE9
102
}
330
3DE9
100
AcDbVisualStyle
  2
JitterOff
 70
    20
 71
     2
 72
     2
 73
     0
 90
        0
 40
-0.6
 41
-30.0
 62
     5
 63
     7
 74
     1
 91
        4
 64
     7
 65
   257
 75
     1
175
     1
 42
1.0
 92
       10
 66
     7
 43
1.0
 76
     1
 77
     6
 78
     2
 67
     7
 79
     5
170
     0
171
     0
290
     0
174
     0
 93
        1
 44
0.0
173
     0
291
     1
 45
0.0
1001
ACAD
1000
AcDbSavedByObjectVersion
1070
     0
  0
VISUALSTYLE
  5
3DF7
102
{ACAD_XDICTIONARY
360
470B
102
}
102
{ACAD_REACTORS
330
3DE9
102
}
330
3DE9
100
AcDbVisualStyle
  2
Linepattern
 70
    14
 71
     2
 72
     2
 73
     0
 90
        0
 40
-0.6
 41
-30.0
 62
     5
 63
     7
 74
     1
 91
        4
 64
     7
 65
   257
 75
     7
175
     7
 42
1.0
 92
        8
 66
     7
 43
1.0
 76
     1
 77
     6
 78
     2
 67
     7
 79
     5
170
     0
171
     0
290
     0
174
     0
 93
        1
 44
0.0
173
     0
291
     1
 45
0.0
1001
ACAD
1000
AcDbSavedByObjectVersion
1070
     0
  0
VISUALSTYLE
  5
3DFB
102
{ACAD_XDICTIONARY
360
4713
102
}
102
{ACAD_REACTORS
330
3DE9
102
}
330
3DE9
100
AcDbVisualStyle
  2
OverhangOff
 70
    21
 71
     2
 72
     2
 73
     0
 90
        0
 40
-0.6
 41
-30.0
 62
     5
 63
     7
 74
     1
 91
        4
 64
     7
 65
   257
 75
     1
175
     1
 42
1.0
 92
        9
 66
     7
 43
1.0
 76
     1
 77
     6
 78
     2
 67
     7
 79
     5
170
     0
171
     0
290
     0
174
     0
 93
        1
 44
0.0
173
     0
291
     1
 45
0.0
1001
ACAD
1000
AcDbSavedByObjectVersion
1070
     0
  0
VISUALSTYLE
  5
3DF3
102
{ACAD_XDICTIONARY
360
4703
102
}
102
{ACAD_REACTORS
330
3DE9
102
}
330
3DE9
100
AcDbVisualStyle
  2
Realistic
 70
     8
 71
     2
 72
     2
 73
     0
 90
        0
 40
-0.6
 41
-30.0
 62
     5
 63
     7
 74
     1
 91
        0
 64
     7
 65
   257
 75
     1
175
     1
 42
1.0
 92
        8
 66
     8
 43
1.0
 76
     1
 77
     6
 78
     2
 67
     7
 79
     5
170
     0
171
     0
290
     0
174
     0
 93
       13
 44
0.0
173
     0
291
     0
 45
0.0
1001
ACAD
1000
AcDbSavedByObjectVersion
1070
     0
  0
VISUALSTYLE
  5
3F64
102
{ACAD_XDICTIONARY
360
4724
102
}
102
{ACAD_REACTORS
330
3DE9
102
}
330
3DE9
100
AcDbVisualStyle
  2
Shaded
 70
    27
 71
     2
 72
     2
 73
     1
 90
        2
 40
-0.6
 41
30.0
 62
     5
 63
     7
 74
     0
 91
        4
 64
     7
 65
   257
 75
     1
175
     1
 42
1.0
 92
        8
 66
   257
 43
1.0
 76
     1
 77
     6
 78
     2
 67
     8
 79
     3
170
     0
171
     0
290
     0
174
     0
 93
        5
 44
0.0
173
     0
291
     0
 45
0.0
1001
ACAD
1000
AcDbSavedByObjectVersion
1070
     0
  0
VISUALSTYLE
  5
3F63
102
{ACAD_XDICTIONARY
360
4722
102
}
102
{ACAD_REACTORS
330
3DE9
102
}
330
3DE9
100
AcDbVisualStyle
  2
Shaded with edges
 70
    26
 71
     2
 72
     2
 73
     1
 90
        2
 40
-0.6
 41
30.0
 62
     5
 63
     7
 74
     1
 91
        2
 64
     7
 65
   257
 75
     2
175
     1
 42
1.0
 92
        8
 66
   257
 43
1.0
 76
     1
 77
     6
 78
     2
 67
     7
 79
     3
170
     0
171
     0
290
     0
174
     0
 93
        5
 44
0.0
173
     0
291
     0
 45
0.0
1001
ACAD
1000
AcDbSavedByObjectVersion
1070
     0
  0
VISUALSTYLE
  5
3F60
102
{ACAD_XDICTIONARY
360
471C
102
}
102
{ACAD_REACTORS
330
3DE9
102
}
330
3DE9
100
AcDbVisualStyle
  2
Shades of Gray
 70
    23
 71
     2
 72
     2
 73
     3
 90
        0
 40
-0.6
 41
-30.0
 62
     5
 63
     7
 74
     2
 91
        2
 64
     7
 65
     7
 75
     1
175
     1
 42
40.0
 92
        8
 66
     7
 43
1.0
 76
     1
 77
     6
 78
     2
 67
     7
 79
     3
170
     0
171
     0
290
     0
174
     0
 93
        1
 44
0.0
173
     0
291
     0
 45
0.0
1001
ACAD
1000
AcDbSavedByObjectVersion
1070
     0
  0
VISUALSTYLE
  5
3F61
102
{ACAD_XDICTIONARY
360
471E
102
}
102
{ACAD_REACTORS
330
3DE9
102
}
330
3DE9
100
AcDbVisualStyle
  2
Sketchy
 70
    24
 71
     1
 72
     2
 73
     2
 90
        0
 40
-0.6
 41
-30.0
 62
     5
 63
     7
 74
     2
 91
        2
 64
     7
 65
     7
 75
     1
175
     1
 42
40.0
 92
       11
 66
     7
 43
1.0
 76
     1
 77
     6
 78
     2
 67
     7
 79
     6
170
     0
171
     0
290
     0
174
     0
 93
        1
 44
0.0
173
     0
291
     0
 45
0.0
1001
ACAD
1000
AcDbSavedByObjectVersion
1070
     0
  0
VISUALSTYLE
  5
3DF6
102
{ACAD_XDICTIONARY
360
4709
102
}
102
{ACAD_REACTORS
330
3DE9
102
}
330
3DE9
100
AcDbVisualStyle
  2
Thicken
 70
    13
 71
     2
 72
     2
 73
     0
 90
        0
 40
-0.6
 41
-30.0
 62
     5
 63
     7
 74
     1
 91
        4
 64
     7
 65
   257
 75
     1
175
     1
 42
1.0
 92
       12
 66
     7
 43
1.0
 76
     1
 77
     6
 78
     2
 67
     7
 79
     5
170
     0
171
     0
290
     0
174
     0
 93
        1
 44
0.0
173
     0
291
     1
 45
0.0
1001
ACAD
1000
AcDbSavedByObjectVersion
1070
     0
  0
VISUALSTYLE
  5
3F5E
102
{ACAD_XDICTIONARY
360
4718
102
}
102
{ACAD_REACTORS
330
3DE9
102
}
330
3DE9
100
AcDbVisualStyle
  2
Wireframe
 70
     5
 71
     0
 72
     2
 73
     0
 90
        0
 40
-0.6
 41
-30.0
 62
     5
 63
     7
 74
     1
 91
        4
 64
     7
 65
   257
 75
     1
175
     1
 42
1.0
 92
        0
 66
   257
 43
1.0
 76
     1
 77
     6
 78
     2
 67
     7
 79
     3
170
     0
171
     0
290
     0
174
     0
 93
        1
 44
0.0
173
     0
291
     0
 45
0.0
1001
ACAD
1000
AcDbSavedByObjectVersion
1070
     0
  0
VISUALSTYLE
  5
3F62
102
{ACAD_XDICTIONARY
360
4720
102
}
102
{ACAD_REACTORS
330
3DE9
102
}
330
3DE9
100
AcDbVisualStyle
  2
X-Ray
 70
    25
 71
     2
 72
     2
 73
     1
 90
        1
 40
0.5
 41
-30.0
 62
     5
 63
     7
 74
     1
 91
        0
 64
     7
 65
   257
 75
     1
175
     1
 42
1.0
 92
        8
 66
     7
 43
1.0
 76
     1
 77
     6
 78
     2
 67
     7
 79
     3
170
     0
171
     0
290
     0
174
     0
 93
       13
 44
0.0
173
     0
291
     0
 45
0.0
1001
ACAD
1000
AcDbSavedByObjectVersion
1070
     0
  0
DICTIONARYVAR
  5
3EB1
102
{ACAD_REACTORS
330
1835
102
}
330
1835
100
DictionaryVariables
280
     0
  1
1:1
  0
DICTIONARYVAR
  5
3EB0
102
{ACAD_REACTORS
330
1835
102
}
330
1835
100
DictionaryVariables
280
     0
  1
STANDARD
  0
DICTIONARYVAR
  5
3EAF
102
{ACAD_REACTORS
330
1835
102
}
330
1835
100
DictionaryVariables
280
     0
  1
STANDARD
  0
DICTIONARYVAR
  5
3FCF
102
{ACAD_REACTORS
330
1835
102
}
330
1835
100
DictionaryVariables
280
     0
  1
Metric50
  0
DICTIONARYVAR
  5
3FD0
102
{ACAD_REACTORS
330
1835
102
}
330
1835
100
DictionaryVariables
280
     0
  1
Metric50
  0
DICTIONARYVAR
  5
3EB3
102
{ACAD_REACTORS
330
1835
102
}
330
1835
100
DictionaryVariables
280
     0
  1
1
  0
DICTIONARYVAR
  5
3EB2
102
{ACAD_REACTORS
330
1835
102
}
330
1835
100
DictionaryVariables
280
     0
  1
0
  0
DICTIONARYVAR
  5
1836
102
{ACAD_REACTORS
330
1835
102
}
330
1835
100
DictionaryVariables
280
     0
  1
127
  0
DICTIONARYVAR
  5
46E6
102
{ACAD_REACTORS
330
1835
102
}
330
1835
100
DictionaryVariables
280
     0
  1
2
  0
DICTIONARY
  5
4728
330
3F68
100
AcDbDictionary
280
     1
281
     1
  3
ACAD_XREC_ROUNDTRIP
360
4729
  0
DICTIONARY
  5
46EA
330
22
100
AcDbDictionary
280
     1
281
     1
  3
ACAD_XREC_ROUNDTRIP
360
46EB
  0
DICTIONARY
  5
46EC
330
1CD1
100
AcDbDictionary
280
     1
281
     1
  3
ACAD_XREC_ROUNDTRIP
360
46ED
  0
DICTIONARY
  5
3DDA
330
3DD9
100
AcDbDictionary
280
     1
281
     1
  3
ACAD_XREC_ROUNDTRIP
360
46EF
  3
BUMPTILE
360
3DDC
  3
DIFFUSETILE
360
3DDB
  3
OPACITYTILE
360
3DDF
  3
REFLECTIONTILE
360
3DDE
  3
REFRACTIONTILE
360
3DE0
  3
SPECULARTILE
360
3DDD
  0
DICTIONARY
  5
3DD2
330
3DD1
100
AcDbDictionary
280
     1
281
     1
  3
ACAD_XREC_ROUNDTRIP
360
46EE
  3
BUMPTILE
360
3DD4
  3
DIFFUSETILE
360
3DD3
  3
OPACITYTILE
360
3DD7
  3
REFLECTIONTILE
360
3DD6
  3
REFRACTIONTILE
360
3DD8
  3
SPECULARTILE
360
3DD5
  0
DICTIONARY
  5
3DE2
330
3DE1
100
AcDbDictionary
280
     1
281
     1
  3
ACAD_XREC_ROUNDTRIP
360
46F0
  3
BUMPTILE
360
3DE4
  3
DIFFUSETILE
360
3DE3
  3
OPACITYTILE
360
3DE7
  3
REFLECTIONTILE
360
3DE6
  3
REFRACTIONTILE
360
3DE8
  3
SPECULARTILE
360
3DE5
  0
DICTIONARY
  5
4726
330
3F66
100
AcDbDictionary
280
     1
281
     1
  3
ACAD_XREC_ROUNDTRIP
360
4727
  0
DICTIONARY
  5
3E7A
330
3DFF
100
AcDbDictionary
280
     1
281
     1
  3
ACAD_ROUNDTRIP_2008_TABLESTYLE_CELLSTYLEMAP
360
46E7
  3
ACAD_XREC_ROUNDTRIP
360
4717
  0
DICTIONARY
  5
46FB
330
3DEF
100
AcDbDictionary
280
     1
281
     1
  3
ACAD_XREC_ROUNDTRIP
360
46FC
  0
DICTIONARY
  5
46FF
330
3DF1
100
AcDbDictionary
280
     1
281
     1
  3
ACAD_XREC_ROUNDTRIP
360
4700
  0
DICTIONARY
  5
46FD
330
3DF0
100
AcDbDictionary
280
     1
281
     1
  3
ACAD_XREC_ROUNDTRIP
360
46FE
  0
DICTIONARY
  5
46F9
330
3DEE
100
AcDbDictionary
280
     1
281
     1
  3
ACAD_XREC_ROUNDTRIP
360
46FA
  0
DICTIONARY
  5
4707
330
3DF5
100
AcDbDictionary
280
     1
281
     1
  3
ACAD_XREC_ROUNDTRIP
360
4708
  0
DICTIONARY
  5
470F
330
3DF9
100
AcDbDictionary
280
     1
281
     1
  3
ACAD_XREC_ROUNDTRIP
360
4710
  0
DICTIONARY
  5
4701
330
3DF2
100
AcDbDictionary
280
     1
281
     1
  3
ACAD_XREC_ROUNDTRIP
360
4702
  0
DICTIONARY
  5
4705
330
3DF4
100
AcDbDictionary
280
     1
281
     1
  3
ACAD_XREC_ROUNDTRIP
360
4706
  0
DICTIONARY
  5
4715
330
3DFC
100
AcDbDictionary
280
     1
281
     1
  3
ACAD_XREC_ROUNDTRIP
360
4716
  0
DICTIONARY
  5
470D
330
3DF8
100
AcDbDictionary
280
     1
281
     1
  3
ACAD_XREC_ROUNDTRIP
360
470E
  0
DICTIONARY
  5
46F1
330
3DEA
100
AcDbDictionary
280
     1
281
     1
  3
ACAD_XREC_ROUNDTRIP
360
46F2
  0
DICTIONARY
  5
46F3
330
3DEB
100
AcDbDictionary
280
     1
281
     1
  3
ACAD_XREC_ROUNDTRIP
360
46F4
  0
DICTIONARY
  5
46F5
330
3DEC
100
AcDbDictionary
280
     1
281
     1
  3
ACAD_XREC_ROUNDTRIP
360
46F6
  0
DICTIONARY
  5
46F7
330
3DED
100
AcDbDictionary
280
     1
281
     1
  3
ACAD_XREC_ROUNDTRIP
360
46F8
  0
DICTIONARY
  5
471A
330
3F5F
100
AcDbDictionary
280
     1
281
     1
  3
ACAD_XREC_ROUNDTRIP
360
471B
  0
DICTIONARY
  5
4711
330
3DFA
100
AcDbDictionary
280
     1
281
     1
  3
ACAD_XREC_ROUNDTRIP
360
4712
  0
DICTIONARY
  5
470B
330
3DF7
100
AcDbDictionary
280
     1
281
     1
  3
ACAD_XREC_ROUNDTRIP
360
470C
  0
DICTIONARY
  5
4713
330
3DFB
100
AcDbDictionary
280
     1
281
     1
  3
ACAD_XREC_ROUNDTRIP
360
4714
  0
DICTIONARY
  5
4703
330
3DF3
100
AcDbDictionary
280
     1
281
     1
  3
ACAD_XREC_ROUNDTRIP
360
4704
  0
DICTIONARY
  5
4724
330
3F64
100
AcDbDictionary
280
     1
281
     1
  3
ACAD_XREC_ROUNDTRIP
360
4725
  0
DICTIONARY
  5
4722
330
3F63
100
AcDbDictionary
280
     1
281
     1
  3
ACAD_XREC_ROUNDTRIP
360
4723
  0
DICTIONARY
  5
471C
330
3F60
100
AcDbDictionary
280
     1
281
     1
  3
ACAD_XREC_ROUNDTRIP
360
471D
  0
DICTIONARY
  5
471E
330
3F61
100
AcDbDictionary
280
     1
281
     1
  3
ACAD_XREC_ROUNDTRIP
360
471F
  0
DICTIONARY
  5
4709
330
3DF6
100
AcDbDictionary
280
     1
281
     1
  3
ACAD_XREC_ROUNDTRIP
360
470A
  0
DICTIONARY
  5
4718
330
3F5E
100
AcDbDictionary
280
     1
281
     1
  3
ACAD_XREC_ROUNDTRIP
360
4719
  0
DICTIONARY
  5
4720
330
3F62
100
AcDbDictionary
280
     1
281
     1
  3
ACAD_XREC_ROUNDTRIP
360
4721
  0
XRECORD
  5
4729
102
{ACAD_REACTORS
330
4728
102
}
330
4728
100
AcDbXrecord
280
     1
102
DISPLAYNAME
  1
Metric50
102
FLAGS
 90
        0
  0
XRECORD
  5
46EB
102
{ACAD_REACTORS
330
46EA
102
}
330
46EA
100
AcDbXrecord
280
     1
102
SHADEPLOT
 70
     0
102
SHADEPLOTRESLEVEL
 70
     2
102
SHADEPLOTCUSTOMDPI
 70
   300
  0
XRECORD
  5
46ED
102
{ACAD_REACTORS
330
46EC
102
}
330
46EC
100
AcDbXrecord
280
     1
102
SHADEPLOT
 70
     0
102
SHADEPLOTRESLEVEL
 70
     2
102
SHADEPLOTCUSTOMDPI
 70
   300
  0
XRECORD
  5
46EF
102
{ACAD_REACTORS
330
3DDA
102
}
330
3DDA
100
AcDbXrecord
280
     1
102
MATERIAL
148
0.0
149
0.0
149
0.0
 93
        0
 94
      127
282
     0
 72
     0
 77
     0
171
     0
175
     0
179
     0
273
     0
  0
XRECORD
  5
3DDC
102
{ACAD_REACTORS
330
3DDA
102
}
330
3DDA
100
AcDbXrecord
280
     1
270
     1
271
     1
  0
XRECORD
  5
3DDB
102
{ACAD_REACTORS
330
3DDA
102
}
330
3DDA
100
AcDbXrecord
280
     1
270
     1
271
     1
  0
XRECORD
  5
3DDF
102
{ACAD_REACTORS
330
3DDA
102
}
330
3DDA
100
AcDbXrecord
280
     1
270
     1
271
     1
  0
XRECORD
  5
3DDE
102
{ACAD_REACTORS
330
3DDA
102
}
330
3DDA
100
AcDbXrecord
280
     1
270
     1
271
     1
  0
XRECORD
  5
3DE0
102
{ACAD_REACTORS
330
3DDA
102
}
330
3DDA
100
AcDbXrecord
280
     1
270
     1
271
     1
  0
XRECORD
  5
3DDD
102
{ACAD_REACTORS
330
3DDA
102
}
330
3DDA
100
AcDbXrecord
280
     1
270
     1
271
     1
  0
XRECORD
  5
46EE
102
{ACAD_REACTORS
330
3DD2
102
}
330
3DD2
100
AcDbXrecord
280
     1
102
MATERIAL
148
0.0
149
0.0
149
0.0
 93
        0
 94
      127
282
     0
 72
     0
 77
     0
171
     0
175
     0
179
     0
273
     0
  0
XRECORD
  5
3DD4
102
{ACAD_REACTORS
330
3DD2
102
}
330
3DD2
100
AcDbXrecord
280
     1
270
     1
271
     1
  0
XRECORD
  5
3DD3
102
{ACAD_REACTORS
330
3DD2
102
}
330
3DD2
100
AcDbXrecord
280
     1
270
     1
271
     1
  0
XRECORD
  5
3DD7
102
{ACAD_REACTORS
330
3DD2
102
}
330
3DD2
100
AcDbXrecord
280
     1
270
     1
271
     1
  0
XRECORD
  5
3DD6
102
{ACAD_REACTORS
330
3DD2
102
}
330
3DD2
100
AcDbXrecord
280
     1
270
     1
271
     1
  0
XRECORD
  5
3DD8
102
{ACAD_REACTORS
330
3DD2
102
}
330
3DD2
100
AcDbXrecord
280
     1
270
     1
271
     1
  0
XRECORD
  5
3DD5
102
{ACAD_REACTORS
330
3DD2
102
}
330
3DD2
100
AcDbXrecord
280
     1
270
     1
271
     1
  0
XRECORD
  5
46F0
102
{ACAD_REACTORS
330
3DE2
102
}
330
3DE2
100
AcDbXrecord
280
     1
102
MATERIAL
148
0.0
149
0.0
149
0.0
 93
        0
 94
      127
282
     0
 72
     0
 77
     0
171
     0
175
     0
179
     0
273
     0
  0
XRECORD
  5
3DE4
102
{ACAD_REACTORS
330
3DE2
102
}
330
3DE2
100
AcDbXrecord
280
     1
270
     1
271
     1
  0
XRECORD
  5
3DE3
102
{ACAD_REACTORS
330
3DE2
102
}
330
3DE2
100
AcDbXrecord
280
     1
270
     1
271
     1
  0
XRECORD
  5
3DE7
102
{ACAD_REACTORS
330
3DE2
102
}
330
3DE2
100
AcDbXrecord
280
     1
270
     1
271
     1
  0
XRECORD
  5
3DE6
102
{ACAD_REACTORS
330
3DE2
102
}
330
3DE2
100
AcDbXrecord
280
     1
270
     1
271
     1
  0
XRECORD
  5
3DE8
102
{ACAD_REACTORS
330
3DE2
102
}
330
3DE2
100
AcDbXrecord
280
     1
270
     1
271
     1
  0
XRECORD
  5
3DE5
102
{ACAD_REACTORS
330
3DE2
102
}
330
3DE2
100
AcDbXrecord
280
     1
270
     1
271
     1
  0
XRECORD
  5
4727
102
{ACAD_REACTORS
330
4726
102
}
330
4726
100
AcDbXrecord
280
     1
102
DISPLAYNAME
  1
Metric50
102
FLAGS
 90
        0
  0
CELLSTYLEMAP
  5
46E7
102
{ACAD_REACTORS
330
3E7A
102
}
330
3E7A
100
AcDbCellStyleMap
 90
        3
300
CELLSTYLE
  1
TABLEFORMAT_BEGIN
 90
        5
170
     1
 91
        0
 92
    32768
 62
   257
 93
        1
300
CONTENTFORMAT
  1
CONTENTFORMAT_BEGIN
 90
        0
 91
        0
 92
      512
 93
        0
300

 40
0.0
140
1.0
 94
        5
 62
     0
340
11
144
6.0
309
CONTENTFORMAT_END
171
     1
301
MARGIN
  1
CELLMARGIN_BEGIN
 40
1.5
 40
1.5
 40
1.5
 40
1.5
 40
4.5
 40
4.5
309
CELLMARGIN_END
 94
        6
 95
        1
302
GRIDFORMAT
  1
GRIDFORMAT_BEGIN
 90
        0
 91
        1
 62
     0
 92
       -2
340
0
 93
        0
 40
1.125
309
GRIDFORMAT_END
 95
        2
302
GRIDFORMAT
  1
GRIDFORMAT_BEGIN
 90
        0
 91
        1
 62
     0
 92
       -2
340
0
 93
        0
 40
1.125
309
GRIDFORMAT_END
 95
        4
302
GRIDFORMAT
  1
GRIDFORMAT_BEGIN
 90
        0
 91
        1
 62
     0
 92
       -2
340
0
 93
        0
 40
1.125
309
GRIDFORMAT_END
 95
        8
302
GRIDFORMAT
  1
GRIDFORMAT_BEGIN
 90
        0
 91
        1
 62
     0
 92
       -2
340
0
 93
        0
 40
1.125
309
GRIDFORMAT_END
 95
       16
302
GRIDFORMAT
  1
GRIDFORMAT_BEGIN
 90
        0
 91
        1
 62
     0
 92
       -2
340
0
 93
        0
 40
1.125
309
GRIDFORMAT_END
 95
       32
302
GRIDFORMAT
  1
GRIDFORMAT_BEGIN
 90
        0
 91
        1
 62
     0
 92
       -2
340
0
 93
        0
 40
1.125
309
GRIDFORMAT_END
309
TABLEFORMAT_END
  1
CELLSTYLE_BEGIN
 90
        1
 91
        1
300
_TITLE
309
CELLSTYLE_END
300
CELLSTYLE
  1
TABLEFORMAT_BEGIN
 90
        5
170
     1
 91
        0
 92
        0
 62
   257
 93
        1
300
CONTENTFORMAT
  1
CONTENTFORMAT_BEGIN
 90
        0
 91
        0
 92
      512
 93
        0
300

 40
0.0
140
1.0
 94
        5
 62
     0
340
11
144
4.5
309
CONTENTFORMAT_END
171
     1
301
MARGIN
  1
CELLMARGIN_BEGIN
 40
1.5
 40
1.5
 40
1.5
 40
1.5
 40
4.5
 40
4.5
309
CELLMARGIN_END
 94
        6
 95
        1
302
GRIDFORMAT
  1
GRIDFORMAT_BEGIN
 90
        0
 91
        1
 62
     0
 92
       -2
340
0
 93
        0
 40
1.125
309
GRIDFORMAT_END
 95
        2
302
GRIDFORMAT
  1
GRIDFORMAT_BEGIN
 90
        0
 91
        1
 62
     0
 92
       -2
340
0
 93
        0
 40
1.125
309
GRIDFORMAT_END
 95
        4
302
GRIDFORMAT
  1
GRIDFORMAT_BEGIN
 90
        0
 91
        1
 62
     0
 92
       -2
340
0
 93
        0
 40
1.125
309
GRIDFORMAT_END
 95
        8
302
GRIDFORMAT
  1
GRIDFORMAT_BEGIN
 90
        0
 91
        1
 62
     0
 92
       -2
340
0
 93
        0
 40
1.125
309
GRIDFORMAT_END
 95
       16
302
GRIDFORMAT
  1
GRIDFORMAT_BEGIN
 90
        0
 91
        1
 62
     0
 92
       -2
340
0
 93
        0
 40
1.125
309
GRIDFORMAT_END
 95
       32
302
GRIDFORMAT
  1
GRIDFORMAT_BEGIN
 90
        0
 91
        1
 62
     0
 92
       -2
340
0
 93
        0
 40
1.125
309
GRIDFORMAT_END
309
TABLEFORMAT_END
  1
CELLSTYLE_BEGIN
 90
        2
 91
        1
300
_HEADER
309
CELLSTYLE_END
300
CELLSTYLE
  1
TABLEFORMAT_BEGIN
 90
        5
170
     1
 91
        0
 92
        0
 62
   257
 93
        1
300
CONTENTFORMAT
  1
CONTENTFORMAT_BEGIN
 90
        0
 91
        0
 92
      512
 93
        0
300

 40
0.0
140
1.0
 94
        2
 62
     0
340
11
144
4.5
309
CONTENTFORMAT_END
171
     1
301
MARGIN
  1
CELLMARGIN_BEGIN
 40
1.5
 40
1.5
 40
1.5
 40
1.5
 40
4.5
 40
4.5
309
CELLMARGIN_END
 94
        6
 95
        1
302
GRIDFORMAT
  1
GRIDFORMAT_BEGIN
 90
        0
 91
        1
 62
     0
 92
       -2
340
0
 93
        0
 40
1.125
309
GRIDFORMAT_END
 95
        2
302
GRIDFORMAT
  1
GRIDFORMAT_BEGIN
 90
        0
 91
        1
 62
     0
 92
       -2
340
0
 93
        0
 40
1.125
309
GRIDFORMAT_END
 95
        4
302
GRIDFORMAT
  1
GRIDFORMAT_BEGIN
 90
        0
 91
        1
 62
     0
 92
       -2
340
0
 93
        0
 40
1.125
309
GRIDFORMAT_END
 95
        8
302
GRIDFORMAT
  1
GRIDFORMAT_BEGIN
 90
        0
 91
        1
 62
     0
 92
       -2
340
0
 93
        0
 40
1.125
309
GRIDFORMAT_END
 95
       16
302
GRIDFORMAT
  1
GRIDFORMAT_BEGIN
 90
        0
 91
        1
 62
     0
 92
       -2
340
0
 93
        0
 40
1.125
309
GRIDFORMAT_END
 95
       32
302
GRIDFORMAT
  1
GRIDFORMAT_BEGIN
 90
        0
 91
        1
 62
     0
 92
       -2
340
0
 93
        0
 40
1.125
309
GRIDFORMAT_END
309
TABLEFORMAT_END
  1
CELLSTYLE_BEGIN
 90
        3
 91
        2
300
_DATA
309
CELLSTYLE_END
  0
XRECORD
  5
4717
102
{ACAD_REACTORS
330
3E7A
102
}
330
3E7A
100
AcDbXrecord
280
     1
102
ACAD_ROUNDTRIP_PRE2007_TABLESTYLE
 90
      512
 91
        0
  1

 92
      512
 93
        0
  2

 94
      512
 95
        0
  3

  0
XRECORD
  5
46FC
102
{ACAD_REACTORS
330
46FB
102
}
330
46FB
100
AcDbXrecord
280
     1
102
RTVSPost2010Prop28
280
     1
102
RTVSPost2010PropOp28
 70
     1
102
RTVSPost2010Prop29
280
     1
102
RTVSPost2010PropOp29
 70
     1
102
RTVSPost2010Prop30
280
     0
102
RTVSPost2010PropOp30
 70
     1
102
RTVSPost2010Prop31
280
     0
102
RTVSPost2010PropOp31
 70
     1
102
RTVSPost2010Prop32
280
     0
102
RTVSPost2010PropOp32
 70
     1
102
RTVSPost2010Prop33
280
     0
102
RTVSPost2010PropOp33
 70
     1
102
RTVSPost2010Prop34
280
     0
102
RTVSPost2010PropOp34
 70
     1
102
RTVSPost2010Prop35
280
     0
102
RTVSPost2010PropOp35
 70
     1
102
RTVSPost2010Prop36
280
     0
102
RTVSPost2010PropOp36
 70
     1
102
RTVSPost2010Prop37
 90
       50
102
RTVSPost2010PropOp37
 70
     1
102
RTVSPost2010Prop38
140
0.0
102
RTVSPost2010PropOp38
 70
     1
102
RTVSPost2010Prop39
140
1.0
102
RTVSPost2010PropOp39
 70
     1
102
RTVSPost2010Prop40
 90
        0
102
RTVSPost2010PropOp40
 70
     1
102
RTVSPost2010Prop41ColorIndex
 90
       18
102
RTVSPost2010Prop41ColorRGB
 90
        0
102
RTVSPost2010PropOp41
 70
     1
102
RTVSPost2010Prop42
 90
       50
102
RTVSPost2010PropOp42
 70
     1
102
RTVSPost2010Prop43
 90
        3
102
RTVSPost2010PropOp43
 70
     1
102
RTVSPost2010Prop44ColorIndex
 90
        5
102
RTVSPost2010Prop44ColorRGB
 90
      255
102
RTVSPost2010PropOp44
 70
     1
102
RTVSPost2010Prop45
280
     0
102
RTVSPost2010PropOp45
 70
     1
102
RTVSPost2010Prop46
 90
       50
102
RTVSPost2010PropOp46
 70
     1
102
RTVSPost2010Prop47
 90
       50
102
RTVSPost2010PropOp47
 70
     1
102
RTVSPost2010Prop48
 90
       50
102
RTVSPost2010PropOp48
 70
     1
102
RTVSPost2010Prop49
280
     0
102
RTVSPost2010PropOp49
 70
     1
102
RTVSPost2010Prop50
 90
       50
102
RTVSPost2010PropOp50
 70
     1
102
RTVSPost2010Prop51ColorIndex
 90
      256
102
RTVSPost2010Prop51ColorRGB
 90
-16777216
102
RTVSPost2010PropOp51
 70
     0
102
RTVSPost2010Prop52
140
1.0
102
RTVSPost2010PropOp52
 70
     0
102
RTVSPost2010Prop53
 90
        2
102
RTVSPost2010PropOp53
 70
     1
102
RTVSPost2010Prop54
  1
strokes_ogs.tif
102
RTVSPost2010PropOp54
 70
     1
102
RTVSPost2010Prop55
280
     0
102
RTVSPost2010PropOp55
 70
     1
102
RTVSPost2010Prop56
140
1.0
102
RTVSPost2010PropOp56
 70
     1
102
RTVSPost2010Prop57
140
1.0
102
RTVSPost2010PropOp57
 70
     1
102
RTVSPropertyOp0
 70
     1
102
RTVSPropertyOp1
 70
     1
102
RTVSPropertyOp2
 70
     1
102
RTVSPropertyOp3
 70
     1
102
RTVSPropertyOp4
 70
     1
102
RTVSPropertyOp5
 70
     1
102
RTVSPropertyOp6
 70
     1
102
RTVSPropertyOp7
 70
     1
102
RTVSPropertyOp8
 70
     1
102
RTVSPropertyOp9
 70
     1
102
RTVSPropertyOp10
 70
     1
102
RTVSPropertyOp11
 70
     1
102
RTVSPropertyOp12
 70
     1
102
RTVSPropertyOp13
 70
     1
102
RTVSPropertyOp14
 70
     1
102
RTVSPropertyOp15
 70
     1
102
RTVSPropertyOp16
 70
     1
102
RTVSPropertyOp17
 70
     1
102
RTVSPropertyOp18
 70
     1
102
RTVSPropertyOp19
 70
     1
102
RTVSPropertyOp20
 70
     1
102
RTVSPropertyOp21
 70
     1
102
RTVSPropertyOp22
 70
     1
102
RTVSPropertyOp23
 70
     1
102
RTVSPropertyOp24
 70
     1
102
RTVSPropertyOp25
 70
     1
102
RTVSPropertyOp26
 70
     1
102
RTVSPropertyOp27
 70
     1
102
RTVSPropertyOp28
 70
     1
102
RTVSPropertyOp29
 70
     1
102
RTVSPropertyOp30
 70
     1
102
RTVSPropertyOp31
 70
     1
102
RTVSPropertyOp32
 70
     1
102
RTVSPropertyOp33
 70
     1
102
RTVSPropertyOp34
 70
     1
102
RTVSPropertyOp35
 70
     1
102
RTVSPropertyOp36
 70
     1
102
RTVSPropertyOp37
 70
     1
102
RTVSPropertyOp38
 70
     1
102
RTVSPropertyOp39
 70
     1
102
RTVSPropertyOp40
 70
     1
102
RTVSPropertyOp41
 70
     1
102
RTVSPropertyOp42
 70
     1
102
RTVSPropertyOp43
 70
     1
102
RTVSPropertyOp44
 70
     1
102
RTVSPropertyOp45
 70
     1
102
RTVSPropertyOp46
 70
     1
102
RTVSPropertyOp47
 70
     1
102
RTVSPropertyOp48
 70
     1
102
RTVSPropertyOp49
 70
     1
102
RTVSPropertyOp50
 70
     1
102
RTVSPropertyOp51
 70
     0
102
RTVSPropertyOp52
 70
     0
102
RTVSPropertyOp53
 70
     1
102
RTVSPropertyOp54
 70
     1
102
RTVSPropertyOp55
 70
     1
102
RTVSPropertyOp56
 70
     1
102
RTVSPropertyOp57
 70
     1
102
RTVSPropertyOp58
 70
     1
102
RTVSPropertyOp59
 70
     1
102
RTVSPropertyOp60
 70
     1
102
RTVSPropertyOp61
 70
     1
102
RTVSPropertyOp62
 70
     1
  0
XRECORD
  5
4700
102
{ACAD_REACTORS
330
46FF
102
}
330
46FF
100
AcDbXrecord
280
     1
102
RTVSPost2010Prop28
280
     0
102
RTVSPost2010PropOp28
 70
     1
102
RTVSPost2010Prop29
280
     1
102
RTVSPost2010PropOp29
 70
     1
102
RTVSPost2010Prop30
280
     1
102
RTVSPost2010PropOp30
 70
     1
102
RTVSPost2010Prop31
280
     0
102
RTVSPost2010PropOp31
 70
     1
102
RTVSPost2010Prop32
280
     0
102
RTVSPost2010PropOp32
 70
     1
102
RTVSPost2010Prop33
280
     0
102
RTVSPost2010PropOp33
 70
     1
102
RTVSPost2010Prop34
280
     0
102
RTVSPost2010PropOp34
 70
     1
102
RTVSPost2010Prop35
280
     0
102
RTVSPost2010PropOp35
 70
     1
102
RTVSPost2010Prop36
280
     0
102
RTVSPost2010PropOp36
 70
     1
102
RTVSPost2010Prop37
 90
       50
102
RTVSPost2010PropOp37
 70
     1
102
RTVSPost2010Prop38
140
0.0
102
RTVSPost2010PropOp38
 70
     1
102
RTVSPost2010Prop39
140
1.0
102
RTVSPost2010PropOp39
 70
     1
102
RTVSPost2010Prop40
 90
        0
102
RTVSPost2010PropOp40
 70
     1
102
RTVSPost2010Prop41ColorIndex
 90
       18
102
RTVSPost2010Prop41ColorRGB
 90
        0
102
RTVSPost2010PropOp41
 70
     1
102
RTVSPost2010Prop42
 90
       50
102
RTVSPost2010PropOp42
 70
     1
102
RTVSPost2010Prop43
 90
        3
102
RTVSPost2010PropOp43
 70
     1
102
RTVSPost2010Prop44ColorIndex
 90
        5
102
RTVSPost2010Prop44ColorRGB
 90
      255
102
RTVSPost2010PropOp44
 70
     1
102
RTVSPost2010Prop45
280
     0
102
RTVSPost2010PropOp45
 70
     1
102
RTVSPost2010Prop46
 90
       50
102
RTVSPost2010PropOp46
 70
     1
102
RTVSPost2010Prop47
 90
       50
102
RTVSPost2010PropOp47
 70
     1
102
RTVSPost2010Prop48
 90
       50
102
RTVSPost2010PropOp48
 70
     1
102
RTVSPost2010Prop49
280
     0
102
RTVSPost2010PropOp49
 70
     1
102
RTVSPost2010Prop50
 90
       50
102
RTVSPost2010PropOp50
 70
     1
102
RTVSPost2010Prop51ColorIndex
 90
      256
102
RTVSPost2010Prop51ColorRGB
 90
-16777216
102
RTVSPost2010PropOp51
 70
     0
102
RTVSPost2010Prop52
140
1.0
102
RTVSPost2010PropOp52
 70
     0
102
RTVSPost2010Prop53
 90
        2
102
RTVSPost2010PropOp53
 70
     1
102
RTVSPost2010Prop54
  1
strokes_ogs.tif
102
RTVSPost2010PropOp54
 70
     1
102
RTVSPost2010Prop55
280
     0
102
RTVSPost2010PropOp55
 70
     1
102
RTVSPost2010Prop56
140
1.0
102
RTVSPost2010PropOp56
 70
     1
102
RTVSPost2010Prop57
140
1.0
102
RTVSPost2010PropOp57
 70
     1
102
RTVSPropertyOp0
 70
     1
102
RTVSPropertyOp1
 70
     1
102
RTVSPropertyOp2
 70
     1
102
RTVSPropertyOp3
 70
     1
102
RTVSPropertyOp4
 70
     1
102
RTVSPropertyOp5
 70
     1
102
RTVSPropertyOp6
 70
     1
102
RTVSPropertyOp7
 70
     1
102
RTVSPropertyOp8
 70
     1
102
RTVSPropertyOp9
 70
     1
102
RTVSPropertyOp10
 70
     1
102
RTVSPropertyOp11
 70
     1
102
RTVSPropertyOp12
 70
     1
102
RTVSPropertyOp13
 70
     1
102
RTVSPropertyOp14
 70
     1
102
RTVSPropertyOp15
 70
     1
102
RTVSPropertyOp16
 70
     1
102
RTVSPropertyOp17
 70
     1
102
RTVSPropertyOp18
 70
     1
102
RTVSPropertyOp19
 70
     1
102
RTVSPropertyOp20
 70
     1
102
RTVSPropertyOp21
 70
     1
102
RTVSPropertyOp22
 70
     1
102
RTVSPropertyOp23
 70
     1
102
RTVSPropertyOp24
 70
     1
102
RTVSPropertyOp25
 70
     1
102
RTVSPropertyOp26
 70
     1
102
RTVSPropertyOp27
 70
     1
102
RTVSPropertyOp28
 70
     1
102
RTVSPropertyOp29
 70
     1
102
RTVSPropertyOp30
 70
     1
102
RTVSPropertyOp31
 70
     1
102
RTVSPropertyOp32
 70
     1
102
RTVSPropertyOp33
 70
     1
102
RTVSPropertyOp34
 70
     1
102
RTVSPropertyOp35
 70
     1
102
RTVSPropertyOp36
 70
     1
102
RTVSPropertyOp37
 70
     1
102
RTVSPropertyOp38
 70
     1
102
RTVSPropertyOp39
 70
     1
102
RTVSPropertyOp40
 70
     1
102
RTVSPropertyOp41
 70
     1
102
RTVSPropertyOp42
 70
     1
102
RTVSPropertyOp43
 70
     1
102
RTVSPropertyOp44
 70
     1
102
RTVSPropertyOp45
 70
     1
102
RTVSPropertyOp46
 70
     1
102
RTVSPropertyOp47
 70
     1
102
RTVSPropertyOp48
 70
     1
102
RTVSPropertyOp49
 70
     1
102
RTVSPropertyOp50
 70
     1
102
RTVSPropertyOp51
 70
     0
102
RTVSPropertyOp52
 70
     0
102
RTVSPropertyOp53
 70
     1
102
RTVSPropertyOp54
 70
     1
102
RTVSPropertyOp55
 70
     1
102
RTVSPropertyOp56
 70
     1
102
RTVSPropertyOp57
 70
     1
102
RTVSPropertyOp58
 70
     1
102
RTVSPropertyOp59
 70
     1
102
RTVSPropertyOp60
 70
     1
102
RTVSPropertyOp61
 70
     1
102
RTVSPropertyOp62
 70
     1
  0
XRECORD
  5
46FE
102
{ACAD_REACTORS
330
46FD
102
}
330
46FD
100
AcDbXrecord
280
     1
102
RTVSPost2010Prop28
280
     0
102
RTVSPost2010PropOp28
 70
     1
102
RTVSPost2010Prop29
280
     1
102
RTVSPost2010PropOp29
 70
     1
102
RTVSPost2010Prop30
280
     1
102
RTVSPost2010PropOp30
 70
     1
102
RTVSPost2010Prop31
280
     0
102
RTVSPost2010PropOp31
 70
     1
102
RTVSPost2010Prop32
280
     0
102
RTVSPost2010PropOp32
 70
     1
102
RTVSPost2010Prop33
280
     0
102
RTVSPost2010PropOp33
 70
     1
102
RTVSPost2010Prop34
280
     0
102
RTVSPost2010PropOp34
 70
     1
102
RTVSPost2010Prop35
280
     0
102
RTVSPost2010PropOp35
 70
     1
102
RTVSPost2010Prop36
280
     0
102
RTVSPost2010PropOp36
 70
     1
102
RTVSPost2010Prop37
 90
       50
102
RTVSPost2010PropOp37
 70
     1
102
RTVSPost2010Prop38
140
0.0
102
RTVSPost2010PropOp38
 70
     1
102
RTVSPost2010Prop39
140
1.0
102
RTVSPost2010PropOp39
 70
     1
102
RTVSPost2010Prop40
 90
        0
102
RTVSPost2010PropOp40
 70
     1
102
RTVSPost2010Prop41ColorIndex
 90
       18
102
RTVSPost2010Prop41ColorRGB
 90
        0
102
RTVSPost2010PropOp41
 70
     1
102
RTVSPost2010Prop42
 90
       50
102
RTVSPost2010PropOp42
 70
     1
102
RTVSPost2010Prop43
 90
        3
102
RTVSPost2010PropOp43
 70
     1
102
RTVSPost2010Prop44ColorIndex
 90
        5
102
RTVSPost2010Prop44ColorRGB
 90
      255
102
RTVSPost2010PropOp44
 70
     1
102
RTVSPost2010Prop45
280
     0
102
RTVSPost2010PropOp45
 70
     1
102
RTVSPost2010Prop46
 90
       50
102
RTVSPost2010PropOp46
 70
     1
102
RTVSPost2010Prop47
 90
       50
102
RTVSPost2010PropOp47
 70
     1
102
RTVSPost2010Prop48
 90
       50
102
RTVSPost2010PropOp48
 70
     1
102
RTVSPost2010Prop49
280
     0
102
RTVSPost2010PropOp49
 70
     1
102
RTVSPost2010Prop50
 90
       50
102
RTVSPost2010PropOp50
 70
     1
102
RTVSPost2010Prop51ColorIndex
 90
      256
102
RTVSPost2010Prop51ColorRGB
 90
-16777216
102
RTVSPost2010PropOp51
 70
     0
102
RTVSPost2010Prop52
140
1.0
102
RTVSPost2010PropOp52
 70
     0
102
RTVSPost2010Prop53
 90
        2
102
RTVSPost2010PropOp53
 70
     1
102
RTVSPost2010Prop54
  1
strokes_ogs.tif
102
RTVSPost2010PropOp54
 70
     1
102
RTVSPost2010Prop55
280
     0
102
RTVSPost2010PropOp55
 70
     1
102
RTVSPost2010Prop56
140
1.0
102
RTVSPost2010PropOp56
 70
     1
102
RTVSPost2010Prop57
140
1.0
102
RTVSPost2010PropOp57
 70
     1
102
RTVSPropertyOp0
 70
     1
102
RTVSPropertyOp1
 70
     1
102
RTVSPropertyOp2
 70
     1
102
RTVSPropertyOp3
 70
     1
102
RTVSPropertyOp4
 70
     1
102
RTVSPropertyOp5
 70
     1
102
RTVSPropertyOp6
 70
     1
102
RTVSPropertyOp7
 70
     1
102
RTVSPropertyOp8
 70
     1
102
RTVSPropertyOp9
 70
     1
102
RTVSPropertyOp10
 70
     1
102
RTVSPropertyOp11
 70
     1
102
RTVSPropertyOp12
 70
     1
102
RTVSPropertyOp13
 70
     1
102
RTVSPropertyOp14
 70
     1
102
RTVSPropertyOp15
 70
     1
102
RTVSPropertyOp16
 70
     1
102
RTVSPropertyOp17
 70
     1
102
RTVSPropertyOp18
 70
     1
102
RTVSPropertyOp19
 70
     1
102
RTVSPropertyOp20
 70
     1
102
RTVSPropertyOp21
 70
     1
102
RTVSPropertyOp22
 70
     1
102
RTVSPropertyOp23
 70
     1
102
RTVSPropertyOp24
 70
     1
102
RTVSPropertyOp25
 70
     1
102
RTVSPropertyOp26
 70
     1
102
RTVSPropertyOp27
 70
     1
102
RTVSPropertyOp28
 70
     1
102
RTVSPropertyOp29
 70
     1
102
RTVSPropertyOp30
 70
     1
102
RTVSPropertyOp31
 70
     1
102
RTVSPropertyOp32
 70
     1
102
RTVSPropertyOp33
 70
     1
102
RTVSPropertyOp34
 70
     1
102
RTVSPropertyOp35
 70
     1
102
RTVSPropertyOp36
 70
     1
102
RTVSPropertyOp37
 70
     1
102
RTVSPropertyOp38
 70
     1
102
RTVSPropertyOp39
 70
     1
102
RTVSPropertyOp40
 70
     1
102
RTVSPropertyOp41
 70
     1
102
RTVSPropertyOp42
 70
     1
102
RTVSPropertyOp43
 70
     1
102
RTVSPropertyOp44
 70
     1
102
RTVSPropertyOp45
 70
     1
102
RTVSPropertyOp46
 70
     1
102
RTVSPropertyOp47
 70
     1
102
RTVSPropertyOp48
 70
     1
102
RTVSPropertyOp49
 70
     1
102
RTVSPropertyOp50
 70
     1
102
RTVSPropertyOp51
 70
     0
102
RTVSPropertyOp52
 70
     0
102
RTVSPropertyOp53
 70
     1
102
RTVSPropertyOp54
 70
     1
102
RTVSPropertyOp55
 70
     1
102
RTVSPropertyOp56
 70
     1
102
RTVSPropertyOp57
 70
     1
102
RTVSPropertyOp58
 70
     1
102
RTVSPropertyOp59
 70
     1
102
RTVSPropertyOp60
 70
     1
102
RTVSPropertyOp61
 70
     1
102
RTVSPropertyOp62
 70
     1
  0
XRECORD
  5
46FA
102
{ACAD_REACTORS
330
46F9
102
}
330
46F9
100
AcDbXrecord
280
     1
102
RTVSPost2010Prop28
280
     0
102
RTVSPost2010PropOp28
 70
     1
102
RTVSPost2010Prop29
280
     1
102
RTVSPost2010PropOp29
 70
     1
102
RTVSPost2010Prop30
280
     1
102
RTVSPost2010PropOp30
 70
     1
102
RTVSPost2010Prop31
280
     0
102
RTVSPost2010PropOp31
 70
     1
102
RTVSPost2010Prop32
280
     0
102
RTVSPost2010PropOp32
 70
     1
102
RTVSPost2010Prop33
280
     0
102
RTVSPost2010PropOp33
 70
     1
102
RTVSPost2010Prop34
280
     0
102
RTVSPost2010PropOp34
 70
     1
102
RTVSPost2010Prop35
280
     0
102
RTVSPost2010PropOp35
 70
     1
102
RTVSPost2010Prop36
280
     0
102
RTVSPost2010PropOp36
 70
     1
102
RTVSPost2010Prop37
 90
       50
102
RTVSPost2010PropOp37
 70
     1
102
RTVSPost2010Prop38
140
0.0
102
RTVSPost2010PropOp38
 70
     1
102
RTVSPost2010Prop39
140
1.0
102
RTVSPost2010PropOp39
 70
     1
102
RTVSPost2010Prop40
 90
        0
102
RTVSPost2010PropOp40
 70
     1
102
RTVSPost2010Prop41ColorIndex
 90
       18
102
RTVSPost2010Prop41ColorRGB
 90
        0
102
RTVSPost2010PropOp41
 70
     1
102
RTVSPost2010Prop42
 90
       50
102
RTVSPost2010PropOp42
 70
     1
102
RTVSPost2010Prop43
 90
        3
102
RTVSPost2010PropOp43
 70
     1
102
RTVSPost2010Prop44ColorIndex
 90
        5
102
RTVSPost2010Prop44ColorRGB
 90
      255
102
RTVSPost2010PropOp44
 70
     1
102
RTVSPost2010Prop45
280
     0
102
RTVSPost2010PropOp45
 70
     1
102
RTVSPost2010Prop46
 90
       50
102
RTVSPost2010PropOp46
 70
     1
102
RTVSPost2010Prop47
 90
       50
102
RTVSPost2010PropOp47
 70
     1
102
RTVSPost2010Prop48
 90
       50
102
RTVSPost2010PropOp48
 70
     1
102
RTVSPost2010Prop49
280
     0
102
RTVSPost2010PropOp49
 70
     1
102
RTVSPost2010Prop50
 90
       50
102
RTVSPost2010PropOp50
 70
     1
102
RTVSPost2010Prop51ColorIndex
 90
      256
102
RTVSPost2010Prop51ColorRGB
 90
-16777216
102
RTVSPost2010PropOp51
 70
     0
102
RTVSPost2010Prop52
140
1.0
102
RTVSPost2010PropOp52
 70
     0
102
RTVSPost2010Prop53
 90
        2
102
RTVSPost2010PropOp53
 70
     1
102
RTVSPost2010Prop54
  1
strokes_ogs.tif
102
RTVSPost2010PropOp54
 70
     1
102
RTVSPost2010Prop55
280
     0
102
RTVSPost2010PropOp55
 70
     1
102
RTVSPost2010Prop56
140
1.0
102
RTVSPost2010PropOp56
 70
     1
102
RTVSPost2010Prop57
140
1.0
102
RTVSPost2010PropOp57
 70
     1
102
RTVSPropertyOp0
 70
     1
102
RTVSPropertyOp1
 70
     1
102
RTVSPropertyOp2
 70
     1
102
RTVSPropertyOp3
 70
     1
102
RTVSPropertyOp4
 70
     1
102
RTVSPropertyOp5
 70
     1
102
RTVSPropertyOp6
 70
     1
102
RTVSPropertyOp7
 70
     1
102
RTVSPropertyOp8
 70
     1
102
RTVSPropertyOp9
 70
     1
102
RTVSPropertyOp10
 70
     1
102
RTVSPropertyOp11
 70
     1
102
RTVSPropertyOp12
 70
     1
102
RTVSPropertyOp13
 70
     1
102
RTVSPropertyOp14
 70
     1
102
RTVSPropertyOp15
 70
     1
102
RTVSPropertyOp16
 70
     1
102
RTVSPropertyOp17
 70
     1
102
RTVSPropertyOp18
 70
     1
102
RTVSPropertyOp19
 70
     1
102
RTVSPropertyOp20
 70
     1
102
RTVSPropertyOp21
 70
     1
102
RTVSPropertyOp22
 70
     1
102
RTVSPropertyOp23
 70
     1
102
RTVSPropertyOp24
 70
     1
102
RTVSPropertyOp25
 70
     1
102
RTVSPropertyOp26
 70
     1
102
RTVSPropertyOp27
 70
     1
102
RTVSPropertyOp28
 70
     1
102
RTVSPropertyOp29
 70
     1
102
RTVSPropertyOp30
 70
     1
102
RTVSPropertyOp31
 70
     1
102
RTVSPropertyOp32
 70
     1
102
RTVSPropertyOp33
 70
     1
102
RTVSPropertyOp34
 70
     1
102
RTVSPropertyOp35
 70
     1
102
RTVSPropertyOp36
 70
     1
102
RTVSPropertyOp37
 70
     1
102
RTVSPropertyOp38
 70
     1
102
RTVSPropertyOp39
 70
     1
102
RTVSPropertyOp40
 70
     1
102
RTVSPropertyOp41
 70
     1
102
RTVSPropertyOp42
 70
     1
102
RTVSPropertyOp43
 70
     1
102
RTVSPropertyOp44
 70
     1
102
RTVSPropertyOp45
 70
     1
102
RTVSPropertyOp46
 70
     1
102
RTVSPropertyOp47
 70
     1
102
RTVSPropertyOp48
 70
     1
102
RTVSPropertyOp49
 70
     1
102
RTVSPropertyOp50
 70
     1
102
RTVSPropertyOp51
 70
     0
102
RTVSPropertyOp52
 70
     0
102
RTVSPropertyOp53
 70
     1
102
RTVSPropertyOp54
 70
     1
102
RTVSPropertyOp55
 70
     1
102
RTVSPropertyOp56
 70
     1
102
RTVSPropertyOp57
 70
     1
102
RTVSPropertyOp58
 70
     1
102
RTVSPropertyOp59
 70
     1
102
RTVSPropertyOp60
 70
     1
102
RTVSPropertyOp61
 70
     1
102
RTVSPropertyOp62
 70
     1
  0
XRECORD
  5
4708
102
{ACAD_REACTORS
330
4707
102
}
330
4707
100
AcDbXrecord
280
     1
102
RTVSPost2010Prop28
280
     0
102
RTVSPost2010PropOp28
 70
     1
102
RTVSPost2010Prop29
280
     1
102
RTVSPost2010PropOp29
 70
     1
102
RTVSPost2010Prop30
280
     1
102
RTVSPost2010PropOp30
 70
     1
102
RTVSPost2010Prop31
280
     0
102
RTVSPost2010PropOp31
 70
     1
102
RTVSPost2010Prop32
280
     0
102
RTVSPost2010PropOp32
 70
     1
102
RTVSPost2010Prop33
280
     0
102
RTVSPost2010PropOp33
 70
     1
102
RTVSPost2010Prop34
280
     0
102
RTVSPost2010PropOp34
 70
     1
102
RTVSPost2010Prop35
280
     0
102
RTVSPost2010PropOp35
 70
     1
102
RTVSPost2010Prop36
280
     0
102
RTVSPost2010PropOp36
 70
     1
102
RTVSPost2010Prop37
 90
       50
102
RTVSPost2010PropOp37
 70
     1
102
RTVSPost2010Prop38
140
0.0
102
RTVSPost2010PropOp38
 70
     1
102
RTVSPost2010Prop39
140
1.0
102
RTVSPost2010PropOp39
 70
     1
102
RTVSPost2010Prop40
 90
        0
102
RTVSPost2010PropOp40
 70
     1
102
RTVSPost2010Prop41ColorIndex
 90
       18
102
RTVSPost2010Prop41ColorRGB
 90
        0
102
RTVSPost2010PropOp41
 70
     1
102
RTVSPost2010Prop42
 90
       50
102
RTVSPost2010PropOp42
 70
     1
102
RTVSPost2010Prop43
 90
        3
102
RTVSPost2010PropOp43
 70
     1
102
RTVSPost2010Prop44ColorIndex
 90
        5
102
RTVSPost2010Prop44ColorRGB
 90
      255
102
RTVSPost2010PropOp44
 70
     1
102
RTVSPost2010Prop45
280
     0
102
RTVSPost2010PropOp45
 70
     1
102
RTVSPost2010Prop46
 90
       50
102
RTVSPost2010PropOp46
 70
     1
102
RTVSPost2010Prop47
 90
       50
102
RTVSPost2010PropOp47
 70
     1
102
RTVSPost2010Prop48
 90
       50
102
RTVSPost2010PropOp48
 70
     1
102
RTVSPost2010Prop49
280
     0
102
RTVSPost2010PropOp49
 70
     1
102
RTVSPost2010Prop50
 90
       50
102
RTVSPost2010PropOp50
 70
     1
102
RTVSPost2010Prop51ColorIndex
 90
      256
102
RTVSPost2010Prop51ColorRGB
 90
-16777216
102
RTVSPost2010PropOp51
 70
     0
102
RTVSPost2010Prop52
140
1.0
102
RTVSPost2010PropOp52
 70
     0
102
RTVSPost2010Prop53
 90
        2
102
RTVSPost2010PropOp53
 70
     1
102
RTVSPost2010Prop54
  1
strokes_ogs.tif
102
RTVSPost2010PropOp54
 70
     1
102
RTVSPost2010Prop55
280
     0
102
RTVSPost2010PropOp55
 70
     1
102
RTVSPost2010Prop56
140
1.0
102
RTVSPost2010PropOp56
 70
     1
102
RTVSPost2010Prop57
140
1.0
102
RTVSPost2010PropOp57
 70
     1
102
RTVSPropertyOp0
 70
     1
102
RTVSPropertyOp1
 70
     1
102
RTVSPropertyOp2
 70
     1
102
RTVSPropertyOp3
 70
     1
102
RTVSPropertyOp4
 70
     1
102
RTVSPropertyOp5
 70
     1
102
RTVSPropertyOp6
 70
     1
102
RTVSPropertyOp7
 70
     1
102
RTVSPropertyOp8
 70
     1
102
RTVSPropertyOp9
 70
     1
102
RTVSPropertyOp10
 70
     1
102
RTVSPropertyOp11
 70
     1
102
RTVSPropertyOp12
 70
     1
102
RTVSPropertyOp13
 70
     1
102
RTVSPropertyOp14
 70
     1
102
RTVSPropertyOp15
 70
     1
102
RTVSPropertyOp16
 70
     1
102
RTVSPropertyOp17
 70
     1
102
RTVSPropertyOp18
 70
     1
102
RTVSPropertyOp19
 70
     1
102
RTVSPropertyOp20
 70
     1
102
RTVSPropertyOp21
 70
     1
102
RTVSPropertyOp22
 70
     1
102
RTVSPropertyOp23
 70
     1
102
RTVSPropertyOp24
 70
     1
102
RTVSPropertyOp25
 70
     1
102
RTVSPropertyOp26
 70
     1
102
RTVSPropertyOp27
 70
     1
102
RTVSPropertyOp28
 70
     1
102
RTVSPropertyOp29
 70
     1
102
RTVSPropertyOp30
 70
     1
102
RTVSPropertyOp31
 70
     1
102
RTVSPropertyOp32
 70
     1
102
RTVSPropertyOp33
 70
     1
102
RTVSPropertyOp34
 70
     1
102
RTVSPropertyOp35
 70
     1
102
RTVSPropertyOp36
 70
     1
102
RTVSPropertyOp37
 70
     1
102
RTVSPropertyOp38
 70
     1
102
RTVSPropertyOp39
 70
     1
102
RTVSPropertyOp40
 70
     1
102
RTVSPropertyOp41
 70
     1
102
RTVSPropertyOp42
 70
     1
102
RTVSPropertyOp43
 70
     1
102
RTVSPropertyOp44
 70
     1
102
RTVSPropertyOp45
 70
     1
102
RTVSPropertyOp46
 70
     1
102
RTVSPropertyOp47
 70
     1
102
RTVSPropertyOp48
 70
     1
102
RTVSPropertyOp49
 70
     1
102
RTVSPropertyOp50
 70
     1
102
RTVSPropertyOp51
 70
     0
102
RTVSPropertyOp52
 70
     0
102
RTVSPropertyOp53
 70
     1
102
RTVSPropertyOp54
 70
     1
102
RTVSPropertyOp55
 70
     1
102
RTVSPropertyOp56
 70
     1
102
RTVSPropertyOp57
 70
     1
102
RTVSPropertyOp58
 70
     1
102
RTVSPropertyOp59
 70
     1
102
RTVSPropertyOp60
 70
     1
102
RTVSPropertyOp61
 70
     1
102
RTVSPropertyOp62
 70
     1
  0
XRECORD
  5
4710
102
{ACAD_REACTORS
330
470F
102
}
330
470F
100
AcDbXrecord
280
     1
102
RTVSPost2010Prop28
280
     0
102
RTVSPost2010PropOp28
 70
     1
102
RTVSPost2010Prop29
280
     1
102
RTVSPost2010PropOp29
 70
     1
102
RTVSPost2010Prop30
280
     1
102
RTVSPost2010PropOp30
 70
     1
102
RTVSPost2010Prop31
280
     0
102
RTVSPost2010PropOp31
 70
     1
102
RTVSPost2010Prop32
280
     0
102
RTVSPost2010PropOp32
 70
     1
102
RTVSPost2010Prop33
280
     0
102
RTVSPost2010PropOp33
 70
     1
102
RTVSPost2010Prop34
280
     0
102
RTVSPost2010PropOp34
 70
     1
102
RTVSPost2010Prop35
280
     0
102
RTVSPost2010PropOp35
 70
     1
102
RTVSPost2010Prop36
280
     0
102
RTVSPost2010PropOp36
 70
     1
102
RTVSPost2010Prop37
 90
       50
102
RTVSPost2010PropOp37
 70
     1
102
RTVSPost2010Prop38
140
0.0
102
RTVSPost2010PropOp38
 70
     1
102
RTVSPost2010Prop39
140
1.0
102
RTVSPost2010PropOp39
 70
     1
102
RTVSPost2010Prop40
 90
        0
102
RTVSPost2010PropOp40
 70
     1
102
RTVSPost2010Prop41ColorIndex
 90
       18
102
RTVSPost2010Prop41ColorRGB
 90
        0
102
RTVSPost2010PropOp41
 70
     1
102
RTVSPost2010Prop42
 90
       50
102
RTVSPost2010PropOp42
 70
     1
102
RTVSPost2010Prop43
 90
        3
102
RTVSPost2010PropOp43
 70
     1
102
RTVSPost2010Prop44ColorIndex
 90
        5
102
RTVSPost2010Prop44ColorRGB
 90
      255
102
RTVSPost2010PropOp44
 70
     1
102
RTVSPost2010Prop45
280
     0
102
RTVSPost2010PropOp45
 70
     1
102
RTVSPost2010Prop46
 90
       50
102
RTVSPost2010PropOp46
 70
     1
102
RTVSPost2010Prop47
 90
       50
102
RTVSPost2010PropOp47
 70
     1
102
RTVSPost2010Prop48
 90
       50
102
RTVSPost2010PropOp48
 70
     1
102
RTVSPost2010Prop49
280
     0
102
RTVSPost2010PropOp49
 70
     1
102
RTVSPost2010Prop50
 90
       50
102
RTVSPost2010PropOp50
 70
     1
102
RTVSPost2010Prop51ColorIndex
 90
      256
102
RTVSPost2010Prop51ColorRGB
 90
-16777216
102
RTVSPost2010PropOp51
 70
     0
102
RTVSPost2010Prop52
140
1.0
102
RTVSPost2010PropOp52
 70
     0
102
RTVSPost2010Prop53
 90
        2
102
RTVSPost2010PropOp53
 70
     1
102
RTVSPost2010Prop54
  1
strokes_ogs.tif
102
RTVSPost2010PropOp54
 70
     1
102
RTVSPost2010Prop55
280
     0
102
RTVSPost2010PropOp55
 70
     1
102
RTVSPost2010Prop56
140
1.0
102
RTVSPost2010PropOp56
 70
     1
102
RTVSPost2010Prop57
140
1.0
102
RTVSPost2010PropOp57
 70
     1
102
RTVSPropertyOp0
 70
     1
102
RTVSPropertyOp1
 70
     1
102
RTVSPropertyOp2
 70
     1
102
RTVSPropertyOp3
 70
     1
102
RTVSPropertyOp4
 70
     1
102
RTVSPropertyOp5
 70
     1
102
RTVSPropertyOp6
 70
     1
102
RTVSPropertyOp7
 70
     1
102
RTVSPropertyOp8
 70
     1
102
RTVSPropertyOp9
 70
     1
102
RTVSPropertyOp10
 70
     1
102
RTVSPropertyOp11
 70
     1
102
RTVSPropertyOp12
 70
     1
102
RTVSPropertyOp13
 70
     1
102
RTVSPropertyOp14
 70
     1
102
RTVSPropertyOp15
 70
     1
102
RTVSPropertyOp16
 70
     1
102
RTVSPropertyOp17
 70
     1
102
RTVSPropertyOp18
 70
     1
102
RTVSPropertyOp19
 70
     1
102
RTVSPropertyOp20
 70
     1
102
RTVSPropertyOp21
 70
     1
102
RTVSPropertyOp22
 70
     1
102
RTVSPropertyOp23
 70
     1
102
RTVSPropertyOp24
 70
     1
102
RTVSPropertyOp25
 70
     1
102
RTVSPropertyOp26
 70
     1
102
RTVSPropertyOp27
 70
     1
102
RTVSPropertyOp28
 70
     1
102
RTVSPropertyOp29
 70
     1
102
RTVSPropertyOp30
 70
     1
102
RTVSPropertyOp31
 70
     1
102
RTVSPropertyOp32
 70
     1
102
RTVSPropertyOp33
 70
     1
102
RTVSPropertyOp34
 70
     1
102
RTVSPropertyOp35
 70
     1
102
RTVSPropertyOp36
 70
     1
102
RTVSPropertyOp37
 70
     1
102
RTVSPropertyOp38
 70
     1
102
RTVSPropertyOp39
 70
     1
102
RTVSPropertyOp40
 70
     1
102
RTVSPropertyOp41
 70
     1
102
RTVSPropertyOp42
 70
     1
102
RTVSPropertyOp43
 70
     1
102
RTVSPropertyOp44
 70
     1
102
RTVSPropertyOp45
 70
     1
102
RTVSPropertyOp46
 70
     1
102
RTVSPropertyOp47
 70
     1
102
RTVSPropertyOp48
 70
     1
102
RTVSPropertyOp49
 70
     1
102
RTVSPropertyOp50
 70
     1
102
RTVSPropertyOp51
 70
     0
102
RTVSPropertyOp52
 70
     0
102
RTVSPropertyOp53
 70
     1
102
RTVSPropertyOp54
 70
     1
102
RTVSPropertyOp55
 70
     1
102
RTVSPropertyOp56
 70
     1
102
RTVSPropertyOp57
 70
     1
102
RTVSPropertyOp58
 70
     1
102
RTVSPropertyOp59
 70
     1
102
RTVSPropertyOp60
 70
     1
102
RTVSPropertyOp61
 70
     1
102
RTVSPropertyOp62
 70
     1
  0
XRECORD
  5
4702
102
{ACAD_REACTORS
330
4701
102
}
330
4701
100
AcDbXrecord
280
     1
102
RTVSPost2010Prop28
280
     0
102
RTVSPost2010PropOp28
 70
     1
102
RTVSPost2010Prop29
280
     1
102
RTVSPost2010PropOp29
 70
     1
102
RTVSPost2010Prop30
280
     1
102
RTVSPost2010PropOp30
 70
     1
102
RTVSPost2010Prop31
280
     0
102
RTVSPost2010PropOp31
 70
     1
102
RTVSPost2010Prop32
280
     0
102
RTVSPost2010PropOp32
 70
     1
102
RTVSPost2010Prop33
280
     0
102
RTVSPost2010PropOp33
 70
     1
102
RTVSPost2010Prop34
280
     0
102
RTVSPost2010PropOp34
 70
     1
102
RTVSPost2010Prop35
280
     0
102
RTVSPost2010PropOp35
 70
     1
102
RTVSPost2010Prop36
280
     0
102
RTVSPost2010PropOp36
 70
     1
102
RTVSPost2010Prop37
 90
       50
102
RTVSPost2010PropOp37
 70
     1
102
RTVSPost2010Prop38
140
0.0
102
RTVSPost2010PropOp38
 70
     1
102
RTVSPost2010Prop39
140
1.0
102
RTVSPost2010PropOp39
 70
     1
102
RTVSPost2010Prop40
 90
        0
102
RTVSPost2010PropOp40
 70
     1
102
RTVSPost2010Prop41ColorIndex
 90
       18
102
RTVSPost2010Prop41ColorRGB
 90
        0
102
RTVSPost2010PropOp41
 70
     1
102
RTVSPost2010Prop42
 90
       50
102
RTVSPost2010PropOp42
 70
     1
102
RTVSPost2010Prop43
 90
        3
102
RTVSPost2010PropOp43
 70
     1
102
RTVSPost2010Prop44ColorIndex
 90
        5
102
RTVSPost2010Prop44ColorRGB
 90
      255
102
RTVSPost2010PropOp44
 70
     1
102
RTVSPost2010Prop45
280
     0
102
RTVSPost2010PropOp45
 70
     1
102
RTVSPost2010Prop46
 90
       50
102
RTVSPost2010PropOp46
 70
     1
102
RTVSPost2010Prop47
 90
       50
102
RTVSPost2010PropOp47
 70
     1
102
RTVSPost2010Prop48
 90
       50
102
RTVSPost2010PropOp48
 70
     1
102
RTVSPost2010Prop49
280
     0
102
RTVSPost2010PropOp49
 70
     1
102
RTVSPost2010Prop50
 90
       50
102
RTVSPost2010PropOp50
 70
     1
102
RTVSPost2010Prop51ColorIndex
 90
      256
102
RTVSPost2010Prop51ColorRGB
 90
-16777216
102
RTVSPost2010PropOp51
 70
     0
102
RTVSPost2010Prop52
140
1.0
102
RTVSPost2010PropOp52
 70
     0
102
RTVSPost2010Prop53
 90
        2
102
RTVSPost2010PropOp53
 70
     1
102
RTVSPost2010Prop54
  1
strokes_ogs.tif
102
RTVSPost2010PropOp54
 70
     1
102
RTVSPost2010Prop55
280
     0
102
RTVSPost2010PropOp55
 70
     1
102
RTVSPost2010Prop56
140
1.0
102
RTVSPost2010PropOp56
 70
     1
102
RTVSPost2010Prop57
140
1.0
102
RTVSPost2010PropOp57
 70
     1
102
RTVSPropertyOp0
 70
     1
102
RTVSPropertyOp1
 70
     1
102
RTVSPropertyOp2
 70
     1
102
RTVSPropertyOp3
 70
     1
102
RTVSPropertyOp4
 70
     1
102
RTVSPropertyOp5
 70
     1
102
RTVSPropertyOp6
 70
     1
102
RTVSPropertyOp7
 70
     1
102
RTVSPropertyOp8
 70
     1
102
RTVSPropertyOp9
 70
     1
102
RTVSPropertyOp10
 70
     1
102
RTVSPropertyOp11
 70
     1
102
RTVSPropertyOp12
 70
     1
102
RTVSPropertyOp13
 70
     1
102
RTVSPropertyOp14
 70
     1
102
RTVSPropertyOp15
 70
     1
102
RTVSPropertyOp16
 70
     1
102
RTVSPropertyOp17
 70
     1
102
RTVSPropertyOp18
 70
     1
102
RTVSPropertyOp19
 70
     1
102
RTVSPropertyOp20
 70
     1
102
RTVSPropertyOp21
 70
     1
102
RTVSPropertyOp22
 70
     1
102
RTVSPropertyOp23
 70
     1
102
RTVSPropertyOp24
 70
     1
102
RTVSPropertyOp25
 70
     1
102
RTVSPropertyOp26
 70
     1
102
RTVSPropertyOp27
 70
     1
102
RTVSPropertyOp28
 70
     1
102
RTVSPropertyOp29
 70
     1
102
RTVSPropertyOp30
 70
     1
102
RTVSPropertyOp31
 70
     1
102
RTVSPropertyOp32
 70
     1
102
RTVSPropertyOp33
 70
     1
102
RTVSPropertyOp34
 70
     1
102
RTVSPropertyOp35
 70
     1
102
RTVSPropertyOp36
 70
     1
102
RTVSPropertyOp37
 70
     1
102
RTVSPropertyOp38
 70
     1
102
RTVSPropertyOp39
 70
     1
102
RTVSPropertyOp40
 70
     1
102
RTVSPropertyOp41
 70
     1
102
RTVSPropertyOp42
 70
     1
102
RTVSPropertyOp43
 70
     1
102
RTVSPropertyOp44
 70
     1
102
RTVSPropertyOp45
 70
     1
102
RTVSPropertyOp46
 70
     1
102
RTVSPropertyOp47
 70
     1
102
RTVSPropertyOp48
 70
     1
102
RTVSPropertyOp49
 70
     1
102
RTVSPropertyOp50
 70
     1
102
RTVSPropertyOp51
 70
     0
102
RTVSPropertyOp52
 70
     0
102
RTVSPropertyOp53
 70
     1
102
RTVSPropertyOp54
 70
     1
102
RTVSPropertyOp55
 70
     1
102
RTVSPropertyOp56
 70
     1
102
RTVSPropertyOp57
 70
     1
102
RTVSPropertyOp58
 70
     1
102
RTVSPropertyOp59
 70
     1
102
RTVSPropertyOp60
 70
     1
102
RTVSPropertyOp61
 70
     1
102
RTVSPropertyOp62
 70
     1
  0
XRECORD
  5
4706
102
{ACAD_REACTORS
330
4705
102
}
330
4705
100
AcDbXrecord
280
     1
102
RTVSPost2010Prop28
280
     0
102
RTVSPost2010PropOp28
 70
     1
102
RTVSPost2010Prop29
280
     1
102
RTVSPost2010PropOp29
 70
     1
102
RTVSPost2010Prop30
280
     1
102
RTVSPost2010PropOp30
 70
     1
102
RTVSPost2010Prop31
280
     0
102
RTVSPost2010PropOp31
 70
     1
102
RTVSPost2010Prop32
280
     0
102
RTVSPost2010PropOp32
 70
     1
102
RTVSPost2010Prop33
280
     0
102
RTVSPost2010PropOp33
 70
     1
102
RTVSPost2010Prop34
280
     0
102
RTVSPost2010PropOp34
 70
     1
102
RTVSPost2010Prop35
280
     0
102
RTVSPost2010PropOp35
 70
     1
102
RTVSPost2010Prop36
280
     0
102
RTVSPost2010PropOp36
 70
     1
102
RTVSPost2010Prop37
 90
       50
102
RTVSPost2010PropOp37
 70
     1
102
RTVSPost2010Prop38
140
0.0
102
RTVSPost2010PropOp38
 70
     1
102
RTVSPost2010Prop39
140
1.0
102
RTVSPost2010PropOp39
 70
     1
102
RTVSPost2010Prop40
 90
        0
102
RTVSPost2010PropOp40
 70
     1
102
RTVSPost2010Prop41ColorIndex
 90
       18
102
RTVSPost2010Prop41ColorRGB
 90
        0
102
RTVSPost2010PropOp41
 70
     1
102
RTVSPost2010Prop42
 90
       50
102
RTVSPost2010PropOp42
 70
     1
102
RTVSPost2010Prop43
 90
        3
102
RTVSPost2010PropOp43
 70
     1
102
RTVSPost2010Prop44ColorIndex
 90
        5
102
RTVSPost2010Prop44ColorRGB
 90
      255
102
RTVSPost2010PropOp44
 70
     1
102
RTVSPost2010Prop45
280
     0
102
RTVSPost2010PropOp45
 70
     1
102
RTVSPost2010Prop46
 90
       50
102
RTVSPost2010PropOp46
 70
     1
102
RTVSPost2010Prop47
 90
       50
102
RTVSPost2010PropOp47
 70
     1
102
RTVSPost2010Prop48
 90
       50
102
RTVSPost2010PropOp48
 70
     1
102
RTVSPost2010Prop49
280
     0
102
RTVSPost2010PropOp49
 70
     1
102
RTVSPost2010Prop50
 90
       50
102
RTVSPost2010PropOp50
 70
     1
102
RTVSPost2010Prop51ColorIndex
 90
      256
102
RTVSPost2010Prop51ColorRGB
 90
-16777216
102
RTVSPost2010PropOp51
 70
     0
102
RTVSPost2010Prop52
140
1.0
102
RTVSPost2010PropOp52
 70
     0
102
RTVSPost2010Prop53
 90
        2
102
RTVSPost2010PropOp53
 70
     1
102
RTVSPost2010Prop54
  1
strokes_ogs.tif
102
RTVSPost2010PropOp54
 70
     1
102
RTVSPost2010Prop55
280
     0
102
RTVSPost2010PropOp55
 70
     1
102
RTVSPost2010Prop56
140
1.0
102
RTVSPost2010PropOp56
 70
     1
102
RTVSPost2010Prop57
140
1.0
102
RTVSPost2010PropOp57
 70
     1
102
RTVSPropertyOp0
 70
     1
102
RTVSPropertyOp1
 70
     1
102
RTVSPropertyOp2
 70
     1
102
RTVSPropertyOp3
 70
     1
102
RTVSPropertyOp4
 70
     1
102
RTVSPropertyOp5
 70
     1
102
RTVSPropertyOp6
 70
     1
102
RTVSPropertyOp7
 70
     1
102
RTVSPropertyOp8
 70
     1
102
RTVSPropertyOp9
 70
     1
102
RTVSPropertyOp10
 70
     1
102
RTVSPropertyOp11
 70
     1
102
RTVSPropertyOp12
 70
     1
102
RTVSPropertyOp13
 70
     1
102
RTVSPropertyOp14
 70
     1
102
RTVSPropertyOp15
 70
     1
102
RTVSPropertyOp16
 70
     1
102
RTVSPropertyOp17
 70
     1
102
RTVSPropertyOp18
 70
     1
102
RTVSPropertyOp19
 70
     1
102
RTVSPropertyOp20
 70
     1
102
RTVSPropertyOp21
 70
     1
102
RTVSPropertyOp22
 70
     1
102
RTVSPropertyOp23
 70
     1
102
RTVSPropertyOp24
 70
     1
102
RTVSPropertyOp25
 70
     1
102
RTVSPropertyOp26
 70
     1
102
RTVSPropertyOp27
 70
     1
102
RTVSPropertyOp28
 70
     1
102
RTVSPropertyOp29
 70
     1
102
RTVSPropertyOp30
 70
     1
102
RTVSPropertyOp31
 70
     1
102
RTVSPropertyOp32
 70
     1
102
RTVSPropertyOp33
 70
     1
102
RTVSPropertyOp34
 70
     1
102
RTVSPropertyOp35
 70
     1
102
RTVSPropertyOp36
 70
     1
102
RTVSPropertyOp37
 70
     1
102
RTVSPropertyOp38
 70
     1
102
RTVSPropertyOp39
 70
     1
102
RTVSPropertyOp40
 70
     1
102
RTVSPropertyOp41
 70
     1
102
RTVSPropertyOp42
 70
     1
102
RTVSPropertyOp43
 70
     1
102
RTVSPropertyOp44
 70
     1
102
RTVSPropertyOp45
 70
     1
102
RTVSPropertyOp46
 70
     1
102
RTVSPropertyOp47
 70
     1
102
RTVSPropertyOp48
 70
     1
102
RTVSPropertyOp49
 70
     1
102
RTVSPropertyOp50
 70
     1
102
RTVSPropertyOp51
 70
     0
102
RTVSPropertyOp52
 70
     0
102
RTVSPropertyOp53
 70
     1
102
RTVSPropertyOp54
 70
     1
102
RTVSPropertyOp55
 70
     1
102
RTVSPropertyOp56
 70
     1
102
RTVSPropertyOp57
 70
     1
102
RTVSPropertyOp58
 70
     1
102
RTVSPropertyOp59
 70
     1
102
RTVSPropertyOp60
 70
     1
102
RTVSPropertyOp61
 70
     1
102
RTVSPropertyOp62
 70
     1
  0
XRECORD
  5
4716
102
{ACAD_REACTORS
330
4715
102
}
330
4715
100
AcDbXrecord
280
     1
102
RTVSPost2010Prop28
280
     0
102
RTVSPost2010PropOp28
 70
     1
102
RTVSPost2010Prop29
280
     1
102
RTVSPost2010PropOp29
 70
     1
102
RTVSPost2010Prop30
280
     1
102
RTVSPost2010PropOp30
 70
     1
102
RTVSPost2010Prop31
280
     0
102
RTVSPost2010PropOp31
 70
     1
102
RTVSPost2010Prop32
280
     0
102
RTVSPost2010PropOp32
 70
     1
102
RTVSPost2010Prop33
280
     0
102
RTVSPost2010PropOp33
 70
     1
102
RTVSPost2010Prop34
280
     0
102
RTVSPost2010PropOp34
 70
     1
102
RTVSPost2010Prop35
280
     0
102
RTVSPost2010PropOp35
 70
     1
102
RTVSPost2010Prop36
280
     0
102
RTVSPost2010PropOp36
 70
     1
102
RTVSPost2010Prop37
 90
       50
102
RTVSPost2010PropOp37
 70
     1
102
RTVSPost2010Prop38
140
0.0
102
RTVSPost2010PropOp38
 70
     1
102
RTVSPost2010Prop39
140
1.0
102
RTVSPost2010PropOp39
 70
     1
102
RTVSPost2010Prop40
 90
        0
102
RTVSPost2010PropOp40
 70
     1
102
RTVSPost2010Prop41ColorIndex
 90
       18
102
RTVSPost2010Prop41ColorRGB
 90
        0
102
RTVSPost2010PropOp41
 70
     1
102
RTVSPost2010Prop42
 90
       50
102
RTVSPost2010PropOp42
 70
     1
102
RTVSPost2010Prop43
 90
        3
102
RTVSPost2010PropOp43
 70
     1
102
RTVSPost2010Prop44ColorIndex
 90
        5
102
RTVSPost2010Prop44ColorRGB
 90
      255
102
RTVSPost2010PropOp44
 70
     1
102
RTVSPost2010Prop45
280
     0
102
RTVSPost2010PropOp45
 70
     1
102
RTVSPost2010Prop46
 90
       50
102
RTVSPost2010PropOp46
 70
     1
102
RTVSPost2010Prop47
 90
       50
102
RTVSPost2010PropOp47
 70
     1
102
RTVSPost2010Prop48
 90
       50
102
RTVSPost2010PropOp48
 70
     1
102
RTVSPost2010Prop49
280
     0
102
RTVSPost2010PropOp49
 70
     1
102
RTVSPost2010Prop50
 90
       50
102
RTVSPost2010PropOp50
 70
     1
102
RTVSPost2010Prop51ColorIndex
 90
      256
102
RTVSPost2010Prop51ColorRGB
 90
-16777216
102
RTVSPost2010PropOp51
 70
     0
102
RTVSPost2010Prop52
140
1.0
102
RTVSPost2010PropOp52
 70
     0
102
RTVSPost2010Prop53
 90
        2
102
RTVSPost2010PropOp53
 70
     1
102
RTVSPost2010Prop54
  1
strokes_ogs.tif
102
RTVSPost2010PropOp54
 70
     1
102
RTVSPost2010Prop55
280
     0
102
RTVSPost2010PropOp55
 70
     1
102
RTVSPost2010Prop56
140
1.0
102
RTVSPost2010PropOp56
 70
     1
102
RTVSPost2010Prop57
140
1.0
102
RTVSPost2010PropOp57
 70
     1
102
RTVSPropertyOp0
 70
     0
102
RTVSPropertyOp1
 70
     0
102
RTVSPropertyOp2
 70
     0
102
RTVSPropertyOp3
 70
     0
102
RTVSPropertyOp4
 70
     0
102
RTVSPropertyOp5
 70
     0
102
RTVSPropertyOp6
 70
     0
102
RTVSPropertyOp7
 70
     0
102
RTVSPropertyOp8
 70
     0
102
RTVSPropertyOp9
 70
     0
102
RTVSPropertyOp10
 70
     0
102
RTVSPropertyOp11
 70
     0
102
RTVSPropertyOp12
 70
     0
102
RTVSPropertyOp13
 70
     0
102
RTVSPropertyOp14
 70
     2
102
RTVSPropertyOp15
 70
     0
102
RTVSPropertyOp16
 70
     0
102
RTVSPropertyOp17
 70
     0
102
RTVSPropertyOp18
 70
     0
102
RTVSPropertyOp19
 70
     0
102
RTVSPropertyOp20
 70
     0
102
RTVSPropertyOp21
 70
     0
102
RTVSPropertyOp22
 70
     0
102
RTVSPropertyOp23
 70
     0
102
RTVSPropertyOp24
 70
     0
102
RTVSPropertyOp25
 70
     0
102
RTVSPropertyOp26
 70
     0
102
RTVSPropertyOp27
 70
     0
102
RTVSPropertyOp28
 70
     1
102
RTVSPropertyOp29
 70
     1
102
RTVSPropertyOp30
 70
     1
102
RTVSPropertyOp31
 70
     1
102
RTVSPropertyOp32
 70
     1
102
RTVSPropertyOp33
 70
     1
102
RTVSPropertyOp34
 70
     1
102
RTVSPropertyOp35
 70
     1
102
RTVSPropertyOp36
 70
     1
102
RTVSPropertyOp37
 70
     1
102
RTVSPropertyOp38
 70
     1
102
RTVSPropertyOp39
 70
     1
102
RTVSPropertyOp40
 70
     1
102
RTVSPropertyOp41
 70
     1
102
RTVSPropertyOp42
 70
     1
102
RTVSPropertyOp43
 70
     1
102
RTVSPropertyOp44
 70
     1
102
RTVSPropertyOp45
 70
     1
102
RTVSPropertyOp46
 70
     1
102
RTVSPropertyOp47
 70
     1
102
RTVSPropertyOp48
 70
     1
102
RTVSPropertyOp49
 70
     1
102
RTVSPropertyOp50
 70
     1
102
RTVSPropertyOp51
 70
     0
102
RTVSPropertyOp52
 70
     0
102
RTVSPropertyOp53
 70
     1
102
RTVSPropertyOp54
 70
     1
102
RTVSPropertyOp55
 70
     1
102
RTVSPropertyOp56
 70
     1
102
RTVSPropertyOp57
 70
     1
102
RTVSPropertyOp58
 70
     1
102
RTVSPropertyOp59
 70
     1
102
RTVSPropertyOp60
 70
     1
102
RTVSPropertyOp61
 70
     1
102
RTVSPropertyOp62
 70
     1
  0
XRECORD
  5
470E
102
{ACAD_REACTORS
330
470D
102
}
330
470D
100
AcDbXrecord
280
     1
102
RTVSPost2010Prop28
280
     0
102
RTVSPost2010PropOp28
 70
     1
102
RTVSPost2010Prop29
280
     1
102
RTVSPost2010PropOp29
 70
     1
102
RTVSPost2010Prop30
280
     1
102
RTVSPost2010PropOp30
 70
     1
102
RTVSPost2010Prop31
280
     0
102
RTVSPost2010PropOp31
 70
     1
102
RTVSPost2010Prop32
280
     0
102
RTVSPost2010PropOp32
 70
     1
102
RTVSPost2010Prop33
280
     0
102
RTVSPost2010PropOp33
 70
     1
102
RTVSPost2010Prop34
280
     0
102
RTVSPost2010PropOp34
 70
     1
102
RTVSPost2010Prop35
280
     0
102
RTVSPost2010PropOp35
 70
     1
102
RTVSPost2010Prop36
280
     0
102
RTVSPost2010PropOp36
 70
     1
102
RTVSPost2010Prop37
 90
       50
102
RTVSPost2010PropOp37
 70
     1
102
RTVSPost2010Prop38
140
0.0
102
RTVSPost2010PropOp38
 70
     1
102
RTVSPost2010Prop39
140
1.0
102
RTVSPost2010PropOp39
 70
     1
102
RTVSPost2010Prop40
 90
        0
102
RTVSPost2010PropOp40
 70
     1
102
RTVSPost2010Prop41ColorIndex
 90
       18
102
RTVSPost2010Prop41ColorRGB
 90
        0
102
RTVSPost2010PropOp41
 70
     1
102
RTVSPost2010Prop42
 90
       50
102
RTVSPost2010PropOp42
 70
     1
102
RTVSPost2010Prop43
 90
        3
102
RTVSPost2010PropOp43
 70
     1
102
RTVSPost2010Prop44ColorIndex
 90
        5
102
RTVSPost2010Prop44ColorRGB
 90
      255
102
RTVSPost2010PropOp44
 70
     1
102
RTVSPost2010Prop45
280
     0
102
RTVSPost2010PropOp45
 70
     1
102
RTVSPost2010Prop46
 90
       50
102
RTVSPost2010PropOp46
 70
     1
102
RTVSPost2010Prop47
 90
       50
102
RTVSPost2010PropOp47
 70
     1
102
RTVSPost2010Prop48
 90
       50
102
RTVSPost2010PropOp48
 70
     1
102
RTVSPost2010Prop49
280
     0
102
RTVSPost2010PropOp49
 70
     1
102
RTVSPost2010Prop50
 90
       50
102
RTVSPost2010PropOp50
 70
     1
102
RTVSPost2010Prop51ColorIndex
 90
      256
102
RTVSPost2010Prop51ColorRGB
 90
-16777216
102
RTVSPost2010PropOp51
 70
     0
102
RTVSPost2010Prop52
140
1.0
102
RTVSPost2010PropOp52
 70
     0
102
RTVSPost2010Prop53
 90
        2
102
RTVSPost2010PropOp53
 70
     1
102
RTVSPost2010Prop54
  1
strokes_ogs.tif
102
RTVSPost2010PropOp54
 70
     1
102
RTVSPost2010Prop55
280
     0
102
RTVSPost2010PropOp55
 70
     1
102
RTVSPost2010Prop56
140
1.0
102
RTVSPost2010PropOp56
 70
     1
102
RTVSPost2010Prop57
140
1.0
102
RTVSPost2010PropOp57
 70
     1
102
RTVSPropertyOp0
 70
     1
102
RTVSPropertyOp1
 70
     1
102
RTVSPropertyOp2
 70
     1
102
RTVSPropertyOp3
 70
     1
102
RTVSPropertyOp4
 70
     1
102
RTVSPropertyOp5
 70
     1
102
RTVSPropertyOp6
 70
     1
102
RTVSPropertyOp7
 70
     1
102
RTVSPropertyOp8
 70
     1
102
RTVSPropertyOp9
 70
     1
102
RTVSPropertyOp10
 70
     1
102
RTVSPropertyOp11
 70
     1
102
RTVSPropertyOp12
 70
     1
102
RTVSPropertyOp13
 70
     1
102
RTVSPropertyOp14
 70
     1
102
RTVSPropertyOp15
 70
     1
102
RTVSPropertyOp16
 70
     1
102
RTVSPropertyOp17
 70
     1
102
RTVSPropertyOp18
 70
     1
102
RTVSPropertyOp19
 70
     1
102
RTVSPropertyOp20
 70
     1
102
RTVSPropertyOp21
 70
     1
102
RTVSPropertyOp22
 70
     1
102
RTVSPropertyOp23
 70
     1
102
RTVSPropertyOp24
 70
     1
102
RTVSPropertyOp25
 70
     1
102
RTVSPropertyOp26
 70
     1
102
RTVSPropertyOp27
 70
     1
102
RTVSPropertyOp28
 70
     1
102
RTVSPropertyOp29
 70
     1
102
RTVSPropertyOp30
 70
     1
102
RTVSPropertyOp31
 70
     1
102
RTVSPropertyOp32
 70
     1
102
RTVSPropertyOp33
 70
     1
102
RTVSPropertyOp34
 70
     1
102
RTVSPropertyOp35
 70
     1
102
RTVSPropertyOp36
 70
     1
102
RTVSPropertyOp37
 70
     1
102
RTVSPropertyOp38
 70
     1
102
RTVSPropertyOp39
 70
     1
102
RTVSPropertyOp40
 70
     1
102
RTVSPropertyOp41
 70
     1
102
RTVSPropertyOp42
 70
     1
102
RTVSPropertyOp43
 70
     1
102
RTVSPropertyOp44
 70
     1
102
RTVSPropertyOp45
 70
     1
102
RTVSPropertyOp46
 70
     1
102
RTVSPropertyOp47
 70
     1
102
RTVSPropertyOp48
 70
     1
102
RTVSPropertyOp49
 70
     1
102
RTVSPropertyOp50
 70
     1
102
RTVSPropertyOp51
 70
     0
102
RTVSPropertyOp52
 70
     0
102
RTVSPropertyOp53
 70
     1
102
RTVSPropertyOp54
 70
     1
102
RTVSPropertyOp55
 70
     1
102
RTVSPropertyOp56
 70
     1
102
RTVSPropertyOp57
 70
     1
102
RTVSPropertyOp58
 70
     1
102
RTVSPropertyOp59
 70
     1
102
RTVSPropertyOp60
 70
     1
102
RTVSPropertyOp61
 70
     1
102
RTVSPropertyOp62
 70
     1
  0
XRECORD
  5
46F2
102
{ACAD_REACTORS
330
46F1
102
}
330
46F1
100
AcDbXrecord
280
     1
102
RTVSPost2010Prop28
280
     0
102
RTVSPost2010PropOp28
 70
     1
102
RTVSPost2010Prop29
280
     1
102
RTVSPost2010PropOp29
 70
     1
102
RTVSPost2010Prop30
280
     1
102
RTVSPost2010PropOp30
 70
     1
102
RTVSPost2010Prop31
280
     0
102
RTVSPost2010PropOp31
 70
     1
102
RTVSPost2010Prop32
280
     0
102
RTVSPost2010PropOp32
 70
     1
102
RTVSPost2010Prop33
280
     0
102
RTVSPost2010PropOp33
 70
     1
102
RTVSPost2010Prop34
280
     0
102
RTVSPost2010PropOp34
 70
     1
102
RTVSPost2010Prop35
280
     0
102
RTVSPost2010PropOp35
 70
     1
102
RTVSPost2010Prop36
280
     0
102
RTVSPost2010PropOp36
 70
     1
102
RTVSPost2010Prop37
 90
       50
102
RTVSPost2010PropOp37
 70
     1
102
RTVSPost2010Prop38
140
0.0
102
RTVSPost2010PropOp38
 70
     1
102
RTVSPost2010Prop39
140
1.0
102
RTVSPost2010PropOp39
 70
     1
102
RTVSPost2010Prop40
 90
        0
102
RTVSPost2010PropOp40
 70
     1
102
RTVSPost2010Prop41ColorIndex
 90
       18
102
RTVSPost2010Prop41ColorRGB
 90
        0
102
RTVSPost2010PropOp41
 70
     1
102
RTVSPost2010Prop42
 90
       50
102
RTVSPost2010PropOp42
 70
     1
102
RTVSPost2010Prop43
 90
        3
102
RTVSPost2010PropOp43
 70
     1
102
RTVSPost2010Prop44ColorIndex
 90
        5
102
RTVSPost2010Prop44ColorRGB
 90
      255
102
RTVSPost2010PropOp44
 70
     1
102
RTVSPost2010Prop45
280
     0
102
RTVSPost2010PropOp45
 70
     1
102
RTVSPost2010Prop46
 90
       50
102
RTVSPost2010PropOp46
 70
     1
102
RTVSPost2010Prop47
 90
       50
102
RTVSPost2010PropOp47
 70
     1
102
RTVSPost2010Prop48
 90
       50
102
RTVSPost2010PropOp48
 70
     1
102
RTVSPost2010Prop49
280
     0
102
RTVSPost2010PropOp49
 70
     1
102
RTVSPost2010Prop50
 90
       50
102
RTVSPost2010PropOp50
 70
     1
102
RTVSPost2010Prop51ColorIndex
 90
      256
102
RTVSPost2010Prop51ColorRGB
 90
-16777216
102
RTVSPost2010PropOp51
 70
     0
102
RTVSPost2010Prop52
140
1.0
102
RTVSPost2010PropOp52
 70
     0
102
RTVSPost2010Prop53
 90
        2
102
RTVSPost2010PropOp53
 70
     1
102
RTVSPost2010Prop54
  1
strokes_ogs.tif
102
RTVSPost2010PropOp54
 70
     1
102
RTVSPost2010Prop55
280
     0
102
RTVSPost2010PropOp55
 70
     1
102
RTVSPost2010Prop56
140
1.0
102
RTVSPost2010PropOp56
 70
     1
102
RTVSPost2010Prop57
140
1.0
102
RTVSPost2010PropOp57
 70
     1
102
RTVSPropertyOp0
 70
     1
102
RTVSPropertyOp1
 70
     1
102
RTVSPropertyOp2
 70
     1
102
RTVSPropertyOp3
 70
     1
102
RTVSPropertyOp4
 70
     1
102
RTVSPropertyOp5
 70
     1
102
RTVSPropertyOp6
 70
     1
102
RTVSPropertyOp7
 70
     1
102
RTVSPropertyOp8
 70
     1
102
RTVSPropertyOp9
 70
     1
102
RTVSPropertyOp10
 70
     1
102
RTVSPropertyOp11
 70
     1
102
RTVSPropertyOp12
 70
     1
102
RTVSPropertyOp13
 70
     1
102
RTVSPropertyOp14
 70
     1
102
RTVSPropertyOp15
 70
     1
102
RTVSPropertyOp16
 70
     1
102
RTVSPropertyOp17
 70
     1
102
RTVSPropertyOp18
 70
     1
102
RTVSPropertyOp19
 70
     1
102
RTVSPropertyOp20
 70
     1
102
RTVSPropertyOp21
 70
     1
102
RTVSPropertyOp22
 70
     1
102
RTVSPropertyOp23
 70
     1
102
RTVSPropertyOp24
 70
     1
102
RTVSPropertyOp25
 70
     1
102
RTVSPropertyOp26
 70
     1
102
RTVSPropertyOp27
 70
     1
102
RTVSPropertyOp28
 70
     1
102
RTVSPropertyOp29
 70
     1
102
RTVSPropertyOp30
 70
     1
102
RTVSPropertyOp31
 70
     1
102
RTVSPropertyOp32
 70
     1
102
RTVSPropertyOp33
 70
     1
102
RTVSPropertyOp34
 70
     1
102
RTVSPropertyOp35
 70
     1
102
RTVSPropertyOp36
 70
     1
102
RTVSPropertyOp37
 70
     1
102
RTVSPropertyOp38
 70
     1
102
RTVSPropertyOp39
 70
     1
102
RTVSPropertyOp40
 70
     1
102
RTVSPropertyOp41
 70
     1
102
RTVSPropertyOp42
 70
     1
102
RTVSPropertyOp43
 70
     1
102
RTVSPropertyOp44
 70
     1
102
RTVSPropertyOp45
 70
     1
102
RTVSPropertyOp46
 70
     1
102
RTVSPropertyOp47
 70
     1
102
RTVSPropertyOp48
 70
     1
102
RTVSPropertyOp49
 70
     1
102
RTVSPropertyOp50
 70
     1
102
RTVSPropertyOp51
 70
     0
102
RTVSPropertyOp52
 70
     0
102
RTVSPropertyOp53
 70
     1
102
RTVSPropertyOp54
 70
     1
102
RTVSPropertyOp55
 70
     1
102
RTVSPropertyOp56
 70
     1
102
RTVSPropertyOp57
 70
     1
102
RTVSPropertyOp58
 70
     1
102
RTVSPropertyOp59
 70
     1
102
RTVSPropertyOp60
 70
     1
102
RTVSPropertyOp61
 70
     1
102
RTVSPropertyOp62
 70
     1
  0
XRECORD
  5
46F4
102
{ACAD_REACTORS
330
46F3
102
}
330
46F3
100
AcDbXrecord
280
     1
102
RTVSPost2010Prop28
280
     0
102
RTVSPost2010PropOp28
 70
     1
102
RTVSPost2010Prop29
280
     1
102
RTVSPost2010PropOp29
 70
     1
102
RTVSPost2010Prop30
280
     1
102
RTVSPost2010PropOp30
 70
     1
102
RTVSPost2010Prop31
280
     0
102
RTVSPost2010PropOp31
 70
     1
102
RTVSPost2010Prop32
280
     0
102
RTVSPost2010PropOp32
 70
     1
102
RTVSPost2010Prop33
280
     0
102
RTVSPost2010PropOp33
 70
     1
102
RTVSPost2010Prop34
280
     0
102
RTVSPost2010PropOp34
 70
     1
102
RTVSPost2010Prop35
280
     0
102
RTVSPost2010PropOp35
 70
     1
102
RTVSPost2010Prop36
280
     0
102
RTVSPost2010PropOp36
 70
     1
102
RTVSPost2010Prop37
 90
       50
102
RTVSPost2010PropOp37
 70
     1
102
RTVSPost2010Prop38
140
0.0
102
RTVSPost2010PropOp38
 70
     1
102
RTVSPost2010Prop39
140
1.0
102
RTVSPost2010PropOp39
 70
     1
102
RTVSPost2010Prop40
 90
        0
102
RTVSPost2010PropOp40
 70
     1
102
RTVSPost2010Prop41ColorIndex
 90
       18
102
RTVSPost2010Prop41ColorRGB
 90
        0
102
RTVSPost2010PropOp41
 70
     1
102
RTVSPost2010Prop42
 90
       50
102
RTVSPost2010PropOp42
 70
     1
102
RTVSPost2010Prop43
 90
        3
102
RTVSPost2010PropOp43
 70
     1
102
RTVSPost2010Prop44ColorIndex
 90
        5
102
RTVSPost2010Prop44ColorRGB
 90
      255
102
RTVSPost2010PropOp44
 70
     1
102
RTVSPost2010Prop45
280
     0
102
RTVSPost2010PropOp45
 70
     1
102
RTVSPost2010Prop46
 90
       50
102
RTVSPost2010PropOp46
 70
     1
102
RTVSPost2010Prop47
 90
       50
102
RTVSPost2010PropOp47
 70
     1
102
RTVSPost2010Prop48
 90
       50
102
RTVSPost2010PropOp48
 70
     1
102
RTVSPost2010Prop49
280
     0
102
RTVSPost2010PropOp49
 70
     1
102
RTVSPost2010Prop50
 90
       50
102
RTVSPost2010PropOp50
 70
     1
102
RTVSPost2010Prop51ColorIndex
 90
      256
102
RTVSPost2010Prop51ColorRGB
 90
-16777216
102
RTVSPost2010PropOp51
 70
     0
102
RTVSPost2010Prop52
140
1.0
102
RTVSPost2010PropOp52
 70
     0
102
RTVSPost2010Prop53
 90
        2
102
RTVSPost2010PropOp53
 70
     1
102
RTVSPost2010Prop54
  1
strokes_ogs.tif
102
RTVSPost2010PropOp54
 70
     1
102
RTVSPost2010Prop55
280
     0
102
RTVSPost2010PropOp55
 70
     1
102
RTVSPost2010Prop56
140
1.0
102
RTVSPost2010PropOp56
 70
     1
102
RTVSPost2010Prop57
140
1.0
102
RTVSPost2010PropOp57
 70
     1
102
RTVSPropertyOp0
 70
     1
102
RTVSPropertyOp1
 70
     1
102
RTVSPropertyOp2
 70
     1
102
RTVSPropertyOp3
 70
     1
102
RTVSPropertyOp4
 70
     1
102
RTVSPropertyOp5
 70
     1
102
RTVSPropertyOp6
 70
     1
102
RTVSPropertyOp7
 70
     1
102
RTVSPropertyOp8
 70
     1
102
RTVSPropertyOp9
 70
     1
102
RTVSPropertyOp10
 70
     1
102
RTVSPropertyOp11
 70
     1
102
RTVSPropertyOp12
 70
     1
102
RTVSPropertyOp13
 70
     1
102
RTVSPropertyOp14
 70
     1
102
RTVSPropertyOp15
 70
     1
102
RTVSPropertyOp16
 70
     1
102
RTVSPropertyOp17
 70
     1
102
RTVSPropertyOp18
 70
     1
102
RTVSPropertyOp19
 70
     1
102
RTVSPropertyOp20
 70
     1
102
RTVSPropertyOp21
 70
     1
102
RTVSPropertyOp22
 70
     1
102
RTVSPropertyOp23
 70
     1
102
RTVSPropertyOp24
 70
     1
102
RTVSPropertyOp25
 70
     1
102
RTVSPropertyOp26
 70
     1
102
RTVSPropertyOp27
 70
     1
102
RTVSPropertyOp28
 70
     1
102
RTVSPropertyOp29
 70
     1
102
RTVSPropertyOp30
 70
     1
102
RTVSPropertyOp31
 70
     1
102
RTVSPropertyOp32
 70
     1
102
RTVSPropertyOp33
 70
     1
102
RTVSPropertyOp34
 70
     1
102
RTVSPropertyOp35
 70
     1
102
RTVSPropertyOp36
 70
     1
102
RTVSPropertyOp37
 70
     1
102
RTVSPropertyOp38
 70
     1
102
RTVSPropertyOp39
 70
     1
102
RTVSPropertyOp40
 70
     1
102
RTVSPropertyOp41
 70
     1
102
RTVSPropertyOp42
 70
     1
102
RTVSPropertyOp43
 70
     1
102
RTVSPropertyOp44
 70
     1
102
RTVSPropertyOp45
 70
     1
102
RTVSPropertyOp46
 70
     1
102
RTVSPropertyOp47
 70
     1
102
RTVSPropertyOp48
 70
     1
102
RTVSPropertyOp49
 70
     1
102
RTVSPropertyOp50
 70
     1
102
RTVSPropertyOp51
 70
     0
102
RTVSPropertyOp52
 70
     0
102
RTVSPropertyOp53
 70
     1
102
RTVSPropertyOp54
 70
     1
102
RTVSPropertyOp55
 70
     1
102
RTVSPropertyOp56
 70
     1
102
RTVSPropertyOp57
 70
     1
102
RTVSPropertyOp58
 70
     1
102
RTVSPropertyOp59
 70
     1
102
RTVSPropertyOp60
 70
     1
102
RTVSPropertyOp61
 70
     1
102
RTVSPropertyOp62
 70
     1
  0
XRECORD
  5
46F6
102
{ACAD_REACTORS
330
46F5
102
}
330
46F5
100
AcDbXrecord
280
     1
102
RTVSPost2010Prop28
280
     0
102
RTVSPost2010PropOp28
 70
     1
102
RTVSPost2010Prop29
280
     1
102
RTVSPost2010PropOp29
 70
     1
102
RTVSPost2010Prop30
280
     1
102
RTVSPost2010PropOp30
 70
     1
102
RTVSPost2010Prop31
280
     0
102
RTVSPost2010PropOp31
 70
     1
102
RTVSPost2010Prop32
280
     0
102
RTVSPost2010PropOp32
 70
     1
102
RTVSPost2010Prop33
280
     0
102
RTVSPost2010PropOp33
 70
     1
102
RTVSPost2010Prop34
280
     0
102
RTVSPost2010PropOp34
 70
     1
102
RTVSPost2010Prop35
280
     0
102
RTVSPost2010PropOp35
 70
     1
102
RTVSPost2010Prop36
280
     0
102
RTVSPost2010PropOp36
 70
     1
102
RTVSPost2010Prop37
 90
       50
102
RTVSPost2010PropOp37
 70
     1
102
RTVSPost2010Prop38
140
0.0
102
RTVSPost2010PropOp38
 70
     1
102
RTVSPost2010Prop39
140
1.0
102
RTVSPost2010PropOp39
 70
     1
102
RTVSPost2010Prop40
 90
        0
102
RTVSPost2010PropOp40
 70
     1
102
RTVSPost2010Prop41ColorIndex
 90
       18
102
RTVSPost2010Prop41ColorRGB
 90
        0
102
RTVSPost2010PropOp41
 70
     1
102
RTVSPost2010Prop42
 90
       50
102
RTVSPost2010PropOp42
 70
     1
102
RTVSPost2010Prop43
 90
        3
102
RTVSPost2010PropOp43
 70
     1
102
RTVSPost2010Prop44ColorIndex
 90
        5
102
RTVSPost2010Prop44ColorRGB
 90
      255
102
RTVSPost2010PropOp44
 70
     1
102
RTVSPost2010Prop45
280
     0
102
RTVSPost2010PropOp45
 70
     1
102
RTVSPost2010Prop46
 90
       50
102
RTVSPost2010PropOp46
 70
     1
102
RTVSPost2010Prop47
 90
       50
102
RTVSPost2010PropOp47
 70
     1
102
RTVSPost2010Prop48
 90
       50
102
RTVSPost2010PropOp48
 70
     1
102
RTVSPost2010Prop49
280
     0
102
RTVSPost2010PropOp49
 70
     1
102
RTVSPost2010Prop50
 90
       50
102
RTVSPost2010PropOp50
 70
     1
102
RTVSPost2010Prop51ColorIndex
 90
      256
102
RTVSPost2010Prop51ColorRGB
 90
-16777216
102
RTVSPost2010PropOp51
 70
     0
102
RTVSPost2010Prop52
140
1.0
102
RTVSPost2010PropOp52
 70
     0
102
RTVSPost2010Prop53
 90
        2
102
RTVSPost2010PropOp53
 70
     1
102
RTVSPost2010Prop54
  1
strokes_ogs.tif
102
RTVSPost2010PropOp54
 70
     1
102
RTVSPost2010Prop55
280
     0
102
RTVSPost2010PropOp55
 70
     1
102
RTVSPost2010Prop56
140
1.0
102
RTVSPost2010PropOp56
 70
     1
102
RTVSPost2010Prop57
140
1.0
102
RTVSPost2010PropOp57
 70
     1
102
RTVSPropertyOp0
 70
     1
102
RTVSPropertyOp1
 70
     1
102
RTVSPropertyOp2
 70
     1
102
RTVSPropertyOp3
 70
     1
102
RTVSPropertyOp4
 70
     1
102
RTVSPropertyOp5
 70
     1
102
RTVSPropertyOp6
 70
     1
102
RTVSPropertyOp7
 70
     1
102
RTVSPropertyOp8
 70
     1
102
RTVSPropertyOp9
 70
     1
102
RTVSPropertyOp10
 70
     1
102
RTVSPropertyOp11
 70
     1
102
RTVSPropertyOp12
 70
     1
102
RTVSPropertyOp13
 70
     1
102
RTVSPropertyOp14
 70
     1
102
RTVSPropertyOp15
 70
     1
102
RTVSPropertyOp16
 70
     1
102
RTVSPropertyOp17
 70
     1
102
RTVSPropertyOp18
 70
     1
102
RTVSPropertyOp19
 70
     1
102
RTVSPropertyOp20
 70
     1
102
RTVSPropertyOp21
 70
     1
102
RTVSPropertyOp22
 70
     1
102
RTVSPropertyOp23
 70
     1
102
RTVSPropertyOp24
 70
     1
102
RTVSPropertyOp25
 70
     1
102
RTVSPropertyOp26
 70
     1
102
RTVSPropertyOp27
 70
     1
102
RTVSPropertyOp28
 70
     1
102
RTVSPropertyOp29
 70
     1
102
RTVSPropertyOp30
 70
     1
102
RTVSPropertyOp31
 70
     1
102
RTVSPropertyOp32
 70
     1
102
RTVSPropertyOp33
 70
     1
102
RTVSPropertyOp34
 70
     1
102
RTVSPropertyOp35
 70
     1
102
RTVSPropertyOp36
 70
     1
102
RTVSPropertyOp37
 70
     1
102
RTVSPropertyOp38
 70
     1
102
RTVSPropertyOp39
 70
     1
102
RTVSPropertyOp40
 70
     1
102
RTVSPropertyOp41
 70
     1
102
RTVSPropertyOp42
 70
     1
102
RTVSPropertyOp43
 70
     1
102
RTVSPropertyOp44
 70
     1
102
RTVSPropertyOp45
 70
     1
102
RTVSPropertyOp46
 70
     1
102
RTVSPropertyOp47
 70
     1
102
RTVSPropertyOp48
 70
     1
102
RTVSPropertyOp49
 70
     1
102
RTVSPropertyOp50
 70
     1
102
RTVSPropertyOp51
 70
     0
102
RTVSPropertyOp52
 70
     0
102
RTVSPropertyOp53
 70
     1
102
RTVSPropertyOp54
 70
     1
102
RTVSPropertyOp55
 70
     1
102
RTVSPropertyOp56
 70
     1
102
RTVSPropertyOp57
 70
     1
102
RTVSPropertyOp58
 70
     1
102
RTVSPropertyOp59
 70
     1
102
RTVSPropertyOp60
 70
     1
102
RTVSPropertyOp61
 70
     1
102
RTVSPropertyOp62
 70
     1
  0
XRECORD
  5
46F8
102
{ACAD_REACTORS
330
46F7
102
}
330
46F7
100
AcDbXrecord
280
     1
102
RTVSPost2010Prop28
280
     0
102
RTVSPost2010PropOp28
 70
     1
102
RTVSPost2010Prop29
280
     1
102
RTVSPost2010PropOp29
 70
     1
102
RTVSPost2010Prop30
280
     1
102
RTVSPost2010PropOp30
 70
     1
102
RTVSPost2010Prop31
280
     0
102
RTVSPost2010PropOp31
 70
     1
102
RTVSPost2010Prop32
280
     0
102
RTVSPost2010PropOp32
 70
     1
102
RTVSPost2010Prop33
280
     0
102
RTVSPost2010PropOp33
 70
     1
102
RTVSPost2010Prop34
280
     0
102
RTVSPost2010PropOp34
 70
     1
102
RTVSPost2010Prop35
280
     0
102
RTVSPost2010PropOp35
 70
     1
102
RTVSPost2010Prop36
280
     0
102
RTVSPost2010PropOp36
 70
     1
102
RTVSPost2010Prop37
 90
       50
102
RTVSPost2010PropOp37
 70
     1
102
RTVSPost2010Prop38
140
0.0
102
RTVSPost2010PropOp38
 70
     1
102
RTVSPost2010Prop39
140
1.0
102
RTVSPost2010PropOp39
 70
     1
102
RTVSPost2010Prop40
 90
        0
102
RTVSPost2010PropOp40
 70
     1
102
RTVSPost2010Prop41ColorIndex
 90
       18
102
RTVSPost2010Prop41ColorRGB
 90
        0
102
RTVSPost2010PropOp41
 70
     1
102
RTVSPost2010Prop42
 90
       50
102
RTVSPost2010PropOp42
 70
     1
102
RTVSPost2010Prop43
 90
        3
102
RTVSPost2010PropOp43
 70
     1
102
RTVSPost2010Prop44ColorIndex
 90
        5
102
RTVSPost2010Prop44ColorRGB
 90
      255
102
RTVSPost2010PropOp44
 70
     1
102
RTVSPost2010Prop45
280
     0
102
RTVSPost2010PropOp45
 70
     1
102
RTVSPost2010Prop46
 90
       50
102
RTVSPost2010PropOp46
 70
     1
102
RTVSPost2010Prop47
 90
       50
102
RTVSPost2010PropOp47
 70
     1
102
RTVSPost2010Prop48
 90
       50
102
RTVSPost2010PropOp48
 70
     1
102
RTVSPost2010Prop49
280
     0
102
RTVSPost2010PropOp49
 70
     1
102
RTVSPost2010Prop50
 90
       50
102
RTVSPost2010PropOp50
 70
     1
102
RTVSPost2010Prop51ColorIndex
 90
      256
102
RTVSPost2010Prop51ColorRGB
 90
-16777216
102
RTVSPost2010PropOp51
 70
     0
102
RTVSPost2010Prop52
140
1.0
102
RTVSPost2010PropOp52
 70
     0
102
RTVSPost2010Prop53
 90
        2
102
RTVSPost2010PropOp53
 70
     1
102
RTVSPost2010Prop54
  1
strokes_ogs.tif
102
RTVSPost2010PropOp54
 70
     1
102
RTVSPost2010Prop55
280
     0
102
RTVSPost2010PropOp55
 70
     1
102
RTVSPost2010Prop56
140
1.0
102
RTVSPost2010PropOp56
 70
     1
102
RTVSPost2010Prop57
140
1.0
102
RTVSPost2010PropOp57
 70
     1
102
RTVSPropertyOp0
 70
     1
102
RTVSPropertyOp1
 70
     1
102
RTVSPropertyOp2
 70
     1
102
RTVSPropertyOp3
 70
     1
102
RTVSPropertyOp4
 70
     1
102
RTVSPropertyOp5
 70
     1
102
RTVSPropertyOp6
 70
     1
102
RTVSPropertyOp7
 70
     1
102
RTVSPropertyOp8
 70
     1
102
RTVSPropertyOp9
 70
     1
102
RTVSPropertyOp10
 70
     1
102
RTVSPropertyOp11
 70
     1
102
RTVSPropertyOp12
 70
     1
102
RTVSPropertyOp13
 70
     1
102
RTVSPropertyOp14
 70
     1
102
RTVSPropertyOp15
 70
     1
102
RTVSPropertyOp16
 70
     1
102
RTVSPropertyOp17
 70
     1
102
RTVSPropertyOp18
 70
     1
102
RTVSPropertyOp19
 70
     1
102
RTVSPropertyOp20
 70
     1
102
RTVSPropertyOp21
 70
     1
102
RTVSPropertyOp22
 70
     1
102
RTVSPropertyOp23
 70
     1
102
RTVSPropertyOp24
 70
     1
102
RTVSPropertyOp25
 70
     1
102
RTVSPropertyOp26
 70
     1
102
RTVSPropertyOp27
 70
     1
102
RTVSPropertyOp28
 70
     1
102
RTVSPropertyOp29
 70
     1
102
RTVSPropertyOp30
 70
     1
102
RTVSPropertyOp31
 70
     1
102
RTVSPropertyOp32
 70
     1
102
RTVSPropertyOp33
 70
     1
102
RTVSPropertyOp34
 70
     1
102
RTVSPropertyOp35
 70
     1
102
RTVSPropertyOp36
 70
     1
102
RTVSPropertyOp37
 70
     1
102
RTVSPropertyOp38
 70
     1
102
RTVSPropertyOp39
 70
     1
102
RTVSPropertyOp40
 70
     1
102
RTVSPropertyOp41
 70
     1
102
RTVSPropertyOp42
 70
     1
102
RTVSPropertyOp43
 70
     1
102
RTVSPropertyOp44
 70
     1
102
RTVSPropertyOp45
 70
     1
102
RTVSPropertyOp46
 70
     1
102
RTVSPropertyOp47
 70
     1
102
RTVSPropertyOp48
 70
     1
102
RTVSPropertyOp49
 70
     1
102
RTVSPropertyOp50
 70
     1
102
RTVSPropertyOp51
 70
     0
102
RTVSPropertyOp52
 70
     0
102
RTVSPropertyOp53
 70
     1
102
RTVSPropertyOp54
 70
     1
102
RTVSPropertyOp55
 70
     1
102
RTVSPropertyOp56
 70
     1
102
RTVSPropertyOp57
 70
     1
102
RTVSPropertyOp58
 70
     1
102
RTVSPropertyOp59
 70
     1
102
RTVSPropertyOp60
 70
     1
102
RTVSPropertyOp61
 70
     1
102
RTVSPropertyOp62
 70
     1
  0
XRECORD
  5
471B
102
{ACAD_REACTORS
330
471A
102
}
330
471A
100
AcDbXrecord
280
     1
102
RTVSPost2010Prop28
280
     0
102
RTVSPost2010PropOp28
 70
     1
102
RTVSPost2010Prop29
280
     1
102
RTVSPost2010PropOp29
 70
     1
102
RTVSPost2010Prop30
280
     1
102
RTVSPost2010PropOp30
 70
     1
102
RTVSPost2010Prop31
280
     0
102
RTVSPost2010PropOp31
 70
     1
102
RTVSPost2010Prop32
280
     0
102
RTVSPost2010PropOp32
 70
     1
102
RTVSPost2010Prop33
280
     0
102
RTVSPost2010PropOp33
 70
     1
102
RTVSPost2010Prop34
280
     0
102
RTVSPost2010PropOp34
 70
     1
102
RTVSPost2010Prop35
280
     0
102
RTVSPost2010PropOp35
 70
     1
102
RTVSPost2010Prop36
280
     0
102
RTVSPost2010PropOp36
 70
     1
102
RTVSPost2010Prop37
 90
       50
102
RTVSPost2010PropOp37
 70
     1
102
RTVSPost2010Prop38
140
0.0
102
RTVSPost2010PropOp38
 70
     1
102
RTVSPost2010Prop39
140
1.0
102
RTVSPost2010PropOp39
 70
     1
102
RTVSPost2010Prop40
 90
        0
102
RTVSPost2010PropOp40
 70
     1
102
RTVSPost2010Prop41ColorIndex
 90
       18
102
RTVSPost2010Prop41ColorRGB
 90
        0
102
RTVSPost2010PropOp41
 70
     1
102
RTVSPost2010Prop42
 90
       50
102
RTVSPost2010PropOp42
 70
     1
102
RTVSPost2010Prop43
 90
        3
102
RTVSPost2010PropOp43
 70
     1
102
RTVSPost2010Prop44ColorIndex
 90
        5
102
RTVSPost2010Prop44ColorRGB
 90
      255
102
RTVSPost2010PropOp44
 70
     1
102
RTVSPost2010Prop45
280
     0
102
RTVSPost2010PropOp45
 70
     1
102
RTVSPost2010Prop46
 90
       50
102
RTVSPost2010PropOp46
 70
     1
102
RTVSPost2010Prop47
 90
       50
102
RTVSPost2010PropOp47
 70
     1
102
RTVSPost2010Prop48
 90
       50
102
RTVSPost2010PropOp48
 70
     1
102
RTVSPost2010Prop49
280
     0
102
RTVSPost2010PropOp49
 70
     1
102
RTVSPost2010Prop50
 90
       50
102
RTVSPost2010PropOp50
 70
     1
102
RTVSPost2010Prop51ColorIndex
 90
      256
102
RTVSPost2010Prop51ColorRGB
 90
-16777216
102
RTVSPost2010PropOp51
 70
     0
102
RTVSPost2010Prop52
140
1.0
102
RTVSPost2010PropOp52
 70
     0
102
RTVSPost2010Prop53
 90
        2
102
RTVSPost2010PropOp53
 70
     1
102
RTVSPost2010Prop54
  1
strokes_ogs.tif
102
RTVSPost2010PropOp54
 70
     1
102
RTVSPost2010Prop55
280
     0
102
RTVSPost2010PropOp55
 70
     1
102
RTVSPost2010Prop56
140
1.0
102
RTVSPost2010PropOp56
 70
     1
102
RTVSPost2010Prop57
140
1.0
102
RTVSPost2010PropOp57
 70
     1
102
RTVSPropertyOp0
 70
     1
102
RTVSPropertyOp1
 70
     1
102
RTVSPropertyOp2
 70
     1
102
RTVSPropertyOp3
 70
     1
102
RTVSPropertyOp4
 70
     1
102
RTVSPropertyOp5
 70
     1
102
RTVSPropertyOp6
 70
     1
102
RTVSPropertyOp7
 70
     1
102
RTVSPropertyOp8
 70
     1
102
RTVSPropertyOp9
 70
     1
102
RTVSPropertyOp10
 70
     1
102
RTVSPropertyOp11
 70
     1
102
RTVSPropertyOp12
 70
     1
102
RTVSPropertyOp13
 70
     1
102
RTVSPropertyOp14
 70
     1
102
RTVSPropertyOp15
 70
     1
102
RTVSPropertyOp16
 70
     1
102
RTVSPropertyOp17
 70
     1
102
RTVSPropertyOp18
 70
     1
102
RTVSPropertyOp19
 70
     1
102
RTVSPropertyOp20
 70
     1
102
RTVSPropertyOp21
 70
     1
102
RTVSPropertyOp22
 70
     1
102
RTVSPropertyOp23
 70
     1
102
RTVSPropertyOp24
 70
     1
102
RTVSPropertyOp25
 70
     1
102
RTVSPropertyOp26
 70
     1
102
RTVSPropertyOp27
 70
     1
102
RTVSPropertyOp28
 70
     1
102
RTVSPropertyOp29
 70
     1
102
RTVSPropertyOp30
 70
     1
102
RTVSPropertyOp31
 70
     1
102
RTVSPropertyOp32
 70
     1
102
RTVSPropertyOp33
 70
     1
102
RTVSPropertyOp34
 70
     1
102
RTVSPropertyOp35
 70
     1
102
RTVSPropertyOp36
 70
     1
102
RTVSPropertyOp37
 70
     1
102
RTVSPropertyOp38
 70
     1
102
RTVSPropertyOp39
 70
     1
102
RTVSPropertyOp40
 70
     1
102
RTVSPropertyOp41
 70
     1
102
RTVSPropertyOp42
 70
     1
102
RTVSPropertyOp43
 70
     1
102
RTVSPropertyOp44
 70
     1
102
RTVSPropertyOp45
 70
     1
102
RTVSPropertyOp46
 70
     1
102
RTVSPropertyOp47
 70
     1
102
RTVSPropertyOp48
 70
     1
102
RTVSPropertyOp49
 70
     1
102
RTVSPropertyOp50
 70
     1
102
RTVSPropertyOp51
 70
     0
102
RTVSPropertyOp52
 70
     0
102
RTVSPropertyOp53
 70
     1
102
RTVSPropertyOp54
 70
     1
102
RTVSPropertyOp55
 70
     1
102
RTVSPropertyOp56
 70
     1
102
RTVSPropertyOp57
 70
     1
102
RTVSPropertyOp58
 70
     1
102
RTVSPropertyOp59
 70
     1
102
RTVSPropertyOp60
 70
     1
102
RTVSPropertyOp61
 70
     1
102
RTVSPropertyOp62
 70
     1
  0
XRECORD
  5
4712
102
{ACAD_REACTORS
330
4711
102
}
330
4711
100
AcDbXrecord
280
     1
102
RTVSPost2010Prop28
280
     0
102
RTVSPost2010PropOp28
 70
     1
102
RTVSPost2010Prop29
280
     1
102
RTVSPost2010PropOp29
 70
     1
102
RTVSPost2010Prop30
280
     1
102
RTVSPost2010PropOp30
 70
     1
102
RTVSPost2010Prop31
280
     0
102
RTVSPost2010PropOp31
 70
     1
102
RTVSPost2010Prop32
280
     0
102
RTVSPost2010PropOp32
 70
     1
102
RTVSPost2010Prop33
280
     0
102
RTVSPost2010PropOp33
 70
     1
102
RTVSPost2010Prop34
280
     0
102
RTVSPost2010PropOp34
 70
     1
102
RTVSPost2010Prop35
280
     0
102
RTVSPost2010PropOp35
 70
     1
102
RTVSPost2010Prop36
280
     0
102
RTVSPost2010PropOp36
 70
     1
102
RTVSPost2010Prop37
 90
       50
102
RTVSPost2010PropOp37
 70
     1
102
RTVSPost2010Prop38
140
0.0
102
RTVSPost2010PropOp38
 70
     1
102
RTVSPost2010Prop39
140
1.0
102
RTVSPost2010PropOp39
 70
     1
102
RTVSPost2010Prop40
 90
        0
102
RTVSPost2010PropOp40
 70
     1
102
RTVSPost2010Prop41ColorIndex
 90
       18
102
RTVSPost2010Prop41ColorRGB
 90
        0
102
RTVSPost2010PropOp41
 70
     1
102
RTVSPost2010Prop42
 90
       50
102
RTVSPost2010PropOp42
 70
     1
102
RTVSPost2010Prop43
 90
        3
102
RTVSPost2010PropOp43
 70
     1
102
RTVSPost2010Prop44ColorIndex
 90
        5
102
RTVSPost2010Prop44ColorRGB
 90
      255
102
RTVSPost2010PropOp44
 70
     1
102
RTVSPost2010Prop45
280
     0
102
RTVSPost2010PropOp45
 70
     1
102
RTVSPost2010Prop46
 90
       50
102
RTVSPost2010PropOp46
 70
     1
102
RTVSPost2010Prop47
 90
       50
102
RTVSPost2010PropOp47
 70
     1
102
RTVSPost2010Prop48
 90
       50
102
RTVSPost2010PropOp48
 70
     1
102
RTVSPost2010Prop49
280
     0
102
RTVSPost2010PropOp49
 70
     1
102
RTVSPost2010Prop50
 90
       50
102
RTVSPost2010PropOp50
 70
     1
102
RTVSPost2010Prop51ColorIndex
 90
      256
102
RTVSPost2010Prop51ColorRGB
 90
-16777216
102
RTVSPost2010PropOp51
 70
     0
102
RTVSPost2010Prop52
140
1.0
102
RTVSPost2010PropOp52
 70
     0
102
RTVSPost2010Prop53
 90
        2
102
RTVSPost2010PropOp53
 70
     1
102
RTVSPost2010Prop54
  1
strokes_ogs.tif
102
RTVSPost2010PropOp54
 70
     1
102
RTVSPost2010Prop55
280
     0
102
RTVSPost2010PropOp55
 70
     1
102
RTVSPost2010Prop56
140
1.0
102
RTVSPost2010PropOp56
 70
     1
102
RTVSPost2010Prop57
140
1.0
102
RTVSPost2010PropOp57
 70
     1
102
RTVSPropertyOp0
 70
     0
102
RTVSPropertyOp1
 70
     0
102
RTVSPropertyOp2
 70
     0
102
RTVSPropertyOp3
 70
     0
102
RTVSPropertyOp4
 70
     0
102
RTVSPropertyOp5
 70
     0
102
RTVSPropertyOp6
 70
     0
102
RTVSPropertyOp7
 70
     0
102
RTVSPropertyOp8
 70
     0
102
RTVSPropertyOp9
 70
     0
102
RTVSPropertyOp10
 70
     0
102
RTVSPropertyOp11
 70
     0
102
RTVSPropertyOp12
 70
     0
102
RTVSPropertyOp13
 70
     0
102
RTVSPropertyOp14
 70
     2
102
RTVSPropertyOp15
 70
     0
102
RTVSPropertyOp16
 70
     0
102
RTVSPropertyOp17
 70
     0
102
RTVSPropertyOp18
 70
     0
102
RTVSPropertyOp19
 70
     0
102
RTVSPropertyOp20
 70
     0
102
RTVSPropertyOp21
 70
     0
102
RTVSPropertyOp22
 70
     0
102
RTVSPropertyOp23
 70
     0
102
RTVSPropertyOp24
 70
     0
102
RTVSPropertyOp25
 70
     0
102
RTVSPropertyOp26
 70
     0
102
RTVSPropertyOp27
 70
     0
102
RTVSPropertyOp28
 70
     1
102
RTVSPropertyOp29
 70
     1
102
RTVSPropertyOp30
 70
     1
102
RTVSPropertyOp31
 70
     1
102
RTVSPropertyOp32
 70
     1
102
RTVSPropertyOp33
 70
     1
102
RTVSPropertyOp34
 70
     1
102
RTVSPropertyOp35
 70
     1
102
RTVSPropertyOp36
 70
     1
102
RTVSPropertyOp37
 70
     1
102
RTVSPropertyOp38
 70
     1
102
RTVSPropertyOp39
 70
     1
102
RTVSPropertyOp40
 70
     1
102
RTVSPropertyOp41
 70
     1
102
RTVSPropertyOp42
 70
     1
102
RTVSPropertyOp43
 70
     1
102
RTVSPropertyOp44
 70
     1
102
RTVSPropertyOp45
 70
     1
102
RTVSPropertyOp46
 70
     1
102
RTVSPropertyOp47
 70
     1
102
RTVSPropertyOp48
 70
     1
102
RTVSPropertyOp49
 70
     1
102
RTVSPropertyOp50
 70
     1
102
RTVSPropertyOp51
 70
     0
102
RTVSPropertyOp52
 70
     0
102
RTVSPropertyOp53
 70
     1
102
RTVSPropertyOp54
 70
     1
102
RTVSPropertyOp55
 70
     1
102
RTVSPropertyOp56
 70
     1
102
RTVSPropertyOp57
 70
     1
102
RTVSPropertyOp58
 70
     1
102
RTVSPropertyOp59
 70
     1
102
RTVSPropertyOp60
 70
     1
102
RTVSPropertyOp61
 70
     1
102
RTVSPropertyOp62
 70
     1
  0
XRECORD
  5
470C
102
{ACAD_REACTORS
330
470B
102
}
330
470B
100
AcDbXrecord
280
     1
102
RTVSPost2010Prop28
280
     0
102
RTVSPost2010PropOp28
 70
     1
102
RTVSPost2010Prop29
280
     1
102
RTVSPost2010PropOp29
 70
     1
102
RTVSPost2010Prop30
280
     1
102
RTVSPost2010PropOp30
 70
     1
102
RTVSPost2010Prop31
280
     0
102
RTVSPost2010PropOp31
 70
     1
102
RTVSPost2010Prop32
280
     0
102
RTVSPost2010PropOp32
 70
     1
102
RTVSPost2010Prop33
280
     0
102
RTVSPost2010PropOp33
 70
     1
102
RTVSPost2010Prop34
280
     0
102
RTVSPost2010PropOp34
 70
     1
102
RTVSPost2010Prop35
280
     0
102
RTVSPost2010PropOp35
 70
     1
102
RTVSPost2010Prop36
280
     0
102
RTVSPost2010PropOp36
 70
     1
102
RTVSPost2010Prop37
 90
       50
102
RTVSPost2010PropOp37
 70
     1
102
RTVSPost2010Prop38
140
0.0
102
RTVSPost2010PropOp38
 70
     1
102
RTVSPost2010Prop39
140
1.0
102
RTVSPost2010PropOp39
 70
     1
102
RTVSPost2010Prop40
 90
        0
102
RTVSPost2010PropOp40
 70
     1
102
RTVSPost2010Prop41ColorIndex
 90
       18
102
RTVSPost2010Prop41ColorRGB
 90
        0
102
RTVSPost2010PropOp41
 70
     1
102
RTVSPost2010Prop42
 90
       50
102
RTVSPost2010PropOp42
 70
     1
102
RTVSPost2010Prop43
 90
        3
102
RTVSPost2010PropOp43
 70
     1
102
RTVSPost2010Prop44ColorIndex
 90
        5
102
RTVSPost2010Prop44ColorRGB
 90
      255
102
RTVSPost2010PropOp44
 70
     1
102
RTVSPost2010Prop45
280
     0
102
RTVSPost2010PropOp45
 70
     1
102
RTVSPost2010Prop46
 90
       50
102
RTVSPost2010PropOp46
 70
     1
102
RTVSPost2010Prop47
 90
       50
102
RTVSPost2010PropOp47
 70
     1
102
RTVSPost2010Prop48
 90
       50
102
RTVSPost2010PropOp48
 70
     1
102
RTVSPost2010Prop49
280
     0
102
RTVSPost2010PropOp49
 70
     1
102
RTVSPost2010Prop50
 90
       50
102
RTVSPost2010PropOp50
 70
     1
102
RTVSPost2010Prop51ColorIndex
 90
      256
102
RTVSPost2010Prop51ColorRGB
 90
-16777216
102
RTVSPost2010PropOp51
 70
     0
102
RTVSPost2010Prop52
140
1.0
102
RTVSPost2010PropOp52
 70
     0
102
RTVSPost2010Prop53
 90
        2
102
RTVSPost2010PropOp53
 70
     1
102
RTVSPost2010Prop54
  1
strokes_ogs.tif
102
RTVSPost2010PropOp54
 70
     1
102
RTVSPost2010Prop55
280
     0
102
RTVSPost2010PropOp55
 70
     1
102
RTVSPost2010Prop56
140
1.0
102
RTVSPost2010PropOp56
 70
     1
102
RTVSPost2010Prop57
140
1.0
102
RTVSPost2010PropOp57
 70
     1
102
RTVSPropertyOp0
 70
     1
102
RTVSPropertyOp1
 70
     1
102
RTVSPropertyOp2
 70
     1
102
RTVSPropertyOp3
 70
     1
102
RTVSPropertyOp4
 70
     1
102
RTVSPropertyOp5
 70
     1
102
RTVSPropertyOp6
 70
     1
102
RTVSPropertyOp7
 70
     1
102
RTVSPropertyOp8
 70
     1
102
RTVSPropertyOp9
 70
     1
102
RTVSPropertyOp10
 70
     1
102
RTVSPropertyOp11
 70
     1
102
RTVSPropertyOp12
 70
     1
102
RTVSPropertyOp13
 70
     1
102
RTVSPropertyOp14
 70
     1
102
RTVSPropertyOp15
 70
     1
102
RTVSPropertyOp16
 70
     1
102
RTVSPropertyOp17
 70
     1
102
RTVSPropertyOp18
 70
     1
102
RTVSPropertyOp19
 70
     1
102
RTVSPropertyOp20
 70
     1
102
RTVSPropertyOp21
 70
     1
102
RTVSPropertyOp22
 70
     1
102
RTVSPropertyOp23
 70
     1
102
RTVSPropertyOp24
 70
     1
102
RTVSPropertyOp25
 70
     1
102
RTVSPropertyOp26
 70
     1
102
RTVSPropertyOp27
 70
     1
102
RTVSPropertyOp28
 70
     1
102
RTVSPropertyOp29
 70
     1
102
RTVSPropertyOp30
 70
     1
102
RTVSPropertyOp31
 70
     1
102
RTVSPropertyOp32
 70
     1
102
RTVSPropertyOp33
 70
     1
102
RTVSPropertyOp34
 70
     1
102
RTVSPropertyOp35
 70
     1
102
RTVSPropertyOp36
 70
     1
102
RTVSPropertyOp37
 70
     1
102
RTVSPropertyOp38
 70
     1
102
RTVSPropertyOp39
 70
     1
102
RTVSPropertyOp40
 70
     1
102
RTVSPropertyOp41
 70
     1
102
RTVSPropertyOp42
 70
     1
102
RTVSPropertyOp43
 70
     1
102
RTVSPropertyOp44
 70
     1
102
RTVSPropertyOp45
 70
     1
102
RTVSPropertyOp46
 70
     1
102
RTVSPropertyOp47
 70
     1
102
RTVSPropertyOp48
 70
     1
102
RTVSPropertyOp49
 70
     1
102
RTVSPropertyOp50
 70
     1
102
RTVSPropertyOp51
 70
     0
102
RTVSPropertyOp52
 70
     0
102
RTVSPropertyOp53
 70
     1
102
RTVSPropertyOp54
 70
     1
102
RTVSPropertyOp55
 70
     1
102
RTVSPropertyOp56
 70
     1
102
RTVSPropertyOp57
 70
     1
102
RTVSPropertyOp58
 70
     1
102
RTVSPropertyOp59
 70
     1
102
RTVSPropertyOp60
 70
     1
102
RTVSPropertyOp61
 70
     1
102
RTVSPropertyOp62
 70
     1
  0
XRECORD
  5
4714
102
{ACAD_REACTORS
330
4713
102
}
330
4713
100
AcDbXrecord
280
     1
102
RTVSPost2010Prop28
280
     0
102
RTVSPost2010PropOp28
 70
     1
102
RTVSPost2010Prop29
280
     1
102
RTVSPost2010PropOp29
 70
     1
102
RTVSPost2010Prop30
280
     1
102
RTVSPost2010PropOp30
 70
     1
102
RTVSPost2010Prop31
280
     0
102
RTVSPost2010PropOp31
 70
     1
102
RTVSPost2010Prop32
280
     0
102
RTVSPost2010PropOp32
 70
     1
102
RTVSPost2010Prop33
280
     0
102
RTVSPost2010PropOp33
 70
     1
102
RTVSPost2010Prop34
280
     0
102
RTVSPost2010PropOp34
 70
     1
102
RTVSPost2010Prop35
280
     0
102
RTVSPost2010PropOp35
 70
     1
102
RTVSPost2010Prop36
280
     0
102
RTVSPost2010PropOp36
 70
     1
102
RTVSPost2010Prop37
 90
       50
102
RTVSPost2010PropOp37
 70
     1
102
RTVSPost2010Prop38
140
0.0
102
RTVSPost2010PropOp38
 70
     1
102
RTVSPost2010Prop39
140
1.0
102
RTVSPost2010PropOp39
 70
     1
102
RTVSPost2010Prop40
 90
        0
102
RTVSPost2010PropOp40
 70
     1
102
RTVSPost2010Prop41ColorIndex
 90
       18
102
RTVSPost2010Prop41ColorRGB
 90
        0
102
RTVSPost2010PropOp41
 70
     1
102
RTVSPost2010Prop42
 90
       50
102
RTVSPost2010PropOp42
 70
     1
102
RTVSPost2010Prop43
 90
        3
102
RTVSPost2010PropOp43
 70
     1
102
RTVSPost2010Prop44ColorIndex
 90
        5
102
RTVSPost2010Prop44ColorRGB
 90
      255
102
RTVSPost2010PropOp44
 70
     1
102
RTVSPost2010Prop45
280
     0
102
RTVSPost2010PropOp45
 70
     1
102
RTVSPost2010Prop46
 90
       50
102
RTVSPost2010PropOp46
 70
     1
102
RTVSPost2010Prop47
 90
       50
102
RTVSPost2010PropOp47
 70
     1
102
RTVSPost2010Prop48
 90
       50
102
RTVSPost2010PropOp48
 70
     1
102
RTVSPost2010Prop49
280
     0
102
RTVSPost2010PropOp49
 70
     1
102
RTVSPost2010Prop50
 90
       50
102
RTVSPost2010PropOp50
 70
     1
102
RTVSPost2010Prop51ColorIndex
 90
      256
102
RTVSPost2010Prop51ColorRGB
 90
-16777216
102
RTVSPost2010PropOp51
 70
     0
102
RTVSPost2010Prop52
140
1.0
102
RTVSPost2010PropOp52
 70
     0
102
RTVSPost2010Prop53
 90
        2
102
RTVSPost2010PropOp53
 70
     1
102
RTVSPost2010Prop54
  1
strokes_ogs.tif
102
RTVSPost2010PropOp54
 70
     1
102
RTVSPost2010Prop55
280
     0
102
RTVSPost2010PropOp55
 70
     1
102
RTVSPost2010Prop56
140
1.0
102
RTVSPost2010PropOp56
 70
     1
102
RTVSPost2010Prop57
140
1.0
102
RTVSPost2010PropOp57
 70
     1
102
RTVSPropertyOp0
 70
     0
102
RTVSPropertyOp1
 70
     0
102
RTVSPropertyOp2
 70
     0
102
RTVSPropertyOp3
 70
     0
102
RTVSPropertyOp4
 70
     0
102
RTVSPropertyOp5
 70
     0
102
RTVSPropertyOp6
 70
     0
102
RTVSPropertyOp7
 70
     0
102
RTVSPropertyOp8
 70
     0
102
RTVSPropertyOp9
 70
     0
102
RTVSPropertyOp10
 70
     0
102
RTVSPropertyOp11
 70
     0
102
RTVSPropertyOp12
 70
     0
102
RTVSPropertyOp13
 70
     0
102
RTVSPropertyOp14
 70
     2
102
RTVSPropertyOp15
 70
     0
102
RTVSPropertyOp16
 70
     0
102
RTVSPropertyOp17
 70
     0
102
RTVSPropertyOp18
 70
     0
102
RTVSPropertyOp19
 70
     0
102
RTVSPropertyOp20
 70
     0
102
RTVSPropertyOp21
 70
     0
102
RTVSPropertyOp22
 70
     0
102
RTVSPropertyOp23
 70
     0
102
RTVSPropertyOp24
 70
     0
102
RTVSPropertyOp25
 70
     0
102
RTVSPropertyOp26
 70
     0
102
RTVSPropertyOp27
 70
     0
102
RTVSPropertyOp28
 70
     1
102
RTVSPropertyOp29
 70
     1
102
RTVSPropertyOp30
 70
     1
102
RTVSPropertyOp31
 70
     1
102
RTVSPropertyOp32
 70
     1
102
RTVSPropertyOp33
 70
     1
102
RTVSPropertyOp34
 70
     1
102
RTVSPropertyOp35
 70
     1
102
RTVSPropertyOp36
 70
     1
102
RTVSPropertyOp37
 70
     1
102
RTVSPropertyOp38
 70
     1
102
RTVSPropertyOp39
 70
     1
102
RTVSPropertyOp40
 70
     1
102
RTVSPropertyOp41
 70
     1
102
RTVSPropertyOp42
 70
     1
102
RTVSPropertyOp43
 70
     1
102
RTVSPropertyOp44
 70
     1
102
RTVSPropertyOp45
 70
     1
102
RTVSPropertyOp46
 70
     1
102
RTVSPropertyOp47
 70
     1
102
RTVSPropertyOp48
 70
     1
102
RTVSPropertyOp49
 70
     1
102
RTVSPropertyOp50
 70
     1
102
RTVSPropertyOp51
 70
     0
102
RTVSPropertyOp52
 70
     0
102
RTVSPropertyOp53
 70
     1
102
RTVSPropertyOp54
 70
     1
102
RTVSPropertyOp55
 70
     1
102
RTVSPropertyOp56
 70
     1
102
RTVSPropertyOp57
 70
     1
102
RTVSPropertyOp58
 70
     1
102
RTVSPropertyOp59
 70
     1
102
RTVSPropertyOp60
 70
     1
102
RTVSPropertyOp61
 70
     1
102
RTVSPropertyOp62
 70
     1
  0
XRECORD
  5
4704
102
{ACAD_REACTORS
330
4703
102
}
330
4703
100
AcDbXrecord
280
     1
102
RTVSPost2010Prop28
280
     0
102
RTVSPost2010PropOp28
 70
     1
102
RTVSPost2010Prop29
280
     1
102
RTVSPost2010PropOp29
 70
     1
102
RTVSPost2010Prop30
280
     1
102
RTVSPost2010PropOp30
 70
     1
102
RTVSPost2010Prop31
280
     0
102
RTVSPost2010PropOp31
 70
     1
102
RTVSPost2010Prop32
280
     0
102
RTVSPost2010PropOp32
 70
     1
102
RTVSPost2010Prop33
280
     0
102
RTVSPost2010PropOp33
 70
     1
102
RTVSPost2010Prop34
280
     0
102
RTVSPost2010PropOp34
 70
     1
102
RTVSPost2010Prop35
280
     0
102
RTVSPost2010PropOp35
 70
     1
102
RTVSPost2010Prop36
280
     0
102
RTVSPost2010PropOp36
 70
     1
102
RTVSPost2010Prop37
 90
       50
102
RTVSPost2010PropOp37
 70
     1
102
RTVSPost2010Prop38
140
0.0
102
RTVSPost2010PropOp38
 70
     1
102
RTVSPost2010Prop39
140
1.0
102
RTVSPost2010PropOp39
 70
     1
102
RTVSPost2010Prop40
 90
        0
102
RTVSPost2010PropOp40
 70
     1
102
RTVSPost2010Prop41ColorIndex
 90
       18
102
RTVSPost2010Prop41ColorRGB
 90
        0
102
RTVSPost2010PropOp41
 70
     1
102
RTVSPost2010Prop42
 90
       50
102
RTVSPost2010PropOp42
 70
     1
102
RTVSPost2010Prop43
 90
        3
102
RTVSPost2010PropOp43
 70
     1
102
RTVSPost2010Prop44ColorIndex
 90
        5
102
RTVSPost2010Prop44ColorRGB
 90
      255
102
RTVSPost2010PropOp44
 70
     1
102
RTVSPost2010Prop45
280
     0
102
RTVSPost2010PropOp45
 70
     1
102
RTVSPost2010Prop46
 90
       50
102
RTVSPost2010PropOp46
 70
     1
102
RTVSPost2010Prop47
 90
       50
102
RTVSPost2010PropOp47
 70
     1
102
RTVSPost2010Prop48
 90
       50
102
RTVSPost2010PropOp48
 70
     1
102
RTVSPost2010Prop49
280
     0
102
RTVSPost2010PropOp49
 70
     1
102
RTVSPost2010Prop50
 90
       50
102
RTVSPost2010PropOp50
 70
     1
102
RTVSPost2010Prop51ColorIndex
 90
      256
102
RTVSPost2010Prop51ColorRGB
 90
-16777216
102
RTVSPost2010PropOp51
 70
     0
102
RTVSPost2010Prop52
140
1.0
102
RTVSPost2010PropOp52
 70
     0
102
RTVSPost2010Prop53
 90
        2
102
RTVSPost2010PropOp53
 70
     1
102
RTVSPost2010Prop54
  1
strokes_ogs.tif
102
RTVSPost2010PropOp54
 70
     1
102
RTVSPost2010Prop55
280
     0
102
RTVSPost2010PropOp55
 70
     1
102
RTVSPost2010Prop56
140
1.0
102
RTVSPost2010PropOp56
 70
     1
102
RTVSPost2010Prop57
140
1.0
102
RTVSPost2010PropOp57
 70
     1
102
RTVSPropertyOp0
 70
     1
102
RTVSPropertyOp1
 70
     1
102
RTVSPropertyOp2
 70
     1
102
RTVSPropertyOp3
 70
     1
102
RTVSPropertyOp4
 70
     1
102
RTVSPropertyOp5
 70
     1
102
RTVSPropertyOp6
 70
     1
102
RTVSPropertyOp7
 70
     1
102
RTVSPropertyOp8
 70
     1
102
RTVSPropertyOp9
 70
     1
102
RTVSPropertyOp10
 70
     1
102
RTVSPropertyOp11
 70
     1
102
RTVSPropertyOp12
 70
     1
102
RTVSPropertyOp13
 70
     1
102
RTVSPropertyOp14
 70
     1
102
RTVSPropertyOp15
 70
     1
102
RTVSPropertyOp16
 70
     1
102
RTVSPropertyOp17
 70
     1
102
RTVSPropertyOp18
 70
     1
102
RTVSPropertyOp19
 70
     1
102
RTVSPropertyOp20
 70
     1
102
RTVSPropertyOp21
 70
     1
102
RTVSPropertyOp22
 70
     1
102
RTVSPropertyOp23
 70
     1
102
RTVSPropertyOp24
 70
     1
102
RTVSPropertyOp25
 70
     1
102
RTVSPropertyOp26
 70
     1
102
RTVSPropertyOp27
 70
     1
102
RTVSPropertyOp28
 70
     1
102
RTVSPropertyOp29
 70
     1
102
RTVSPropertyOp30
 70
     1
102
RTVSPropertyOp31
 70
     1
102
RTVSPropertyOp32
 70
     1
102
RTVSPropertyOp33
 70
     1
102
RTVSPropertyOp34
 70
     1
102
RTVSPropertyOp35
 70
     1
102
RTVSPropertyOp36
 70
     1
102
RTVSPropertyOp37
 70
     1
102
RTVSPropertyOp38
 70
     1
102
RTVSPropertyOp39
 70
     1
102
RTVSPropertyOp40
 70
     1
102
RTVSPropertyOp41
 70
     1
102
RTVSPropertyOp42
 70
     1
102
RTVSPropertyOp43
 70
     1
102
RTVSPropertyOp44
 70
     1
102
RTVSPropertyOp45
 70
     1
102
RTVSPropertyOp46
 70
     1
102
RTVSPropertyOp47
 70
     1
102
RTVSPropertyOp48
 70
     1
102
RTVSPropertyOp49
 70
     1
102
RTVSPropertyOp50
 70
     1
102
RTVSPropertyOp51
 70
     0
102
RTVSPropertyOp52
 70
     0
102
RTVSPropertyOp53
 70
     1
102
RTVSPropertyOp54
 70
     1
102
RTVSPropertyOp55
 70
     1
102
RTVSPropertyOp56
 70
     1
102
RTVSPropertyOp57
 70
     1
102
RTVSPropertyOp58
 70
     1
102
RTVSPropertyOp59
 70
     1
102
RTVSPropertyOp60
 70
     1
102
RTVSPropertyOp61
 70
     1
102
RTVSPropertyOp62
 70
     1
  0
XRECORD
  5
4725
102
{ACAD_REACTORS
330
4724
102
}
330
4724
100
AcDbXrecord
280
     1
102
RTVSPost2010Prop28
280
     0
102
RTVSPost2010PropOp28
 70
     1
102
RTVSPost2010Prop29
280
     1
102
RTVSPost2010PropOp29
 70
     1
102
RTVSPost2010Prop30
280
     1
102
RTVSPost2010PropOp30
 70
     1
102
RTVSPost2010Prop31
280
     0
102
RTVSPost2010PropOp31
 70
     1
102
RTVSPost2010Prop32
280
     0
102
RTVSPost2010PropOp32
 70
     1
102
RTVSPost2010Prop33
280
     0
102
RTVSPost2010PropOp33
 70
     1
102
RTVSPost2010Prop34
280
     0
102
RTVSPost2010PropOp34
 70
     1
102
RTVSPost2010Prop35
280
     0
102
RTVSPost2010PropOp35
 70
     1
102
RTVSPost2010Prop36
280
     0
102
RTVSPost2010PropOp36
 70
     1
102
RTVSPost2010Prop37
 90
       50
102
RTVSPost2010PropOp37
 70
     1
102
RTVSPost2010Prop38
140
0.0
102
RTVSPost2010PropOp38
 70
     1
102
RTVSPost2010Prop39
140
1.0
102
RTVSPost2010PropOp39
 70
     1
102
RTVSPost2010Prop40
 90
        0
102
RTVSPost2010PropOp40
 70
     1
102
RTVSPost2010Prop41ColorIndex
 90
       18
102
RTVSPost2010Prop41ColorRGB
 90
        0
102
RTVSPost2010PropOp41
 70
     1
102
RTVSPost2010Prop42
 90
       50
102
RTVSPost2010PropOp42
 70
     1
102
RTVSPost2010Prop43
 90
        3
102
RTVSPost2010PropOp43
 70
     1
102
RTVSPost2010Prop44ColorIndex
 90
        5
102
RTVSPost2010Prop44ColorRGB
 90
      255
102
RTVSPost2010PropOp44
 70
     1
102
RTVSPost2010Prop45
280
     0
102
RTVSPost2010PropOp45
 70
     1
102
RTVSPost2010Prop46
 90
       50
102
RTVSPost2010PropOp46
 70
     1
102
RTVSPost2010Prop47
 90
       50
102
RTVSPost2010PropOp47
 70
     1
102
RTVSPost2010Prop48
 90
       50
102
RTVSPost2010PropOp48
 70
     1
102
RTVSPost2010Prop49
280
     0
102
RTVSPost2010PropOp49
 70
     1
102
RTVSPost2010Prop50
 90
       50
102
RTVSPost2010PropOp50
 70
     1
102
RTVSPost2010Prop51ColorIndex
 90
      256
102
RTVSPost2010Prop51ColorRGB
 90
-16777216
102
RTVSPost2010PropOp51
 70
     0
102
RTVSPost2010Prop52
140
1.0
102
RTVSPost2010PropOp52
 70
     0
102
RTVSPost2010Prop53
 90
        2
102
RTVSPost2010PropOp53
 70
     1
102
RTVSPost2010Prop54
  1
strokes_ogs.tif
102
RTVSPost2010PropOp54
 70
     1
102
RTVSPost2010Prop55
280
     0
102
RTVSPost2010PropOp55
 70
     1
102
RTVSPost2010Prop56
140
1.0
102
RTVSPost2010PropOp56
 70
     1
102
RTVSPost2010Prop57
140
1.0
102
RTVSPost2010PropOp57
 70
     1
102
RTVSPropertyOp0
 70
     1
102
RTVSPropertyOp1
 70
     1
102
RTVSPropertyOp2
 70
     1
102
RTVSPropertyOp3
 70
     1
102
RTVSPropertyOp4
 70
     1
102
RTVSPropertyOp5
 70
     1
102
RTVSPropertyOp6
 70
     1
102
RTVSPropertyOp7
 70
     1
102
RTVSPropertyOp8
 70
     1
102
RTVSPropertyOp9
 70
     1
102
RTVSPropertyOp10
 70
     1
102
RTVSPropertyOp11
 70
     1
102
RTVSPropertyOp12
 70
     1
102
RTVSPropertyOp13
 70
     1
102
RTVSPropertyOp14
 70
     1
102
RTVSPropertyOp15
 70
     1
102
RTVSPropertyOp16
 70
     1
102
RTVSPropertyOp17
 70
     1
102
RTVSPropertyOp18
 70
     1
102
RTVSPropertyOp19
 70
     1
102
RTVSPropertyOp20
 70
     1
102
RTVSPropertyOp21
 70
     1
102
RTVSPropertyOp22
 70
     1
102
RTVSPropertyOp23
 70
     1
102
RTVSPropertyOp24
 70
     1
102
RTVSPropertyOp25
 70
     1
102
RTVSPropertyOp26
 70
     1
102
RTVSPropertyOp27
 70
     1
102
RTVSPropertyOp28
 70
     1
102
RTVSPropertyOp29
 70
     1
102
RTVSPropertyOp30
 70
     1
102
RTVSPropertyOp31
 70
     1
102
RTVSPropertyOp32
 70
     1
102
RTVSPropertyOp33
 70
     1
102
RTVSPropertyOp34
 70
     1
102
RTVSPropertyOp35
 70
     1
102
RTVSPropertyOp36
 70
     1
102
RTVSPropertyOp37
 70
     1
102
RTVSPropertyOp38
 70
     1
102
RTVSPropertyOp39
 70
     1
102
RTVSPropertyOp40
 70
     1
102
RTVSPropertyOp41
 70
     1
102
RTVSPropertyOp42
 70
     1
102
RTVSPropertyOp43
 70
     1
102
RTVSPropertyOp44
 70
     1
102
RTVSPropertyOp45
 70
     1
102
RTVSPropertyOp46
 70
     1
102
RTVSPropertyOp47
 70
     1
102
RTVSPropertyOp48
 70
     1
102
RTVSPropertyOp49
 70
     1
102
RTVSPropertyOp50
 70
     1
102
RTVSPropertyOp51
 70
     0
102
RTVSPropertyOp52
 70
     0
102
RTVSPropertyOp53
 70
     1
102
RTVSPropertyOp54
 70
     1
102
RTVSPropertyOp55
 70
     1
102
RTVSPropertyOp56
 70
     1
102
RTVSPropertyOp57
 70
     1
102
RTVSPropertyOp58
 70
     1
102
RTVSPropertyOp59
 70
     1
102
RTVSPropertyOp60
 70
     1
102
RTVSPropertyOp61
 70
     1
102
RTVSPropertyOp62
 70
     1
  0
XRECORD
  5
4723
102
{ACAD_REACTORS
330
4722
102
}
330
4722
100
AcDbXrecord
280
     1
102
RTVSPost2010Prop28
280
     0
102
RTVSPost2010PropOp28
 70
     1
102
RTVSPost2010Prop29
280
     1
102
RTVSPost2010PropOp29
 70
     1
102
RTVSPost2010Prop30
280
     1
102
RTVSPost2010PropOp30
 70
     1
102
RTVSPost2010Prop31
280
     0
102
RTVSPost2010PropOp31
 70
     1
102
RTVSPost2010Prop32
280
     0
102
RTVSPost2010PropOp32
 70
     1
102
RTVSPost2010Prop33
280
     0
102
RTVSPost2010PropOp33
 70
     1
102
RTVSPost2010Prop34
280
     0
102
RTVSPost2010PropOp34
 70
     1
102
RTVSPost2010Prop35
280
     0
102
RTVSPost2010PropOp35
 70
     1
102
RTVSPost2010Prop36
280
     0
102
RTVSPost2010PropOp36
 70
     1
102
RTVSPost2010Prop37
 90
       50
102
RTVSPost2010PropOp37
 70
     1
102
RTVSPost2010Prop38
140
0.0
102
RTVSPost2010PropOp38
 70
     1
102
RTVSPost2010Prop39
140
1.0
102
RTVSPost2010PropOp39
 70
     1
102
RTVSPost2010Prop40
 90
        0
102
RTVSPost2010PropOp40
 70
     1
102
RTVSPost2010Prop41ColorIndex
 90
       18
102
RTVSPost2010Prop41ColorRGB
 90
        0
102
RTVSPost2010PropOp41
 70
     1
102
RTVSPost2010Prop42
 90
       50
102
RTVSPost2010PropOp42
 70
     1
102
RTVSPost2010Prop43
 90
        3
102
RTVSPost2010PropOp43
 70
     1
102
RTVSPost2010Prop44ColorIndex
 90
        5
102
RTVSPost2010Prop44ColorRGB
 90
      255
102
RTVSPost2010PropOp44
 70
     1
102
RTVSPost2010Prop45
280
     0
102
RTVSPost2010PropOp45
 70
     1
102
RTVSPost2010Prop46
 90
       50
102
RTVSPost2010PropOp46
 70
     1
102
RTVSPost2010Prop47
 90
       50
102
RTVSPost2010PropOp47
 70
     1
102
RTVSPost2010Prop48
 90
       50
102
RTVSPost2010PropOp48
 70
     1
102
RTVSPost2010Prop49
280
     0
102
RTVSPost2010PropOp49
 70
     1
102
RTVSPost2010Prop50
 90
       50
102
RTVSPost2010PropOp50
 70
     1
102
RTVSPost2010Prop51ColorIndex
 90
      256
102
RTVSPost2010Prop51ColorRGB
 90
-16777216
102
RTVSPost2010PropOp51
 70
     0
102
RTVSPost2010Prop52
140
1.0
102
RTVSPost2010PropOp52
 70
     0
102
RTVSPost2010Prop53
 90
        2
102
RTVSPost2010PropOp53
 70
     1
102
RTVSPost2010Prop54
  1
strokes_ogs.tif
102
RTVSPost2010PropOp54
 70
     1
102
RTVSPost2010Prop55
280
     0
102
RTVSPost2010PropOp55
 70
     1
102
RTVSPost2010Prop56
140
1.0
102
RTVSPost2010PropOp56
 70
     1
102
RTVSPost2010Prop57
140
1.0
102
RTVSPost2010PropOp57
 70
     1
102
RTVSPropertyOp0
 70
     1
102
RTVSPropertyOp1
 70
     1
102
RTVSPropertyOp2
 70
     1
102
RTVSPropertyOp3
 70
     1
102
RTVSPropertyOp4
 70
     1
102
RTVSPropertyOp5
 70
     1
102
RTVSPropertyOp6
 70
     1
102
RTVSPropertyOp7
 70
     1
102
RTVSPropertyOp8
 70
     1
102
RTVSPropertyOp9
 70
     1
102
RTVSPropertyOp10
 70
     1
102
RTVSPropertyOp11
 70
     1
102
RTVSPropertyOp12
 70
     1
102
RTVSPropertyOp13
 70
     1
102
RTVSPropertyOp14
 70
     1
102
RTVSPropertyOp15
 70
     1
102
RTVSPropertyOp16
 70
     1
102
RTVSPropertyOp17
 70
     1
102
RTVSPropertyOp18
 70
     1
102
RTVSPropertyOp19
 70
     1
102
RTVSPropertyOp20
 70
     1
102
RTVSPropertyOp21
 70
     1
102
RTVSPropertyOp22
 70
     1
102
RTVSPropertyOp23
 70
     1
102
RTVSPropertyOp24
 70
     1
102
RTVSPropertyOp25
 70
     1
102
RTVSPropertyOp26
 70
     1
102
RTVSPropertyOp27
 70
     1
102
RTVSPropertyOp28
 70
     1
102
RTVSPropertyOp29
 70
     1
102
RTVSPropertyOp30
 70
     1
102
RTVSPropertyOp31
 70
     1
102
RTVSPropertyOp32
 70
     1
102
RTVSPropertyOp33
 70
     1
102
RTVSPropertyOp34
 70
     1
102
RTVSPropertyOp35
 70
     1
102
RTVSPropertyOp36
 70
     1
102
RTVSPropertyOp37
 70
     1
102
RTVSPropertyOp38
 70
     1
102
RTVSPropertyOp39
 70
     1
102
RTVSPropertyOp40
 70
     1
102
RTVSPropertyOp41
 70
     1
102
RTVSPropertyOp42
 70
     1
102
RTVSPropertyOp43
 70
     1
102
RTVSPropertyOp44
 70
     1
102
RTVSPropertyOp45
 70
     1
102
RTVSPropertyOp46
 70
     1
102
RTVSPropertyOp47
 70
     1
102
RTVSPropertyOp48
 70
     1
102
RTVSPropertyOp49
 70
     1
102
RTVSPropertyOp50
 70
     1
102
RTVSPropertyOp51
 70
     0
102
RTVSPropertyOp52
 70
     0
102
RTVSPropertyOp53
 70
     1
102
RTVSPropertyOp54
 70
     1
102
RTVSPropertyOp55
 70
     1
102
RTVSPropertyOp56
 70
     1
102
RTVSPropertyOp57
 70
     1
102
RTVSPropertyOp58
 70
     1
102
RTVSPropertyOp59
 70
     1
102
RTVSPropertyOp60
 70
     1
102
RTVSPropertyOp61
 70
     1
102
RTVSPropertyOp62
 70
     1
  0
XRECORD
  5
471D
102
{ACAD_REACTORS
330
471C
102
}
330
471C
100
AcDbXrecord
280
     1
102
RTVSPost2010Prop28
280
     0
102
RTVSPost2010PropOp28
 70
     1
102
RTVSPost2010Prop29
280
     1
102
RTVSPost2010PropOp29
 70
     1
102
RTVSPost2010Prop30
280
     1
102
RTVSPost2010PropOp30
 70
     1
102
RTVSPost2010Prop31
280
     0
102
RTVSPost2010PropOp31
 70
     1
102
RTVSPost2010Prop32
280
     0
102
RTVSPost2010PropOp32
 70
     1
102
RTVSPost2010Prop33
280
     0
102
RTVSPost2010PropOp33
 70
     1
102
RTVSPost2010Prop34
280
     0
102
RTVSPost2010PropOp34
 70
     1
102
RTVSPost2010Prop35
280
     0
102
RTVSPost2010PropOp35
 70
     1
102
RTVSPost2010Prop36
280
     0
102
RTVSPost2010PropOp36
 70
     1
102
RTVSPost2010Prop37
 90
       50
102
RTVSPost2010PropOp37
 70
     1
102
RTVSPost2010Prop38
140
0.0
102
RTVSPost2010PropOp38
 70
     1
102
RTVSPost2010Prop39
140
1.0
102
RTVSPost2010PropOp39
 70
     1
102
RTVSPost2010Prop40
 90
        0
102
RTVSPost2010PropOp40
 70
     1
102
RTVSPost2010Prop41ColorIndex
 90
       18
102
RTVSPost2010Prop41ColorRGB
 90
        0
102
RTVSPost2010PropOp41
 70
     1
102
RTVSPost2010Prop42
 90
       50
102
RTVSPost2010PropOp42
 70
     1
102
RTVSPost2010Prop43
 90
        3
102
RTVSPost2010PropOp43
 70
     1
102
RTVSPost2010Prop44ColorIndex
 90
        5
102
RTVSPost2010Prop44ColorRGB
 90
      255
102
RTVSPost2010PropOp44
 70
     1
102
RTVSPost2010Prop45
280
     0
102
RTVSPost2010PropOp45
 70
     1
102
RTVSPost2010Prop46
 90
       50
102
RTVSPost2010PropOp46
 70
     1
102
RTVSPost2010Prop47
 90
       50
102
RTVSPost2010PropOp47
 70
     1
102
RTVSPost2010Prop48
 90
       50
102
RTVSPost2010PropOp48
 70
     1
102
RTVSPost2010Prop49
280
     0
102
RTVSPost2010PropOp49
 70
     1
102
RTVSPost2010Prop50
 90
       50
102
RTVSPost2010PropOp50
 70
     1
102
RTVSPost2010Prop51ColorIndex
 90
      256
102
RTVSPost2010Prop51ColorRGB
 90
-16777216
102
RTVSPost2010PropOp51
 70
     0
102
RTVSPost2010Prop52
140
1.0
102
RTVSPost2010PropOp52
 70
     0
102
RTVSPost2010Prop53
 90
        2
102
RTVSPost2010PropOp53
 70
     1
102
RTVSPost2010Prop54
  1
strokes_ogs.tif
102
RTVSPost2010PropOp54
 70
     1
102
RTVSPost2010Prop55
280
     0
102
RTVSPost2010PropOp55
 70
     1
102
RTVSPost2010Prop56
140
1.0
102
RTVSPost2010PropOp56
 70
     1
102
RTVSPost2010Prop57
140
1.0
102
RTVSPost2010PropOp57
 70
     1
102
RTVSPropertyOp0
 70
     1
102
RTVSPropertyOp1
 70
     1
102
RTVSPropertyOp2
 70
     1
102
RTVSPropertyOp3
 70
     1
102
RTVSPropertyOp4
 70
     1
102
RTVSPropertyOp5
 70
     1
102
RTVSPropertyOp6
 70
     1
102
RTVSPropertyOp7
 70
     1
102
RTVSPropertyOp8
 70
     1
102
RTVSPropertyOp9
 70
     1
102
RTVSPropertyOp10
 70
     1
102
RTVSPropertyOp11
 70
     1
102
RTVSPropertyOp12
 70
     1
102
RTVSPropertyOp13
 70
     1
102
RTVSPropertyOp14
 70
     1
102
RTVSPropertyOp15
 70
     1
102
RTVSPropertyOp16
 70
     1
102
RTVSPropertyOp17
 70
     1
102
RTVSPropertyOp18
 70
     1
102
RTVSPropertyOp19
 70
     1
102
RTVSPropertyOp20
 70
     1
102
RTVSPropertyOp21
 70
     1
102
RTVSPropertyOp22
 70
     1
102
RTVSPropertyOp23
 70
     1
102
RTVSPropertyOp24
 70
     1
102
RTVSPropertyOp25
 70
     1
102
RTVSPropertyOp26
 70
     1
102
RTVSPropertyOp27
 70
     1
102
RTVSPropertyOp28
 70
     1
102
RTVSPropertyOp29
 70
     1
102
RTVSPropertyOp30
 70
     1
102
RTVSPropertyOp31
 70
     1
102
RTVSPropertyOp32
 70
     1
102
RTVSPropertyOp33
 70
     1
102
RTVSPropertyOp34
 70
     1
102
RTVSPropertyOp35
 70
     1
102
RTVSPropertyOp36
 70
     1
102
RTVSPropertyOp37
 70
     1
102
RTVSPropertyOp38
 70
     1
102
RTVSPropertyOp39
 70
     1
102
RTVSPropertyOp40
 70
     1
102
RTVSPropertyOp41
 70
     1
102
RTVSPropertyOp42
 70
     1
102
RTVSPropertyOp43
 70
     1
102
RTVSPropertyOp44
 70
     1
102
RTVSPropertyOp45
 70
     1
102
RTVSPropertyOp46
 70
     1
102
RTVSPropertyOp47
 70
     1
102
RTVSPropertyOp48
 70
     1
102
RTVSPropertyOp49
 70
     1
102
RTVSPropertyOp50
 70
     1
102
RTVSPropertyOp51
 70
     0
102
RTVSPropertyOp52
 70
     0
102
RTVSPropertyOp53
 70
     1
102
RTVSPropertyOp54
 70
     1
102
RTVSPropertyOp55
 70
     1
102
RTVSPropertyOp56
 70
     1
102
RTVSPropertyOp57
 70
     1
102
RTVSPropertyOp58
 70
     1
102
RTVSPropertyOp59
 70
     1
102
RTVSPropertyOp60
 70
     1
102
RTVSPropertyOp61
 70
     1
102
RTVSPropertyOp62
 70
     1
  0
XRECORD
  5
471F
102
{ACAD_REACTORS
330
471E
102
}
330
471E
100
AcDbXrecord
280
     1
102
RTVSPost2010Prop28
280
     0
102
RTVSPost2010PropOp28
 70
     1
102
RTVSPost2010Prop29
280
     1
102
RTVSPost2010PropOp29
 70
     1
102
RTVSPost2010Prop30
280
     1
102
RTVSPost2010PropOp30
 70
     1
102
RTVSPost2010Prop31
280
     0
102
RTVSPost2010PropOp31
 70
     1
102
RTVSPost2010Prop32
280
     0
102
RTVSPost2010PropOp32
 70
     1
102
RTVSPost2010Prop33
280
     0
102
RTVSPost2010PropOp33
 70
     1
102
RTVSPost2010Prop34
280
     0
102
RTVSPost2010PropOp34
 70
     1
102
RTVSPost2010Prop35
280
     0
102
RTVSPost2010PropOp35
 70
     1
102
RTVSPost2010Prop36
280
     0
102
RTVSPost2010PropOp36
 70
     1
102
RTVSPost2010Prop37
 90
       50
102
RTVSPost2010PropOp37
 70
     1
102
RTVSPost2010Prop38
140
0.0
102
RTVSPost2010PropOp38
 70
     1
102
RTVSPost2010Prop39
140
1.0
102
RTVSPost2010PropOp39
 70
     1
102
RTVSPost2010Prop40
 90
        0
102
RTVSPost2010PropOp40
 70
     1
102
RTVSPost2010Prop41ColorIndex
 90
       18
102
RTVSPost2010Prop41ColorRGB
 90
        0
102
RTVSPost2010PropOp41
 70
     1
102
RTVSPost2010Prop42
 90
       50
102
RTVSPost2010PropOp42
 70
     1
102
RTVSPost2010Prop43
 90
        3
102
RTVSPost2010PropOp43
 70
     1
102
RTVSPost2010Prop44ColorIndex
 90
        5
102
RTVSPost2010Prop44ColorRGB
 90
      255
102
RTVSPost2010PropOp44
 70
     1
102
RTVSPost2010Prop45
280
     0
102
RTVSPost2010PropOp45
 70
     1
102
RTVSPost2010Prop46
 90
       50
102
RTVSPost2010PropOp46
 70
     1
102
RTVSPost2010Prop47
 90
       50
102
RTVSPost2010PropOp47
 70
     1
102
RTVSPost2010Prop48
 90
       50
102
RTVSPost2010PropOp48
 70
     1
102
RTVSPost2010Prop49
280
     0
102
RTVSPost2010PropOp49
 70
     1
102
RTVSPost2010Prop50
 90
       50
102
RTVSPost2010PropOp50
 70
     1
102
RTVSPost2010Prop51ColorIndex
 90
      256
102
RTVSPost2010Prop51ColorRGB
 90
-16777216
102
RTVSPost2010PropOp51
 70
     0
102
RTVSPost2010Prop52
140
1.0
102
RTVSPost2010PropOp52
 70
     0
102
RTVSPost2010Prop53
 90
        2
102
RTVSPost2010PropOp53
 70
     1
102
RTVSPost2010Prop54
  1
strokes_ogs.tif
102
RTVSPost2010PropOp54
 70
     1
102
RTVSPost2010Prop55
280
     0
102
RTVSPost2010PropOp55
 70
     1
102
RTVSPost2010Prop56
140
1.0
102
RTVSPost2010PropOp56
 70
     1
102
RTVSPost2010Prop57
140
1.0
102
RTVSPost2010PropOp57
 70
     1
102
RTVSPropertyOp0
 70
     1
102
RTVSPropertyOp1
 70
     1
102
RTVSPropertyOp2
 70
     1
102
RTVSPropertyOp3
 70
     1
102
RTVSPropertyOp4
 70
     1
102
RTVSPropertyOp5
 70
     1
102
RTVSPropertyOp6
 70
     1
102
RTVSPropertyOp7
 70
     1
102
RTVSPropertyOp8
 70
     1
102
RTVSPropertyOp9
 70
     1
102
RTVSPropertyOp10
 70
     1
102
RTVSPropertyOp11
 70
     1
102
RTVSPropertyOp12
 70
     1
102
RTVSPropertyOp13
 70
     1
102
RTVSPropertyOp14
 70
     1
102
RTVSPropertyOp15
 70
     1
102
RTVSPropertyOp16
 70
     1
102
RTVSPropertyOp17
 70
     1
102
RTVSPropertyOp18
 70
     1
102
RTVSPropertyOp19
 70
     1
102
RTVSPropertyOp20
 70
     1
102
RTVSPropertyOp21
 70
     1
102
RTVSPropertyOp22
 70
     1
102
RTVSPropertyOp23
 70
     1
102
RTVSPropertyOp24
 70
     1
102
RTVSPropertyOp25
 70
     1
102
RTVSPropertyOp26
 70
     1
102
RTVSPropertyOp27
 70
     1
102
RTVSPropertyOp28
 70
     1
102
RTVSPropertyOp29
 70
     1
102
RTVSPropertyOp30
 70
     1
102
RTVSPropertyOp31
 70
     1
102
RTVSPropertyOp32
 70
     1
102
RTVSPropertyOp33
 70
     1
102
RTVSPropertyOp34
 70
     1
102
RTVSPropertyOp35
 70
     1
102
RTVSPropertyOp36
 70
     1
102
RTVSPropertyOp37
 70
     1
102
RTVSPropertyOp38
 70
     1
102
RTVSPropertyOp39
 70
     1
102
RTVSPropertyOp40
 70
     1
102
RTVSPropertyOp41
 70
     1
102
RTVSPropertyOp42
 70
     1
102
RTVSPropertyOp43
 70
     1
102
RTVSPropertyOp44
 70
     1
102
RTVSPropertyOp45
 70
     1
102
RTVSPropertyOp46
 70
     1
102
RTVSPropertyOp47
 70
     1
102
RTVSPropertyOp48
 70
     1
102
RTVSPropertyOp49
 70
     1
102
RTVSPropertyOp50
 70
     1
102
RTVSPropertyOp51
 70
     0
102
RTVSPropertyOp52
 70
     0
102
RTVSPropertyOp53
 70
     1
102
RTVSPropertyOp54
 70
     1
102
RTVSPropertyOp55
 70
     1
102
RTVSPropertyOp56
 70
     1
102
RTVSPropertyOp57
 70
     1
102
RTVSPropertyOp58
 70
     1
102
RTVSPropertyOp59
 70
     1
102
RTVSPropertyOp60
 70
     1
102
RTVSPropertyOp61
 70
     1
102
RTVSPropertyOp62
 70
     1
  0
XRECORD
  5
470A
102
{ACAD_REACTORS
330
4709
102
}
330
4709
100
AcDbXrecord
280
     1
102
RTVSPost2010Prop28
280
     0
102
RTVSPost2010PropOp28
 70
     1
102
RTVSPost2010Prop29
280
     1
102
RTVSPost2010PropOp29
 70
     1
102
RTVSPost2010Prop30
280
     1
102
RTVSPost2010PropOp30
 70
     1
102
RTVSPost2010Prop31
280
     0
102
RTVSPost2010PropOp31
 70
     1
102
RTVSPost2010Prop32
280
     0
102
RTVSPost2010PropOp32
 70
     1
102
RTVSPost2010Prop33
280
     0
102
RTVSPost2010PropOp33
 70
     1
102
RTVSPost2010Prop34
280
     0
102
RTVSPost2010PropOp34
 70
     1
102
RTVSPost2010Prop35
280
     0
102
RTVSPost2010PropOp35
 70
     1
102
RTVSPost2010Prop36
280
     0
102
RTVSPost2010PropOp36
 70
     1
102
RTVSPost2010Prop37
 90
       50
102
RTVSPost2010PropOp37
 70
     1
102
RTVSPost2010Prop38
140
0.0
102
RTVSPost2010PropOp38
 70
     1
102
RTVSPost2010Prop39
140
1.0
102
RTVSPost2010PropOp39
 70
     1
102
RTVSPost2010Prop40
 90
        0
102
RTVSPost2010PropOp40
 70
     1
102
RTVSPost2010Prop41ColorIndex
 90
       18
102
RTVSPost2010Prop41ColorRGB
 90
        0
102
RTVSPost2010PropOp41
 70
     1
102
RTVSPost2010Prop42
 90
       50
102
RTVSPost2010PropOp42
 70
     1
102
RTVSPost2010Prop43
 90
        3
102
RTVSPost2010PropOp43
 70
     1
102
RTVSPost2010Prop44ColorIndex
 90
        5
102
RTVSPost2010Prop44ColorRGB
 90
      255
102
RTVSPost2010PropOp44
 70
     1
102
RTVSPost2010Prop45
280
     0
102
RTVSPost2010PropOp45
 70
     1
102
RTVSPost2010Prop46
 90
       50
102
RTVSPost2010PropOp46
 70
     1
102
RTVSPost2010Prop47
 90
       50
102
RTVSPost2010PropOp47
 70
     1
102
RTVSPost2010Prop48
 90
       50
102
RTVSPost2010PropOp48
 70
     1
102
RTVSPost2010Prop49
280
     0
102
RTVSPost2010PropOp49
 70
     1
102
RTVSPost2010Prop50
 90
       50
102
RTVSPost2010PropOp50
 70
     1
102
RTVSPost2010Prop51ColorIndex
 90
      256
102
RTVSPost2010Prop51ColorRGB
 90
-16777216
102
RTVSPost2010PropOp51
 70
     0
102
RTVSPost2010Prop52
140
1.0
102
RTVSPost2010PropOp52
 70
     0
102
RTVSPost2010Prop53
 90
        2
102
RTVSPost2010PropOp53
 70
     1
102
RTVSPost2010Prop54
  1
strokes_ogs.tif
102
RTVSPost2010PropOp54
 70
     1
102
RTVSPost2010Prop55
280
     0
102
RTVSPost2010PropOp55
 70
     1
102
RTVSPost2010Prop56
140
1.0
102
RTVSPost2010PropOp56
 70
     1
102
RTVSPost2010Prop57
140
1.0
102
RTVSPost2010PropOp57
 70
     1
102
RTVSPropertyOp0
 70
     1
102
RTVSPropertyOp1
 70
     1
102
RTVSPropertyOp2
 70
     1
102
RTVSPropertyOp3
 70
     1
102
RTVSPropertyOp4
 70
     1
102
RTVSPropertyOp5
 70
     1
102
RTVSPropertyOp6
 70
     1
102
RTVSPropertyOp7
 70
     1
102
RTVSPropertyOp8
 70
     1
102
RTVSPropertyOp9
 70
     1
102
RTVSPropertyOp10
 70
     1
102
RTVSPropertyOp11
 70
     1
102
RTVSPropertyOp12
 70
     1
102
RTVSPropertyOp13
 70
     1
102
RTVSPropertyOp14
 70
     1
102
RTVSPropertyOp15
 70
     1
102
RTVSPropertyOp16
 70
     1
102
RTVSPropertyOp17
 70
     1
102
RTVSPropertyOp18
 70
     1
102
RTVSPropertyOp19
 70
     1
102
RTVSPropertyOp20
 70
     1
102
RTVSPropertyOp21
 70
     1
102
RTVSPropertyOp22
 70
     1
102
RTVSPropertyOp23
 70
     1
102
RTVSPropertyOp24
 70
     1
102
RTVSPropertyOp25
 70
     1
102
RTVSPropertyOp26
 70
     1
102
RTVSPropertyOp27
 70
     1
102
RTVSPropertyOp28
 70
     1
102
RTVSPropertyOp29
 70
     1
102
RTVSPropertyOp30
 70
     1
102
RTVSPropertyOp31
 70
     1
102
RTVSPropertyOp32
 70
     1
102
RTVSPropertyOp33
 70
     1
102
RTVSPropertyOp34
 70
     1
102
RTVSPropertyOp35
 70
     1
102
RTVSPropertyOp36
 70
     1
102
RTVSPropertyOp37
 70
     1
102
RTVSPropertyOp38
 70
     1
102
RTVSPropertyOp39
 70
     1
102
RTVSPropertyOp40
 70
     1
102
RTVSPropertyOp41
 70
     1
102
RTVSPropertyOp42
 70
     1
102
RTVSPropertyOp43
 70
     1
102
RTVSPropertyOp44
 70
     1
102
RTVSPropertyOp45
 70
     1
102
RTVSPropertyOp46
 70
     1
102
RTVSPropertyOp47
 70
     1
102
RTVSPropertyOp48
 70
     1
102
RTVSPropertyOp49
 70
     1
102
RTVSPropertyOp50
 70
     1
102
RTVSPropertyOp51
 70
     0
102
RTVSPropertyOp52
 70
     0
102
RTVSPropertyOp53
 70
     1
102
RTVSPropertyOp54
 70
     1
102
RTVSPropertyOp55
 70
     1
102
RTVSPropertyOp56
 70
     1
102
RTVSPropertyOp57
 70
     1
102
RTVSPropertyOp58
 70
     1
102
RTVSPropertyOp59
 70
     1
102
RTVSPropertyOp60
 70
     1
102
RTVSPropertyOp61
 70
     1
102
RTVSPropertyOp62
 70
     1
  0
XRECORD
  5
4719
102
{ACAD_REACTORS
330
4718
102
}
330
4718
100
AcDbXrecord
280
     1
102
RTVSPost2010Prop28
280
     0
102
RTVSPost2010PropOp28
 70
     1
102
RTVSPost2010Prop29
280
     1
102
RTVSPost2010PropOp29
 70
     1
102
RTVSPost2010Prop30
280
     1
102
RTVSPost2010PropOp30
 70
     1
102
RTVSPost2010Prop31
280
     0
102
RTVSPost2010PropOp31
 70
     1
102
RTVSPost2010Prop32
280
     0
102
RTVSPost2010PropOp32
 70
     1
102
RTVSPost2010Prop33
280
     0
102
RTVSPost2010PropOp33
 70
     1
102
RTVSPost2010Prop34
280
     0
102
RTVSPost2010PropOp34
 70
     1
102
RTVSPost2010Prop35
280
     0
102
RTVSPost2010PropOp35
 70
     1
102
RTVSPost2010Prop36
280
     0
102
RTVSPost2010PropOp36
 70
     1
102
RTVSPost2010Prop37
 90
       50
102
RTVSPost2010PropOp37
 70
     1
102
RTVSPost2010Prop38
140
0.0
102
RTVSPost2010PropOp38
 70
     1
102
RTVSPost2010Prop39
140
1.0
102
RTVSPost2010PropOp39
 70
     1
102
RTVSPost2010Prop40
 90
        0
102
RTVSPost2010PropOp40
 70
     1
102
RTVSPost2010Prop41ColorIndex
 90
       18
102
RTVSPost2010Prop41ColorRGB
 90
        0
102
RTVSPost2010PropOp41
 70
     1
102
RTVSPost2010Prop42
 90
       50
102
RTVSPost2010PropOp42
 70
     1
102
RTVSPost2010Prop43
 90
        3
102
RTVSPost2010PropOp43
 70
     1
102
RTVSPost2010Prop44ColorIndex
 90
        5
102
RTVSPost2010Prop44ColorRGB
 90
      255
102
RTVSPost2010PropOp44
 70
     1
102
RTVSPost2010Prop45
280
     0
102
RTVSPost2010PropOp45
 70
     1
102
RTVSPost2010Prop46
 90
       50
102
RTVSPost2010PropOp46
 70
     1
102
RTVSPost2010Prop47
 90
       50
102
RTVSPost2010PropOp47
 70
     1
102
RTVSPost2010Prop48
 90
       50
102
RTVSPost2010PropOp48
 70
     1
102
RTVSPost2010Prop49
280
     0
102
RTVSPost2010PropOp49
 70
     1
102
RTVSPost2010Prop50
 90
       50
102
RTVSPost2010PropOp50
 70
     1
102
RTVSPost2010Prop51ColorIndex
 90
      256
102
RTVSPost2010Prop51ColorRGB
 90
-16777216
102
RTVSPost2010PropOp51
 70
     0
102
RTVSPost2010Prop52
140
1.0
102
RTVSPost2010PropOp52
 70
     0
102
RTVSPost2010Prop53
 90
        2
102
RTVSPost2010PropOp53
 70
     1
102
RTVSPost2010Prop54
  1
strokes_ogs.tif
102
RTVSPost2010PropOp54
 70
     1
102
RTVSPost2010Prop55
280
     0
102
RTVSPost2010PropOp55
 70
     1
102
RTVSPost2010Prop56
140
1.0
102
RTVSPost2010PropOp56
 70
     1
102
RTVSPost2010Prop57
140
1.0
102
RTVSPost2010PropOp57
 70
     1
102
RTVSPropertyOp0
 70
     1
102
RTVSPropertyOp1
 70
     1
102
RTVSPropertyOp2
 70
     1
102
RTVSPropertyOp3
 70
     1
102
RTVSPropertyOp4
 70
     1
102
RTVSPropertyOp5
 70
     1
102
RTVSPropertyOp6
 70
     1
102
RTVSPropertyOp7
 70
     1
102
RTVSPropertyOp8
 70
     1
102
RTVSPropertyOp9
 70
     1
102
RTVSPropertyOp10
 70
     1
102
RTVSPropertyOp11
 70
     1
102
RTVSPropertyOp12
 70
     1
102
RTVSPropertyOp13
 70
     1
102
RTVSPropertyOp14
 70
     1
102
RTVSPropertyOp15
 70
     1
102
RTVSPropertyOp16
 70
     1
102
RTVSPropertyOp17
 70
     1
102
RTVSPropertyOp18
 70
     1
102
RTVSPropertyOp19
 70
     1
102
RTVSPropertyOp20
 70
     1
102
RTVSPropertyOp21
 70
     1
102
RTVSPropertyOp22
 70
     1
102
RTVSPropertyOp23
 70
     1
102
RTVSPropertyOp24
 70
     1
102
RTVSPropertyOp25
 70
     1
102
RTVSPropertyOp26
 70
     1
102
RTVSPropertyOp27
 70
     1
102
RTVSPropertyOp28
 70
     1
102
RTVSPropertyOp29
 70
     1
102
RTVSPropertyOp30
 70
     1
102
RTVSPropertyOp31
 70
     1
102
RTVSPropertyOp32
 70
     1
102
RTVSPropertyOp33
 70
     1
102
RTVSPropertyOp34
 70
     1
102
RTVSPropertyOp35
 70
     1
102
RTVSPropertyOp36
 70
     1
102
RTVSPropertyOp37
 70
     1
102
RTVSPropertyOp38
 70
     1
102
RTVSPropertyOp39
 70
     1
102
RTVSPropertyOp40
 70
     1
102
RTVSPropertyOp41
 70
     1
102
RTVSPropertyOp42
 70
     1
102
RTVSPropertyOp43
 70
     1
102
RTVSPropertyOp44
 70
     1
102
RTVSPropertyOp45
 70
     1
102
RTVSPropertyOp46
 70
     1
102
RTVSPropertyOp47
 70
     1
102
RTVSPropertyOp48
 70
     1
102
RTVSPropertyOp49
 70
     1
102
RTVSPropertyOp50
 70
     1
102
RTVSPropertyOp51
 70
     0
102
RTVSPropertyOp52
 70
     0
102
RTVSPropertyOp53
 70
     1
102
RTVSPropertyOp54
 70
     1
102
RTVSPropertyOp55
 70
     1
102
RTVSPropertyOp56
 70
     1
102
RTVSPropertyOp57
 70
     1
102
RTVSPropertyOp58
 70
     1
102
RTVSPropertyOp59
 70
     1
102
RTVSPropertyOp60
 70
     1
102
RTVSPropertyOp61
 70
     1
102
RTVSPropertyOp62
 70
     1
  0
XRECORD
  5
4721
102
{ACAD_REACTORS
330
4720
102
}
330
4720
100
AcDbXrecord
280
     1
102
RTVSPost2010Prop28
280
     0
102
RTVSPost2010PropOp28
 70
     1
102
RTVSPost2010Prop29
280
     1
102
RTVSPost2010PropOp29
 70
     1
102
RTVSPost2010Prop30
280
     1
102
RTVSPost2010PropOp30
 70
     1
102
RTVSPost2010Prop31
280
     0
102
RTVSPost2010PropOp31
 70
     1
102
RTVSPost2010Prop32
280
     0
102
RTVSPost2010PropOp32
 70
     1
102
RTVSPost2010Prop33
280
     0
102
RTVSPost2010PropOp33
 70
     1
102
RTVSPost2010Prop34
280
     0
102
RTVSPost2010PropOp34
 70
     1
102
RTVSPost2010Prop35
280
     0
102
RTVSPost2010PropOp35
 70
     1
102
RTVSPost2010Prop36
280
     0
102
RTVSPost2010PropOp36
 70
     1
102
RTVSPost2010Prop37
 90
       50
102
RTVSPost2010PropOp37
 70
     1
102
RTVSPost2010Prop38
140
0.0
102
RTVSPost2010PropOp38
 70
     1
102
RTVSPost2010Prop39
140
1.0
102
RTVSPost2010PropOp39
 70
     1
102
RTVSPost2010Prop40
 90
        0
102
RTVSPost2010PropOp40
 70
     1
102
RTVSPost2010Prop41ColorIndex
 90
       18
102
RTVSPost2010Prop41ColorRGB
 90
        0
102
RTVSPost2010PropOp41
 70
     1
102
RTVSPost2010Prop42
 90
       50
102
RTVSPost2010PropOp42
 70
     1
102
RTVSPost2010Prop43
 90
        3
102
RTVSPost2010PropOp43
 70
     1
102
RTVSPost2010Prop44ColorIndex
 90
        5
102
RTVSPost2010Prop44ColorRGB
 90
      255
102
RTVSPost2010PropOp44
 70
     1
102
RTVSPost2010Prop45
280
     0
102
RTVSPost2010PropOp45
 70
     1
102
RTVSPost2010Prop46
 90
       50
102
RTVSPost2010PropOp46
 70
     1
102
RTVSPost2010Prop47
 90
       50
102
RTVSPost2010PropOp47
 70
     1
102
RTVSPost2010Prop48
 90
       50
102
RTVSPost2010PropOp48
 70
     1
102
RTVSPost2010Prop49
280
     0
102
RTVSPost2010PropOp49
 70
     1
102
RTVSPost2010Prop50
 90
       50
102
RTVSPost2010PropOp50
 70
     1
102
RTVSPost2010Prop51ColorIndex
 90
      256
102
RTVSPost2010Prop51ColorRGB
 90
-16777216
102
RTVSPost2010PropOp51
 70
     0
102
RTVSPost2010Prop52
140
1.0
102
RTVSPost2010PropOp52
 70
     0
102
RTVSPost2010Prop53
 90
        2
102
RTVSPost2010PropOp53
 70
     1
102
RTVSPost2010Prop54
  1
strokes_ogs.tif
102
RTVSPost2010PropOp54
 70
     1
102
RTVSPost2010Prop55
280
     0
102
RTVSPost2010PropOp55
 70
     1
102
RTVSPost2010Prop56
140
1.0
102
RTVSPost2010PropOp56
 70
     1
102
RTVSPost2010Prop57
140
1.0
102
RTVSPost2010PropOp57
 70
     1
102
RTVSPropertyOp0
 70
     1
102
RTVSPropertyOp1
 70
     1
102
RTVSPropertyOp2
 70
     1
102
RTVSPropertyOp3
 70
     1
102
RTVSPropertyOp4
 70
     1
102
RTVSPropertyOp5
 70
     1
102
RTVSPropertyOp6
 70
     1
102
RTVSPropertyOp7
 70
     1
102
RTVSPropertyOp8
 70
     1
102
RTVSPropertyOp9
 70
     1
102
RTVSPropertyOp10
 70
     1
102
RTVSPropertyOp11
 70
     1
102
RTVSPropertyOp12
 70
     1
102
RTVSPropertyOp13
 70
     1
102
RTVSPropertyOp14
 70
     1
102
RTVSPropertyOp15
 70
     1
102
RTVSPropertyOp16
 70
     1
102
RTVSPropertyOp17
 70
     1
102
RTVSPropertyOp18
 70
     1
102
RTVSPropertyOp19
 70
     1
102
RTVSPropertyOp20
 70
     1
102
RTVSPropertyOp21
 70
     1
102
RTVSPropertyOp22
 70
     1
102
RTVSPropertyOp23
 70
     1
102
RTVSPropertyOp24
 70
     1
102
RTVSPropertyOp25
 70
     1
102
RTVSPropertyOp26
 70
     1
102
RTVSPropertyOp27
 70
     1
102
RTVSPropertyOp28
 70
     1
102
RTVSPropertyOp29
 70
     1
102
RTVSPropertyOp30
 70
     1
102
RTVSPropertyOp31
 70
     1
102
RTVSPropertyOp32
 70
     1
102
RTVSPropertyOp33
 70
     1
102
RTVSPropertyOp34
 70
     1
102
RTVSPropertyOp35
 70
     1
102
RTVSPropertyOp36
 70
     1
102
RTVSPropertyOp37
 70
     1
102
RTVSPropertyOp38
 70
     1
102
RTVSPropertyOp39
 70
     1
102
RTVSPropertyOp40
 70
     1
102
RTVSPropertyOp41
 70
     1
102
RTVSPropertyOp42
 70
     1
102
RTVSPropertyOp43
 70
     1
102
RTVSPropertyOp44
 70
     1
102
RTVSPropertyOp45
 70
     1
102
RTVSPropertyOp46
 70
     1
102
RTVSPropertyOp47
 70
     1
102
RTVSPropertyOp48
 70
     1
102
RTVSPropertyOp49
 70
     1
102
RTVSPropertyOp50
 70
     1
102
RTVSPropertyOp51
 70
     0
102
RTVSPropertyOp52
 70
     0
102
RTVSPropertyOp53
 70
     1
102
RTVSPropertyOp54
 70
     1
102
RTVSPropertyOp55
 70
     1
102
RTVSPropertyOp56
 70
     1
102
RTVSPropertyOp57
 70
     1
102
RTVSPropertyOp58
 70
     1
102
RTVSPropertyOp59
 70
     1
102
RTVSPropertyOp60
 70
     1
102
RTVSPropertyOp61
 70
     1
102
RTVSPropertyOp62
 70
     1
  0
ENDSEC
  0
EOF
