  0
SECTION
  2
HEADER
  9
$ACADVER
  1
AC1015
  9
$ACADMAINTVER
 70
    20
  9
$DWGCODEPAGE
  3
ANSI_932
  9
$INSBASE
 10
0.0
 20
0.0
 30
0.0
  9
$EXTMIN
 10
-0.1299314821735606
 20
-0.0901285281279343
 30
-0.0000000000112498
  9
$EXTMAX
 10
552.1825572490952
 20
382.1262332987753
 30
0.0000000000002956
  9
$LIMMIN
 10
0.0
 20
0.0
  9
$LIMMAX
 10
2840.0
 20
1970.0
  9
$ORTHOMODE
 70
     0
  9
$REGENMODE
 70
     1
  9
$FILLMODE
 70
     1
  9
$QTEXTMODE
 70
     0
  9
$MIRRTEXT
 70
     1
  9
$LTSCALE
 40
1.0
  9
$ATTMODE
 70
     1
  9
$TEXTSIZE
 40
2.5
  9
$TRACEWID
 40
1.0
  9
$TEXTSTYLE
  7
Standard
  9
$CLAYER
  8
0
  9
$CELTYPE
  6
ByLayer
  9
$CECOLOR
 62
   256
  9
$CELTSCALE
 40
1.0
  9
$DISPSILH
 70
     0
  9
$DIMSCALE
 40
2.0
  9
$DIMASZ
 40
0.8
  9
$DIMEXO
 40
1.0
  9
$DIMDLI
 40
0.0
  9
$DIMRND
 40
0.0
  9
$DIMDLE
 40
0.0
  9
$DIMEXE
 40
0.0
  9
$DIMTP
 40
0.0
  9
$DIMTM
 40
0.0
  9
$DIMTXT
 40
2.0
  9
$DIMCEN
 40
2.5
  9
$DIMTSZ
 40
0.0
  9
$DIMTOL
 70
     0
  9
$DIMLIM
 70
     0
  9
$DIMTIH
 70
     0
  9
$DIMTOH
 70
     0
  9
$DIMSE1
 70
     0
  9
$DIMSE2
 70
     0
  9
$DIMTAD
 70
     2
  9
$DIMZIN
 70
     8
  9
$DIMBLK
  1

  9
$DIMASO
 70
     1
  9
$DIMSHO
 70
     1
  9
$DIMPOST
  1

  9
$DIMAPOST
  1

  9
$DIMALT
 70
     0
  9
$DIMALTD
 70
     4
  9
$DIMALTF
 40
0.0394
  9
$DIMLFAC
 40
1.0
  9
$DIMTOFL
 70
     1
  9
$DIMTVP
 40
0.0
  9
$DIMTIX
 70
     0
  9
$DIMSOXD
 70
     0
  9
$DIMSAH
 70
     1
  9
$DIMBLK1
  1
DOT
  9
$DIMBLK2
  1
DOT
  9
$DIMSTYLE
  2
STANDARD
  9
$DIMCLRD
 70
     0
  9
$DIMCLRE
 70
     0
  9
$DIMCLRT
 70
     0
  9
$DIMTFAC
 40
1.0
  9
$DIMGAP
 40
0.1
  9
$DIMJUST
 70
     0
  9
$DIMSD1
 70
     0
  9
$DIMSD2
 70
     0
  9
$DIMTOLJ
 70
     1
  9
$DIMTZIN
 70
     0
  9
$DIMALTZ
 70
     0
  9
$DIMALTTZ
 70
     0
  9
$DIMUPT
 70
     0
  9
$DIMDEC
 70
     4
  9
$DIMTDEC
 70
     4
  9
$DIMALTU
 70
     8
  9
$DIMALTTD
 70
     4
  9
$DIMTXSTY
  7
Standard
  9
$DIMAUNIT
 70
     0
  9
$DIMADEC
 70
     0
  9
$DIMALTRND
 40
0.0
  9
$DIMAZIN
 70
     0
  9
$DIMDSEP
 70
    46
  9
$DIMATFIT
 70
     3
  9
$DIMFRAC
 70
     0
  9
$DIMLDRBLK
  1
DOT
  9
$DIMLUNIT
 70
     2
  9
$DIMLWD
 70
    -2
  9
$DIMLWE
 70
    -2
  9
$DIMTMOVE
 70
     1
  9
$LUNITS
 70
     2
  9
$LUPREC
 70
     8
  9
$SKETCHINC
 40
1.0
  9
$FILLETRAD
 40
0.0
  9
$AUNITS
 70
     0
  9
$AUPREC
 70
     8
  9
$MENU
  1
.
  9
$ELEVATION
 40
0.0
  9
$PELEVATION
 40
0.0
  9
$THICKNESS
 40
0.0
  9
$LIMCHECK
 70
     0
  9
$CHAMFERA
 40
10.0
  9
$CHAMFERB
 40
10.0
  9
$CHAMFERC
 40
20.0
  9
$CHAMFERD
 40
0.0
  9
$SKPOLY
 70
     0
  9
$TDCREATE
 40
2453276.413761574
  9
$TDUCREATE
 40
2453276.038766620
  9
$TDUPDATE
 40
2459989.484004630
  9
$TDUUPDATE
 40
2459989.109004630
  9
$TDINDWG
 40
0.2517183681
  9
$TDUSRTIMER
 40
0.2517183681
  9
$USRTIMER
 70
     1
  9
$ANGBASE
 50
0.0
  9
$ANGDIR
 70
     0
  9
$PDMODE
 70
     0
  9
$PDSIZE
 40
0.0
  9
$PLINEWID
 40
0.0
  9
$SPLFRAME
 70
     0
  9
$SPLINETYPE
 70
     6
  9
$SPLINESEGS
 70
     8
  9
$HANDSEED
  5
446D
  9
$SURFTAB1
 70
     6
  9
$SURFTAB2
 70
     6
  9
$SURFTYPE
 70
     6
  9
$SURFU
 70
     6
  9
$SURFV
 70
     6
  9
$UCSBASE
  2

  9
$UCSNAME
  2

  9
$UCSORG
 10
0.0
 20
0.0
 30
0.0
  9
$UCSXDIR
 10
1.0
 20
0.0
 30
0.0
  9
$UCSYDIR
 10
0.0
 20
1.0
 30
0.0
  9
$UCSORTHOREF
  2

  9
$UCSORTHOVIEW
 70
     0
  9
$UCSORGTOP
 10
0.0
 20
0.0
 30
0.0
  9
$UCSORGBOTTOM
 10
0.0
 20
0.0
 30
0.0
  9
$UCSORGLEFT
 10
0.0
 20
0.0
 30
0.0
  9
$UCSORGRIGHT
 10
0.0
 20
0.0
 30
0.0
  9
$UCSORGFRONT
 10
0.0
 20
0.0
 30
0.0
  9
$UCSORGBACK
 10
0.0
 20
0.0
 30
0.0
  9
$PUCSBASE
  2

  9
$PUCSNAME
  2

  9
$PUCSORG
 10
0.0
 20
0.0
 30
0.0
  9
$PUCSXDIR
 10
1.0
 20
0.0
 30
0.0
  9
$PUCSYDIR
 10
0.0
 20
1.0
 30
0.0
  9
$PUCSORTHOREF
  2

  9
$PUCSORTHOVIEW
 70
     0
  9
$PUCSORGTOP
 10
0.0
 20
0.0
 30
0.0
  9
$PUCSORGBOTTOM
 10
0.0
 20
0.0
 30
0.0
  9
$PUCSORGLEFT
 10
0.0
 20
0.0
 30
0.0
  9
$PUCSORGRIGHT
 10
0.0
 20
0.0
 30
0.0
  9
$PUCSORGFRONT
 10
0.0
 20
0.0
 30
0.0
  9
$PUCSORGBACK
 10
0.0
 20
0.0
 30
0.0
  9
$USERI1
 70
     0
  9
$USERI2
 70
     0
  9
$USERI3
 70
     0
  9
$USERI4
 70
     0
  9
$USERI5
 70
     0
  9
$USERR1
 40
0.0
  9
$USERR2
 40
0.0
  9
$USERR3
 40
0.0
  9
$USERR4
 40
0.0
  9
$USERR5
 40
0.0
  9
$WORLDVIEW
 70
     1
  9
$SHADEDGE
 70
     2
  9
$SHADEDIF
 70
    70
  9
$TILEMODE
 70
     1
  9
$MAXACTVP
 70
    64
  9
$PINSBASE
 10
0.0
 20
0.0
 30
0.0
  9
$PLIMCHECK
 70
     0
  9
$PEXTMIN
 10
0.0
 20
0.0
 30
0.0
  9
$PEXTMAX
 10
0.0
 20
0.0
 30
0.0
  9
$PLIMMIN
 10
0.0
 20
0.0
  9
$PLIMMAX
 10
12.0
 20
9.0
  9
$UNITMODE
 70
     0
  9
$VISRETAIN
 70
     1
  9
$PLINEGEN
 70
     0
  9
$PSLTSCALE
 70
     1
  9
$TREEDEPTH
 70
  3020
  9
$CMLSTYLE
  2
Standard
  9
$CMLJUST
 70
     0
  9
$CMLSCALE
 40
20.0
  9
$PROXYGRAPHICS
 70
     1
  9
$MEASUREMENT
 70
     1
  9
$CELWEIGHT
370
    -1
  9
$ENDCAPS
280
     0
  9
$JOINSTYLE
280
     0
  9
$LWDISPLAY
290
     0
  9
$INSUNITS
 70
     4
  9
$HYPERLINKBASE
  1

  9
$STYLESHEET
  1
monochrome.stb
  9
$XEDIT
290
     1
  9
$CEPSNTYPE
380
     0
  9
$PSTYLEMODE
290
     1
  9
$FINGERPRINTGUID
  2
{B4E61C12-08AD-407D-A83C-7C7812CA1D8B}
  9
$VERSIONGUID
  2
{CCA22D83-AF78-284E-97D9-F516CC33D1A1}
  9
$EXTNAMES
290
     1
  9
$PSVPSCALE
 40
0.0
  9
$OLESTARTUP
290
     0
  0
ENDSEC
  0
SECTION
  2
CLASSES
  0
CLASS
  1
ACDBDICTIONARYWDFLT
  2
AcDbDictionaryWithDefault
  3
ObjectDBX Classes
 90
        0
280
     0
281
     0
  0
CLASS
  1
ACDBPLACEHOLDER
  2
AcDbPlaceHolder
  3
ObjectDBX Classes
 90
        0
280
     0
281
     0
  0
CLASS
  1
LAYOUT
  2
AcDbLayout
  3
ObjectDBX Classes
 90
        0
280
     0
281
     0
  0
CLASS
  1
DICTIONARYVAR
  2
AcDbDictionaryVar
  3
ObjectDBX Classes
 90
        0
280
     0
281
     0
  0
CLASS
  1
SORTENTSTABLE
  2
AcDbSortentsTable
  3
ObjectDBX Classes
 90
        0
280
     0
281
     0
  0
CLASS
  1
MATERIAL
  2
AcDbMaterial
  3
ObjectDBX Classes
 90
     1153
280
     0
281
     0
  0
CLASS
  1
VISUALSTYLE
  2
AcDbVisualStyle
  3
ObjectDBX Classes
 90
     4095
280
     0
281
     0
  0
CLASS
  1
TABLESTYLE
  2
AcDbTableStyle
  3
ObjectDBX Classes
 90
     4095
280
     0
281
     0
  0
CLASS
  1
SCALE
  2
AcDbScale
  3
ObjectDBX Classes
 90
     1153
280
     0
281
     0
  0
CLASS
  1
MLEADERSTYLE
  2
AcDbMLeaderStyle
  3
ACDB_MLEADERSTYLE_CLASS
 90
     4095
280
     0
281
     0
  0
CLASS
  1
AEC_REFEDIT_STATUS_TRACKER
  2
AecDbRefEditStatusTracker
  3
AecArchBase80|Product Desc: Autodesk Architectural Desktop 2007 |Company: Autodesk,Inc. |WEB Address: www.autodesk.com
 90
    32897
280
     0
281
     0
  0
CLASS
  1
NPOCOLLECTION
  2
AcDbImpNonPersistentObjectsCollection
  3
ObjectDBX Classes
 90
    33921
280
     0
281
     0
  0
CLASS
  1
CELLSTYLEMAP
  2
AcDbCellStyleMap
  3
ObjectDBX Classes
 90
     1152
280
     0
281
     0
  0
CLASS
  1
ACDBSECTIONVIEWSTYLE
  2
AcDbSectionViewStyle
  3
ObjectDBX Classes
 90
     1025
280
     0
281
     0
  0
CLASS
  1
ACDBDETAILVIEWSTYLE
  2
AcDbDetailViewStyle
  3
ObjectDBX Classes
 90
     1025
280
     0
281
     0
  0
ENDSEC
  0
SECTION
  2
TABLES
  0
TABLE
  2
VPORT
  5
8
102
{ACAD_XDICTIONARY
360
3CFE
102
}
330
0
100
AcDbSymbolTable
 70
     1
  0
VPORT
  5
3C4E
330
8
100
AcDbSymbolTableRecord
100
AcDbViewportTableRecord
  2
*Active
 70
     0
 10
0.0
 20
0.0
 11
1.0
 21
1.0
 12
276.0263128834608
 22
191.0180523853237
 13
0.0
 23
0.0
 14
10.0
 24
10.0
 15
10.0
 25
10.0
 16
0.0
 26
0.0
 36
1.0
 17
0.0
 27
0.0
 37
0.0
 40
385.0475941367322
 41
2.122373300370828
 42
50.0
 43
0.0
 44
0.0
 50
0.0
 51
0.0
 71
     0
 72
   100
 73
     1
 74
     3
 75
     0
 76
     0
 77
     0
 78
     0
281
     0
 65
     1
110
0.0
120
0.0
130
0.0
111
1.0
121
0.0
131
0.0
112
0.0
122
1.0
132
0.0
 79
     0
146
0.0
1001
ACAD_NAV_VCDISPLAY
1070
     3
  0
ENDTAB
  0
TABLE
  2
LTYPE
  5
5
330
0
100
AcDbSymbolTable
 70
     3
  0
LTYPE
  5
14
330
5
100
AcDbSymbolTableRecord
100
AcDbLinetypeTableRecord
  2
ByBlock
 70
     0
  3

 72
    65
 73
     0
 40
0.0
  0
LTYPE
  5
15
330
5
100
AcDbSymbolTableRecord
100
AcDbLinetypeTableRecord
  2
ByLayer
 70
     0
  3

 72
    65
 73
     0
 40
0.0
  0
LTYPE
  5
16
330
5
100
AcDbSymbolTableRecord
100
AcDbLinetypeTableRecord
  2
Continuous
 70
     0
  3
Solid line
 72
    65
 73
     0
 40
0.0
  0
LTYPE
  5
2B0B
330
5
100
AcDbSymbolTableRecord
100
AcDbLinetypeTableRecord
  2
DASHED
 70
     0
  3
__ __ __ __ __ __ __ __ __ __ __ __ __ __ __ __
 72
    65
 73
     2
 40
0.75
 49
0.5
 74
     0
 49
-0.25
 74
     0
  0
LTYPE
  5
41EE
330
5
100
AcDbSymbolTableRecord
100
AcDbLinetypeTableRecord
  2
DASHED1
 70
     0
  3
--  --  --  --  --  --  --  --  
 72
    65
 73
     2
 40
2.5
 49
1.25
 74
     0
 49
-1.25
 74
     0
  0
ENDTAB
  0
TABLE
  2
LAYER
  5
2
102
{ACAD_XDICTIONARY
360
2D
102
}
330
0
100
AcDbSymbolTable
 70
     8
  0
LAYER
  5
10
102
{ACAD_XDICTIONARY
360
3CF0
102
}
330
2
100
AcDbSymbolTableRecord
100
AcDbLayerTableRecord
  2
0
 70
     0
 62
     7
  6
Continuous
290
     0
370
    -3
390
29
  0
LAYER
  5
2301
330
2
100
AcDbSymbolTableRecord
100
AcDbLayerTableRecord
  2
Defpoints
 70
     0
 62
     7
  6
Continuous
290
     0
370
    -3
390
F
  0
LAYER
  5
2388
102
{ACAD_XDICTIONARY
360
3CF2
102
}
330
2
100
AcDbSymbolTableRecord
100
AcDbLayerTableRecord
  2
moji
 70
     0
 62
     7
  6
Continuous
370
    -3
390
29
  0
LAYER
  5
238A
102
{ACAD_XDICTIONARY
360
3CF4
102
}
330
2
100
AcDbSymbolTableRecord
100
AcDbLayerTableRecord
  2
SUNPO
 70
     0
 62
     7
  6
Continuous
370
    -3
390
29
  0
LAYER
  5
2757
102
{ACAD_XDICTIONARY
360
3CF6
102
}
330
2
100
AcDbSymbolTableRecord
100
AcDbLayerTableRecord
  2
KANAMONO
 70
     0
 62
     5
  6
Continuous
370
    -3
390
29
  0
LAYER
  5
2758
102
{ACAD_XDICTIONARY
360
3CF8
102
}
330
2
100
AcDbSymbolTableRecord
100
AcDbLayerTableRecord
  2
KANAMONO_SCREW
 70
     0
 62
     4
  6
Continuous
370
    -3
390
29
  0
LAYER
  5
3DED
102
{ACAD_XDICTIONARY
360
3DEE
102
}
330
2
100
AcDbSymbolTableRecord
100
AcDbLayerTableRecord
  2
WAKU
 70
     0
 62
     7
  6
Continuous
370
    -3
390
29
  0
LAYER
  5
41EF
102
{ACAD_XDICTIONARY
360
41F0
102
}
330
2
100
AcDbSymbolTableRecord
100
AcDbLayerTableRecord
  2
single
 70
     0
 62
     6
  6
Continuous
370
    -3
390
F
  0
ENDTAB
  0
TABLE
  2
STYLE
  5
3
330
0
100
AcDbSymbolTable
 70
     2
  0
STYLE
  5
11
330
3
100
AcDbSymbolTableRecord
100
AcDbTextStyleTableRecord
  2
Standard
 70
     0
 40
0.0
 41
1.0
 50
0.0
 71
     0
 42
2.5
  3

  4

1001
ACAD
1000
MS Gothic
1071
    32817
  0
STYLE
  5
3DEF
330
3
100
AcDbSymbolTableRecord
100
AcDbTextStyleTableRecord
  2
MSゴシック
 70
     0
 40
0.0
 41
1.0
 50
0.0
 71
     0
 42
2.5
  3

  4

1001
ACAD
1000
MS Gothic
1071
    32817
  0
ENDTAB
  0
TABLE
  2
VIEW
  5
6
330
0
100
AcDbSymbolTable
 70
     0
  0
ENDTAB
  0
TABLE
  2
UCS
  5
7
330
0
100
AcDbSymbolTable
 70
     0
  0
ENDTAB
  0
TABLE
  2
APPID
  5
9
330
0
100
AcDbSymbolTable
 70
     7
  0
APPID
  5
12
330
9
100
AcDbSymbolTableRecord
100
AcDbRegAppTableRecord
  2
ACAD
 70
     0
  0
APPID
  5
3D2E
330
9
100
AcDbSymbolTableRecord
100
AcDbRegAppTableRecord
  2
ACAD_MLEADERVER
 70
     0
  0
APPID
  5
3D70
330
9
100
AcDbSymbolTableRecord
100
AcDbRegAppTableRecord
  2
ACAD_EXEMPT_FROM_CAD_STANDARDS
 70
     0
  0
APPID
  5
3DF0
330
9
100
AcDbSymbolTableRecord
100
AcDbRegAppTableRecord
  2
ACAD_PSEXT
 70
     0
  0
APPID
  5
3DF1
330
9
100
AcDbSymbolTableRecord
100
AcDbRegAppTableRecord
  2
ACAD_NAV_VCDISPLAY
 70
     0
  0
APPID
  5
3FF3
330
9
100
AcDbSymbolTableRecord
100
AcDbRegAppTableRecord
  2
AcadAnnoPO
 70
     0
  0
APPID
  5
407F
330
9
100
AcDbSymbolTableRecord
100
AcDbRegAppTableRecord
  2
Acad_TC
 70
     0
  0
ENDTAB
  0
TABLE
  2
DIMSTYLE
  5
A
330
0
100
AcDbSymbolTable
 70
     1
100
AcDbDimStyleTable
 71
     1
340
22E4
  0
DIMSTYLE
105
22E4
330
A
100
AcDbSymbolTableRecord
100
AcDbDimStyleTableRecord
  2
STANDARD
 70
     0
 40
2.0
 41
0.8
 42
1.0
 43
0.0
 44
0.0
 73
     0
 74
     0
 77
     2
 78
     8
140
2.0
141
2.5
143
0.0394
147
0.1
171
     4
172
     1
173
     1
273
     8
274
     4
279
     1
340
11
341
903
343
903
344
903
  0
ENDTAB
  0
TABLE
  2
BLOCK_RECORD
  5
1
330
0
100
AcDbSymbolTable
 70
    10
  0
BLOCK_RECORD
  5
1F
102
{ACAD_XDICTIONARY
360
1C62
102
}
330
1
100
AcDbSymbolTableRecord
100
AcDbBlockTableRecord
  2
*Model_Space
340
22
  0
BLOCK_RECORD
  5
1CD0
330
1
100
AcDbSymbolTableRecord
100
AcDbBlockTableRecord
  2
*Paper_Space
340
1CD1
  0
BLOCK_RECORD
  5
903
330
1
100
AcDbSymbolTableRecord
100
AcDbBlockTableRecord
  2
_DOT
340
0
102
{BLKREFS
331
4083
331
4084
331
408C
331
408D
331
4095
331
4096
331
409E
331
409F
331
40A7
331
40A8
331
40B0
331
40B1
331
40B8
331
40B9
331
42DA
331
42DB
331
42E0
331
42E1
331
42E6
331
42E7
331
42EC
331
42ED
331
42F1
331
42F2
331
42F7
331
42F8
331
42FD
331
42FE
102
}
  0
BLOCK_RECORD
  5
2A86
330
1
100
AcDbSymbolTableRecord
100
AcDbBlockTableRecord
  2
s6r-60
340
0
310
2800000020000000200000000100080000000000000400000000000000000000000000000000000000000000000080000080000000808000800000008000800080800000C0C0C000C0DCC000F0CAA6000020400000206000002080000020A0000020C0000020E00000400000004020000040400000406000004080000040A0
310
000040C0000040E00000600000006020000060400000606000006080000060A0000060C0000060E00000800000008020000080400000806000008080000080A0000080C0000080E00000A0000000A0200000A0400000A0600000A0800000A0A00000A0C00000A0E00000C0000000C0200000C0400000C0600000C0800000C0
310
A00000C0C00000C0E00000E0000000E0200000E0400000E0600000E0800000E0A00000E0C00000E0E00040000000400020004000400040006000400080004000A0004000C0004000E00040200000402020004020400040206000402080004020A0004020C0004020E000404000004040200040404000404060004040800040
310
40A0004040C0004040E00040600000406020004060400040606000406080004060A0004060C0004060E00040800000408020004080400040806000408080004080A0004080C0004080E00040A0000040A0200040A0400040A0600040A0800040A0A00040A0C00040A0E00040C0000040C0200040C0400040C0600040C08000
310
40C0A00040C0C00040C0E00040E0000040E0200040E0400040E0600040E0800040E0A00040E0C00040E0E00080000000800020008000400080006000800080008000A0008000C0008000E00080200000802020008020400080206000802080008020A0008020C0008020E00080400000804020008040400080406000804080
310
008040A0008040C0008040E00080600000806020008060400080606000806080008060A0008060C0008060E00080800000808020008080400080806000808080008080A0008080C0008080E00080A0000080A0200080A0400080A0600080A0800080A0A00080A0C00080A0E00080C0000080C0200080C0400080C0600080C0
310
800080C0A00080C0C00080C0E00080E0000080E0200080E0400080E0600080E0800080E0A00080E0C00080E0E000C0000000C0002000C0004000C0006000C0008000C000A000C000C000C000E000C0200000C0202000C0204000C0206000C0208000C020A000C020C000C020E000C0400000C0402000C0404000C0406000C0
310
408000C040A000C040C000C040E000C0600000C0602000C0604000C0606000C0608000C060A000C060C000C060E000C0800000C0802000C0804000C0806000C0808000C080A000C080C000C080E000C0A00000C0A02000C0A04000C0A06000C0A08000C0A0A000C0A0C000C0A0E000C0C00000C0C02000C0C04000C0C06000
310
C0C08000C0C0A000F0FBFF00A4A0A000808080000000FF0000FF000000FFFF00FF000000FF00FF00FFFF0000FFFFFF00FFFFFFFFFFFFFFFFFFFFFFFFFFFFFFFFFFFFFFFFFFFFFFFFFFFFFFFFFFFFFFFFFFFFFFFFFFFFFFFFFFFFFFFFFFFFFFFFFEFFFFFFFFFFFFFFFFFFFFFFFFFFFFFFFFFFFFFFFFFFFFFFFFFFFFFFFFFFFF
310
FEFEFFFFFFFFFFFFFFFFFFFFFFFFFFFFFFFFFFFFFFFFFFFFFFFFFFFFFFFFFFFEFEFEFEFFFFFFFFFFFFFFFFFFFFFFFFFFFFFFFFFFFFFFFFFFFFFFFFFFFFFFFEFEFEFEFEFEFFFFFFFFFFFFFFFFFFFFFFFFFFFFFFFFFFFFFFFFFFFFFFFFFFFFFEFEFEFEFEFEFFFFFFFFFFFFFFFFFFFFFFFFFFFFFFFFFFFFFFFFFFFFFFFFFFFFFE
310
FEFEFEFEFEFFFFFFFFFFFFFFFFFFFFFFFFFFFFFFFFFFFFFFFFFFFFFFFFFFFFFEFEFEFEFEFEFFFFFFFFFFFFFFFFFFFFFFFFFFFFFFFFFFFFFFFFFFFFFFFFFFFFFEFEFEFEFEFEFFFFFFFFFFFFFFFFFFFFFFFFFFFFFFFFFFFFFFFFFFFFFFFFFFFFFEFEFEFEFEFEFFFFFFFFFFFFFFFFFFFFFFFFFFFFFFFFFFFFFFFFFFFFFFFFFFFF
310
FEFEFEFEFEFEFFFFFFFFFFFFFFFFFFFFFFFFFFFFFFFFFFFFFFFFFFFFFFFFFFFFFEFFFEFEFFFEFFFFFFFFFFFFFFFFFFFFFFFFFFFFFFFFFFFFFFFFFFFFFFFFFFFFFEFFFEFEFFFEFFFFFFFFFFFFFFFFFFFFFFFFFFFFFFFFFFFFFFFFFFFFFFFFFFFFFEFFFEFEFFFEFFFFFFFFFFFFFFFFFFFFFFFFFFFFFFFFFFFFFFFFFFFFFFFFFF
310
FFFFFEFEFEFFFEFFFFFFFFFFFFFFFFFFFFFFFFFFFFFFFFFFFFFFFFFFFFFFFFFFFFFFFEFFFFFEFFFFFFFFFFFFFFFFFFFFFFFFFFFFFFFFFFFFFFFFFFFFFFFFFFFFFFFFFEFEFEFEFFFFFFFFFFFFFFFFFFFFFFFFFFFFFFFFFFFFFFFFFFFFFFFFFFFFFFFFFEFEFEFEFFFFFFFFFFFFFFFFFFFFFFFFFFFFFFFFFFFFFFFFFFFFFFFFFF
310
FFFFFFFEFFFFFEFFFFFFFFFFFFFFFFFFFFFFFFFFFFFFFFFFFFFFFFFFFFFFFFFFFFFFFFFEFFFFFEFFFFFFFFFFFFFFFFFFFFFFFFFFFFFFFFFFFFFFFFFFFFFFFFFFFFFFFFFEFFFFFEFFFFFFFFFFFFFFFFFFFFFFFFFFFFFFFFFFFFFFFFFFFFFFFFFFFFFFFFFEFFFFFEFFFFFFFFFFFFFFFFFFFFFFFFFFFFFFFFFFFFFFFFFFFFFFFF
310
FFFFFFFFFEFFFFFEFFFFFFFFFFFFFFFFFFFFFFFFFFFFFFFFFFFFFFFFFFFFFFFFFFFFFFFFFEFFFFFEFFFFFFFFFFFFFFFFFFFFFFFFFFFFFFFFFFFFFFFFFFFFFFFFFFFFFFFFFEFFFFFEFFFFFFFFFFFFFFFFFFFFFFFFFFFFFFFFFFFFFFFFFFFFFFFFFFFFFFFFFEFFFFFEFFFFFFFFFFFFFFFFFFFFFFFFFFFFFFFFFFFFFFFFFFFFFF
310
FFFFFFFFFFFEFFFFFEFFFFFFFFFFFFFFFFFFFFFFFFFFFFFFFFFFFFFFFFFFFFFFFFFFFFFFFFFEFFFFFEFFFFFFFFFFFFFFFFFFFFFFFFFFFFFFFFFFFFFFFFFFFFFFFFFFFFFFFFFEFEFEFEFFFFFFFFFFFFFFFFFFFFFFFFFFFFFFFFFFFFFFFFFFFFFFFFFFFFFFFFFEFEFEFEFFFFFFFFFFFFFFFFFFFFFFFFFFFFFFFFFFFFFFFFFFFF
310
FFFFFFFFFFFFFEFEFEFEFFFFFFFFFFFFFFFFFFFFFFFFFFFFFFFFFFFFFFFFFFFFFFFFFFFFFFFFFFFFFFFFFFFFFFFFFFFFFFFFFFFFFFFFFFFF
1001
ACAD
1000
DesignCenter Data
1002
{
1070
     1
1070
     4
1002
}
  0
BLOCK_RECORD
  5
38F7
330
1
100
AcDbSymbolTableRecord
100
AcDbBlockTableRecord
  2
*D2
340
0
  0
BLOCK_RECORD
  5
390F
330
1
100
AcDbSymbolTableRecord
100
AcDbBlockTableRecord
  2
*D3
340
0
  0
BLOCK_RECORD
  5
391B
330
1
100
AcDbSymbolTableRecord
100
AcDbBlockTableRecord
  2
*D4
340
0
  0
BLOCK_RECORD
  5
394F
330
1
100
AcDbSymbolTableRecord
100
AcDbBlockTableRecord
  2
*D5
340
0
  0
BLOCK_RECORD
  5
395B
330
1
100
AcDbSymbolTableRecord
100
AcDbBlockTableRecord
  2
*D6
340
0
  0
BLOCK_RECORD
  5
39F7
330
1
100
AcDbSymbolTableRecord
100
AcDbBlockTableRecord
  2
*D7
340
0
  0
BLOCK_RECORD
  5
3A2B
330
1
100
AcDbSymbolTableRecord
100
AcDbBlockTableRecord
  2
*D8
340
0
  0
BLOCK_RECORD
  5
4109
330
1
100
AcDbSymbolTableRecord
100
AcDbBlockTableRecord
  2
up60_2020
340
0
310
28000000200000002000000001002000000000000010000001000000010000000000000000000000302821FF302821FF302821FF302821FF302821FF302821FF302821FF302821FF302821FF302821FF302821FF302821FF302821FF302821FF302821FF302821FF302821FF302821FF302821FF302821FF302821FF302821
310
FF302821FF302821FF302821FF302821FF302821FF302821FF302821FF302821FF302821FF302821FF302821FF302821FF302821FF302821FF302821FF302821FF302821FF302821FF302821FF302821FF302821FF302821FF302821FF302821FF302821FF302821FFFFFF00FF302821FF302821FF302821FF302821FF3028
310
21FF302821FF302821FF302821FF302821FF302821FF302821FF302821FF302821FF302821FF302821FF302821FF302821FF302821FF302821FF302821FF302821FF302821FF302821FF302821FF302821FF302821FF302821FF302821FF302821FF302821FFFFFF00FFFFFF00FF302821FF302821FF302821FF302821FF30
310
2821FF302821FF302821FF302821FF302821FF302821FF302821FF302821FF302821FF302821FF302821FF302821FF302821FF302821FF302821FF302821FF302821FF302821FF302821FF302821FF302821FF302821FF302821FF302821FF302821FF302821FFFFFF00FFFFFF00FF302821FF302821FF302821FF302821FF
310
302821FF302821FF302821FF302821FF302821FF302821FF302821FF302821FF302821FF302821FF302821FF302821FF302821FF302821FF302821FF302821FF302821FF302821FF302821FF302821FF302821FF302821FF302821FF302821FF302821FFFFFF00FFFFFF00FFFFFF00FFFFFF00FF302821FF302821FF302821
310
FF302821FF302821FF302821FF302821FF302821FF302821FF302821FF302821FF302821FF302821FF302821FF302821FF302821FF302821FF302821FF302821FF302821FF302821FF302821FF302821FF302821FF302821FF302821FF302821FF302821FFFFFF00FFFFFF00FFFFFF00FFFFFF00FF302821FF302821FF3028
310
21FF302821FF302821FF302821FF302821FF302821FF302821FF302821FF302821FF302821FF302821FF302821FF302821FF302821FF302821FF302821FF302821FF302821FF302821FF302821FF302821FF302821FF302821FF302821FF302821FF302821FFFFFF00FFFFFF00FFFFFF00FFFFFF00FF302821FF302821FF30
310
2821FF302821FF302821FF302821FF302821FF302821FF302821FF302821FF302821FF302821FF302821FF302821FF302821FF302821FF302821FF302821FF302821FF302821FF302821FF302821FF302821FF302821FF302821FF302821FF302821FF302821FFFFFF00FFFFFF00FFFFFF00FFFFFF00FF302821FF302821FF
310
302821FF302821FF302821FF302821FF302821FF302821FF302821FF302821FF302821FF302821FF302821FF302821FF302821FF302821FF302821FF302821FF302821FF302821FF302821FF302821FF302821FF302821FF302821FF302821FF302821FF302821FFFFFF00FFFFFF00FFFFFF00FFFFFF00FF302821FF302821
310
FF302821FF302821FF302821FF302821FF302821FF302821FF302821FF302821FF302821FF302821FF302821FF302821FF302821FF302821FF302821FF302821FF302821FF302821FF302821FF302821FF302821FF302821FF302821FF302821FF302821FF302821FFFFFF00FFFFFF00FFFFFF00FFFFFF00FF302821FF3028
310
21FF302821FF302821FF302821FF302821FF302821FF302821FF302821FF302821FF302821FF302821FF302821FF302821FF302821FF302821FF302821FF302821FF302821FF302821FF302821FF302821FF302821FF302821FF302821FF302821FF302821FF302821FFFFFF00FFFFFF00FFFFFF00FFFFFF00FF302821FF30
310
2821FF302821FF302821FF302821FF302821FF302821FF302821FF302821FF302821FF302821FF302821FF302821FF302821FF302821FF302821FF302821FF302821FF302821FF302821FF302821FF302821FF302821FF302821FF302821FF302821FF302821FF302821FFFFFF00FFFFFF00FFFFFF00FFFFFF00FF302821FF
310
302821FF302821FF302821FF302821FF302821FF302821FF302821FF302821FF302821FF302821FF302821FF302821FF302821FF302821FF302821FF302821FF302821FF302821FF302821FF302821FF302821FF302821FF302821FF302821FF302821FF302821FF302821FFFFFF00FFFFFF00FFFFFF00FFFFFF00FF302821
310
FF302821FF302821FF302821FF302821FF302821FF302821FF302821FF302821FF302821FF302821FF302821FF302821FF302821FF302821FF302821FF302821FF302821FF302821FF302821FF302821FF302821FF302821FF302821FF302821FF302821FF302821FF302821FFFFFF00FFFFFF00FFFFFF00FFFFFF00FF3028
310
21FF302821FF302821FF302821FF302821FF302821FF302821FF302821FF302821FF302821FF302821FF302821FF302821FF302821FF302821FF302821FF302821FF302821FF302821FF302821FF302821FF302821FF302821FF302821FF302821FF302821FF302821FF302821FFFFFF00FFFFFF00FFFFFF00FFFFFF00FF30
310
2821FF302821FF302821FF302821FF302821FF302821FF302821FF302821FF302821FF302821FF302821FF302821FF302821FF302821FF302821FF302821FF302821FF302821FF302821FF302821FF302821FF302821FF302821FF302821FF302821FF302821FF302821FF302821FFFFFF00FFFFFF00FFFFFF00FFFFFF00FF
310
302821FF302821FF302821FF302821FF302821FF302821FF302821FF302821FF302821FF302821FF302821FF302821FF302821FF302821FF302821FF302821FF302821FF302821FF302821FF302821FF302821FF302821FF302821FF302821FF302821FF302821FF302821FF302821FFFFFF00FFFFFF00FFFFFF00FFFFFF00
310
FF302821FF302821FF302821FF302821FF302821FF302821FF302821FF302821FF302821FF302821FF302821FF302821FF302821FF302821FF302821FF302821FF302821FF302821FF302821FF302821FF302821FF302821FF302821FF302821FF302821FF302821FF302821FF302821FFFFFF00FFFFFF00FFFFFF00FFFFFF
310
00FF302821FF302821FF302821FF302821FF302821FF302821FF302821FF302821FF302821FF302821FF302821FF302821FF302821FF302821FF302821FF302821FF302821FF302821FF302821FF302821FF302821FF302821FF302821FF302821FF302821FF302821FF302821FF302821FFFFFF00FFFFFF00FFFFFF00FFFF
310
FF00FF302821FF302821FF302821FF302821FF302821FF302821FF302821FF302821FF302821FF302821FF302821FF302821FF302821FF302821FF302821FF302821FF302821FF302821FF302821FF302821FF302821FF302821FF302821FF302821FF302821FF302821FF302821FF302821FFFFFF00FFFFFF00FFFFFF00FF
310
FFFF00FF302821FF302821FF302821FF302821FF302821FF302821FF302821FF302821FF302821FF302821FF302821FF302821FF302821FF302821FF302821FF302821FF302821FF302821FF302821FF302821FF302821FF302821FF302821FF302821FF302821FF302821FF302821FF302821FFFFFF00FFFFFF00FFFFFF00
310
FFFFFF00FF302821FF302821FF302821FF302821FF302821FF302821FF302821FF302821FF302821FF302821FF302821FF302821FF302821FF302821FF302821FF302821FF302821FF302821FF302821FF302821FF302821FF302821FF302821FF302821FF302821FF302821FF302821FF302821FFFFFF00FF302821FF3028
310
21FFFFFF00FF302821FF302821FF302821FF302821FF302821FF302821FF302821FF302821FF302821FF302821FF302821FF302821FF302821FF302821FF302821FF302821FF302821FF302821FF302821FF302821FF302821FF302821FF302821FF302821FF302821FF302821FF302821FF302821FFFFFF00FF302821FF30
310
2821FFFFFF00FF302821FF302821FF302821FF302821FF302821FF302821FF302821FF302821FF302821FF302821FF302821FF302821FF302821FF302821FF302821FF302821FF302821FF302821FF302821FF302821FF302821FF302821FF302821FF302821FF302821FF302821FF302821FF302821FFFFFF00FF302821FF
310
302821FFFFFF00FF302821FF302821FF302821FF302821FF302821FF302821FF302821FF302821FF302821FF302821FF302821FF302821FF302821FF302821FF302821FF302821FF302821FF302821FF302821FF302821FF302821FF302821FF302821FF302821FF302821FF302821FF302821FF302821FFFFFF00FF302821
310
FF302821FFFFFF00FF302821FF302821FF302821FF302821FF302821FF302821FF302821FF302821FF302821FF302821FF302821FF302821FF302821FF302821FF302821FF302821FF302821FF302821FF302821FF302821FF302821FF302821FF302821FF302821FF302821FF302821FF302821FF302821FFFFFF00FFFFFF
310
00FFFFFF00FFFFFF00FF302821FF302821FF302821FF302821FF302821FF302821FF302821FF302821FF302821FF302821FF302821FF302821FF302821FF302821FF302821FF302821FF302821FF302821FF302821FF302821FF302821FF302821FF302821FF302821FF302821FF302821FF302821FF302821FFFFFF00FFFF
310
FF00FFFFFF00FFFFFF00FF302821FF302821FF302821FF302821FF302821FF302821FF302821FF302821FF302821FF302821FF302821FF302821FF302821FF302821FF302821FF302821FF302821FF302821FF302821FF302821FF302821FF302821FF302821FF302821FF302821FF302821FF302821FF302821FFFFFF00FF
310
FFFF00FFFFFF00FFFFFF00FF302821FF302821FF302821FF302821FF302821FF302821FF302821FF302821FF302821FF302821FF302821FF302821FF302821FF302821FF302821FF302821FF302821FF302821FF302821FF302821FF302821FF302821FF302821FF302821FF302821FF302821FF302821FF302821FFFFFF00
310
FFFFFF00FFFFFF00FFFFFF00FF302821FF302821FF302821FF302821FF302821FF302821FF302821FF302821FF302821FF302821FF302821FF302821FF302821FF302821FF302821FF302821FF302821FF302821FF302821FF302821FF302821FF302821FF302821FF302821FF302821FF302821FF302821FF302821FFFFFF
310
00FFFFFF00FFFFFF00FFFFFF00FF302821FF302821FF302821FF302821FF302821FF302821FF302821FF302821FF302821FF302821FF302821FF302821FF302821FF302821FF302821FF302821FF302821FF302821FF302821FF302821FF302821FF302821FF302821FF302821FF302821FF302821FF302821FF302821FFFF
310
FF00FFFFFF00FFFFFF00FFFFFF00FF302821FF302821FF302821FF302821FF302821FF302821FF302821FF302821FF302821FF302821FF302821FF302821FF302821FF302821FF302821FF302821FF302821FF302821FF302821FF302821FF302821FF302821FF302821FF302821FF302821FF302821FF302821FF302821FF
310
302821FF302821FF302821FF302821FF302821FF302821FF302821FF302821FF302821FF302821FF302821FF302821FF302821FF302821FF302821FF302821FF302821FF302821FF
1001
ACAD
1000
DesignCenter Data
1002
{
1070
     1
1070
     4
1002
}
  0
ENDTAB
  0
ENDSEC
  0
SECTION
  2
BLOCKS
  0
BLOCK
  5
20
330
1F
100
AcDbEntity
  8
0
100
AcDbBlockBegin
  2
*Model_Space
 70
     0
 10
0.0
 20
0.0
 30
0.0
  3
*Model_Space
  1

  0
ENDBLK
  5
21
330
1F
100
AcDbEntity
  8
0
100
AcDbBlockEnd
  0
BLOCK
  5
1CD2
330
1CD0
100
AcDbEntity
 67
     1
  8
0
100
AcDbBlockBegin
  2
*Paper_Space
 70
     0
 10
0.0
 20
0.0
 30
0.0
  3
*Paper_Space
  1

  0
ENDBLK
  5
1CD3
330
1CD0
100
AcDbEntity
 67
     1
  8
0
100
AcDbBlockEnd
  0
BLOCK
  5
906
330
903
100
AcDbEntity
  8
0
100
AcDbBlockBegin
  2
_DOT
 70
     0
 10
0.0
 20
0.0
 30
0.0
  3
_DOT
  1

  0
LWPOLYLINE
  5
904
330
903
100
AcDbEntity
  8
0
  6
ByBlock
 62
     0
100
AcDbPolyline
 90
        2
 70
     1
 43
0.5
 10
-0.25
 20
0.0
 42
1.0
 10
0.25
 20
0.0
 42
1.0
  0
LINE
  5
905
330
903
100
AcDbEntity
  8
0
  6
ByBlock
 62
     0
100
AcDbLine
 10
-0.5
 20
0.0
 30
0.0
 11
-1.0
 21
0.0
 31
0.0
  0
ENDBLK
  5
907
330
903
100
AcDbEntity
  8
0
100
AcDbBlockEnd
  0
BLOCK
  5
2AD9
330
2A86
100
AcDbEntity
  8
0
 48
20.0
100
AcDbBlockBegin
  2
s6r-60
 70
     0
 10
0.0
 20
0.0
 30
0.0
  3
s6r-60
  1

  0
LWPOLYLINE
  5
2A87
330
2A86
100
AcDbEntity
  8
KANAMONO_SCREW
100
AcDbPolyline
 90
        7
 70
     0
 43
0.0
 10
3.0
 20
-29.5
 10
3.0
 20
-1.299999999999954
 10
4.0
 20
0.0
 10
4.0
 20
0.5
 10
-4.0
 20
0.5
 10
-4.0
 20
0.0
 10
4.0
 20
0.0
  0
LWPOLYLINE
  5
2A88
330
2A86
100
AcDbEntity
  8
KANAMONO_SCREW
100
AcDbPolyline
 90
        3
 70
     0
 43
0.0
 10
-4.0
 20
0.0
 10
-3.0
 20
-1.299999999999954
 10
-3.000000000000454
 20
-29.50000000000085
  0
LINE
  5
2A89
330
2A86
100
AcDbEntity
  8
KANAMONO_SCREW
100
AcDbLine
 10
0.0
 20
-63.29999999999995
 30
0.0
 11
-2.200000000000045
 21
-55.29999999999995
 31
0.0
  0
LINE
  5
2A8A
330
2A86
100
AcDbEntity
  8
KANAMONO_SCREW
100
AcDbLine
 10
2.200000000000045
 20
-55.29999999999995
 30
0.0
 11
0.0
 21
-63.29999999999995
 31
0.0
  0
LINE
  5
2A8B
330
2A86
100
AcDbEntity
  8
KANAMONO_SCREW
100
AcDbLine
 10
-0.2729385095193493
 20
-62.30749632902098
 30
0.0
 11
0.3532357144075604
 21
-62.01550649306478
 31
0.0
  0
ARC
  5
2A8C
330
2A86
100
AcDbEntity
  8
KANAMONO_SCREW
100
AcDbCircle
 10
-7.659849134879777
 20
-40.17943698590795
 30
0.0
 40
9.859876903588483
100
AcDbArc
 50
0.1359815000569386
 51
35.17074423212627
  0
LINE
  5
2A8D
330
2A86
100
AcDbEntity
  8
KANAMONO_SCREW
100
AcDbLine
 10
-2.199999999999931
 20
-40.43513805717942
 30
0.0
 11
1.608586036090741
 21
-38.65916522180817
 31
0.0
  0
ARC
  5
2A8E
330
2A86
100
AcDbEntity
  8
KANAMONO_SCREW
100
AcDbCircle
 10
7.65984913487955
 20
-40.17943698590795
 30
0.0
 40
9.859876903588483
100
AcDbArc
 50
144.8292557678737
 51
179.864018499943
  0
LINE
  5
2A8F
330
2A86
100
AcDbEntity
  8
KANAMONO_SCREW
100
AcDbLine
 10
-4.800000000000068
 20
-38.74999999999955
 30
0.0
 11
-4.800000000000068
 21
-42.99999999999989
 31
0.0
  0
LINE
  5
2A90
330
2A86
100
AcDbEntity
  8
KANAMONO_SCREW
100
AcDbLine
 10
4.799999999999954
 20
-42.99999999999989
 30
0.0
 11
4.799999999999954
 21
-38.74999999999977
 31
0.0
  0
LINE
  5
2A91
330
2A86
100
AcDbEntity
  8
KANAMONO_SCREW
100
AcDbLine
 10
2.200000000000045
 20
-59.5
 30
0.0
 11
3.800000000000181
 21
-59.50000000000011
 31
0.0
  0
LINE
  5
2A92
330
2A86
100
AcDbEntity
  8
KANAMONO_SCREW
100
AcDbLine
 10
-4.800000000000295
 20
-49.0
 30
0.0
 11
-4.800000000000181
 21
-50.99999999999977
 31
0.0
  0
LINE
  5
2A93
330
2A86
100
AcDbEntity
  8
KANAMONO_SCREW
100
AcDbLine
 10
-2.199999999999931
 20
-50.94481273529709
 30
0.0
 11
2.200000000000159
 21
-48.89305903941511
 31
0.0
  0
LINE
  5
2A94
330
2A86
100
AcDbEntity
  8
KANAMONO_SCREW
100
AcDbLine
 10
-2.200000000000045
 20
-59.49999999999988
 30
0.0
 11
-2.200000000000045
 21
-40.15603631653152
 31
0.0
  0
LINE
  5
2A95
330
2A86
100
AcDbEntity
  8
KANAMONO_SCREW
100
AcDbLine
 10
2.200000000000045
 20
-40.15603631653209
 30
0.0
 11
2.200000000000045
 21
-59.5
 31
0.0
  0
LINE
  5
2A96
330
2A86
100
AcDbEntity
  8
KANAMONO_SCREW
100
AcDbLine
 10
-1.980716023836066
 20
-56.09739627696012
 30
0.0
 11
2.200000000000045
 21
-54.147896378474
 31
0.0
  0
LINE
  5
2A97
330
2A86
100
AcDbEntity
  8
KANAMONO_SCREW
100
AcDbLine
 10
-3.299999999999954
 20
-55.49999999999989
 30
0.0
 11
-3.299999999999954
 21
-57.0
 31
0.0
  0
LINE
  5
2A98
330
2A86
100
AcDbEntity
  8
KANAMONO_SCREW
100
AcDbLine
 10
-1.126827266677764
 20
-59.20244630299066
 30
0.0
 11
1.45833446243796
 21
-57.99696559113477
 31
0.0
  0
LINE
  5
2A99
330
2A86
100
AcDbEntity
  8
KANAMONO_SCREW
100
AcDbLine
 10
-1.553771645256915
 20
-57.64992128997528
 30
0.0
 11
2.010883836453444
 21
-55.98769514016954
 31
0.0
  0
LINE
  5
2A9A
330
2A86
100
AcDbEntity
  8
KANAMONO_SCREW
100
AcDbLine
 10
-3.799999999999954
 20
-59.50000000000011
 30
0.0
 11
-2.200000000000045
 21
-59.49999999999988
 31
0.0
  0
LINE
  5
2A9B
330
2A86
100
AcDbEntity
  8
KANAMONO_SCREW
100
AcDbLine
 10
-4.800000000000068
 20
-57.0
 30
0.0
 11
-4.800000000000068
 21
-58.0
 31
0.0
  0
LINE
  5
2A9C
330
2A86
100
AcDbEntity
  8
KANAMONO_SCREW
100
AcDbLine
 10
-4.800000000000068
 20
-58.0
 30
0.0
 11
-3.799999999999954
 21
-59.50000000000011
 31
0.0
  0
LINE
  5
2A9D
330
2A86
100
AcDbEntity
  8
KANAMONO_SCREW
100
AcDbLine
 10
-3.299999999999954
 20
-57.0
 30
0.0
 11
-4.800000000000068
 21
-57.0
 31
0.0
  0
LINE
  5
2A9E
330
2A86
100
AcDbEntity
  8
KANAMONO_SCREW
100
AcDbLine
 10
-0.6998828880982729
 20
-60.75497131600582
 30
0.0
 11
0.9057850884225899
 21
-60.00623604209977
 31
0.0
  0
LINE
  5
2A9F
330
2A86
100
AcDbEntity
  8
KANAMONO_SCREW
100
AcDbLine
 10
-2.200000000000045
 20
-54.44803762800302
 30
0.0
 11
2.200000000000272
 21
-52.39628393212092
 31
0.0
  0
LINE
  5
2AA0
330
2A86
100
AcDbEntity
  8
KANAMONO_SCREW
100
AcDbLine
 10
-2.200000000000159
 20
-52.69642518165017
 30
0.0
 11
2.200000000000159
 21
-50.64467148576795
 31
0.0
  0
LINE
  5
2AA1
330
2A86
100
AcDbEntity
  8
KANAMONO_SCREW
100
AcDbLine
 10
-4.800000000000181
 20
-50.99999999999977
 30
0.0
 11
-3.300000000000068
 21
-51.49999999999988
 31
0.0
  0
LINE
  5
2AA2
330
2A86
100
AcDbEntity
  8
KANAMONO_SCREW
100
AcDbLine
 10
-4.800000000000181
 20
-53.0
 30
0.0
 11
-4.800000000000068
 21
-55.0
 31
0.0
  0
LINE
  5
2AA3
330
2A86
100
AcDbEntity
  8
KANAMONO_SCREW
100
AcDbLine
 10
-4.800000000000068
 20
-55.0
 30
0.0
 11
-3.299999999999954
 21
-55.49999999999989
 31
0.0
  0
LINE
  5
2AA4
330
2A86
100
AcDbEntity
  8
KANAMONO_SCREW
100
AcDbLine
 10
-3.300000000000068
 20
-53.0
 30
0.0
 11
-4.800000000000181
 21
-53.0
 31
0.0
  0
LINE
  5
2AA5
330
2A86
100
AcDbEntity
  8
KANAMONO_SCREW
100
AcDbLine
 10
-3.300000000000068
 20
-51.49999999999988
 30
0.0
 11
-3.300000000000068
 21
-53.0
 31
0.0
  0
LINE
  5
2AA6
330
2A86
100
AcDbEntity
  8
KANAMONO_SCREW
100
AcDbLine
 10
-4.800000000000181
 20
-40.00833404712671
 30
0.0
 11
-5.088567175761681
 21
-40.00833404712693
 31
0.0
  0
ARC
  5
2AA7
330
2A86
100
AcDbEntity
  8
KANAMONO_SCREW
100
AcDbCircle
 10
0.1473318668159891
 20
-42.20982178778513
 30
0.0
 40
5.679893225786392
100
AcDbArc
 50
157.1951788054447
 51
209.4219706231233
  0
LINE
  5
2AA8
330
2A86
100
AcDbEntity
  8
KANAMONO_SCREW
100
AcDbLine
 10
-4.800000000000068
 20
-45.0
 30
0.0
 11
-4.800000000000068
 21
-47.0
 31
0.0
  0
LINE
  5
2AA9
330
2A86
100
AcDbEntity
  8
KANAMONO_SCREW
100
AcDbLine
 10
-2.200000000000159
 20
-45.68997539623842
 30
0.0
 11
2.200000000000386
 21
-43.6382217003561
 31
0.0
  0
LINE
  5
2AAA
330
2A86
100
AcDbEntity
  8
KANAMONO_SCREW
100
AcDbLine
 10
-2.200000000000045
 20
-47.44158784259127
 30
0.0
 11
2.200000000000272
 21
-45.38983414670918
 31
0.0
  0
LINE
  5
2AAB
330
2A86
100
AcDbEntity
  8
KANAMONO_SCREW
100
AcDbLine
 10
-2.200000000000045
 20
-49.19320028894424
 30
0.0
 11
2.200000000000272
 21
-47.14144659306202
 31
0.0
  0
LINE
  5
2AAC
330
2A86
100
AcDbEntity
  8
KANAMONO_SCREW
100
AcDbLine
 10
-4.800000000000068
 20
-47.0
 30
0.0
 11
-3.300000000000181
 21
-47.49999999999988
 31
0.0
  0
LINE
  5
2AAD
330
2A86
100
AcDbEntity
  8
KANAMONO_SCREW
100
AcDbLine
 10
-3.300000000000181
 20
-49.0
 30
0.0
 11
-4.800000000000295
 21
-49.0
 31
0.0
  0
LINE
  5
2AAE
330
2A86
100
AcDbEntity
  8
KANAMONO_SCREW
100
AcDbLine
 10
-3.300000000000181
 20
-47.49999999999988
 30
0.0
 11
-3.300000000000181
 21
-49.0
 31
0.0
  0
LINE
  5
2AAF
330
2A86
100
AcDbEntity
  8
KANAMONO_SCREW
100
AcDbLine
 10
-2.200000000000045
 20
-43.93836294988534
 30
0.0
 11
2.200000000000272
 21
-41.88660925400324
 31
0.0
  0
LINE
  5
2AB0
330
2A86
100
AcDbEntity
  8
KANAMONO_SCREW
100
AcDbLine
 10
-2.200000000000045
 20
-42.18675050353249
 30
0.0
 11
2.200000000000272
 21
-40.13499680765028
 31
0.0
  0
LINE
  5
2AB1
330
2A86
100
AcDbEntity
  8
KANAMONO_SCREW
100
AcDbLine
 10
-3.300000000000181
 20
-44.99999999999988
 30
0.0
 11
-3.876239569296672
 21
-44.99999999999977
 31
0.0
  0
LINE
  5
2AB2
330
2A86
100
AcDbEntity
  8
KANAMONO_SCREW
100
AcDbLine
 10
-3.300000000000181
 20
-43.49999999999977
 30
0.0
 11
-3.300000000000181
 21
-44.99999999999988
 31
0.0
  0
LINE
  5
2AB3
330
2A86
100
AcDbEntity
  8
KANAMONO_SCREW
100
AcDbLine
 10
-4.800000000000068
 20
-42.99999999999989
 30
0.0
 11
-3.300000000000181
 21
-43.49999999999977
 31
0.0
  0
ARC
  5
2AB4
330
2A86
100
AcDbEntity
  8
KANAMONO_SCREW
100
AcDbCircle
 10
1.071092297519271
 20
-42.20982178778479
 30
0.0
 40
5.679893225786392
100
AcDbArc
 50
188.8781154175122
 51
209.4219706231233
  0
LINE
  5
2AB5
330
2A86
100
AcDbEntity
  8
KANAMONO_SCREW
100
AcDbLine
 10
4.800000000000068
 20
-51.00000000000012
 30
0.0
 11
4.799999999999954
 21
-49.00000000000011
 31
0.0
  0
LINE
  5
2AB6
330
2A86
100
AcDbEntity
  8
KANAMONO_SCREW
100
AcDbLine
 10
3.300000000000181
 20
-57.0
 30
0.0
 11
3.300000000000181
 21
-55.49999999999989
 31
0.0
  0
LINE
  5
2AB7
330
2A86
100
AcDbEntity
  8
KANAMONO_SCREW
100
AcDbLine
 10
4.800000000000181
 20
-58.00000000000011
 30
0.0
 11
4.800000000000181
 21
-57.00000000000011
 31
0.0
  0
LINE
  5
2AB8
330
2A86
100
AcDbEntity
  8
KANAMONO_SCREW
100
AcDbLine
 10
3.800000000000181
 20
-59.50000000000011
 30
0.0
 11
4.800000000000181
 21
-58.00000000000011
 31
0.0
  0
LINE
  5
2AB9
330
2A86
100
AcDbEntity
  8
KANAMONO_SCREW
100
AcDbLine
 10
4.800000000000181
 20
-57.00000000000011
 30
0.0
 11
3.300000000000181
 21
-57.0
 31
0.0
  0
LINE
  5
2ABA
330
2A86
100
AcDbEntity
  8
KANAMONO_SCREW
100
AcDbLine
 10
4.800000000000068
 20
-55.00000000000011
 30
0.0
 11
4.800000000000068
 21
-53.00000000000011
 31
0.0
  0
LINE
  5
2ABB
330
2A86
100
AcDbEntity
  8
KANAMONO_SCREW
100
AcDbLine
 10
3.300000000000068
 20
-53.0
 30
0.0
 11
3.300000000000068
 21
-51.49999999999988
 31
0.0
  0
LINE
  5
2ABC
330
2A86
100
AcDbEntity
  8
KANAMONO_SCREW
100
AcDbLine
 10
3.300000000000068
 20
-51.49999999999988
 30
0.0
 11
4.800000000000068
 21
-51.00000000000012
 31
0.0
  0
LINE
  5
2ABD
330
2A86
100
AcDbEntity
  8
KANAMONO_SCREW
100
AcDbLine
 10
4.800000000000068
 20
-53.00000000000011
 30
0.0
 11
3.300000000000068
 21
-53.0
 31
0.0
  0
LINE
  5
2ABE
330
2A86
100
AcDbEntity
  8
KANAMONO_SCREW
100
AcDbLine
 10
3.300000000000181
 20
-55.49999999999989
 30
0.0
 11
4.800000000000068
 21
-55.00000000000011
 31
0.0
  0
LINE
  5
2ABF
330
2A86
100
AcDbEntity
  8
KANAMONO_SCREW
100
AcDbLine
 10
4.799999999999954
 20
-47.0
 30
0.0
 11
4.799999999999954
 21
-45.0
 31
0.0
  0
LINE
  5
2AC0
330
2A86
100
AcDbEntity
  8
KANAMONO_SCREW
100
AcDbLine
 10
3.299999999999954
 20
-47.49999999999988
 30
0.0
 11
4.799999999999954
 21
-47.0
 31
0.0
  0
LINE
  5
2AC1
330
2A86
100
AcDbEntity
  8
KANAMONO_SCREW
100
AcDbLine
 10
4.799999999999954
 20
-49.00000000000011
 30
0.0
 11
3.299999999999954
 21
-49.0
 31
0.0
  0
LINE
  5
2AC2
330
2A86
100
AcDbEntity
  8
KANAMONO_SCREW
100
AcDbLine
 10
3.299999999999954
 20
-49.0
 30
0.0
 11
3.299999999999954
 21
-47.49999999999988
 31
0.0
  0
LINE
  5
2AC3
330
2A86
100
AcDbEntity
  8
KANAMONO_SCREW
100
AcDbLine
 10
4.799999999999954
 20
-40.00833404712671
 30
0.0
 11
5.088567175761454
 21
-40.00833404712693
 31
0.0
  0
ARC
  5
2AC4
330
2A86
100
AcDbEntity
  8
KANAMONO_SCREW
100
AcDbCircle
 10
-1.071092297519498
 20
-42.20982178778479
 30
0.0
 40
5.679893225786392
100
AcDbArc
 50
330.5780293768767
 51
351.1218845824877
  0
LINE
  5
2AC5
330
2A86
100
AcDbEntity
  8
KANAMONO_SCREW
100
AcDbLine
 10
3.299999999999954
 20
-44.99999999999988
 30
0.0
 11
3.299999999999954
 21
-43.49999999999977
 31
0.0
  0
LINE
  5
2AC6
330
2A86
100
AcDbEntity
  8
KANAMONO_SCREW
100
AcDbLine
 10
3.299999999999954
 20
-43.49999999999977
 30
0.0
 11
4.799999999999954
 21
-42.99999999999989
 31
0.0
  0
LINE
  5
2AC7
330
2A86
100
AcDbEntity
  8
KANAMONO_SCREW
100
AcDbLine
 10
3.876239569296672
 20
-44.99999999999977
 30
0.0
 11
3.299999999999954
 21
-44.99999999999988
 31
0.0
  0
ARC
  5
2AC8
330
2A86
100
AcDbEntity
  8
KANAMONO_SCREW
100
AcDbCircle
 10
-0.1473318668162165
 20
-42.20982178778513
 30
0.0
 40
5.679893225786392
100
AcDbArc
 50
330.5780293768767
 51
22.8048211945553
  0
LINE
  5
2AC9
330
2A86
100
AcDbEntity
  8
KANAMONO_SCREW
100
AcDbLine
 10
3.0
 20
-27.5
 30
0.0
 11
-3.0
 21
-27.5
 31
0.0
  0
LINE
  5
2ACA
330
2A86
100
AcDbEntity
  8
KANAMONO_SCREW
100
AcDbLine
 10
3.0
 20
-28.5
 30
0.0
 11
-3.0
 21
-28.5
 31
0.0
  0
LINE
  5
2ACB
330
2A86
100
AcDbEntity
  8
KANAMONO_SCREW
100
AcDbLine
 10
3.0
 20
-29.5
 30
0.0
 11
-3.0
 21
-29.5
 31
0.0
  0
ARC
  5
2ACC
330
2A86
100
AcDbEntity
  8
KANAMONO_SCREW
100
AcDbCircle
 10
26.87278604750498
 20
-40.11321782546042
 30
0.0
 40
31.70210937541362
100
AcDbArc
 50
160.44086710814
 51
177.535472548574
  0
LINE
  5
2ACD
330
2A86
100
AcDbEntity
  8
KANAMONO_SCREW
100
AcDbLine
 10
-1.499669838132945
 20
-38.35695629311101
 30
0.0
 11
1.097300952475279
 21
-37.14596892544558
 31
0.0
  0
LINE
  5
2ACE
330
2A86
100
AcDbEntity
  8
KANAMONO_SCREW
100
AcDbLine
 10
-0.400000000000091
 20
-34.49999999999989
 30
0.0
 11
0.3999999999998636
 21
-34.49999999999989
 31
0.0
  0
LINE
  5
2ACF
330
2A86
100
AcDbEntity
  8
KANAMONO_SCREW
100
AcDbLine
 10
-0.8481885289712636
 20
-36.30155312315106
 30
0.0
 11
0.6599209906190709
 21
-35.5983101048297
 31
0.0
  0
ARC
  5
2AD0
330
2A86
100
AcDbEntity
  8
KANAMONO_SCREW
100
AcDbCircle
 10
-26.8727860475052
 20
-40.11321782546042
 30
0.0
 40
31.70210937541362
100
AcDbArc
 50
2.464527451426015
 51
19.55913289186
  0
LINE
  5
2AD1
330
2A86
100
AcDbEntity
  8
KANAMONO_SCREW
100
AcDbLine
 10
-3.0
 20
-1.299999999999954
 30
0.0
 11
3.0
 21
-1.299999999999954
 31
0.0
  0
LINE
  5
2AD2
330
2A86
100
AcDbEntity
  8
KANAMONO_SCREW
100
AcDbLine
 10
-4.399999999999977
 20
1.200000000000045
 30
0.0
 11
4.399999999999977
 21
1.200000000000045
 31
0.0
  0
LINE
  5
2AD3
330
2A86
100
AcDbEntity
  8
KANAMONO_SCREW
100
AcDbLine
 10
-4.399999999999977
 20
1.700000000000045
 30
0.0
 11
4.399999999999977
 21
1.700000000000045
 31
0.0
  0
LINE
  5
2AD4
330
2A86
100
AcDbEntity
  8
KANAMONO_SCREW
100
AcDbLine
 10
-2.200000000000045
 20
-1.299999999999954
 30
0.0
 11
2.200000000000045
 21
-1.299999999999954
 31
0.0
  0
LINE
  5
2AD5
330
2A86
100
AcDbEntity
  8
KANAMONO_SCREW
100
AcDbLine
 10
-4.399999999999977
 20
1.200000000000045
 30
0.0
 11
-4.399999999999863
 21
1.700000000000045
 31
0.0
  0
LINE
  5
2AD6
330
2A86
100
AcDbEntity
  8
KANAMONO_SCREW
100
AcDbLine
 10
-3.783999999999991
 20
0.5
 30
0.0
 11
-4.399999999999977
 21
1.200000000000045
 31
0.0
  0
LINE
  5
2AD7
330
2A86
100
AcDbEntity
  8
KANAMONO_SCREW
100
AcDbLine
 10
4.399999999999977
 20
1.700000000000045
 30
0.0
 11
4.399999999999977
 21
1.200000000000045
 31
0.0
  0
LINE
  5
2AD8
330
2A86
100
AcDbEntity
  8
KANAMONO_SCREW
100
AcDbLine
 10
4.399999999999977
 20
1.200000000000045
 30
0.0
 11
3.783999999999991
 21
0.5
 31
0.0
  0
ENDBLK
  5
2ADA
330
2A86
100
AcDbEntity
  8
0
 48
20.0
100
AcDbBlockEnd
  0
BLOCK
  5
3901
330
38F7
100
AcDbEntity
  8
0
100
AcDbBlockBegin
  2
*D2
 70
     1
 10
0.0
 20
0.0
 30
0.0
  3
*D2
  1

  0
LINE
  5
4080
330
38F7
100
AcDbEntity
  8
SUNPO
  6
Continuous
 62
     0
370
    -2
100
AcDbLine
 10
358.6086142088933
 20
126.7429378062332
 30
0.0
 11
358.6086142088933
 21
105.9984178517628
 31
0.0
  0
LINE
  5
4081
330
38F7
100
AcDbEntity
  8
SUNPO
  6
Continuous
 62
     0
370
    -2
100
AcDbLine
 10
269.0686142088932
 20
125.9468394906175
 30
0.0
 11
269.0686142088932
 21
105.9984178517628
 31
0.0
  0
LINE
  5
4082
330
38F7
100
AcDbEntity
  8
SUNPO
  6
Continuous
 62
     0
370
    -2
100
AcDbLine
 10
357.0086142088933
 20
105.9984178517628
 30
0.0
 11
270.6686142088932
 21
105.9984178517628
 31
0.0
  0
INSERT
  5
4083
330
38F7
100
AcDbEntity
  8
SUNPO
  6
Continuous
 62
     0
370
    -2
100
AcDbBlockReference
  2
_DOT
 10
358.6086142088933
 20
105.9984178517628
 30
0.0
 41
1.6
 42
1.6
 43
1.6
  0
INSERT
  5
4084
330
38F7
100
AcDbEntity
  8
SUNPO
  6
Continuous
 62
     0
370
    -2
100
AcDbBlockReference
  2
_DOT
 10
269.0686142088932
 20
105.9984178517628
 30
0.0
 41
1.6
 42
1.6
 43
1.6
 50
180.0
  0
MTEXT
  5
4085
330
38F7
100
AcDbEntity
  8
SUNPO
  6
Continuous
 62
     0
100
AcDbMText
 10
313.8386142088933
 20
103.7984178517628
 30
0.0
 40
4.0
 41
0.0
 71
     5
 72
     1
  1
\A1;89.54
  7
MSゴシック
 73
     1
 44
1.0
1001
ACAD
1000
MTEXTBEGIN
1070
    73
1070
     1
1070
    44
1040
1.0
1070
    74
1070
     0
1000
MTEXTEND
  0
POINT
  5
4086
330
38F7
100
AcDbEntity
  8
Defpoints
  6
Continuous
 62
     0
100
AcDbPoint
 10
358.6086142088933
 20
128.7429378062332
 30
0.0
  0
POINT
  5
4087
330
38F7
100
AcDbEntity
  8
Defpoints
  6
Continuous
 62
     0
100
AcDbPoint
 10
269.0686142088932
 20
127.9468394906175
 30
0.0
  0
POINT
  5
4088
330
38F7
100
AcDbEntity
  8
Defpoints
  6
Continuous
 62
     0
100
AcDbPoint
 10
269.0686142088932
 20
105.9984178517628
 30
0.0
  0
ENDBLK
  5
3902
330
38F7
100
AcDbEntity
  8
0
100
AcDbBlockEnd
  0
BLOCK
  5
3919
330
390F
100
AcDbEntity
  8
0
100
AcDbBlockBegin
  2
*D3
 70
     1
 10
0.0
 20
0.0
 30
0.0
  3
*D3
  1

  0
LINE
  5
4089
330
390F
100
AcDbEntity
  8
SUNPO
  6
Continuous
 62
     0
370
    -2
100
AcDbLine
 10
233.6086142088933
 20
84.11676821240138
 30
0.0
 11
233.6086142088933
 21
68.40023896265532
 31
0.0
  0
LINE
  5
408A
330
390F
100
AcDbEntity
  8
SUNPO
  6
Continuous
 62
     0
370
    -2
100
AcDbLine
 10
358.6086142088933
 20
127.0429378062333
 30
0.0
 11
358.6086142088933
 21
68.40023896265532
 31
0.0
  0
LINE
  5
408B
330
390F
100
AcDbEntity
  8
SUNPO
  6
Continuous
 62
     0
370
    -2
100
AcDbLine
 10
235.2086142088933
 20
68.40023896265532
 30
0.0
 11
357.0086142088933
 21
68.40023896265532
 31
0.0
  0
INSERT
  5
408C
330
390F
100
AcDbEntity
  8
SUNPO
  6
Continuous
 62
     0
370
    -2
100
AcDbBlockReference
  2
_DOT
 10
233.6086142088933
 20
68.40023896265532
 30
0.0
 41
1.6
 42
1.6
 43
1.6
 50
180.0
  0
INSERT
  5
408D
330
390F
100
AcDbEntity
  8
SUNPO
  6
Continuous
 62
     0
370
    -2
100
AcDbBlockReference
  2
_DOT
 10
358.6086142088933
 20
68.40023896265532
 30
0.0
 41
1.6
 42
1.6
 43
1.6
  0
MTEXT
  5
408E
330
390F
100
AcDbEntity
  8
SUNPO
  6
Continuous
 62
     0
100
AcDbMText
 10
296.1086142088933
 20
66.20023896265532
 30
0.0
 40
4.0
 41
0.0
 71
     5
 72
     1
  1
\A1;125
  7
MSゴシック
 73
     1
 44
1.0
1001
ACAD
1000
MTEXTBEGIN
1070
    73
1070
     1
1070
    44
1040
1.0
1070
    74
1070
     0
1000
MTEXTEND
  0
POINT
  5
408F
330
390F
100
AcDbEntity
  8
Defpoints
  6
Continuous
 62
     0
100
AcDbPoint
 10
233.6086142088933
 20
86.11676821240138
 30
0.0
  0
POINT
  5
4090
330
390F
100
AcDbEntity
  8
Defpoints
  6
Continuous
 62
     0
100
AcDbPoint
 10
358.6086142088933
 20
129.0429378062333
 30
0.0
  0
POINT
  5
4091
330
390F
100
AcDbEntity
  8
Defpoints
  6
Continuous
 62
     0
100
AcDbPoint
 10
358.6086142088933
 20
68.40023896265532
 30
0.0
  0
ENDBLK
  5
391A
330
390F
100
AcDbEntity
  8
0
100
AcDbBlockEnd
  0
BLOCK
  5
3925
330
391B
100
AcDbEntity
  8
0
100
AcDbBlockBegin
  2
*D4
 70
     1
 10
0.0
 20
0.0
 30
0.0
  3
*D4
  1

  0
LINE
  5
4092
330
391B
100
AcDbEntity
  8
SUNPO
  6
Continuous
 62
     0
370
    -2
100
AcDbLine
 10
251.1723497905932
 20
184.2429378062332
 30
0.0
 11
251.1723497905932
 21
191.1444190772457
 31
0.0
  0
LINE
  5
4093
330
391B
100
AcDbEntity
  8
SUNPO
  6
Continuous
 62
     0
370
    -2
100
AcDbLine
 10
336.1723497905931
 20
183.0429378062332
 30
0.0
 11
336.1723497905931
 21
191.1444190772457
 31
0.0
  0
LINE
  5
4094
330
391B
100
AcDbEntity
  8
SUNPO
  6
Continuous
 62
     0
370
    -2
100
AcDbLine
 10
252.7723497905932
 20
191.1444190772457
 30
0.0
 11
334.5723497905931
 21
191.1444190772457
 31
0.0
  0
INSERT
  5
4095
330
391B
100
AcDbEntity
  8
SUNPO
  6
Continuous
 62
     0
370
    -2
100
AcDbBlockReference
  2
_DOT
 10
251.1723497905932
 20
191.1444190772457
 30
0.0
 41
1.6
 42
1.6
 43
1.6
 50
180.0
  0
INSERT
  5
4096
330
391B
100
AcDbEntity
  8
SUNPO
  6
Continuous
 62
     0
370
    -2
100
AcDbBlockReference
  2
_DOT
 10
336.1723497905931
 20
191.1444190772457
 30
0.0
 41
1.6
 42
1.6
 43
1.6
  0
MTEXT
  5
4097
330
391B
100
AcDbEntity
  8
SUNPO
  6
Continuous
 62
     0
100
AcDbMText
 10
293.6723497905932
 20
193.3444190772457
 30
0.0
 40
4.0
 41
0.0
 71
     5
 72
     1
  1
\A1;85
  7
MSゴシック
 73
     1
 44
1.0
1001
ACAD
1000
MTEXTBEGIN
1070
    73
1070
     1
1070
    44
1040
1.0
1070
    74
1070
     0
1000
MTEXTEND
  0
POINT
  5
4098
330
391B
100
AcDbEntity
  8
Defpoints
  6
Continuous
 62
     0
100
AcDbPoint
 10
251.1723497905932
 20
182.2429378062332
 30
0.0
  0
POINT
  5
4099
330
391B
100
AcDbEntity
  8
Defpoints
  6
Continuous
 62
     0
100
AcDbPoint
 10
336.1723497905931
 20
181.0429378062332
 30
0.0
  0
POINT
  5
409A
330
391B
100
AcDbEntity
  8
Defpoints
  6
Continuous
 62
     0
100
AcDbPoint
 10
336.1723497905931
 20
191.1444190772457
 30
0.0
  0
ENDBLK
  5
3926
330
391B
100
AcDbEntity
  8
0
100
AcDbBlockEnd
  0
BLOCK
  5
3959
330
394F
100
AcDbEntity
  8
0
100
AcDbBlockBegin
  2
*D5
 70
     1
 10
0.0
 20
0.0
 30
0.0
  3
*D5
  1

  0
LINE
  5
40AD
330
394F
100
AcDbEntity
  8
SUNPO
  6
Continuous
 62
     0
370
    -2
100
AcDbLine
 10
231.6860908170166
 20
86.66804292403535
 30
0.0
 11
210.1364036962079
 21
92.84731627047326
 31
0.0
  0
LINE
  5
40AE
330
394F
100
AcDbEntity
  8
SUNPO
  6
Continuous
 62
     0
370
    -2
100
AcDbLine
 10
259.2498263987165
 20
182.7942125178672
 30
0.0
 11
237.7001392779078
 21
188.9734858643051
 31
0.0
  0
LINE
  5
40AF
330
394F
100
AcDbEntity
  8
SUNPO
  6
Continuous
 62
     0
370
    -2
100
AcDbLine
 10
210.5774234655151
 20
94.38533498397456
 30
0.0
 11
237.2591195086006
 21
187.4354671508038
 31
0.0
  0
INSERT
  5
40B0
330
394F
100
AcDbEntity
  8
SUNPO
  6
Continuous
 62
     0
370
    -2
100
AcDbBlockReference
  2
_DOT
 10
210.1364036962079
 20
92.84731627047326
 30
0.0
 41
1.6
 42
1.6
 43
1.6
 50
254.0
  0
INSERT
  5
40B1
330
394F
100
AcDbEntity
  8
SUNPO
  6
Continuous
 62
     0
370
    -2
100
AcDbBlockReference
  2
_DOT
 10
237.7001392779078
 20
188.9734858643051
 30
0.0
 41
1.6
 42
1.6
 43
1.6
 50
74.0
  0
MTEXT
  5
40B2
330
394F
100
AcDbEntity
  8
SUNPO
  6
Continuous
 62
     0
100
AcDbMText
 10
221.8034957559936
 20
141.5168032501866
 30
0.0
 40
4.0
 41
0.0
 71
     5
 72
     1
  1
\A1;100
  7
MSゴシック
 11
0.2756373558169991
 21
0.9612616959383188
 31
0.0
 73
     1
 44
1.0
1001
ACAD
1000
MTEXTBEGIN
1070
    73
1070
     1
1070
    44
1040
1.0
1070
    74
1070
     0
1000
MTEXTEND
  0
POINT
  5
40B3
330
394F
100
AcDbEntity
  8
Defpoints
  6
Continuous
 62
     0
100
AcDbPoint
 10
233.6086142088933
 20
86.11676821240136
 30
0.0
  0
POINT
  5
40B4
330
394F
100
AcDbEntity
  8
Defpoints
  6
Continuous
 62
     0
100
AcDbPoint
 10
261.1723497905932
 20
182.2429378062332
 30
0.0
  0
POINT
  5
40B5
330
394F
100
AcDbEntity
  8
Defpoints
  6
Continuous
 62
     0
100
AcDbPoint
 10
237.7001392779078
 20
188.9734858643051
 30
0.0
  0
ENDBLK
  5
395A
330
394F
100
AcDbEntity
  8
0
100
AcDbBlockEnd
  0
BLOCK
  5
3966
330
395B
100
AcDbEntity
  8
0
100
AcDbBlockBegin
  2
*D6
 70
     1
 10
0.0
 20
0.0
 30
0.0
  3
*D6
  1

  0
LINE
  5
40B6
330
395B
100
AcDbEntity
  8
SUNPO
  6
Continuous
 62
     0
370
    -2
100
AcDbLine
 10
249.1723497905932
 20
180.2429378062332
 30
0.0
 11
238.8185401091878
 21
180.2429378062332
 31
0.0
  0
ARC
  5
40B7
330
395B
100
AcDbEntity
  8
SUNPO
  6
Continuous
 62
     0
370
    -2
100
AcDbCircle
 10
260.5988590190755
 20
180.2429378062332
 30
0.0
 40
21.78031890988769
100
AcDbArc
 50
184.2099417002921
 51
249.7900582997079
  0
INSERT
  5
40B8
330
395B
100
AcDbEntity
  8
SUNPO
  6
Continuous
 62
     0
370
    -2
100
AcDbBlockReference
  2
_DOT
 10
238.8185401091878
 20
180.2429378062332
 30
0.0
 41
1.6
 42
1.6
 43
1.6
 50
92.10497085014607
  0
INSERT
  5
40B9
330
395B
100
AcDbEntity
  8
SUNPO
  6
Continuous
 62
     0
370
    -2
100
AcDbBlockReference
  2
_DOT
 10
254.5953895059031
 20
159.3063515128371
 30
0.0
 41
1.6
 42
1.6
 43
1.6
 50
341.895029149854
  0
MTEXT
  5
40BA
330
395B
100
AcDbEntity
  8
SUNPO
  6
Continuous
 62
     0
100
AcDbMText
 10
241.4473247953806
 20
165.8112216262857
 30
0.0
 40
4.0
 41
0.0
 71
     5
 72
     1
  1
\A1;74°
  7
MSゴシック
 11
0.6018150231520482
 21
-0.798635510047293
 31
0.0
 73
     1
 44
1.0
1001
ACAD
1000
MTEXTBEGIN
1070
    73
1070
     1
1070
    44
1040
1.0
1070
    74
1070
     0
1000
MTEXTEND
  0
POINT
  5
40BB
330
395B
100
AcDbEntity
  8
Defpoints
  6
Continuous
 62
     0
100
AcDbPoint
 10
240.8059696203108
 20
171.1531731742596
 30
0.0
  0
POINT
  5
40BC
330
395B
100
AcDbEntity
  8
Defpoints
  6
Continuous
 62
     0
100
AcDbPoint
 10
260.5988590190755
 20
180.2429378062332
 30
0.0
  0
POINT
  5
40BD
330
395B
100
AcDbEntity
  8
Defpoints
  6
Continuous
 62
     0
100
AcDbPoint
 10
237.7431745461482
 20
100.5356936514761
 30
0.0
  0
POINT
  5
40BE
330
395B
100
AcDbEntity
  8
Defpoints
  6
Continuous
 62
     0
100
AcDbPoint
 10
260.5988590190755
 20
180.2429378062332
 30
0.0
  0
POINT
  5
40BF
330
395B
100
AcDbEntity
  8
Defpoints
  6
Continuous
 62
     0
100
AcDbPoint
 10
251.1723497905932
 20
180.2429378062332
 30
0.0
  0
ENDBLK
  5
3967
330
395B
100
AcDbEntity
  8
0
100
AcDbBlockEnd
  0
BLOCK
  5
3A01
330
39F7
100
AcDbEntity
  8
0
100
AcDbBlockBegin
  2
*D7
 70
     1
 10
0.0
 20
0.0
 30
0.0
  3
*D7
  1

  0
LINE
  5
409B
330
39F7
100
AcDbEntity
  8
SUNPO
  6
Continuous
 62
     0
370
    -2
100
AcDbLine
 10
336.1723497905931
 20
183.0429378062332
 30
0.0
 11
336.1723497905931
 21
191.1444190772457
 31
0.0
  0
LINE
  5
409C
330
39F7
100
AcDbEntity
  8
SUNPO
  6
Continuous
 62
     0
370
    -2
100
AcDbLine
 10
358.6086142088933
 20
130.7429378062332
 30
0.0
 11
358.6086142088933
 21
191.1444190772457
 31
0.0
  0
LINE
  5
409D
330
39F7
100
AcDbEntity
  8
SUNPO
  6
Continuous
 62
     0
370
    -2
100
AcDbLine
 10
337.7723497905931
 20
191.1444190772457
 30
0.0
 11
357.0086142088933
 21
191.1444190772457
 31
0.0
  0
INSERT
  5
409E
330
39F7
100
AcDbEntity
  8
SUNPO
  6
Continuous
 62
     0
370
    -2
100
AcDbBlockReference
  2
_DOT
 10
336.1723497905931
 20
191.1444190772457
 30
0.0
 41
1.6
 42
1.6
 43
1.6
 50
180.0
  0
INSERT
  5
409F
330
39F7
100
AcDbEntity
  8
SUNPO
  6
Continuous
 62
     0
370
    -2
100
AcDbBlockReference
  2
_DOT
 10
358.6086142088933
 20
191.1444190772457
 30
0.0
 41
1.6
 42
1.6
 43
1.6
  0
MTEXT
  5
40A0
330
39F7
100
AcDbEntity
  8
SUNPO
  6
Continuous
 62
     0
100
AcDbMText
 10
347.3904819997432
 20
193.6794444579564
 30
0.0
 40
4.0
 41
0.0
 71
     5
 72
     1
  1
\A1;(24.33)
  7
MSゴシック
 73
     1
 44
1.0
1001
ACAD
1000
MTEXTBEGIN
1070
    73
1070
     1
1070
    44
1040
1.0
1070
    74
1070
     0
1000
MTEXTEND
  0
POINT
  5
40A1
330
39F7
100
AcDbEntity
  8
Defpoints
  6
Continuous
 62
     0
100
AcDbPoint
 10
336.1723497905931
 20
181.0429378062332
 30
0.0
  0
POINT
  5
40A2
330
39F7
100
AcDbEntity
  8
Defpoints
  6
Continuous
 62
     0
100
AcDbPoint
 10
358.6086142088933
 20
128.7429378062332
 30
0.0
  0
POINT
  5
40A3
330
39F7
100
AcDbEntity
  8
Defpoints
  6
Continuous
 62
     0
100
AcDbPoint
 10
358.6086142088933
 20
191.1444190772457
 30
0.0
  0
ENDBLK
  5
3A02
330
39F7
100
AcDbEntity
  8
0
100
AcDbBlockEnd
  0
BLOCK
  5
3A35
330
3A2B
100
AcDbEntity
  8
0
100
AcDbBlockBegin
  2
*D8
 70
     1
 10
0.0
 20
0.0
 30
0.0
  3
*D8
  1

  0
LINE
  5
40A4
330
3A2B
100
AcDbEntity
  8
SUNPO
  6
Continuous
 62
     0
370
    -2
100
AcDbLine
 10
357.5431745461484
 20
130.2429378062333
 30
0.0
 11
370.7384960380672
 21
130.2429378062333
 31
0.0
  0
LINE
  5
40A5
330
3A2B
100
AcDbEntity
  8
SUNPO
  6
Continuous
 62
     0
370
    -2
100
AcDbLine
 10
337.6723497905932
 20
180.2429378062333
 30
0.0
 11
370.7384960380672
 21
180.2429378062333
 31
0.0
  0
LINE
  5
40A6
330
3A2B
100
AcDbEntity
  8
SUNPO
  6
Continuous
 62
     0
370
    -2
100
AcDbLine
 10
370.7384960380672
 20
131.8429378062332
 30
0.0
 11
370.7384960380672
 21
178.6429378062333
 31
0.0
  0
INSERT
  5
40A7
330
3A2B
100
AcDbEntity
  8
SUNPO
  6
Continuous
 62
     0
370
    -2
100
AcDbBlockReference
  2
_DOT
 10
370.7384960380672
 20
130.2429378062333
 30
0.0
 41
1.6
 42
1.6
 43
1.6
 50
270.0
  0
INSERT
  5
40A8
330
3A2B
100
AcDbEntity
  8
SUNPO
  6
Continuous
 62
     0
370
    -2
100
AcDbBlockReference
  2
_DOT
 10
370.7384960380672
 20
180.2429378062333
 30
0.0
 41
1.6
 42
1.6
 43
1.6
 50
90.0
  0
MTEXT
  5
40A9
330
3A2B
100
AcDbEntity
  8
SUNPO
  6
Continuous
 62
     0
100
AcDbMText
 10
372.9384960380672
 20
155.2429378062331
 30
0.0
 40
4.0
 41
0.0
 71
     5
 72
     1
  1
\A1;50
  7
MSゴシック
 11
0.0000000000000001
 21
1.0
 31
0.0
 73
     1
 44
1.0
1001
ACAD
1000
MTEXTBEGIN
1070
    73
1070
     1
1070
    44
1040
1.0
1070
    74
1070
     0
1000
MTEXTEND
  0
POINT
  5
40AA
330
3A2B
100
AcDbEntity
  8
Defpoints
  6
Continuous
 62
     0
100
AcDbPoint
 10
355.5431745461484
 20
130.2429378062333
 30
0.0
  0
POINT
  5
40AB
330
3A2B
100
AcDbEntity
  8
Defpoints
  6
Continuous
 62
     0
100
AcDbPoint
 10
335.6723497905932
 20
180.2429378062333
 30
0.0
  0
POINT
  5
40AC
330
3A2B
100
AcDbEntity
  8
Defpoints
  6
Continuous
 62
     0
100
AcDbPoint
 10
370.7384960380672
 20
180.2429378062333
 30
0.0
  0
ENDBLK
  5
3A36
330
3A2B
100
AcDbEntity
  8
0
100
AcDbBlockEnd
  0
BLOCK
  5
410A
330
4109
100
AcDbEntity
  8
0
100
AcDbBlockBegin
  2
up60_2020
 70
     0
 10
0.0
 20
0.0
 30
0.0
  3
up60_2020
  1

  0
LINE
  5
410B
330
4109
100
AcDbEntity
  8
KANAMONO_SCREW
100
AcDbLine
 10
2.789999999999736
 20
-31.56499999999937
 30
0.0
 11
2.789999999999736
 21
-2.864999999999326
 31
0.0
  0
LINE
  5
410C
330
4109
100
AcDbEntity
  8
KANAMONO_SCREW
100
AcDbLine
 10
-2.790000000000077
 20
-31.56499999999937
 30
0.0
 11
-2.789999999995984
 21
-2.864999999999326
 31
0.0
  0
LINE
  5
410D
330
4109
100
AcDbEntity
  8
KANAMONO_SCREW
100
AcDbLine
 10
0.2499999999998863
 20
-10.56499999999937
 30
0.0
 11
0.2499999999998863
 21
-2.864999999999781
 31
0.0
  0
LINE
  5
410E
330
4109
100
AcDbEntity
  8
KANAMONO_SCREW
100
AcDbLine
 10
3.390000000000782
 20
-8.66499999999587
 30
0.0
 11
2.789999999999736
 21
-10.56499999999937
 31
0.0
  0
LINE
  5
410F
330
4109
100
AcDbEntity
  8
KANAMONO_SCREW
100
AcDbLine
 10
-2.790000000000077
 20
-10.56499999999937
 30
0.0
 11
-3.389999999999076
 21
-8.665000000003146
 31
0.0
  0
LINE
  5
4110
330
4109
100
AcDbEntity
  8
KANAMONO_SCREW
100
AcDbLine
 10
0.2499999999998863
 20
-10.56499999999937
 30
0.0
 11
-0.0000000000002274
 21
-8.665000000003146
 31
0.0
  0
LINE
  5
4111
330
4109
100
AcDbEntity
  8
KANAMONO_SCREW
100
AcDbLine
 10
-0.0000000000014779
 20
-8.665000000000645
 30
0.0
 11
-0.2499999999965894
 21
-10.56499999999528
 31
0.0
  0
LINE
  5
4112
330
4109
100
AcDbEntity
  8
KANAMONO_SCREW
100
AcDbLine
 10
-0.2499999999965894
 20
-10.56499999999528
 30
0.0
 11
-0.2499999999943157
 21
-2.86500000001115
 31
0.0
  0
LINE
  5
4113
330
4109
100
AcDbEntity
  8
KANAMONO_SCREW
100
AcDbLine
 10
-0.0000000000014779
 20
-8.665000000000645
 30
0.0
 11
0.0000000000001137
 21
-3.36500000001115
 31
0.0
  0
LINE
  5
4114
330
4109
100
AcDbEntity
  8
KANAMONO_SCREW
100
AcDbLine
 10
3.390000000000782
 20
-8.66499999999587
 30
0.0
 11
3.390000000002373
 21
-3.364999999999099
 31
0.0
  0
LINE
  5
4115
330
4109
100
AcDbEntity
  8
KANAMONO_SCREW
100
AcDbLine
 10
-3.389999999999076
 20
-8.665000000003146
 30
0.0
 11
-3.389999999997371
 21
-3.364999999999554
 31
0.0
  0
LINE
  5
4116
330
4109
100
AcDbEntity
  8
KANAMONO_SCREW
100
AcDbLine
 10
3.390000000002373
 20
-3.364999999999099
 30
0.0
 11
2.790000000002578
 21
-2.864999999999326
 31
0.0
  0
LINE
  5
4117
330
4109
100
AcDbEntity
  8
KANAMONO_SCREW
100
AcDbLine
 10
-2.789999999997462
 20
-2.864999999999326
 30
0.0
 11
-3.389999999997371
 21
-3.364999999999554
 31
0.0
  0
LINE
  5
4118
330
4109
100
AcDbEntity
  8
KANAMONO_SCREW
100
AcDbLine
 10
0.2499999999998863
 20
-2.864999999999781
 30
0.0
 11
0.0000000000001137
 21
-3.364999999999554
 31
0.0
  0
LINE
  5
4119
330
4109
100
AcDbEntity
  8
KANAMONO_SCREW
100
AcDbLine
 10
0.0000000000001137
 20
-3.364999999999554
 30
0.0
 11
-0.2499999999943157
 21
-2.86500000001115
 31
0.0
  0
LINE
  5
411A
330
4109
100
AcDbEntity
  8
KANAMONO_SCREW
100
AcDbLine
 10
2.890000000000213
 20
-2.864999999999326
 30
0.0
 11
-2.889999999999872
 21
-2.864999999999326
 31
0.0
  0
LINE
  5
411B
330
4109
100
AcDbEntity
  8
KANAMONO_SCREW
100
AcDbLine
 10
2.890000000000213
 20
-2.864999999999326
 30
0.0
 11
3.675000000000068
 21
-2.014999999999417
 31
0.0
  0
LINE
  5
411C
330
4109
100
AcDbEntity
  8
KANAMONO_SCREW
100
AcDbLine
 10
-2.889999999999872
 20
-2.864999999999326
 30
0.0
 11
-3.674999999999954
 21
-2.014999999999645
 31
0.0
  0
LINE
  5
411D
330
4109
100
AcDbEntity
  8
KANAMONO_SCREW
100
AcDbLine
 10
3.675000000000068
 20
-2.014999999999417
 30
0.0
 11
-3.674999999999954
 21
-2.014999999999645
 31
0.0
  0
LINE
  5
411E
330
4109
100
AcDbEntity
  8
KANAMONO_SCREW
100
AcDbLine
 10
3.675000000000068
 20
-2.014999999999417
 30
0.0
 11
3.675000000000068
 21
-1.564999999999372
 31
0.0
  0
LINE
  5
411F
330
4109
100
AcDbEntity
  8
KANAMONO_SCREW
100
AcDbLine
 10
3.675000000000068
 20
-1.564999999999372
 30
0.0
 11
-3.674999999999954
 21
-1.564999999999372
 31
0.0
  0
LINE
  5
4120
330
4109
100
AcDbEntity
  8
KANAMONO_SCREW
100
AcDbLine
 10
-3.674999999999954
 20
-2.014999999999645
 30
0.0
 11
-3.674999999999954
 21
-1.564999999999372
 31
0.0
  0
ARC
  5
4121
330
4109
100
AcDbEntity
  8
KANAMONO_SCREW
100
AcDbCircle
 10
1.249999999999772
 20
-30.86499999999956
 30
0.0
 40
0.5999999999999998
100
AcDbArc
 50
270.0
 51
0.0
  0
LINE
  5
4122
330
4109
100
AcDbEntity
  8
KANAMONO_SCREW
100
AcDbLine
 10
1.849999999999795
 20
-30.86499999999956
 30
0.0
 11
1.849999999999795
 21
-22.66499999999928
 31
0.0
  0
ARC
  5
4123
330
4109
100
AcDbEntity
  8
KANAMONO_SCREW
100
AcDbCircle
 10
-1.250000000000227
 20
-30.86499999999956
 30
0.0
 40
0.5999999999999998
100
AcDbArc
 50
180.0
 51
270.0
  0
LINE
  5
4124
330
4109
100
AcDbEntity
  8
KANAMONO_SCREW
100
AcDbLine
 10
-1.850000000000363
 20
-30.86499999999956
 30
0.0
 11
-1.850000000000363
 21
-22.66499999999928
 31
0.0
  0
LINE
  5
4125
330
4109
100
AcDbEntity
  8
KANAMONO_SCREW
100
AcDbLine
 10
-1.250000000000227
 20
-31.46499999999946
 30
0.0
 11
1.249999999999772
 21
-31.46499999999946
 31
0.0
  0
LINE
  5
4126
330
4109
100
AcDbEntity
  8
KANAMONO_SCREW
100
AcDbLine
 10
3.389999999999872
 20
-24.06499999999915
 30
0.0
 11
2.789999999999963
 21
-23.56499999999937
 31
0.0
  0
LINE
  5
4127
330
4109
100
AcDbEntity
  8
KANAMONO_SCREW
100
AcDbLine
 10
3.389999999999872
 20
-36.56499999999937
 30
0.0
 11
3.389999999999872
 21
-24.06499999999915
 31
0.0
  0
LINE
  5
4128
330
4109
100
AcDbEntity
  8
KANAMONO_SCREW
100
AcDbLine
 10
-2.789999999999963
 20
-23.56499999999937
 30
0.0
 11
-3.3900000000001
 21
-24.0649999999996
 31
0.0
  0
LINE
  5
4129
330
4109
100
AcDbEntity
  8
KANAMONO_SCREW
100
AcDbLine
 10
-3.3900000000001
 20
-36.5649999999996
 30
0.0
 11
-3.3900000000001
 21
-24.0649999999996
 31
0.0
  0
ARC
  5
412A
330
4109
100
AcDbEntity
  8
KANAMONO_SCREW
100
AcDbCircle
 10
1.249999999999772
 20
-22.66499999999928
 30
0.0
 40
0.5999999999999998
100
AcDbArc
 50
0.0
 51
90.0
  0
LINE
  5
412B
330
4109
100
AcDbEntity
  8
KANAMONO_SCREW
100
AcDbLine
 10
1.249999999999772
 20
-22.06499999999937
 30
0.0
 11
-1.250000000000227
 21
-22.06499999999937
 31
0.0
  0
ARC
  5
412C
330
4109
100
AcDbEntity
  8
KANAMONO_SCREW
100
AcDbCircle
 10
-1.250000000000227
 20
-22.66499999999928
 30
0.0
 40
0.5999999999999998
100
AcDbArc
 50
90.0
 51
180.0
  0
LINE
  5
412D
330
4109
100
AcDbEntity
  8
KANAMONO_SCREW
100
AcDbLine
 10
2.889999999999872
 20
-33.36499999999956
 30
0.0
 11
2.889999999999872
 21
-31.56499999999937
 31
0.0
  0
LINE
  5
412E
330
4109
100
AcDbEntity
  8
KANAMONO_SCREW
100
AcDbLine
 10
2.889999999999872
 20
-38.76499999999964
 30
0.0
 11
2.889999999999872
 21
-36.96499999999924
 31
0.0
  0
LINE
  5
412F
330
4109
100
AcDbEntity
  8
KANAMONO_SCREW
100
AcDbLine
 10
-2.8900000000001
 20
-33.36499999999956
 30
0.0
 11
-2.8900000000001
 21
-31.56499999999937
 31
0.0
  0
LINE
  5
4130
330
4109
100
AcDbEntity
  8
KANAMONO_SCREW
100
AcDbLine
 10
-2.8900000000001
 20
-38.76499999999964
 30
0.0
 11
-2.8900000000001
 21
-36.96499999999924
 31
0.0
  0
LINE
  5
4131
330
4109
100
AcDbEntity
  8
KANAMONO_SCREW
100
AcDbLine
 10
2.789999999999736
 20
-36.36499999999933
 30
0.0
 11
1.999999999999772
 21
-36.36499999999933
 31
0.0
  0
LINE
  5
4132
330
4109
100
AcDbEntity
  8
KANAMONO_SCREW
100
AcDbLine
 10
2.789999999999736
 20
-36.96499999999924
 30
0.0
 11
2.789999999999736
 21
-33.36499999999956
 31
0.0
  0
LINE
  5
4133
330
4109
100
AcDbEntity
  8
KANAMONO_SCREW
100
AcDbLine
 10
2.789999999999736
 20
-35.86499999999933
 30
0.0
 11
1.999999999999772
 21
-35.86499999999933
 31
0.0
  0
LINE
  5
4134
330
4109
100
AcDbEntity
  8
KANAMONO_SCREW
100
AcDbLine
 10
2.789999999999736
 20
-35.36499999999933
 30
0.0
 11
1.999999999999772
 21
-35.36499999999933
 31
0.0
  0
LINE
  5
4135
330
4109
100
AcDbEntity
  8
KANAMONO_SCREW
100
AcDbLine
 10
2.789999999999736
 20
-34.86499999999933
 30
0.0
 11
1.999999999999772
 21
-34.86499999999933
 31
0.0
  0
LINE
  5
4136
330
4109
100
AcDbEntity
  8
KANAMONO_SCREW
100
AcDbLine
 10
2.789999999999736
 20
-34.36499999999933
 30
0.0
 11
1.999999999999772
 21
-34.36499999999933
 31
0.0
  0
LINE
  5
4137
330
4109
100
AcDbEntity
  8
KANAMONO_SCREW
100
AcDbLine
 10
2.789999999999736
 20
-33.86499999999933
 30
0.0
 11
1.999999999999772
 21
-33.86499999999933
 31
0.0
  0
LINE
  5
4138
330
4109
100
AcDbEntity
  8
KANAMONO_SCREW
100
AcDbLine
 10
-2.000000000000227
 20
-36.36499999999933
 30
0.0
 11
-2.789999999999963
 21
-36.36499999999933
 31
0.0
  0
LINE
  5
4139
330
4109
100
AcDbEntity
  8
KANAMONO_SCREW
100
AcDbLine
 10
-2.000000000000227
 20
-35.86499999999933
 30
0.0
 11
-2.789999999999963
 21
-35.86499999999933
 31
0.0
  0
LINE
  5
413A
330
4109
100
AcDbEntity
  8
KANAMONO_SCREW
100
AcDbLine
 10
-2.789999999999963
 20
-36.96499999999924
 30
0.0
 11
-2.790000000000077
 21
-33.36499999999956
 31
0.0
  0
LINE
  5
413B
330
4109
100
AcDbEntity
  8
KANAMONO_SCREW
100
AcDbLine
 10
-2.000000000000227
 20
-35.36499999999933
 30
0.0
 11
-2.790000000000077
 21
-35.36499999999933
 31
0.0
  0
LINE
  5
413C
330
4109
100
AcDbEntity
  8
KANAMONO_SCREW
100
AcDbLine
 10
-2.000000000000227
 20
-34.86499999999933
 30
0.0
 11
-2.790000000000077
 21
-34.86499999999933
 31
0.0
  0
LINE
  5
413D
330
4109
100
AcDbEntity
  8
KANAMONO_SCREW
100
AcDbLine
 10
-2.000000000000227
 20
-34.36499999999933
 30
0.0
 11
-2.790000000000077
 21
-34.36499999999933
 31
0.0
  0
LINE
  5
413E
330
4109
100
AcDbEntity
  8
KANAMONO_SCREW
100
AcDbLine
 10
-2.000000000000227
 20
-33.86499999999933
 30
0.0
 11
-2.790000000000077
 21
-33.86499999999933
 31
0.0
  0
LINE
  5
413F
330
4109
100
AcDbEntity
  8
KANAMONO_SCREW
100
AcDbLine
 10
2.889999999999872
 20
-33.36499999999956
 30
0.0
 11
1.999999999999772
 21
-33.36499999999956
 31
0.0
  0
LINE
  5
4140
330
4109
100
AcDbEntity
  8
KANAMONO_SCREW
100
AcDbLine
 10
1.999999999999772
 20
-38.76499999999964
 30
0.0
 11
1.999999999999772
 21
-33.36499999999956
 31
0.0
  0
LINE
  5
4141
330
4109
100
AcDbEntity
  8
KANAMONO_SCREW
100
AcDbLine
 10
-2.000000000000227
 20
-38.76499999999806
 30
0.0
 11
-2.000000000000227
 21
-33.36499999999956
 31
0.0
  0
LINE
  5
4142
330
4109
100
AcDbEntity
  8
KANAMONO_SCREW
100
AcDbLine
 10
-2.000000000000227
 20
-33.36499999999956
 30
0.0
 11
-2.8900000000001
 21
-33.36499999999956
 31
0.0
  0
LINE
  5
4143
330
4109
100
AcDbEntity
  8
KANAMONO_SCREW
100
AcDbLine
 10
2.889999999999872
 20
-31.56499999999937
 30
0.0
 11
-2.8900000000001
 21
-31.56499999999937
 31
0.0
  0
LINE
  5
4144
330
4109
100
AcDbEntity
  8
KANAMONO_SCREW
100
AcDbLine
 10
1.350000306161518
 20
-32.56499999999937
 30
0.0
 11
-2.8900000000001
 21
-32.56499999999937
 31
0.0
  0
LINE
  5
4145
330
4109
100
AcDbEntity
  8
KANAMONO_SCREW
100
AcDbLine
 10
2.889999999999872
 20
-32.56499999999937
 30
0.0
 11
1.6500003061617
 21
-32.56499999999937
 31
0.0
  0
LINE
  5
4146
330
4109
100
AcDbEntity
  8
KANAMONO_SCREW
100
AcDbLine
 10
1.6500003061617
 20
-33.96991029241235
 30
0.0
 11
1.6500003061617
 21
-32.36499999999978
 31
0.0
  0
LINE
  5
4147
330
4109
100
AcDbEntity
  8
KANAMONO_SCREW
100
AcDbLine
 10
1.6500003061617
 20
-32.36499999999978
 30
0.0
 11
1.350000306161518
 21
-32.36499999999978
 31
0.0
  0
LINE
  5
4148
330
4109
100
AcDbEntity
  8
KANAMONO_SCREW
100
AcDbLine
 10
1.350000306161518
 20
-33.96991029241235
 30
0.0
 11
1.350000306161518
 21
-32.36499999999978
 31
0.0
  0
ARC
  5
4149
330
4109
100
AcDbEntity
  8
KANAMONO_SCREW
100
AcDbCircle
 10
-0.3500000000001364
 20
-37.16008960261365
 30
0.0
 40
1.3
100
AcDbArc
 50
122.858397292397
 51
180.0
  0
LINE
  5
414A
330
4109
100
AcDbEntity
  8
KANAMONO_SCREW
100
AcDbLine
 10
-1.650000000000204
 20
-37.56499999999937
 30
0.0
 11
-1.650000000000204
 21
-37.16008960261365
 31
0.0
  0
ARC
  5
414B
330
4109
100
AcDbEntity
  8
KANAMONO_SCREW
100
AcDbCircle
 10
-0.3500000000001364
 20
-37.16008960261365
 30
0.0
 40
1.0
100
AcDbArc
 50
122.8583972924123
 51
180.0
  0
LINE
  5
414C
330
4109
100
AcDbEntity
  8
KANAMONO_SCREW
100
AcDbLine
 10
-1.350000000000022
 20
-37.56499999999937
 30
0.0
 11
-1.350000000000022
 21
-37.16008960261365
 31
0.0
  0
ARC
  5
414D
330
4109
100
AcDbEntity
  8
KANAMONO_SCREW
100
AcDbCircle
 10
0.3500003061615189
 20
-33.96991029241235
 30
0.0
 40
1.0
100
AcDbArc
 50
302.8583972924124
 51
0.0
  0
LINE
  5
414E
330
4109
100
AcDbEntity
  8
KANAMONO_SCREW
100
AcDbLine
 10
-0.8925646552850139
 20
-36.32007555818586
 30
0.0
 11
1.055334358031473
 21
-35.06192855016843
 31
0.0
  0
ARC
  5
414F
330
4109
100
AcDbEntity
  8
KANAMONO_SCREW
100
AcDbCircle
 10
0.3500003061615189
 20
-33.96991029241235
 30
0.0
 40
1.3
100
AcDbArc
 50
302.858397292397
 51
0.0
  0
LINE
  5
4150
330
4109
100
AcDbEntity
  8
KANAMONO_SCREW
100
AcDbLine
 10
-1.055334051870204
 20
-36.06807134485757
 30
0.0
 11
0.8925649614463964
 21
-34.80992433684014
 31
0.0
  0
LINE
  5
4151
330
4109
100
AcDbEntity
  8
KANAMONO_SCREW
100
AcDbLine
 10
-1.350000000000022
 20
-37.56499999999937
 30
0.0
 11
-1.650000000000204
 21
-37.56499999999937
 31
0.0
  0
LINE
  5
4152
330
4109
100
AcDbEntity
  8
KANAMONO_SCREW
100
AcDbLine
 10
-1.650000000000204
 20
-38.66991039738514
 30
0.0
 11
-1.650000000000204
 21
-38.26499999999942
 31
0.0
  0
LINE
  5
4153
330
4109
100
AcDbEntity
  8
KANAMONO_SCREW
100
AcDbLine
 10
-1.350000000000022
 20
-38.26499999999942
 30
0.0
 11
-1.650000000000204
 21
-38.26499999999942
 31
0.0
  0
LINE
  5
4154
330
4109
100
AcDbEntity
  8
KANAMONO_SCREW
100
AcDbLine
 10
-1.350000000000022
 20
-38.66991039738514
 30
0.0
 11
-1.350000000000022
 21
-38.26499999999942
 31
0.0
  0
ARC
  5
4155
330
4109
100
AcDbEntity
  8
KANAMONO_SCREW
100
AcDbCircle
 10
0.1500003061614734
 20
-52.73090980663505
 30
0.0
 40
1.0
100
AcDbArc
 50
0.0
 51
57.141602707603
  0
LINE
  5
4156
330
4109
100
AcDbEntity
  8
KANAMONO_SCREW
100
AcDbLine
 10
1.150000306161473
 20
-55.2990901933631
 30
0.0
 11
1.150000306161473
 21
-52.73090980663505
 31
0.0
  0
LINE
  5
4157
330
4109
100
AcDbEntity
  8
KANAMONO_SCREW
100
AcDbLine
 10
-1.055334051870204
 20
-50.76192865514122
 30
0.0
 11
0.6925649614461236
 21
-51.89089576220749
 31
0.0
  0
ARC
  5
4158
330
4109
100
AcDbEntity
  8
KANAMONO_SCREW
100
AcDbCircle
 10
0.1500003061614734
 20
-55.2990901933631
 30
0.0
 40
1.0
100
AcDbArc
 50
302.858397292397
 51
0.0
  0
LINE
  5
4159
330
4109
100
AcDbEntity
  8
KANAMONO_SCREW
100
AcDbLine
 10
0.4446659481299094
 20
-56.29922208772177
 30
0.0
 11
0.6925649614461236
 21
-56.13910423779088
 31
0.0
  0
ARC
  5
415A
330
4109
100
AcDbEntity
  8
KANAMONO_SCREW
100
AcDbCircle
 10
0.1500003061614734
 20
-55.2990901933631
 30
0.0
 40
1.3
100
AcDbArc
 50
302.8583972924124
 51
0.0
  0
LINE
  5
415B
330
4109
100
AcDbEntity
  8
KANAMONO_SCREW
100
AcDbLine
 10
0.6074353447150998
 20
-56.55122630105006
 30
0.0
 11
0.8553343580317687
 21
-56.39110845111918
 31
0.0
  0
LINE
  5
415C
330
4109
100
AcDbEntity
  8
KANAMONO_SCREW
100
AcDbLine
 10
1.450000306161427
 20
-55.2990901933631
 30
0.0
 11
1.450000306161427
 21
-52.73090980663505
 31
0.0
  0
ARC
  5
415D
330
4109
100
AcDbEntity
  8
KANAMONO_SCREW
100
AcDbCircle
 10
0.1500003061614734
 20
-52.73090980663505
 30
0.0
 40
1.3
100
AcDbArc
 50
0.0
 51
57.141602707603
  0
LINE
  5
415E
330
4109
100
AcDbEntity
  8
KANAMONO_SCREW
100
AcDbLine
 10
-0.8925646552850139
 20
-50.50992444181315
 30
0.0
 11
0.8553343580315413
 21
-51.6388915488792
 31
0.0
  0
ARC
  5
415F
330
4109
100
AcDbEntity
  8
KANAMONO_SCREW
100
AcDbCircle
 10
-0.3500000000001364
 20
-38.66991039738514
 30
0.0
 40
1.3
100
AcDbArc
 50
180.0
 51
237.141602707603
  0
ARC
  5
4160
330
4109
100
AcDbEntity
  8
KANAMONO_SCREW
100
AcDbCircle
 10
-0.3500000000001364
 20
-38.66991039738514
 30
0.0
 40
1.0
100
AcDbArc
 50
180.0
 51
237.1416027075877
  0
ARC
  5
4161
330
4109
100
AcDbEntity
  8
KANAMONO_SCREW
100
AcDbCircle
 10
0.3500003061615189
 20
-44.16991029241194
 30
0.0
 40
1.0
100
AcDbArc
 50
302.858397292397
 51
0.0
  0
LINE
  5
4162
330
4109
100
AcDbEntity
  8
KANAMONO_SCREW
100
AcDbLine
 10
-1.055334051870204
 20
-39.76192865514122
 30
0.0
 11
0.892564961446169
 21
-41.02007566315887
 31
0.0
  0
LINE
  5
4163
330
4109
100
AcDbEntity
  8
KANAMONO_SCREW
100
AcDbLine
 10
1.350000306161518
 20
-44.16991029241194
 30
0.0
 11
1.350000306161518
 21
-41.86008970758644
 31
0.0
  0
ARC
  5
4164
330
4109
100
AcDbEntity
  8
KANAMONO_SCREW
100
AcDbCircle
 10
0.3500003061615189
 20
-41.86008970758644
 30
0.0
 40
1.0
100
AcDbArc
 50
0.0
 51
57.141602707603
  0
LINE
  5
4165
330
4109
100
AcDbEntity
  8
KANAMONO_SCREW
100
AcDbLine
 10
-0.8925646552850139
 20
-39.50992444181293
 30
0.0
 11
1.055334358031473
 21
-40.76807144983058
 31
0.0
  0
ARC
  5
4166
330
4109
100
AcDbEntity
  8
KANAMONO_SCREW
100
AcDbCircle
 10
0.3500003061615189
 20
-41.86008970758644
 30
0.0
 40
1.3
100
AcDbArc
 50
0.0
 51
57.141602707603
  0
LINE
  5
4167
330
4109
100
AcDbEntity
  8
KANAMONO_SCREW
100
AcDbLine
 10
1.650000306161473
 20
-44.16991029241194
 30
0.0
 11
1.650000306161473
 21
-41.86008970758644
 31
0.0
  0
ARC
  5
4168
330
4109
100
AcDbEntity
  8
KANAMONO_SCREW
100
AcDbCircle
 10
0.3500003061615189
 20
-44.16991029241194
 30
0.0
 40
1.3
100
AcDbArc
 50
302.858397292397
 51
0.0
  0
ARC
  5
4169
330
4109
100
AcDbEntity
  8
KANAMONO_SCREW
100
AcDbCircle
 10
-0.3500000000001364
 20
-49.66991039738513
 30
0.0
 40
1.3
100
AcDbArc
 50
180.0
 51
237.141602707603
  0
ARC
  5
416A
330
4109
100
AcDbEntity
  8
KANAMONO_SCREW
100
AcDbCircle
 10
-0.3500000000001364
 20
-49.66991039738513
 30
0.0
 40
1.0
100
AcDbArc
 50
180.0
 51
237.1416027075877
  0
LINE
  5
416B
330
4109
100
AcDbEntity
  8
KANAMONO_SCREW
100
AcDbLine
 10
-1.650000000000204
 20
-49.66991039738513
 30
0.0
 11
-1.650000000000204
 21
-47.36008960261346
 31
0.0
  0
LINE
  5
416C
330
4109
100
AcDbEntity
  8
KANAMONO_SCREW
100
AcDbLine
 10
-1.055334051870204
 20
-46.26807134485716
 30
0.0
 11
0.892564961446169
 21
-45.00992433683973
 31
0.0
  0
ARC
  5
416D
330
4109
100
AcDbEntity
  8
KANAMONO_SCREW
100
AcDbCircle
 10
-0.3500000000001364
 20
-47.36008960261346
 30
0.0
 40
1.3
100
AcDbArc
 50
122.858397292397
 51
180.0
  0
LINE
  5
416E
330
4109
100
AcDbEntity
  8
KANAMONO_SCREW
100
AcDbLine
 10
-1.350000000000022
 20
-49.66991039738513
 30
0.0
 11
-1.350000000000022
 21
-47.36008960261346
 31
0.0
  0
LINE
  5
416F
330
4109
100
AcDbEntity
  8
KANAMONO_SCREW
100
AcDbLine
 10
-0.8925646552850139
 20
-46.52007555818545
 30
0.0
 11
1.055334358031473
 21
-45.26192855016802
 31
0.0
  0
ARC
  5
4170
330
4109
100
AcDbEntity
  8
KANAMONO_SCREW
100
AcDbCircle
 10
-0.3500000000001364
 20
-47.36008960261346
 30
0.0
 40
1.0
100
AcDbArc
 50
122.8583972924123
 51
180.0
  0
ARC
  5
4171
330
4109
100
AcDbEntity
  8
KANAMONO_SCREW
100
AcDbCircle
 10
1.149999999999863
 20
-57.39124034547785
 30
0.0
 40
1.0
100
AcDbArc
 50
122.8583972924123
 51
180.0
  0
ARC
  5
4172
330
4109
100
AcDbEntity
  8
KANAMONO_SCREW
100
AcDbCircle
 10
1.149999999999863
 20
-57.39124034547785
 30
0.0
 40
1.3
100
AcDbArc
 50
122.858397292397
 51
180.0
  0
LINE
  5
4173
330
4109
100
AcDbEntity
  8
KANAMONO_SCREW
100
AcDbLine
 10
-0.1500000000003183
 20
-57.56499999999937
 30
0.0
 11
-0.1500000000003183
 21
-57.39124034547785
 31
0.0
  0
LINE
  5
4174
330
4109
100
AcDbEntity
  8
KANAMONO_SCREW
100
AcDbLine
 10
0.1499999999998636
 20
-57.56499999999937
 30
0.0
 11
0.1499999999998636
 21
-57.39124034547785
 31
0.0
  0
LINE
  5
4175
330
4109
100
AcDbEntity
  8
KANAMONO_SCREW
100
AcDbLine
 10
0.1499999999998636
 20
-57.56499999999937
 30
0.0
 11
-0.1500000000003183
 21
-57.56499999999937
 31
0.0
  0
LINE
  5
4176
330
4109
100
AcDbEntity
  8
KANAMONO_SCREW
100
AcDbLine
 10
3.224999999999795
 20
-42.56499999999937
 30
0.0
 11
2.140943284395007
 21
-42.56499999999937
 31
0.0
  0
LINE
  5
4177
330
4109
100
AcDbEntity
  8
KANAMONO_SCREW
100
AcDbLine
 10
-2.1410526315791
 20
-42.56499999999937
 30
0.0
 11
-3.225000000000136
 21
-42.56499999999937
 31
0.0
  0
LINE
  5
4178
330
4109
100
AcDbEntity
  8
KANAMONO_SCREW
100
AcDbLine
 10
3.163624561810024
 20
-41.96499999999923
 30
0.0
 11
2.118689081596016
 21
-41.96499999999923
 31
0.0
  0
LINE
  5
4179
330
4109
100
AcDbEntity
  8
KANAMONO_SCREW
100
AcDbLine
 10
3.110729824967847
 20
-41.36499999999933
 30
0.0
 11
2.096434878796571
 21
-41.36499999999933
 31
0.0
  0
LINE
  5
417A
330
4109
100
AcDbEntity
  8
KANAMONO_SCREW
100
AcDbLine
 10
3.057835088125898
 20
-40.76499999999964
 30
0.0
 11
2.07418067599724
 21
-40.76499999999964
 31
0.0
  0
LINE
  5
417B
330
4109
100
AcDbEntity
  8
KANAMONO_SCREW
100
AcDbLine
 10
3.004940351283607
 20
-40.16499999999928
 30
0.0
 11
2.051926473198136
 21
-40.16499999999928
 31
0.0
  0
LINE
  5
417C
330
4109
100
AcDbEntity
  8
KANAMONO_SCREW
100
AcDbLine
 10
2.952045614441317
 20
-39.56499999999937
 30
0.0
 11
2.029672270398805
 21
-39.56499999999937
 31
0.0
  0
LINE
  5
417D
330
4109
100
AcDbEntity
  8
KANAMONO_SCREW
100
AcDbLine
 10
-2.007423822715054
 20
-38.96499999999924
 30
0.0
 11
-2.899150571437985
 21
-38.96499999999924
 31
0.0
  0
LINE
  5
417E
330
4109
100
AcDbEntity
  8
KANAMONO_SCREW
100
AcDbLine
 10
-2.029695290859081
 20
-39.56499999999937
 30
0.0
 11
-2.952045308280048
 21
-39.56499999999937
 31
0.0
  0
LINE
  5
417F
330
4109
100
AcDbEntity
  8
KANAMONO_SCREW
100
AcDbLine
 10
-2.051966759002993
 20
-40.16499999999928
 30
0.0
 11
-3.004940045122339
 21
-40.16499999999928
 31
0.0
  0
LINE
  5
4180
330
4109
100
AcDbEntity
  8
KANAMONO_SCREW
100
AcDbLine
 10
-2.074238227147134
 20
-40.76499999999964
 30
0.0
 11
-3.057834781964288
 21
-40.76499999999964
 31
0.0
  0
LINE
  5
4181
330
4109
100
AcDbEntity
  8
KANAMONO_SCREW
100
AcDbLine
 10
-2.09650969529116
 20
-41.36499999999933
 30
0.0
 11
-3.110729518806465
 21
-41.36499999999933
 31
0.0
  0
LINE
  5
4182
330
4109
100
AcDbEntity
  8
KANAMONO_SCREW
100
AcDbLine
 10
-2.118781163435073
 20
-41.96499999999923
 30
0.0
 11
-3.163624255648528
 21
-41.96499999999923
 31
0.0
  0
LINE
  5
4183
330
4109
100
AcDbEntity
  8
KANAMONO_SCREW
100
AcDbLine
 10
2.141070321496044
 20
-42.56842507261512
 30
0.0
 11
1.999999999999772
 21
-38.76499999999964
 31
0.0
  0
LINE
  5
4184
330
4109
100
AcDbEntity
  8
KANAMONO_SCREW
100
AcDbLine
 10
-2.1410526315791
 20
-42.56499999999937
 30
0.0
 11
-2.000000000000227
 21
-38.76499999999964
 31
0.0
  0
LINE
  5
4185
330
4109
100
AcDbEntity
  8
KANAMONO_SCREW
100
AcDbLine
 10
2.149999663219205
 20
-44.26499999999964
 30
0.0
 11
2.141070321496044
 21
-42.56842507261512
 31
0.0
  0
LINE
  5
4186
330
4109
100
AcDbEntity
  8
KANAMONO_SCREW
100
AcDbLine
 10
-2.150000000000204
 20
-44.26499999999964
 30
0.0
 11
-2.141007727306259
 21
-42.55646818812965
 31
0.0
  0
LINE
  5
4187
330
4109
100
AcDbEntity
  8
KANAMONO_SCREW
100
AcDbLine
 10
2.89915087759914
 20
-38.96499999999924
 30
0.0
 11
2.001052631578772
 21
-38.96499999999924
 31
0.0
  0
LINE
  5
4188
330
4109
100
AcDbEntity
  8
KANAMONO_SCREW
100
AcDbLine
 10
-2.000000000000227
 20
-36.96499999999924
 30
0.0
 11
-2.8900000000001
 21
-36.96499999999924
 31
0.0
  0
LINE
  5
4189
330
4109
100
AcDbEntity
  8
KANAMONO_SCREW
100
AcDbLine
 10
2.889999999999872
 20
-36.96499999999924
 30
0.0
 11
1.999999999999772
 21
-36.96499999999924
 31
0.0
  0
LINE
  5
418A
330
4109
100
AcDbEntity
  8
KANAMONO_SCREW
100
AcDbLine
 10
-2.000000000000227
 20
-38.76499999999964
 30
0.0
 11
-2.8900000000001
 21
-38.76499999999964
 31
0.0
  0
LINE
  5
418B
330
4109
100
AcDbEntity
  8
KANAMONO_SCREW
100
AcDbLine
 10
2.889999999999872
 20
-38.76499999999964
 30
0.0
 11
1.999999999999772
 21
-38.76499999999964
 31
0.0
  0
LINE
  5
418C
330
4109
100
AcDbEntity
  8
KANAMONO_SCREW
100
AcDbLine
 10
3.063636669798029
 20
-42.56499999999914
 30
0.0
 11
2.728636669797992
 21
-38.76499999999919
 31
0.0
  0
LINE
  5
418D
330
4109
100
AcDbEntity
  8
KANAMONO_SCREW
100
AcDbLine
 10
-3.063636363636533
 20
-42.56499999999914
 30
0.0
 11
-2.728636363636496
 21
-38.76499999999919
 31
0.0
  0
LINE
  5
418E
330
4109
100
AcDbEntity
  8
KANAMONO_SCREW
100
AcDbLine
 10
-2.140000000000213
 20
-44.66499999999927
 30
0.0
 11
-3.206518992490828
 21
-44.66499999999951
 31
0.0
  0
LINE
  5
418F
330
4109
100
AcDbEntity
  8
KANAMONO_SCREW
100
AcDbLine
 10
-2.125000000000227
 20
-45.26499999999964
 30
0.0
 11
-3.191518992490728
 21
-45.26499999999964
 31
0.0
  0
LINE
  5
4190
330
4109
100
AcDbEntity
  8
KANAMONO_SCREW
100
AcDbLine
 10
-2.110000000000354
 20
-45.86499999999932
 30
0.0
 11
-3.176518992490628
 21
-45.86499999999932
 31
0.0
  0
LINE
  5
4191
330
4109
100
AcDbEntity
  8
KANAMONO_SCREW
100
AcDbLine
 10
-2.095000000000254
 20
-46.46499999999924
 30
0.0
 11
-3.161518992490755
 21
-46.46499999999924
 31
0.0
  0
LINE
  5
4192
330
4109
100
AcDbEntity
  8
KANAMONO_SCREW
100
AcDbLine
 10
-2.080000000000154
 20
-47.06499999999937
 30
0.0
 11
-3.146518992490655
 21
-47.06499999999937
 31
0.0
  0
LINE
  5
4193
330
4109
100
AcDbEntity
  8
KANAMONO_SCREW
100
AcDbLine
 10
-2.065000000000281
 20
-47.6649999999995
 30
0.0
 11
-3.131518992490555
 21
-47.6649999999995
 31
0.0
  0
LINE
  5
4194
330
4109
100
AcDbEntity
  8
KANAMONO_SCREW
100
AcDbLine
 10
3.206518961871324
 20
-44.66499999999927
 30
0.0
 11
2.139999663219327
 21
-44.66499999999927
 31
0.0
  0
LINE
  5
4195
330
4109
100
AcDbEntity
  8
KANAMONO_SCREW
100
AcDbLine
 10
3.191518961871224
 20
-45.26499999999964
 30
0.0
 11
2.124999663219341
 21
-45.26499999999964
 31
0.0
  0
LINE
  5
4196
330
4109
100
AcDbEntity
  8
KANAMONO_SCREW
100
AcDbLine
 10
3.176518961871352
 20
-45.86499999999932
 30
0.0
 11
2.109999663219241
 21
-45.86499999999932
 31
0.0
  0
LINE
  5
4197
330
4109
100
AcDbEntity
  8
KANAMONO_SCREW
100
AcDbLine
 10
3.161518961871252
 20
-46.46499999999924
 30
0.0
 11
2.094999663219141
 21
-46.46499999999924
 31
0.0
  0
LINE
  5
4198
330
4109
100
AcDbEntity
  8
KANAMONO_SCREW
100
AcDbLine
 10
3.146518961871379
 20
-47.06499999999937
 30
0.0
 11
2.096048853145816
 21
-47.06499999999937
 31
0.0
  0
LINE
  5
4199
330
4109
100
AcDbEntity
  8
KANAMONO_SCREW
100
AcDbLine
 10
3.13151896187162
 20
-47.66499999999928
 30
0.0
 11
2.064999663219396
 21
-47.66499999999928
 31
0.0
  0
LINE
  5
419A
330
4109
100
AcDbEntity
  8
KANAMONO_SCREW
100
AcDbLine
 10
2.963636363665273
 20
-48.26498652761916
 30
0.0
 11
3.063636363665295
 21
-44.26498652761916
 31
0.0
  0
LINE
  5
419B
330
4109
100
AcDbEntity
  8
KANAMONO_SCREW
100
AcDbLine
 10
-2.96363636363651
 20
-48.26499999999964
 30
0.0
 11
-3.063636363636533
 21
-44.26499999999964
 31
0.0
  0
LINE
  5
419C
330
4109
100
AcDbEntity
  8
KANAMONO_SCREW
100
AcDbLine
 10
2.749999999999772
 20
-53.76499999999964
 30
0.0
 11
2.83636363636333
 21
-49.96499999999946
 31
0.0
  0
LINE
  5
419D
330
4109
100
AcDbEntity
  8
KANAMONO_SCREW
100
AcDbLine
 10
2.998636669797861
 20
-53.16499999999928
 30
0.0
 11
1.898026315789479
 21
-53.16499999999928
 31
0.0
  0
LINE
  5
419E
330
4109
100
AcDbEntity
  8
KANAMONO_SCREW
100
AcDbLine
 10
3.012273033434325
 20
-52.56499999999937
 30
0.0
 11
1.921052631578731
 21
-52.56499999999937
 31
0.0
  0
LINE
  5
419F
330
4109
100
AcDbEntity
  8
KANAMONO_SCREW
100
AcDbLine
 10
3.025909397070563
 20
-51.96499999999947
 30
0.0
 11
1.944078947368211
 21
-51.96499999999947
 31
0.0
  0
LINE
  5
41A0
330
4109
100
AcDbEntity
  8
KANAMONO_SCREW
100
AcDbLine
 10
3.039545760707028
 20
-51.36499999999955
 30
0.0
 11
1.967105263157691
 21
-51.36499999999955
 31
0.0
  0
LINE
  5
41A1
330
4109
100
AcDbEntity
  8
KANAMONO_SCREW
100
AcDbLine
 10
3.053182124343265
 20
-50.76499999999964
 30
0.0
 11
2.01315789473665
 21
-50.76499999999964
 31
0.0
  0
LINE
  5
41A2
330
4109
100
AcDbEntity
  8
KANAMONO_SCREW
100
AcDbLine
 10
-2.013157894736991
 20
-50.76499999999964
 30
0.0
 11
-3.055032972211165
 21
-50.76499999999964
 31
0.0
  0
LINE
  5
41A3
330
4109
100
AcDbEntity
  8
KANAMONO_SCREW
100
AcDbLine
 10
-1.967105263158146
 20
-51.36499999999955
 30
0.0
 11
-3.044192331607746
 21
-51.36499999999955
 31
0.0
  0
LINE
  5
41A4
330
4109
100
AcDbEntity
  8
KANAMONO_SCREW
100
AcDbLine
 10
-1.944078947368552
 20
-51.96499999999947
 30
0.0
 11
-3.033351691004213
 21
-51.96499999999947
 31
0.0
  0
LINE
  5
41A5
330
4109
100
AcDbEntity
  8
KANAMONO_SCREW
100
AcDbLine
 10
-1.921052631579073
 20
-52.56499999999937
 30
0.0
 11
-3.022511050401135
 21
-52.56499999999937
 31
0.0
  0
LINE
  5
41A6
330
4109
100
AcDbEntity
  8
KANAMONO_SCREW
100
AcDbLine
 10
-1.898026315789707
 20
-53.16499999999951
 30
0.0
 11
-3.011670409797716
 21
-53.16499999999951
 31
0.0
  0
LINE
  5
41A7
330
4109
100
AcDbEntity
  8
KANAMONO_SCREW
100
AcDbLine
 10
-2.150000000000204
 20
-44.26499999999964
 30
0.0
 11
-3.225000000000136
 21
-44.26499999999964
 31
0.0
  0
LINE
  5
41A8
330
4109
100
AcDbEntity
  8
KANAMONO_SCREW
100
AcDbLine
 10
3.224999999999795
 20
-44.26499999999964
 30
0.0
 11
2.149999663219205
 21
-44.26499999999964
 31
0.0
  0
LINE
  5
41A9
330
4109
100
AcDbEntity
  8
KANAMONO_SCREW
100
AcDbLine
 10
2.05000000002883
 20
-48.26498652761916
 30
0.0
 11
2.150000000028626
 21
-44.26498652761916
 31
0.0
  0
LINE
  5
41AA
330
4109
100
AcDbEntity
  8
KANAMONO_SCREW
100
AcDbLine
 10
-2.050000000000181
 20
-48.26499999999896
 30
0.0
 11
-2.150000000000204
 21
-44.26499999999896
 31
0.0
  0
LINE
  5
41AB
330
4109
100
AcDbEntity
  8
KANAMONO_SCREW
100
AcDbLine
 10
3.224999999999795
 20
-44.26499999999964
 30
0.0
 11
3.224999999999795
 21
-42.56499999999937
 31
0.0
  0
LINE
  5
41AC
330
4109
100
AcDbEntity
  8
KANAMONO_SCREW
100
AcDbLine
 10
-3.225000000000136
 20
-44.26499999999964
 30
0.0
 11
-3.225000000000136
 21
-42.56499999999937
 31
0.0
  0
LINE
  5
41AD
330
4109
100
AcDbEntity
  8
KANAMONO_SCREW
100
AcDbLine
 10
-2.750000000000227
 20
-53.76499999999964
 30
0.0
 11
-2.925000000000181
 21
-49.96499999999946
 31
0.0
  0
LINE
  5
41AE
330
4109
100
AcDbEntity
  8
KANAMONO_SCREW
100
AcDbLine
 10
2.749999999999772
 20
-58.16499999999928
 30
0.0
 11
2.749999999999772
 21
-55.56499999999937
 31
0.0
  0
LINE
  5
41AF
330
4109
100
AcDbEntity
  8
KANAMONO_SCREW
100
AcDbLine
 10
-2.750000000000227
 20
-58.16499999999951
 30
0.0
 11
-2.750000000000227
 21
-55.56499999999937
 31
0.0
  0
LINE
  5
41B0
330
4109
100
AcDbEntity
  8
KANAMONO_SCREW
100
AcDbLine
 10
3.064545760706891
 20
-50.26499999999964
 30
0.0
 11
2.027929979067039
 21
-50.26499999999964
 31
0.0
  0
LINE
  5
41B1
330
4109
100
AcDbEntity
  8
KANAMONO_SCREW
100
AcDbLine
 10
2.999999999999772
 20
-53.76499999999964
 30
0.0
 11
1.874999999999772
 21
-53.76499999999964
 31
0.0
  0
LINE
  5
41B2
330
4109
100
AcDbEntity
  8
KANAMONO_SCREW
100
AcDbLine
 10
-2.036184210526471
 20
-50.26499999999964
 30
0.0
 11
-3.064066839380529
 21
-50.26499999999964
 31
0.0
  0
LINE
  5
41B3
330
4109
100
AcDbEntity
  8
KANAMONO_SCREW
100
AcDbLine
 10
3.08636394252494
 20
-49.96499999999946
 30
0.0
 11
3.125000306161382
 21
-48.26499999999964
 31
0.0
  0
LINE
  5
41B4
330
4109
100
AcDbEntity
  8
KANAMONO_SCREW
100
AcDbLine
 10
-3.086363636363671
 20
-49.96499999999946
 30
0.0
 11
-3.125000000000227
 21
-48.26499999999964
 31
0.0
  0
LINE
  5
41B5
330
4109
100
AcDbEntity
  8
KANAMONO_SCREW
100
AcDbLine
 10
-2.050000000000181
 20
-49.96499999999946
 30
0.0
 11
-3.086363636363671
 21
-49.96499999999946
 31
0.0
  0
LINE
  5
41B6
330
4109
100
AcDbEntity
  8
KANAMONO_SCREW
100
AcDbLine
 10
3.08636394252494
 20
-49.96499999999946
 30
0.0
 11
2.049999999999954
 21
-49.96499999999946
 31
0.0
  0
LINE
  5
41B7
330
4109
100
AcDbEntity
  8
KANAMONO_SCREW
100
AcDbLine
 10
-2.050000000000181
 20
-48.26499999999964
 30
0.0
 11
-3.125000000000227
 21
-48.26499999999964
 31
0.0
  0
LINE
  5
41B8
330
4109
100
AcDbEntity
  8
KANAMONO_SCREW
100
AcDbLine
 10
3.124999999999772
 20
-48.26499999999964
 30
0.0
 11
2.049999999999727
 21
-48.26499999999964
 31
0.0
  0
LINE
  5
41B9
330
4109
100
AcDbEntity
  8
KANAMONO_SCREW
100
AcDbLine
 10
1.874999999999772
 20
-53.76499999999964
 30
0.0
 11
2.049999999999727
 21
-49.96499999999946
 31
0.0
  0
LINE
  5
41BA
330
4109
100
AcDbEntity
  8
KANAMONO_SCREW
100
AcDbLine
 10
-1.875000000000227
 20
-53.76499999999964
 30
0.0
 11
-2.050000000000181
 21
-49.96499999999946
 31
0.0
  0
LINE
  5
41BB
330
4109
100
AcDbEntity
  8
KANAMONO_SCREW
100
AcDbLine
 10
0.0000003061617235
 20
-61.06499999999937
 30
0.0
 11
-1.396311994552661
 21
-59.24979400907137
 31
0.0
  0
ARC
  5
41BC
330
4109
100
AcDbEntity
  8
KANAMONO_SCREW
100
AcDbCircle
 10
-1.000000000000227
 20
-58.94493862864647
 30
0.0
 40
0.5
100
AcDbArc
 50
180.0
 51
217.5685920288021
  0
LINE
  5
41BD
330
4109
100
AcDbEntity
  8
KANAMONO_SCREW
100
AcDbLine
 10
-1.500000000000113
 20
-58.76200569932348
 30
0.0
 11
-1.500000000000113
 21
-58.9449386286467
 31
0.0
  0
LINE
  5
41BE
330
4109
100
AcDbEntity
  8
KANAMONO_SCREW
100
AcDbLine
 10
0.0000003061617235
 20
-60.5649999999996
 30
0.0
 11
-1.410368800544915
 21
-58.7315201612812
 31
0.0
  0
ARC
  5
41BF
330
4109
100
AcDbEntity
  8
KANAMONO_SCREW
100
AcDbCircle
 10
-1.450000000000272
 20
-58.76200569932348
 30
0.0
 40
0.05
100
AcDbArc
 50
37.56859202884636
 51
180.0
  0
LINE
  5
41C0
330
4109
100
AcDbEntity
  8
KANAMONO_SCREW
100
AcDbLine
 10
1.500000306161723
 20
-58.76200569932348
 30
0.0
 11
1.500000306161723
 21
-58.94493862864647
 31
0.0
  0
LINE
  5
41C1
330
4109
100
AcDbEntity
  8
KANAMONO_SCREW
100
AcDbLine
 10
-0.0000000000004547
 20
-60.5649999999996
 30
0.0
 11
1.410369106706525
 21
-58.73152016128097
 31
0.0
  0
ARC
  5
41C2
330
4109
100
AcDbEntity
  8
KANAMONO_SCREW
100
AcDbCircle
 10
1.450000306161427
 20
-58.76200569932348
 30
0.0
 40
0.05
100
AcDbArc
 50
0.0
 51
142.4314079710051
  0
LINE
  5
41C3
330
4109
100
AcDbEntity
  8
KANAMONO_SCREW
100
AcDbLine
 10
-0.0000000000002274
 20
-61.06499999999937
 30
0.0
 11
1.396312300713816
 21
-59.24979400907137
 31
0.0
  0
ARC
  5
41C4
330
4109
100
AcDbEntity
  8
KANAMONO_SCREW
100
AcDbCircle
 10
1.000000306161723
 20
-58.94493862864647
 30
0.0
 40
0.5
100
AcDbArc
 50
322.4314079711771
 51
0.0
  0
LINE
  5
41C5
330
4109
100
AcDbEntity
  8
KANAMONO_SCREW
100
AcDbLine
 10
-1.500000000000113
 20
-56.46200569932353
 30
0.0
 11
-1.500000000000113
 21
-56.64493862864606
 31
0.0
  0
LINE
  5
41C6
330
4109
100
AcDbEntity
  8
KANAMONO_SCREW
100
AcDbLine
 10
1.500000306161723
 20
-56.46200569932353
 30
0.0
 11
1.500000306161723
 21
-56.64493862864606
 31
0.0
  0
LINE
  5
41C7
330
4109
100
AcDbEntity
  8
KANAMONO_SCREW
100
AcDbLine
 10
0.0000003061617235
 20
-58.26499999999964
 30
0.0
 11
-1.410368800544915
 21
-56.43152016128079
 31
0.0
  0
ARC
  5
41C8
330
4109
100
AcDbEntity
  8
KANAMONO_SCREW
100
AcDbCircle
 10
-1.450000000000272
 20
-56.46200569932353
 30
0.0
 40
0.05
100
AcDbArc
 50
37.56859202884636
 51
180.0
  0
LINE
  5
41C9
330
4109
100
AcDbEntity
  8
KANAMONO_SCREW
100
AcDbLine
 10
0.0000003061617235
 20
-58.76499999999964
 30
0.0
 11
-1.396311994552661
 21
-56.94979400907095
 31
0.0
  0
ARC
  5
41CA
330
4109
100
AcDbEntity
  8
KANAMONO_SCREW
100
AcDbCircle
 10
-1.000000000000227
 20
-56.64493862864606
 30
0.0
 40
0.5
100
AcDbArc
 50
180.0
 51
217.5685920288229
  0
LINE
  5
41CB
330
4109
100
AcDbEntity
  8
KANAMONO_SCREW
100
AcDbLine
 10
-0.0000000000002274
 20
-58.26499999999964
 30
0.0
 11
1.410369106706525
 21
-56.43152016128079
 31
0.0
  0
ARC
  5
41CC
330
4109
100
AcDbEntity
  8
KANAMONO_SCREW
100
AcDbCircle
 10
1.450000306161427
 20
-56.46200569932353
 30
0.0
 40
0.05
100
AcDbArc
 50
0.0
 51
142.4314079710051
  0
LINE
  5
41CD
330
4109
100
AcDbEntity
  8
KANAMONO_SCREW
100
AcDbLine
 10
-0.0000000000002274
 20
-58.76499999999964
 30
0.0
 11
1.396312300714043
 21
-56.94979400907119
 31
0.0
  0
ARC
  5
41CE
330
4109
100
AcDbEntity
  8
KANAMONO_SCREW
100
AcDbCircle
 10
1.000000306161723
 20
-56.64493862864606
 30
0.0
 40
0.5
100
AcDbArc
 50
322.4314079711562
 51
0.0
  0
LINE
  5
41CF
330
4109
100
AcDbEntity
  8
KANAMONO_SCREW
100
AcDbLine
 10
-1.875000000000227
 20
-53.76499999999964
 30
0.0
 11
-3.000000000000227
 21
-53.76499999999964
 31
0.0
  0
LINE
  5
41D0
330
4109
100
AcDbEntity
  8
KANAMONO_SCREW
100
AcDbLine
 10
-1.875000000000227
 20
-55.56499999999937
 30
0.0
 11
-3.000000000000227
 21
-55.56499999999937
 31
0.0
  0
LINE
  5
41D1
330
4109
100
AcDbEntity
  8
KANAMONO_SCREW
100
AcDbLine
 10
2.999999999999772
 20
-55.56499999999937
 30
0.0
 11
1.874999999999772
 21
-55.56499999999937
 31
0.0
  0
LINE
  5
41D2
330
4109
100
AcDbEntity
  8
KANAMONO_SCREW
100
AcDbLine
 10
-1.875000000000227
 20
-58.16499999999951
 30
0.0
 11
-3.000000000000227
 21
-58.16499999999951
 31
0.0
  0
LINE
  5
41D3
330
4109
100
AcDbEntity
  8
KANAMONO_SCREW
100
AcDbLine
 10
2.999158339380528
 20
-58.16499999999928
 30
0.0
 11
1.874999999999772
 21
-58.16499999999928
 31
0.0
  0
LINE
  5
41D4
330
4109
100
AcDbEntity
  8
KANAMONO_SCREW
100
AcDbLine
 10
-1.875000000000227
 20
-56.61499999999955
 30
0.0
 11
-2.925000000000181
 21
-56.61499999999955
 31
0.0
  0
LINE
  5
41D5
330
4109
100
AcDbEntity
  8
KANAMONO_SCREW
100
AcDbLine
 10
1.874999999999772
 20
-58.16499999999928
 30
0.0
 11
1.874999999999772
 21
-55.56499999999937
 31
0.0
  0
LINE
  5
41D6
330
4109
100
AcDbEntity
  8
KANAMONO_SCREW
100
AcDbLine
 10
-1.875000000000227
 20
-58.16499999999951
 30
0.0
 11
-1.875000000000227
 21
-55.56499999999937
 31
0.0
  0
LINE
  5
41D7
330
4109
100
AcDbEntity
  8
KANAMONO_SCREW
100
AcDbLine
 10
-1.875000000000227
 20
-57.61499999999955
 30
0.0
 11
-2.925000000000181
 21
-57.61499999999955
 31
0.0
  0
LINE
  5
41D8
330
4109
100
AcDbEntity
  8
KANAMONO_SCREW
100
AcDbLine
 10
2.924999999999727
 20
-57.61499999999955
 30
0.0
 11
1.874999999999772
 21
-57.61499999999955
 31
0.0
  0
LINE
  5
41D9
330
4109
100
AcDbEntity
  8
KANAMONO_SCREW
100
AcDbLine
 10
-1.875000000000227
 20
-57.11499999999955
 30
0.0
 11
-2.925000000000181
 21
-57.11499999999955
 31
0.0
  0
LINE
  5
41DA
330
4109
100
AcDbEntity
  8
KANAMONO_SCREW
100
AcDbLine
 10
2.924999999999727
 20
-57.11499999999955
 30
0.0
 11
1.874999999999772
 21
-57.11499999999955
 31
0.0
  0
LINE
  5
41DB
330
4109
100
AcDbEntity
  8
KANAMONO_SCREW
100
AcDbLine
 10
2.924999999999727
 20
-56.61499999999955
 30
0.0
 11
1.874999999999772
 21
-56.61499999999955
 31
0.0
  0
LINE
  5
41DC
330
4109
100
AcDbEntity
  8
KANAMONO_SCREW
100
AcDbLine
 10
-1.875000000000227
 20
-56.11499999999955
 30
0.0
 11
-2.925000000000181
 21
-56.11499999999955
 31
0.0
  0
LINE
  5
41DD
330
4109
100
AcDbEntity
  8
KANAMONO_SCREW
100
AcDbLine
 10
2.924999999999727
 20
-56.11499999999955
 30
0.0
 11
1.874999999999772
 21
-56.11499999999955
 31
0.0
  0
LINE
  5
41DE
330
4109
100
AcDbEntity
  8
KANAMONO_SCREW
100
AcDbLine
 10
-3.000000000000227
 20
-55.56499999999937
 30
0.0
 11
-3.000000000000227
 21
-53.76499999999964
 31
0.0
  0
LINE
  5
41DF
330
4109
100
AcDbEntity
  8
KANAMONO_SCREW
100
AcDbLine
 10
2.999999999999772
 20
-55.56499999999937
 30
0.0
 11
2.999999999999772
 21
-53.76499999999964
 31
0.0
  0
LINE
  5
41E0
330
4109
100
AcDbEntity
  8
KANAMONO_SCREW
100
AcDbLine
 10
2.099999999999681
 20
-61.56499999999937
 30
0.0
 11
2.999999999999772
 21
-58.16499999999928
 31
0.0
  0
LINE
  5
41E1
330
4109
100
AcDbEntity
  8
KANAMONO_SCREW
100
AcDbLine
 10
2.099999999999681
 20
-61.56499999999937
 30
0.0
 11
-2.100000000000136
 21
-61.56499999999937
 31
0.0
  0
LINE
  5
41E2
330
4109
100
AcDbEntity
  8
KANAMONO_SCREW
100
AcDbLine
 10
-2.100000000000136
 20
-61.56499999999937
 30
0.0
 11
-3.000000000000227
 21
-58.16499999999951
 31
0.0
  0
LINE
  5
41E3
330
4109
100
AcDbEntity
  8
KANAMONO_SCREW
100
AcDbLine
 10
3.389999999999872
 20
-36.56499999999937
 30
0.0
 11
2.889999999999872
 21
-38.46499999999924
 31
0.0
  0
LINE
  5
41E4
330
4109
100
AcDbEntity
  8
KANAMONO_SCREW
100
AcDbLine
 10
-2.8900000000001
 20
-38.46499999999924
 30
0.0
 11
-3.3900000000001
 21
-36.5649999999996
 31
0.0
  0
ARC
  5
41E5
330
4109
100
AcDbEntity
  8
KANAMONO_SCREW
100
AcDbCircle
 10
7.78312947083998
 20
-59.75998416990387
 30
0.0
 40
9.382689926641683
100
AcDbArc
 50
191.0915488138293
 51
213.9505323537957
  0
ARC
  5
41E6
330
4109
100
AcDbEntity
  8
KANAMONO_SCREW
100
AcDbCircle
 10
-7.783129470840208
 20
-59.75998416990387
 30
0.0
 40
9.382689926641683
100
AcDbArc
 50
326.0494676462043
 51
348.9084511861707
  0
LINE
  5
41E7
330
4109
100
AcDbEntity
  8
KANAMONO_SCREW
100
AcDbLine
 10
4.500000000000113
 20
0.0
 30
0.0
 11
-4.5
 21
0.0
 31
0.0
  0
LINE
  5
41E8
330
4109
100
AcDbEntity
  8
KANAMONO_SCREW
100
AcDbLine
 10
4.500000000000113
 20
-0.7399999999997818
 30
0.0
 11
-4.5
 21
-0.7399999999997818
 31
0.0
  0
LINE
  5
41E9
330
4109
100
AcDbEntity
  8
KANAMONO_SCREW
100
AcDbLine
 10
4.500000000000113
 20
0.0
 30
0.0
 11
4.500000000000113
 21
-0.7399999999997818
 31
0.0
  0
LINE
  5
41EA
330
4109
100
AcDbEntity
  8
KANAMONO_SCREW
100
AcDbLine
 10
-4.5
 20
0.0
 30
0.0
 11
-4.5
 21
-0.7399999999997818
 31
0.0
  0
LINE
  5
41EB
330
4109
100
AcDbEntity
  8
KANAMONO_SCREW
100
AcDbLine
 10
3.675000000000068
 20
-1.564999999999827
 30
0.0
 11
4.500000000000113
 21
-0.7399999999997818
 31
0.0
  0
LINE
  5
41EC
330
4109
100
AcDbEntity
  8
KANAMONO_SCREW
100
AcDbLine
 10
-3.675000000000295
 20
-1.564999999999372
 30
0.0
 11
-4.5
 21
-0.7399999999997818
 31
0.0
  0
ENDBLK
  5
41ED
330
4109
100
AcDbEntity
  8
0
100
AcDbBlockEnd
  0
ENDSEC
  0
SECTION
  2
ENTITIES
  0
LINE
  5
2FAD
330
1F
100
AcDbEntity
  8
moji
100
AcDbLine
 10
154.7503306999999
 20
200.0000000000001
 30
0.0
 11
329.7503306999999
 21
200.0000000000001
 31
0.0
  0
LINE
  5
2FAE
330
1F
100
AcDbEntity
  8
moji
100
AcDbLine
 10
154.7503307
 20
200.0000000000001
 30
0.0
 11
154.7503306999999
 21
263.0000000000001
 31
0.0
  0
LINE
  5
2FAF
330
1F
100
AcDbEntity
  8
moji
100
AcDbLine
 10
194.7503307
 20
200.0000000000001
 30
0.0
 11
194.7503306999999
 21
263.0000000000001
 31
0.0
  0
TEXT
  5
2FB0
330
1F
100
AcDbEntity
  8
moji
100
AcDbText
 10
157.2503306999999
 20
208.5000000000001
 30
0.0
 40
4.0
  1
　　　　　特注
  7
MSゴシック
100
AcDbText
  0
LINE
  5
2FB2
330
1F
100
AcDbEntity
  8
moji
100
AcDbLine
 10
154.7503306999999
 20
214.0000000000001
 30
0.0
 11
329.7503306999999
 21
214.0000000000001
 31
0.0
  0
TEXT
  5
2FB4
330
1F
100
AcDbEntity
  8
moji
100
AcDbText
 10
157.2503306999999
 20
222.5000000000001
 30
0.0
 40
4.0
  1
表面処理　標準
  7
MSゴシック
100
AcDbText
  0
TEXT
  5
2FB5
330
1F
100
AcDbEntity
  8
moji
100
AcDbText
 10
197.2503306999999
 20
250.5000000000002
 30
0.0
 40
4.0
  1
A6063S-T5
  7
MSゴシック
100
AcDbText
  0
TEXT
  5
2FB6
330
1F
100
AcDbEntity
  8
moji
100
AcDbText
 10
157.2503306999999
 20
250.5000000000002
 30
0.0
 40
4.0
  1
材質
  7
MSゴシック
100
AcDbText
  0
LINE
  5
2FB7
330
1F
100
AcDbEntity
  8
moji
100
AcDbLine
 10
154.7503306999999
 20
249.0000000000001
 30
0.0
 11
329.7503306999999
 21
249.0000000000001
 31
0.0
  0
LINE
  5
2FB8
330
1F
100
AcDbEntity
  8
moji
100
AcDbLine
 10
154.7503306999999
 20
256.0000000000001
 30
0.0
 11
329.7503306999999
 21
256.0000000000001
 31
0.0
  0
LINE
  5
2FBA
330
1F
100
AcDbEntity
  8
moji
100
AcDbLine
 10
262.2503306999999
 20
228.0000000000002
 30
0.0
 11
262.2503307
 21
263.0000000000001
 31
0.0
  0
LINE
  5
2FBB
330
1F
100
AcDbEntity
  8
moji
100
AcDbLine
 10
329.7503307000001
 20
200.0000000000001
 30
0.0
 11
329.7503306999999
 21
263.0000000000001
 31
0.0
  0
TEXT
  5
2FBC
330
1F
100
AcDbEntity
  8
moji
100
AcDbText
 10
157.2503306999999
 20
264.5000000000002
 30
0.0
 40
4.0
  1
シングルドリッパーＴ５０
  7
MSゴシック
100
AcDbText
  0
LINE
  5
2FBD
330
1F
100
AcDbEntity
  8
moji
100
AcDbLine
 10
154.7503306999999
 20
263.0000000000001
 30
0.0
 11
329.7503306999999
 21
263.0000000000001
 31
0.0
  0
TEXT
  5
2FBE
330
1F
100
AcDbEntity
  8
moji
100
AcDbText
 10
197.2503306999999
 20
257.5000000000001
 30
0.0
 40
4.0
  1
本体
  7
MSゴシック
100
AcDbText
  0
TEXT
  5
2FBF
330
1F
100
AcDbEntity
  8
moji
100
AcDbText
 10
264.7503307
 20
257.5000000000001
 30
0.0
 40
4.0
  1
ジョイント板
  7
MSゴシック
100
AcDbText
  0
TEXT
  5
2FC0
330
1F
100
AcDbEntity
  8
moji
100
AcDbText
 10
264.7503307
 20
250.5
 30
0.0
 40
4.0
  1
A1050B-H24
  7
MSゴシック
100
AcDbText
  0
LINE
  5
2FC1
330
1F
100
AcDbEntity
  8
moji
100
AcDbLine
 10
154.7503307
 20
235.0000000000001
 30
0.0
 11
329.7503307000001
 21
235.0000000000001
 31
0.0
  0
LINE
  5
2FC2
330
1F
100
AcDbEntity
  8
moji
100
AcDbLine
 10
194.7503306999999
 20
242.0000000000001
 30
0.0
 11
329.7503307000001
 21
242.0000000000001
 31
0.0
  0
LINE
  5
2FC3
330
1F
100
AcDbEntity
  8
moji
100
AcDbLine
 10
228.5003307
 20
249.0000000000001
 30
0.0
 11
228.5003307
 21
235.0000000000001
 31
0.0
  0
LINE
  5
2FC4
330
1F
100
AcDbEntity
  8
moji
100
AcDbLine
 10
296.0003307
 20
249.0000000000001
 30
0.0
 11
296.0003307
 21
235.0000000000001
 31
0.0
  0
LINE
  5
2FC5
330
1F
100
AcDbEntity
  8
moji
100
AcDbLine
 10
154.7503307
 20
228.0000000000002
 30
0.0
 11
329.7503307000001
 21
228.0000000000002
 31
0.0
  0
TEXT
  5
2FC6
330
1F
100
AcDbEntity
  8
moji
100
AcDbText
 10
157.2503306999999
 20
243.5000000000001
 30
0.0
 40
4.0
  1
規格(mm)
  7
MSゴシック
100
AcDbText
  0
TEXT
  5
2FC7
330
1F
100
AcDbEntity
  8
moji
100
AcDbText
 10
197.2503307
 20
243.5000000000001
 30
0.0
 40
4.0
  1
長さ
  7
MSゴシック
100
AcDbText
  0
TEXT
  5
2FC8
330
1F
100
AcDbEntity
  8
moji
100
AcDbText
 10
231.0003307
 20
243.5000000000001
 30
0.0
 40
4.0
  1
厚さ
  7
MSゴシック
100
AcDbText
  0
TEXT
  5
2FC9
330
1F
100
AcDbEntity
  8
moji
100
AcDbText
 10
197.2503306999999
 20
236.5000000000001
 30
0.0
 40
4.0
  1
2000
  7
MSゴシック
100
AcDbText
  0
TEXT
  5
2FCA
330
1F
100
AcDbEntity
  8
moji
100
AcDbText
 10
231.0003307
 20
236.5000000000001
 30
0.0
 40
4.0
  1
2.0
  7
MSゴシック
100
AcDbText
  0
TEXT
  5
2FCB
330
1F
100
AcDbEntity
  8
moji
100
AcDbText
 10
264.7503307
 20
243.5
 30
0.0
 40
4.0
  1
長さ
  7
MSゴシック
100
AcDbText
  0
TEXT
  5
2FCC
330
1F
100
AcDbEntity
  8
moji
100
AcDbText
 10
264.7503307
 20
236.5000000000001
 30
0.0
 40
4.0
  1
80
  7
MSゴシック
100
AcDbText
  0
TEXT
  5
2FCD
330
1F
100
AcDbEntity
  8
moji
100
AcDbText
 10
298.5003306999999
 20
243.5
 30
0.0
 40
4.0
  1
厚さ
  7
MSゴシック
100
AcDbText
  0
TEXT
  5
2FCE
330
1F
100
AcDbEntity
  8
moji
100
AcDbText
 10
298.5003306999999
 20
236.5000000000001
 30
0.0
 40
4.0
  1
0.6
  7
MSゴシック
100
AcDbText
  0
TEXT
  5
2FCF
330
1F
100
AcDbEntity
  8
moji
100
AcDbText
 10
157.2503307
 20
229.5000000000001
 30
0.0
 40
4.0
  1
ビス穴
  7
MSゴシック
100
AcDbText
  0
TEXT
  5
2FD0
330
1F
100
AcDbEntity
  8
moji
100
AcDbText
 10
197.2503307
 20
229.5000000000001
 30
0.0
 40
4.0
  1
7穴　300mm間隔
  7
MSゴシック
100
AcDbText
  0
TEXT
  5
3CED
330
1F
100
AcDbEntity
  8
moji
100
AcDbText
 10
197.2503306999999
 20
201.5000000000001
 30
0.0
 40
4.0
  1
アクリル樹脂系塗装（デュラクロン他）
  7
MSゴシック
100
AcDbText
  0
TEXT
  5
3CEE
330
1F
100
AcDbEntity
  8
moji
100
AcDbText
 10
197.2503306999999
 20
208.5000000000001
 30
0.0
 40
4.0
  1
2次電解着色（ブロンズ）
  7
MSゴシック
100
AcDbText
  0
TEXT
  5
3CEF
330
1F
100
AcDbEntity
  8
moji
100
AcDbText
 10
197.2503306999999
 20
222.5
 30
0.0
 40
4.0
  1
JIS H 8602-2010 A1種
  7
MSゴシック
100
AcDbText
  0
LINE
  5
3E04
330
1F
100
AcDbEntity
  8
0
100
AcDbLine
 10
0.0
 20
369.9999999999997
 30
0.0
 11
552.0000000000001
 21
369.999999999999
 31
0.0
  0
TEXT
  5
3E05
330
1F
100
AcDbEntity
  8
WAKU
100
AcDbText
 10
529.507614213198
 20
372.0000000000001
 30
0.0
 40
6.0
  1
sdt50
  7
MSゴシック
 72
     2
 11
549.0000000000001
 21
372.0000000000001
 31
0.0
100
AcDbText
  0
TEXT
  5
3E07
330
1F
100
AcDbEntity
  8
WAKU
100
AcDbText
 10
3.0
 20
372.0000000000001
 30
0.0
 40
8.0
  1
アルミ雨仕舞材／勾配屋根用
  7
MSゴシック
100
AcDbText
  0
TEXT
  5
3E08
330
1F
100
AcDbEntity
  8
WAKU
100
AcDbText
 10
3.0
 20
360.0000000000008
 30
0.0
 40
6.0
  1
シングルドリッパーＴ５０／軒先アルミ金物 断熱５０ｍｍ用
  7
MSゴシック
100
AcDbText
  0
TEXT
  5
3E09
330
1F
100
AcDbEntity
  8
WAKU
100
AcDbText
 10
521.7106598984773
 20
360.000000000001
 30
0.0
 40
6.0
  1
1/2(A4)
  7
MSゴシック
 72
     2
 11
549.0000000000001
 21
360.000000000001
 31
0.0
100
AcDbText
  0
LINE
  5
428A
330
1F
100
AcDbEntity
  8
0
100
AcDbLine
 10
96.00000000000001
 20
59.00000000000002
 30
0.0
 11
456.0
 21
59.00000000000002
 31
0.0
  0
LINE
  5
428B
330
1F
100
AcDbEntity
  8
0
100
AcDbLine
 10
456.0
 20
59.00000000000002
 30
0.0
 11
456.0
 21
299.0
 31
0.0
  0
LINE
  5
428C
330
1F
100
AcDbEntity
  8
0
100
AcDbLine
 10
456.0
 20
299.0
 30
0.0
 11
96.00000000000001
 21
299.0
 31
0.0
  0
LINE
  5
428D
330
1F
100
AcDbEntity
  8
0
100
AcDbLine
 10
96.00000000000001
 20
299.0
 30
0.0
 11
96.00000000000001
 21
59.00000000000002
 31
0.0
  0
ARC
  5
428E
330
1F
100
AcDbEntity
  8
KANAMONO
  6
Continuous
100
AcDbCircle
 10
233.9796839244198
 20
86.32245551443773
 30
0.0
 40
0.2999999999999813
100
AcDbArc
 50
163.9999999999996
 51
253.9999999999996
  0
LINE
  5
428F
330
1F
100
AcDbEntity
  8
KANAMONO
  6
Continuous
100
AcDbLine
 10
233.6913054156383
 20
86.40514672118284
 30
0.0
 11
260.489124081371
 21
179.8602465994881
 31
0.0
  0
ARC
  5
4290
330
1F
100
AcDbEntity
  8
KANAMONO
  6
Continuous
100
AcDbCircle
 10
260.2007455725895
 20
179.9429378062332
 30
0.0
 40
0.2999999999999813
100
AcDbArc
 50
343.9999999999997
 51
90.00000000001087
  0
LINE
  5
4291
330
1F
100
AcDbEntity
  8
KANAMONO
  6
Continuous
100
AcDbLine
 10
260.2007455725894
 20
180.2429378062332
 30
0.0
 11
251.4723497905932
 21
180.2429378062332
 31
0.0
  0
ARC
  5
4292
330
1F
100
AcDbEntity
  8
KANAMONO
  6
Continuous
100
AcDbCircle
 10
251.4723497905932
 20
180.5429378062332
 30
0.0
 40
0.2999999999999829
100
AcDbArc
 50
179.9999999999945
 51
269.9999999999945
  0
LINE
  5
4293
330
1F
100
AcDbEntity
  8
KANAMONO
  6
Continuous
100
AcDbLine
 10
251.1723497905932
 20
180.5429378062332
 30
0.0
 11
251.1723497905932
 21
181.9429378062332
 31
0.0
  0
ARC
  5
4294
330
1F
100
AcDbEntity
  8
KANAMONO
  6
Continuous
100
AcDbCircle
 10
251.4723497905932
 20
181.9429378062332
 30
0.0
 40
0.2999999999999829
100
AcDbArc
 50
90.00000000000543
 51
180.0000000000054
  0
LINE
  5
4295
330
1F
100
AcDbEntity
  8
KANAMONO
  6
Continuous
100
AcDbLine
 10
251.4723497905932
 20
182.2429378062332
 30
0.0
 11
275.6223497905931
 21
182.2429378062332
 31
0.0
  0
ARC
  5
4296
330
1F
100
AcDbEntity
  8
KANAMONO
  6
Continuous
100
AcDbCircle
 10
275.6223497905931
 20
182.5429378062333
 30
0.0
 40
0.3000000000000682
100
AcDbArc
 50
270.0
 51
0.0
  0
ARC
  5
4297
330
1F
100
AcDbEntity
  8
KANAMONO
  6
Continuous
100
AcDbCircle
 10
276.1223497905931
 20
182.5429378062333
 30
0.0
 40
0.1999999999999318
100
AcDbArc
 50
90.0
 51
180.0
  0
LINE
  5
4298
330
1F
100
AcDbEntity
  8
KANAMONO
  6
Continuous
100
AcDbLine
 10
276.1223497905931
 20
182.7429378062332
 30
0.0
 11
276.2223497905932
 21
182.7429378062331
 31
0.0
  0
ARC
  5
4299
330
1F
100
AcDbEntity
  8
KANAMONO
  6
Continuous
100
AcDbCircle
 10
276.2223497905932
 20
182.5429378062331
 30
0.0
 40
0.1999999999999886
100
AcDbArc
 50
0.0000000000162844
 51
90.00000000001628
  0
ARC
  5
429A
330
1F
100
AcDbEntity
  8
KANAMONO
  6
Continuous
100
AcDbCircle
 10
276.7223497905932
 20
182.5429378062332
 30
0.0
 40
0.2999999999999545
100
AcDbArc
 50
180.0
 51
270.0
  0
LINE
  5
429B
330
1F
100
AcDbEntity
  8
KANAMONO
  6
Continuous
100
AcDbLine
 10
276.7223497905932
 20
182.2429378062332
 30
0.0
 11
290.6223497905931
 21
182.2429378062332
 31
0.0
  0
ARC
  5
429C
330
1F
100
AcDbEntity
  8
KANAMONO
  6
Continuous
100
AcDbCircle
 10
290.6223497905931
 20
182.5429378062333
 30
0.0
 40
0.3000000000000682
100
AcDbArc
 50
270.0
 51
0.0
  0
ARC
  5
429D
330
1F
100
AcDbEntity
  8
KANAMONO
  6
Continuous
100
AcDbCircle
 10
291.1223497905932
 20
182.5429378062333
 30
0.0
 40
0.1999999999999318
100
AcDbArc
 50
90.0
 51
180.0
  0
LINE
  5
429E
330
1F
100
AcDbEntity
  8
KANAMONO
  6
Continuous
100
AcDbLine
 10
291.1223497905932
 20
182.7429378062332
 30
0.0
 11
291.2223497905933
 21
182.7429378062331
 31
0.0
  0
ARC
  5
429F
330
1F
100
AcDbEntity
  8
KANAMONO
  6
Continuous
100
AcDbCircle
 10
291.2223497905933
 20
182.5429378062332
 30
0.0
 40
0.1999999999999318
100
AcDbArc
 50
0.0
 51
90.0
  0
ARC
  5
42A0
330
1F
100
AcDbEntity
  8
KANAMONO
  6
Continuous
100
AcDbCircle
 10
291.7223497905932
 20
182.5429378062332
 30
0.0
 40
0.2999999999999545
100
AcDbArc
 50
180.0
 51
270.0
  0
LINE
  5
42A1
330
1F
100
AcDbEntity
  8
KANAMONO
  6
Continuous
100
AcDbLine
 10
291.7223497905932
 20
182.2429378062332
 30
0.0
 11
305.6223497905932
 21
182.2429378062332
 31
0.0
  0
ARC
  5
42A2
330
1F
100
AcDbEntity
  8
KANAMONO
  6
Continuous
100
AcDbCircle
 10
305.6223497905932
 20
182.5429378062333
 30
0.0
 40
0.3000000000000682
100
AcDbArc
 50
270.0
 51
0.0
  0
ARC
  5
42A3
330
1F
100
AcDbEntity
  8
KANAMONO
  6
Continuous
100
AcDbCircle
 10
306.1223497905932
 20
182.5429378062333
 30
0.0
 40
0.1999999999999318
100
AcDbArc
 50
90.0
 51
180.0
  0
LINE
  5
42A4
330
1F
100
AcDbEntity
  8
KANAMONO
  6
Continuous
100
AcDbLine
 10
306.1223497905932
 20
182.7429378062332
 30
0.0
 11
306.2223497905933
 21
182.7429378062331
 31
0.0
  0
ARC
  5
42A5
330
1F
100
AcDbEntity
  8
KANAMONO
  6
Continuous
100
AcDbCircle
 10
306.2223497905933
 20
182.5429378062332
 30
0.0
 40
0.1999999999999318
100
AcDbArc
 50
0.0
 51
90.0
  0
ARC
  5
42A6
330
1F
100
AcDbEntity
  8
KANAMONO
  6
Continuous
100
AcDbCircle
 10
306.7223497905932
 20
182.5429378062332
 30
0.0
 40
0.2999999999999545
100
AcDbArc
 50
180.0
 51
270.0
  0
LINE
  5
42A7
330
1F
100
AcDbEntity
  8
KANAMONO
  6
Continuous
100
AcDbLine
 10
306.7223497905932
 20
182.2429378062332
 30
0.0
 11
320.6223497905932
 21
182.2429378062332
 31
0.0
  0
ARC
  5
42A8
330
1F
100
AcDbEntity
  8
KANAMONO
  6
Continuous
100
AcDbCircle
 10
320.6223497905932
 20
182.5429378062333
 30
0.0
 40
0.3000000000000682
100
AcDbArc
 50
270.0
 51
0.0
  0
ARC
  5
42A9
330
1F
100
AcDbEntity
  8
KANAMONO
  6
Continuous
100
AcDbCircle
 10
321.1223497905931
 20
182.5429378062333
 30
0.0
 40
0.1999999999999318
100
AcDbArc
 50
90.0
 51
180.0
  0
LINE
  5
42AA
330
1F
100
AcDbEntity
  8
KANAMONO
  6
Continuous
100
AcDbLine
 10
321.1223497905931
 20
182.7429378062332
 30
0.0
 11
321.2223497905933
 21
182.7429378062331
 31
0.0
  0
ARC
  5
42AB
330
1F
100
AcDbEntity
  8
KANAMONO
  6
Continuous
100
AcDbCircle
 10
321.2223497905933
 20
182.5429378062332
 30
0.0
 40
0.1999999999999318
100
AcDbArc
 50
0.0
 51
90.0
  0
ARC
  5
42AC
330
1F
100
AcDbEntity
  8
KANAMONO
  6
Continuous
100
AcDbCircle
 10
321.7223497905932
 20
182.5429378062331
 30
0.0
 40
0.3000000000000114
100
AcDbArc
 50
179.9999999999891
 51
269.9999999999891
  0
LINE
  5
42AD
330
1F
100
AcDbEntity
  8
KANAMONO
  6
Continuous
100
AcDbLine
 10
321.7223497905932
 20
182.2429378062331
 30
0.0
 11
331.1723497905931
 21
182.2429378062331
 31
0.0
  0
LINE
  5
42AE
330
1F
100
AcDbEntity
  8
KANAMONO
  6
Continuous
100
AcDbLine
 10
331.1723497905931
 20
182.2429378062331
 30
0.0
 11
335.7795828094607
 21
181.2313035295027
 31
0.0
  0
ARC
  5
42AF
330
1F
100
AcDbEntity
  8
KANAMONO
  6
Continuous
100
AcDbCircle
 10
335.6723497905932
 20
180.7429378062332
 30
0.0
 40
0.5000000000000084
100
AcDbArc
 50
269.9999999999935
 51
77.6157971929924
  0
LINE
  5
42B0
330
1F
100
AcDbEntity
  8
KANAMONO
  6
Continuous
100
AcDbLine
 10
335.6723497905931
 20
180.2429378062332
 30
0.0
 11
280.1086142088933
 21
180.2429378062332
 31
0.0
  0
ARC
  5
42B1
330
1F
100
AcDbEntity
  8
KANAMONO
  6
Continuous
100
AcDbCircle
 10
280.1086142088933
 20
179.2429378062332
 30
0.0
 40
1.0
100
AcDbArc
 50
90.0
 51
180.0
  0
LINE
  5
42B2
330
1F
100
AcDbEntity
  8
KANAMONO
  6
Continuous
100
AcDbLine
 10
279.1086142088933
 20
179.2429378062332
 30
0.0
 11
279.1086142088933
 21
131.2429378062332
 31
0.0
  0
ARC
  5
42B3
330
1F
100
AcDbEntity
  8
KANAMONO
  6
Continuous
100
AcDbCircle
 10
280.1086142088933
 20
131.2429378062332
 30
0.0
 40
1.0
100
AcDbArc
 50
180.0
 51
270.0
  0
LINE
  5
42B4
330
1F
100
AcDbEntity
  8
KANAMONO
  6
Continuous
100
AcDbLine
 10
280.1086142088933
 20
130.2429378062332
 30
0.0
 11
318.1843501401813
 21
130.2429378062332
 31
0.0
  0
LINE
  5
42B5
330
1F
100
AcDbEntity
  8
KANAMONO
  6
Continuous
100
AcDbLine
 10
318.1843501401813
 20
130.2429378062332
 30
0.0
 11
318.3964821745373
 21
130.0308057718773
 31
0.0
  0
ARC
  5
42B6
330
1F
100
AcDbEntity
  8
KANAMONO
  6
Continuous
100
AcDbCircle
 10
318.6086142088932
 20
130.2429378062332
 30
0.0
 40
0.2999999999999743
100
AcDbArc
 50
225.0000000000039
 51
314.9999999999961
  0
LINE
  5
42B7
330
1F
100
AcDbEntity
  8
KANAMONO
  6
Continuous
100
AcDbLine
 10
318.8207462432491
 20
130.0308057718773
 30
0.0
 11
319.0328782776052
 21
130.2429378062332
 31
0.0
  0
LINE
  5
42B8
330
1F
100
AcDbEntity
  8
KANAMONO
  6
Continuous
100
AcDbLine
 10
319.0328782776052
 20
130.2429378062332
 30
0.0
 11
343.1843501401813
 21
130.2429378062332
 31
0.0
  0
LINE
  5
42B9
330
1F
100
AcDbEntity
  8
KANAMONO
  6
Continuous
100
AcDbLine
 10
343.1843501401813
 20
130.2429378062332
 30
0.0
 11
343.3964821745373
 21
130.0308057718773
 31
0.0
  0
ARC
  5
42BA
330
1F
100
AcDbEntity
  8
KANAMONO
  6
Continuous
100
AcDbCircle
 10
343.6086142088932
 20
130.2429378062332
 30
0.0
 40
0.2999999999999743
100
AcDbArc
 50
225.0000000000039
 51
314.9999999999961
  0
LINE
  5
42BB
330
1F
100
AcDbEntity
  8
KANAMONO
  6
Continuous
100
AcDbLine
 10
343.8207462432491
 20
130.0308057718773
 30
0.0
 11
344.0328782776052
 21
130.2429378062332
 31
0.0
  0
LINE
  5
42BC
330
1F
100
AcDbEntity
  8
KANAMONO
  6
Continuous
100
AcDbLine
 10
344.0328782776052
 20
130.2429378062332
 30
0.0
 11
353.6086142088933
 21
130.2429378062332
 31
0.0
  0
LINE
  5
42BD
330
1F
100
AcDbEntity
  8
KANAMONO
  6
Continuous
100
AcDbLine
 10
353.6086142088933
 20
130.2429378062332
 30
0.0
 11
358.2158472277608
 21
129.2313035295028
 31
0.0
  0
ARC
  5
42BE
330
1F
100
AcDbEntity
  8
KANAMONO
  6
Continuous
100
AcDbCircle
 10
358.1086142088933
 20
128.7429378062333
 30
0.0
 40
0.5000000000000084
100
AcDbArc
 50
270.0000000000065
 51
77.6157971929924
  0
LINE
  5
42BF
330
1F
100
AcDbEntity
  8
KANAMONO
  6
Continuous
100
AcDbLine
 10
358.1086142088933
 20
128.2429378062333
 30
0.0
 11
269.6086142088932
 21
128.2429378062333
 31
0.0
  0
LINE
  5
42C0
330
1F
100
AcDbEntity
  8
KANAMONO
  6
Continuous
100
AcDbLine
 10
269.6086142088932
 20
128.2429378062333
 30
0.0
 11
269.175601507001
 21
127.9929378062332
 31
0.0
  0
ARC
  5
42C1
330
1F
100
AcDbEntity
  8
KANAMONO
  6
Continuous
100
AcDbCircle
 10
268.9256015070011
 20
128.4259505081254
 30
0.0
 40
0.4999999999999634
100
AcDbArc
 50
209.9999999999949
 51
299.9999999999949
  0
LINE
  5
42C2
330
1F
100
AcDbEntity
  8
KANAMONO
  6
Continuous
100
AcDbLine
 10
268.4925888051089
 20
128.1759505081255
 30
0.0
 11
267.9925888051089
 21
129.0419759119098
 31
0.0
  0
ARC
  5
42C3
330
1F
100
AcDbEntity
  8
KANAMONO
  6
Continuous
100
AcDbCircle
 10
268.425601507001
 20
129.2919759119099
 30
0.0
 40
0.4999999999999568
100
AcDbArc
 50
120.0000000000021
 51
210.0000000000066
  0
LINE
  5
42C4
330
1F
100
AcDbEntity
  8
KANAMONO
  6
Continuous
100
AcDbLine
 10
268.1756015070011
 20
129.724988613802
 30
0.0
 11
269.0031005817602
 21
130.2027454273686
 31
0.0
  0
ARC
  5
42C5
330
1F
100
AcDbEntity
  8
KANAMONO
  6
Continuous
100
AcDbCircle
 10
269.1531005817602
 20
129.9429378062334
 30
0.0
 40
0.2999999999998951
100
AcDbArc
 50
90.0
 51
120.0000000000065
  0
LINE
  5
42C6
330
1F
100
AcDbEntity
  8
KANAMONO
  6
Continuous
100
AcDbLine
 10
269.1531005817602
 20
130.2429378062333
 30
0.0
 11
276.1086142088933
 21
130.2429378062332
 31
0.0
  0
ARC
  5
42C7
330
1F
100
AcDbEntity
  8
KANAMONO
  6
Continuous
100
AcDbCircle
 10
276.1086142088933
 20
131.2429378062332
 30
0.0
 40
1.0
100
AcDbArc
 50
270.0
 51
0.0
  0
LINE
  5
42C8
330
1F
100
AcDbEntity
  8
KANAMONO
  6
Continuous
100
AcDbLine
 10
277.1086142088933
 20
131.2429378062332
 30
0.0
 11
277.1086142088933
 21
179.2429378062332
 31
0.0
  0
ARC
  5
42C9
330
1F
100
AcDbEntity
  8
KANAMONO
  6
Continuous
100
AcDbCircle
 10
276.1086142088933
 20
179.2429378062332
 30
0.0
 40
1.0
100
AcDbArc
 50
0.0
 51
90.0
  0
LINE
  5
42CA
330
1F
100
AcDbEntity
  8
KANAMONO
  6
Continuous
100
AcDbLine
 10
276.1086142088933
 20
180.2429378062332
 30
0.0
 11
263.4330119409016
 21
180.2429378062332
 31
0.0
  0
ARC
  5
42CB
330
1F
100
AcDbEntity
  8
KANAMONO
  6
Continuous
100
AcDbCircle
 10
263.4330119409016
 20
179.2429378062332
 30
0.0
 40
1.000000000000028
100
AcDbArc
 50
90.0
 51
164.0000000000003
  0
LINE
  5
42CC
330
1F
100
AcDbEntity
  8
KANAMONO
  6
Continuous
100
AcDbLine
 10
262.4717502449632
 20
179.5185751620502
 30
0.0
 11
236.0548485768221
 21
87.39189072305013
 31
0.0
  0
ARC
  5
42CD
330
1F
100
AcDbEntity
  8
KANAMONO
  6
Continuous
100
AcDbCircle
 10
236.3432270856037
 20
87.30919951630509
 30
0.0
 40
0.3000000000000202
100
AcDbArc
 50
164.0000000000131
 51
254.0000000000131
  0
LINE
  5
42CE
330
1F
100
AcDbEntity
  8
KANAMONO
  6
Continuous
100
AcDbLine
 10
236.2605358788586
 20
87.02082100752354
 30
0.0
 11
237.1256714052031
 21
86.77274738728824
 31
0.0
  0
ARC
  5
42CF
330
1F
100
AcDbEntity
  8
KANAMONO
  6
Continuous
100
AcDbCircle
 10
237.2083626119481
 20
87.06112589606973
 30
0.0
 40
0.3000000000000007
100
AcDbArc
 50
254.0000000000064
 51
344.0000000000117
  0
LINE
  5
42D0
330
1F
100
AcDbEntity
  8
KANAMONO
  6
Continuous
100
AcDbLine
 10
237.4967411207297
 20
86.9784346893247
 30
0.0
 11
237.82750594771
 21
88.13194872445066
 31
0.0
  0
ARC
  5
42D1
330
1F
100
AcDbEntity
  8
KANAMONO
  6
Continuous
100
AcDbCircle
 10
240.2306601875558
 20
87.44285533490815
 30
0.0
 40
2.499999999999954
100
AcDbArc
 50
102.0724869358531
 51
163.9999999999995
  0
ARC
  5
42D2
330
1F
100
AcDbEntity
  8
KANAMONO
  6
Continuous
100
AcDbCircle
 10
239.8751068645307
 20
89.1052577634692
 30
0.0
 40
0.7999999999999906
100
AcDbArc
 50
282.0724869358546
 51
102.0724869358545
  0
ARC
  5
42D3
330
1F
100
AcDbEntity
  8
KANAMONO
  6
Continuous
100
AcDbCircle
 10
240.2306601875558
 20
87.44285533490815
 30
0.0
 40
0.8999999999999793
100
AcDbArc
 50
102.0724869358505
 51
163.9999999999967
  0
LINE
  5
42D4
330
1F
100
AcDbEntity
  8
KANAMONO
  6
Continuous
100
AcDbLine
 10
239.3655246612113
 20
87.69092895514351
 30
0.0
 11
238.5937400649237
 21
84.9993962065162
 31
0.0
  0
ARC
  5
42D5
330
1F
100
AcDbEntity
  8
KANAMONO
  6
Continuous
100
AcDbCircle
 10
238.3053615561422
 20
85.08208741326127
 30
0.0
 40
0.3000000000000047
100
AcDbArc
 50
254.0000000000071
 51
344.0000000000038
  0
LINE
  5
42D6
330
1F
100
AcDbEntity
  8
KANAMONO
  6
Continuous
100
AcDbLine
 10
238.2226703493972
 20
84.79370890447976
 30
0.0
 11
233.8969927176747
 21
86.03407700565625
 31
0.0
  0
LINE
  5
42D7
330
1F
100
AcDbEntity
  8
SUNPO
  6
Continuous
100
AcDbLine
 10
358.6086142088933
 20
126.7429378062332
 30
0.0
 11
358.6086142088933
 21
105.9984178517628
 31
0.0
  0
LINE
  5
42D8
330
1F
100
AcDbEntity
  8
SUNPO
  6
Continuous
100
AcDbLine
 10
269.0686142088932
 20
125.9468394906175
 30
0.0
 11
269.0686142088932
 21
105.9984178517628
 31
0.0
  0
LINE
  5
42D9
330
1F
100
AcDbEntity
  8
SUNPO
  6
Continuous
100
AcDbLine
 10
357.0086142088933
 20
105.9984178517628
 30
0.0
 11
270.6686142088932
 21
105.9984178517628
 31
0.0
  0
INSERT
  5
42DA
330
1F
100
AcDbEntity
  8
SUNPO
  6
Continuous
100
AcDbBlockReference
  2
_DOT
 10
358.6086142088933
 20
105.9984178517628
 30
0.0
 41
1.6
 42
1.6
 43
1.6
  0
INSERT
  5
42DB
330
1F
100
AcDbEntity
  8
SUNPO
  6
Continuous
100
AcDbBlockReference
  2
_DOT
 10
269.0686142088932
 20
105.9984178517628
 30
0.0
 41
1.6
 42
1.6
 43
1.6
 50
180.0
  0
MTEXT
  5
42DC
330
1F
100
AcDbEntity
  8
SUNPO
  6
Continuous
100
AcDbMText
 10
313.8386142088933
 20
103.7984178517628
 30
0.0
 40
4.0
 41
0.0
 71
     5
 72
     1
  1
\A1;89.54
  7
MSゴシック
 73
     1
 44
1.0
1001
ACAD
1000
MTEXTBEGIN
1070
    73
1070
     1
1070
    44
1040
1.0
1070
    74
1070
     0
1000
MTEXTEND
  0
LINE
  5
42DD
330
1F
100
AcDbEntity
  8
SUNPO
  6
Continuous
100
AcDbLine
 10
233.6086142088933
 20
84.11676821240138
 30
0.0
 11
233.6086142088933
 21
68.40023896265532
 31
0.0
  0
LINE
  5
42DE
330
1F
100
AcDbEntity
  8
SUNPO
  6
Continuous
100
AcDbLine
 10
358.6086142088933
 20
127.0429378062333
 30
0.0
 11
358.6086142088933
 21
68.40023896265532
 31
0.0
  0
LINE
  5
42DF
330
1F
100
AcDbEntity
  8
SUNPO
  6
Continuous
100
AcDbLine
 10
235.2086142088933
 20
68.40023896265532
 30
0.0
 11
357.0086142088933
 21
68.40023896265532
 31
0.0
  0
INSERT
  5
42E0
330
1F
100
AcDbEntity
  8
SUNPO
  6
Continuous
100
AcDbBlockReference
  2
_DOT
 10
233.6086142088933
 20
68.40023896265532
 30
0.0
 41
1.6
 42
1.6
 43
1.6
 50
180.0
  0
INSERT
  5
42E1
330
1F
100
AcDbEntity
  8
SUNPO
  6
Continuous
100
AcDbBlockReference
  2
_DOT
 10
358.6086142088933
 20
68.40023896265532
 30
0.0
 41
1.6
 42
1.6
 43
1.6
  0
MTEXT
  5
42E2
330
1F
100
AcDbEntity
  8
SUNPO
  6
Continuous
100
AcDbMText
 10
296.1086142088933
 20
66.20023896265532
 30
0.0
 40
4.0
 41
0.0
 71
     5
 72
     1
  1
\A1;125
  7
MSゴシック
 73
     1
 44
1.0
1001
ACAD
1000
MTEXTBEGIN
1070
    73
1070
     1
1070
    44
1040
1.0
1070
    74
1070
     0
1000
MTEXTEND
  0
LINE
  5
42E3
330
1F
100
AcDbEntity
  8
SUNPO
  6
Continuous
100
AcDbLine
 10
251.1723497905932
 20
184.2429378062332
 30
0.0
 11
251.1723497905932
 21
191.1444190772457
 31
0.0
  0
LINE
  5
42E4
330
1F
100
AcDbEntity
  8
SUNPO
  6
Continuous
100
AcDbLine
 10
336.1723497905931
 20
183.0429378062332
 30
0.0
 11
336.1723497905931
 21
191.1444190772457
 31
0.0
  0
LINE
  5
42E5
330
1F
100
AcDbEntity
  8
SUNPO
  6
Continuous
100
AcDbLine
 10
252.7723497905932
 20
191.1444190772457
 30
0.0
 11
334.5723497905931
 21
191.1444190772457
 31
0.0
  0
INSERT
  5
42E6
330
1F
100
AcDbEntity
  8
SUNPO
  6
Continuous
100
AcDbBlockReference
  2
_DOT
 10
251.1723497905932
 20
191.1444190772457
 30
0.0
 41
1.6
 42
1.6
 43
1.6
 50
180.0
  0
INSERT
  5
42E7
330
1F
100
AcDbEntity
  8
SUNPO
  6
Continuous
100
AcDbBlockReference
  2
_DOT
 10
336.1723497905931
 20
191.1444190772457
 30
0.0
 41
1.6
 42
1.6
 43
1.6
  0
MTEXT
  5
42E8
330
1F
100
AcDbEntity
  8
SUNPO
  6
Continuous
100
AcDbMText
 10
293.6723497905932
 20
193.3444190772457
 30
0.0
 40
4.0
 41
0.0
 71
     5
 72
     1
  1
\A1;85
  7
MSゴシック
 73
     1
 44
1.0
1001
ACAD
1000
MTEXTBEGIN
1070
    73
1070
     1
1070
    44
1040
1.0
1070
    74
1070
     0
1000
MTEXTEND
  0
LINE
  5
42E9
330
1F
100
AcDbEntity
  8
SUNPO
  6
Continuous
100
AcDbLine
 10
231.6860908170166
 20
86.66804292403535
 30
0.0
 11
210.1364036962079
 21
92.84731627047326
 31
0.0
  0
LINE
  5
42EA
330
1F
100
AcDbEntity
  8
SUNPO
  6
Continuous
100
AcDbLine
 10
259.2498263987165
 20
182.7942125178672
 30
0.0
 11
237.7001392779078
 21
188.9734858643051
 31
0.0
  0
LINE
  5
42EB
330
1F
100
AcDbEntity
  8
SUNPO
  6
Continuous
100
AcDbLine
 10
210.5774234655151
 20
94.38533498397456
 30
0.0
 11
237.2591195086006
 21
187.4354671508038
 31
0.0
  0
INSERT
  5
42EC
330
1F
100
AcDbEntity
  8
SUNPO
  6
Continuous
100
AcDbBlockReference
  2
_DOT
 10
210.1364036962079
 20
92.84731627047326
 30
0.0
 41
1.599999999999999
 42
1.599999999999999
 43
1.599999999999999
 50
254.0
  0
INSERT
  5
42ED
330
1F
100
AcDbEntity
  8
SUNPO
  6
Continuous
100
AcDbBlockReference
  2
_DOT
 10
237.7001392779078
 20
188.9734858643051
 30
0.0
 41
1.6
 42
1.6
 43
1.6
 50
74.0
  0
MTEXT
  5
42EE
330
1F
100
AcDbEntity
  8
SUNPO
  6
Continuous
100
AcDbMText
 10
221.8034957559936
 20
141.5168032501866
 30
0.0
 40
4.0
 41
0.0
 71
     5
 72
     1
  1
\A1;100
  7
MSゴシック
 11
0.2756373558169991
 21
0.9612616959383188
 31
0.0
 73
     1
 44
1.0
1001
ACAD
1000
MTEXTBEGIN
1070
    73
1070
     1
1070
    44
1040
1.0
1070
    74
1070
     0
1000
MTEXTEND
  0
LINE
  5
42EF
330
1F
100
AcDbEntity
  8
SUNPO
  6
Continuous
100
AcDbLine
 10
249.1723497905932
 20
180.2429378062332
 30
0.0
 11
238.8185401091878
 21
180.2429378062332
 31
0.0
  0
ARC
  5
42F0
330
1F
100
AcDbEntity
  8
SUNPO
  6
Continuous
100
AcDbCircle
 10
260.5988590190755
 20
180.2429378062332
 30
0.0
 40
21.78031890988769
100
AcDbArc
 50
184.2099417002921
 51
249.7900582997079
  0
INSERT
  5
42F1
330
1F
100
AcDbEntity
  8
SUNPO
  6
Continuous
100
AcDbBlockReference
  2
_DOT
 10
238.8185401091878
 20
180.2429378062332
 30
0.0
 41
1.6
 42
1.6
 43
1.6
 50
92.10497085014607
  0
INSERT
  5
42F2
330
1F
100
AcDbEntity
  8
SUNPO
  6
Continuous
100
AcDbBlockReference
  2
_DOT
 10
254.5953895059031
 20
159.3063515128371
 30
0.0
 41
1.6
 42
1.6
 43
1.6
 50
341.895029149854
  0
MTEXT
  5
42F3
330
1F
100
AcDbEntity
  8
SUNPO
  6
Continuous
100
AcDbMText
 10
241.4473247953806
 20
165.8112216262857
 30
0.0
 40
4.0
 41
0.0
 71
     5
 72
     1
  1
\A1;74°
  7
MSゴシック
 11
0.6018150231520482
 21
-0.798635510047293
 31
0.0
 73
     1
 44
1.0
1001
ACAD
1000
MTEXTBEGIN
1070
    73
1070
     1
1070
    44
1040
1.0
1070
    74
1070
     0
1000
MTEXTEND
  0
LINE
  5
42F4
330
1F
100
AcDbEntity
  8
SUNPO
  6
Continuous
100
AcDbLine
 10
336.1723497905931
 20
183.0429378062332
 30
0.0
 11
336.1723497905931
 21
191.1444190772457
 31
0.0
  0
LINE
  5
42F5
330
1F
100
AcDbEntity
  8
SUNPO
  6
Continuous
100
AcDbLine
 10
358.6086142088933
 20
130.7429378062332
 30
0.0
 11
358.6086142088933
 21
191.1444190772457
 31
0.0
  0
LINE
  5
42F6
330
1F
100
AcDbEntity
  8
SUNPO
  6
Continuous
100
AcDbLine
 10
337.7723497905931
 20
191.1444190772457
 30
0.0
 11
357.0086142088933
 21
191.1444190772457
 31
0.0
  0
INSERT
  5
42F7
330
1F
100
AcDbEntity
  8
SUNPO
  6
Continuous
100
AcDbBlockReference
  2
_DOT
 10
336.1723497905931
 20
191.1444190772457
 30
0.0
 41
1.6
 42
1.6
 43
1.6
 50
180.0
  0
INSERT
  5
42F8
330
1F
100
AcDbEntity
  8
SUNPO
  6
Continuous
100
AcDbBlockReference
  2
_DOT
 10
358.6086142088933
 20
191.1444190772457
 30
0.0
 41
1.6
 42
1.6
 43
1.6
  0
MTEXT
  5
42F9
330
1F
100
AcDbEntity
  8
SUNPO
  6
Continuous
100
AcDbMText
 10
347.3904819997432
 20
193.6794444579564
 30
0.0
 40
4.0
 41
0.0
 71
     5
 72
     1
  1
\A1;(24.33)
  7
MSゴシック
 73
     1
 44
1.0
1001
ACAD
1000
MTEXTBEGIN
1070
    73
1070
     1
1070
    44
1040
1.0
1070
    74
1070
     0
1000
MTEXTEND
  0
LINE
  5
42FA
330
1F
100
AcDbEntity
  8
SUNPO
  6
Continuous
100
AcDbLine
 10
357.5431745461484
 20
130.2429378062333
 30
0.0
 11
370.7384960380672
 21
130.2429378062333
 31
0.0
  0
LINE
  5
42FB
330
1F
100
AcDbEntity
  8
SUNPO
  6
Continuous
100
AcDbLine
 10
337.6723497905932
 20
180.2429378062333
 30
0.0
 11
370.7384960380672
 21
180.2429378062333
 31
0.0
  0
LINE
  5
42FC
330
1F
100
AcDbEntity
  8
SUNPO
  6
Continuous
100
AcDbLine
 10
370.7384960380672
 20
131.8429378062332
 30
0.0
 11
370.7384960380672
 21
178.6429378062333
 31
0.0
  0
INSERT
  5
42FD
330
1F
100
AcDbEntity
  8
SUNPO
  6
Continuous
100
AcDbBlockReference
  2
_DOT
 10
370.7384960380672
 20
130.2429378062333
 30
0.0
 41
1.6
 42
1.6
 43
1.6
 50
270.0
  0
INSERT
  5
42FE
330
1F
100
AcDbEntity
  8
SUNPO
  6
Continuous
100
AcDbBlockReference
  2
_DOT
 10
370.7384960380672
 20
180.2429378062333
 30
0.0
 41
1.6
 42
1.6
 43
1.6
 50
90.0
  0
MTEXT
  5
42FF
330
1F
100
AcDbEntity
  8
SUNPO
  6
Continuous
100
AcDbMText
 10
372.9384960380672
 20
155.2429378062331
 30
0.0
 40
4.0
 41
0.0
 71
     5
 72
     1
  1
\A1;50
  7
MSゴシック
 11
0.0000000000000001
 21
1.0
 31
0.0
 73
     1
 44
1.0
1001
ACAD
1000
MTEXTBEGIN
1070
    73
1070
     1
1070
    44
1040
1.0
1070
    74
1070
     0
1000
MTEXTEND
  0
LINE
  5
4300
330
1F
100
AcDbEntity
  8
WAKU
100
AcDbLine
 10
552.0000000000001
 20
358.0
 30
0.0
 11
0.0
 21
358.0
 31
0.0
  0
LINE
  5
4301
330
1F
100
AcDbEntity
  8
WAKU
100
AcDbLine
 10
0.0
 20
358.0
 30
0.0
 11
0.0
 21
382.0000000000001
 31
0.0
  0
LINE
  5
4302
330
1F
100
AcDbEntity
  8
WAKU
100
AcDbLine
 10
0.0
 20
382.0000000000001
 30
0.0
 11
552.0000000000001
 21
382.0000000000001
 31
0.0
  0
LINE
  5
4303
330
1F
100
AcDbEntity
  8
WAKU
100
AcDbLine
 10
552.0000000000001
 20
382.0000000000001
 30
0.0
 11
552.0000000000001
 21
358.0
 31
0.0
  0
LINE
  5
4304
330
1F
100
AcDbEntity
  8
WAKU
100
AcDbLine
 10
0.0
 20
0.0
 30
0.0
 11
552.0000000000001
 21
0.0
 31
0.0
  0
LINE
  5
4305
330
1F
100
AcDbEntity
  8
WAKU
100
AcDbLine
 10
552.0000000000001
 20
0.0
 30
0.0
 11
552.0000000000001
 21
382.0000000000001
 31
0.0
  0
LINE
  5
4306
330
1F
100
AcDbEntity
  8
WAKU
100
AcDbLine
 10
552.0000000000001
 20
382.0000000000001
 30
0.0
 11
0.0
 21
382.0000000000001
 31
0.0
  0
LINE
  5
4307
330
1F
100
AcDbEntity
  8
WAKU
100
AcDbLine
 10
0.0
 20
382.0000000000001
 30
0.0
 11
0.0
 21
0.0
 31
0.0
  0
LINE
  5
4308
330
1F
100
AcDbEntity
  8
KANAMONO_SCREW
100
AcDbLine
 10
321.3986142088929
 20
100.6929378062334
 30
0.0
 11
321.3986142088929
 21
129.3929378062335
 31
0.0
  0
LINE
  5
4309
330
1F
100
AcDbEntity
  8
KANAMONO_SCREW
100
AcDbLine
 10
315.8186142088931
 20
100.6929378062334
 30
0.0
 11
315.8186142088971
 21
129.3929378062335
 31
0.0
  0
LINE
  5
430A
330
1F
100
AcDbEntity
  8
KANAMONO_SCREW
100
AcDbLine
 10
318.858614208893
 20
121.6929378062334
 30
0.0
 11
318.858614208893
 21
129.392937806233
 31
0.0
  0
LINE
  5
430B
330
1F
100
AcDbEntity
  8
KANAMONO_SCREW
100
AcDbLine
 10
321.9986142088939
 20
123.5929378062369
 30
0.0
 11
321.3986142088929
 21
121.6929378062334
 31
0.0
  0
LINE
  5
430C
330
1F
100
AcDbEntity
  8
KANAMONO_SCREW
100
AcDbLine
 10
315.8186142088931
 20
121.6929378062334
 30
0.0
 11
315.218614208894
 21
123.5929378062296
 31
0.0
  0
LINE
  5
430D
330
1F
100
AcDbEntity
  8
KANAMONO_SCREW
100
AcDbLine
 10
318.858614208893
 20
121.6929378062334
 30
0.0
 11
318.6086142088929
 21
123.5929378062296
 31
0.0
  0
LINE
  5
430E
330
1F
100
AcDbEntity
  8
KANAMONO_SCREW
100
AcDbLine
 10
318.6086142088917
 20
123.5929378062321
 30
0.0
 11
318.3586142088965
 21
121.6929378062375
 31
0.0
  0
LINE
  5
430F
330
1F
100
AcDbEntity
  8
KANAMONO_SCREW
100
AcDbLine
 10
318.3586142088965
 20
121.6929378062375
 30
0.0
 11
318.3586142088988
 21
129.3929378062216
 31
0.0
  0
LINE
  5
4310
330
1F
100
AcDbEntity
  8
KANAMONO_SCREW
100
AcDbLine
 10
318.6086142088917
 20
123.5929378062321
 30
0.0
 11
318.6086142088933
 21
128.8929378062216
 31
0.0
  0
LINE
  5
4311
330
1F
100
AcDbEntity
  8
KANAMONO_SCREW
100
AcDbLine
 10
321.9986142088939
 20
123.5929378062369
 30
0.0
 11
321.9986142088955
 21
128.8929378062337
 31
0.0
  0
LINE
  5
4312
330
1F
100
AcDbEntity
  8
KANAMONO_SCREW
100
AcDbLine
 10
315.218614208894
 20
123.5929378062296
 30
0.0
 11
315.2186142088958
 21
128.8929378062332
 31
0.0
  0
LINE
  5
4313
330
1F
100
AcDbEntity
  8
KANAMONO_SCREW
100
AcDbLine
 10
321.9986142088955
 20
128.8929378062337
 30
0.0
 11
321.3986142088957
 21
129.3929378062335
 31
0.0
  0
LINE
  5
4314
330
1F
100
AcDbEntity
  8
KANAMONO_SCREW
100
AcDbLine
 10
315.8186142088957
 20
129.3929378062335
 30
0.0
 11
315.2186142088958
 21
128.8929378062332
 31
0.0
  0
LINE
  5
4315
330
1F
100
AcDbEntity
  8
KANAMONO_SCREW
100
AcDbLine
 10
318.858614208893
 20
129.392937806233
 30
0.0
 11
318.6086142088933
 21
128.8929378062332
 31
0.0
  0
LINE
  5
4316
330
1F
100
AcDbEntity
  8
KANAMONO_SCREW
100
AcDbLine
 10
318.6086142088933
 20
128.8929378062332
 30
0.0
 11
318.3586142088988
 21
129.3929378062216
 31
0.0
  0
LINE
  5
4317
330
1F
100
AcDbEntity
  8
KANAMONO_SCREW
100
AcDbLine
 10
321.4986142088934
 20
129.3929378062335
 30
0.0
 11
315.7186142088932
 21
129.3929378062335
 31
0.0
  0
LINE
  5
4318
330
1F
100
AcDbEntity
  8
KANAMONO_SCREW
100
AcDbLine
 10
321.4986142088934
 20
129.3929378062335
 30
0.0
 11
322.2836142088932
 21
130.2429378062334
 31
0.0
  0
LINE
  5
4319
330
1F
100
AcDbEntity
  8
KANAMONO_SCREW
100
AcDbLine
 10
315.7186142088932
 20
129.3929378062335
 30
0.0
 11
314.9336142088932
 21
130.2429378062331
 31
0.0
  0
LINE
  5
431A
330
1F
100
AcDbEntity
  8
KANAMONO_SCREW
100
AcDbLine
 10
322.2836142088932
 20
130.2429378062334
 30
0.0
 11
314.9336142088932
 21
130.2429378062331
 31
0.0
  0
LINE
  5
431B
330
1F
100
AcDbEntity
  8
KANAMONO_SCREW
100
AcDbLine
 10
322.2836142088932
 20
130.2429378062334
 30
0.0
 11
322.2836142088932
 21
130.6929378062334
 31
0.0
  0
LINE
  5
431C
330
1F
100
AcDbEntity
  8
KANAMONO_SCREW
100
AcDbLine
 10
322.2836142088932
 20
130.6929378062334
 30
0.0
 11
314.9336142088932
 21
130.6929378062334
 31
0.0
  0
LINE
  5
431D
330
1F
100
AcDbEntity
  8
KANAMONO_SCREW
100
AcDbLine
 10
314.9336142088932
 20
130.2429378062331
 30
0.0
 11
314.9336142088932
 21
130.6929378062334
 31
0.0
  0
ARC
  5
431E
330
1F
100
AcDbEntity
  8
KANAMONO_SCREW
100
AcDbCircle
 10
319.8586142088929
 20
101.3929378062332
 30
0.0
 40
0.5999999999999998
100
AcDbArc
 50
270.0
 51
0.0
  0
LINE
  5
431F
330
1F
100
AcDbEntity
  8
KANAMONO_SCREW
100
AcDbLine
 10
320.4586142088929
 20
101.3929378062332
 30
0.0
 11
320.4586142088929
 21
109.5929378062335
 31
0.0
  0
ARC
  5
4320
330
1F
100
AcDbEntity
  8
KANAMONO_SCREW
100
AcDbCircle
 10
317.3586142088929
 20
101.3929378062332
 30
0.0
 40
0.5999999999999998
100
AcDbArc
 50
180.0
 51
270.0
  0
LINE
  5
4321
330
1F
100
AcDbEntity
  8
KANAMONO_SCREW
100
AcDbLine
 10
316.7586142088928
 20
101.3929378062332
 30
0.0
 11
316.7586142088928
 21
109.5929378062335
 31
0.0
  0
LINE
  5
4322
330
1F
100
AcDbEntity
  8
KANAMONO_SCREW
100
AcDbLine
 10
317.3586142088929
 20
100.7929378062333
 30
0.0
 11
319.8586142088929
 21
100.7929378062333
 31
0.0
  0
LINE
  5
4323
330
1F
100
AcDbEntity
  8
KANAMONO_SCREW
100
AcDbLine
 10
321.998614208893
 20
108.1929378062336
 30
0.0
 11
321.3986142088931
 21
108.6929378062334
 31
0.0
  0
LINE
  5
4324
330
1F
100
AcDbEntity
  8
KANAMONO_SCREW
100
AcDbLine
 10
321.998614208893
 20
95.69293780623343
 30
0.0
 11
321.998614208893
 21
108.1929378062336
 31
0.0
  0
LINE
  5
4325
330
1F
100
AcDbEntity
  8
KANAMONO_SCREW
100
AcDbLine
 10
315.8186142088932
 20
108.6929378062334
 30
0.0
 11
315.218614208893
 21
108.1929378062332
 31
0.0
  0
LINE
  5
4326
330
1F
100
AcDbEntity
  8
KANAMONO_SCREW
100
AcDbLine
 10
315.218614208893
 20
95.6929378062332
 30
0.0
 11
315.218614208893
 21
108.1929378062332
 31
0.0
  0
ARC
  5
4327
330
1F
100
AcDbEntity
  8
KANAMONO_SCREW
100
AcDbCircle
 10
319.8586142088929
 20
109.5929378062335
 30
0.0
 40
0.5999999999999998
100
AcDbArc
 50
0.0
 51
90.0
  0
LINE
  5
4328
330
1F
100
AcDbEntity
  8
KANAMONO_SCREW
100
AcDbLine
 10
319.8586142088929
 20
110.1929378062334
 30
0.0
 11
317.3586142088929
 21
110.1929378062334
 31
0.0
  0
ARC
  5
4329
330
1F
100
AcDbEntity
  8
KANAMONO_SCREW
100
AcDbCircle
 10
317.3586142088929
 20
109.5929378062335
 30
0.0
 40
0.5999999999999998
100
AcDbArc
 50
90.0
 51
180.0
  0
LINE
  5
432A
330
1F
100
AcDbEntity
  8
KANAMONO_SCREW
100
AcDbLine
 10
321.498614208893
 20
98.89293780623326
 30
0.0
 11
321.498614208893
 21
100.6929378062334
 31
0.0
  0
LINE
  5
432B
330
1F
100
AcDbEntity
  8
KANAMONO_SCREW
100
AcDbLine
 10
321.498614208893
 20
93.49293780623316
 30
0.0
 11
321.498614208893
 21
95.29293780623357
 31
0.0
  0
LINE
  5
432C
330
1F
100
AcDbEntity
  8
KANAMONO_SCREW
100
AcDbLine
 10
315.718614208893
 20
98.89293780623326
 30
0.0
 11
315.718614208893
 21
100.6929378062334
 31
0.0
  0
LINE
  5
432D
330
1F
100
AcDbEntity
  8
KANAMONO_SCREW
100
AcDbLine
 10
315.718614208893
 20
93.49293780623316
 30
0.0
 11
315.718614208893
 21
95.29293780623357
 31
0.0
  0
LINE
  5
432E
330
1F
100
AcDbEntity
  8
KANAMONO_SCREW
100
AcDbLine
 10
321.3986142088929
 20
95.89293780623348
 30
0.0
 11
320.6086142088929
 21
95.89293780623348
 31
0.0
  0
LINE
  5
432F
330
1F
100
AcDbEntity
  8
KANAMONO_SCREW
100
AcDbLine
 10
321.3986142088929
 20
95.29293780623357
 30
0.0
 11
321.3986142088929
 21
98.89293780623326
 31
0.0
  0
LINE
  5
4330
330
1F
100
AcDbEntity
  8
KANAMONO_SCREW
100
AcDbLine
 10
321.3986142088929
 20
96.39293780623347
 30
0.0
 11
320.6086142088929
 21
96.39293780623347
 31
0.0
  0
LINE
  5
4331
330
1F
100
AcDbEntity
  8
KANAMONO_SCREW
100
AcDbLine
 10
321.3986142088929
 20
96.89293780623348
 30
0.0
 11
320.6086142088929
 21
96.89293780623348
 31
0.0
  0
LINE
  5
4332
330
1F
100
AcDbEntity
  8
KANAMONO_SCREW
100
AcDbLine
 10
321.3986142088929
 20
97.39293780623349
 30
0.0
 11
320.6086142088929
 21
97.39293780623349
 31
0.0
  0
LINE
  5
4333
330
1F
100
AcDbEntity
  8
KANAMONO_SCREW
100
AcDbLine
 10
321.3986142088929
 20
97.89293780623347
 30
0.0
 11
320.6086142088929
 21
97.89293780623347
 31
0.0
  0
LINE
  5
4334
330
1F
100
AcDbEntity
  8
KANAMONO_SCREW
100
AcDbLine
 10
321.3986142088929
 20
98.39293780623348
 30
0.0
 11
320.6086142088929
 21
98.39293780623348
 31
0.0
  0
LINE
  5
4335
330
1F
100
AcDbEntity
  8
KANAMONO_SCREW
100
AcDbLine
 10
316.6086142088929
 20
95.89293780623348
 30
0.0
 11
315.8186142088932
 21
95.89293780623348
 31
0.0
  0
LINE
  5
4336
330
1F
100
AcDbEntity
  8
KANAMONO_SCREW
100
AcDbLine
 10
316.6086142088929
 20
96.39293780623347
 30
0.0
 11
315.8186142088932
 21
96.39293780623347
 31
0.0
  0
LINE
  5
4337
330
1F
100
AcDbEntity
  8
KANAMONO_SCREW
100
AcDbLine
 10
315.8186142088932
 20
95.29293780623357
 30
0.0
 11
315.8186142088931
 21
98.89293780623326
 31
0.0
  0
LINE
  5
4338
330
1F
100
AcDbEntity
  8
KANAMONO_SCREW
100
AcDbLine
 10
316.6086142088929
 20
96.89293780623348
 30
0.0
 11
315.8186142088931
 21
96.89293780623348
 31
0.0
  0
LINE
  5
4339
330
1F
100
AcDbEntity
  8
KANAMONO_SCREW
100
AcDbLine
 10
316.6086142088929
 20
97.39293780623349
 30
0.0
 11
315.8186142088931
 21
97.39293780623349
 31
0.0
  0
LINE
  5
433A
330
1F
100
AcDbEntity
  8
KANAMONO_SCREW
100
AcDbLine
 10
316.6086142088929
 20
97.89293780623347
 30
0.0
 11
315.8186142088931
 21
97.89293780623347
 31
0.0
  0
LINE
  5
433B
330
1F
100
AcDbEntity
  8
KANAMONO_SCREW
100
AcDbLine
 10
316.6086142088929
 20
98.39293780623348
 30
0.0
 11
315.8186142088931
 21
98.39293780623348
 31
0.0
  0
LINE
  5
433C
330
1F
100
AcDbEntity
  8
KANAMONO_SCREW
100
AcDbLine
 10
321.498614208893
 20
98.89293780623326
 30
0.0
 11
320.6086142088929
 21
98.89293780623326
 31
0.0
  0
LINE
  5
433D
330
1F
100
AcDbEntity
  8
KANAMONO_SCREW
100
AcDbLine
 10
320.6086142088929
 20
93.49293780623316
 30
0.0
 11
320.6086142088929
 21
98.89293780623326
 31
0.0
  0
LINE
  5
433E
330
1F
100
AcDbEntity
  8
KANAMONO_SCREW
100
AcDbLine
 10
316.6086142088929
 20
93.49293780623474
 30
0.0
 11
316.6086142088929
 21
98.89293780623326
 31
0.0
  0
LINE
  5
433F
330
1F
100
AcDbEntity
  8
KANAMONO_SCREW
100
AcDbLine
 10
316.6086142088929
 20
98.89293780623326
 30
0.0
 11
315.718614208893
 21
98.89293780623326
 31
0.0
  0
LINE
  5
4340
330
1F
100
AcDbEntity
  8
KANAMONO_SCREW
100
AcDbLine
 10
321.498614208893
 20
100.6929378062334
 30
0.0
 11
315.718614208893
 21
100.6929378062334
 31
0.0
  0
LINE
  5
4341
330
1F
100
AcDbEntity
  8
KANAMONO_SCREW
100
AcDbLine
 10
319.9586145150547
 20
99.69293780623344
 30
0.0
 11
315.718614208893
 21
99.69293780623344
 31
0.0
  0
LINE
  5
4342
330
1F
100
AcDbEntity
  8
KANAMONO_SCREW
100
AcDbLine
 10
321.498614208893
 20
99.69293780623344
 30
0.0
 11
320.2586145150548
 21
99.69293780623344
 31
0.0
  0
LINE
  5
4343
330
1F
100
AcDbEntity
  8
KANAMONO_SCREW
100
AcDbLine
 10
320.2586145150548
 20
98.28802751382045
 30
0.0
 11
320.2586145150548
 21
99.89293780623302
 31
0.0
  0
LINE
  5
4344
330
1F
100
AcDbEntity
  8
KANAMONO_SCREW
100
AcDbLine
 10
320.2586145150548
 20
99.89293780623302
 30
0.0
 11
319.9586145150547
 21
99.89293780623302
 31
0.0
  0
LINE
  5
4345
330
1F
100
AcDbEntity
  8
KANAMONO_SCREW
100
AcDbLine
 10
319.9586145150547
 20
98.28802751382045
 30
0.0
 11
319.9586145150547
 21
99.89293780623302
 31
0.0
  0
ARC
  5
4346
330
1F
100
AcDbEntity
  8
KANAMONO_SCREW
100
AcDbCircle
 10
318.258614208893
 20
95.09784820361915
 30
0.0
 40
1.3
100
AcDbArc
 50
122.858397292397
 51
180.0
  0
LINE
  5
4347
330
1F
100
AcDbEntity
  8
KANAMONO_SCREW
100
AcDbLine
 10
316.9586142088929
 20
94.69293780623344
 30
0.0
 11
316.9586142088929
 21
95.09784820361915
 31
0.0
  0
ARC
  5
4348
330
1F
100
AcDbEntity
  8
KANAMONO_SCREW
100
AcDbCircle
 10
318.258614208893
 20
95.09784820361915
 30
0.0
 40
1.0
100
AcDbArc
 50
122.8583972924123
 51
180.0
  0
LINE
  5
4349
330
1F
100
AcDbEntity
  8
KANAMONO_SCREW
100
AcDbLine
 10
317.2586142088931
 20
94.69293780623344
 30
0.0
 11
317.2586142088931
 21
95.09784820361915
 31
0.0
  0
ARC
  5
434A
330
1F
100
AcDbEntity
  8
KANAMONO_SCREW
100
AcDbCircle
 10
318.9586145150546
 20
98.28802751382045
 30
0.0
 40
1.0
100
AcDbArc
 50
302.8583972924124
 51
0.0
  0
LINE
  5
434B
330
1F
100
AcDbEntity
  8
KANAMONO_SCREW
100
AcDbLine
 10
317.7160495536081
 20
95.93786224804693
 30
0.0
 11
319.6639485669246
 21
97.19600925606437
 31
0.0
  0
ARC
  5
434C
330
1F
100
AcDbEntity
  8
KANAMONO_SCREW
100
AcDbCircle
 10
318.9586145150546
 20
98.28802751382045
 30
0.0
 40
1.3
100
AcDbArc
 50
302.858397292397
 51
0.0
  0
LINE
  5
434D
330
1F
100
AcDbEntity
  8
KANAMONO_SCREW
100
AcDbLine
 10
317.5532801570229
 20
96.18986646137523
 30
0.0
 11
319.5011791703395
 21
97.44801346939267
 31
0.0
  0
LINE
  5
434E
330
1F
100
AcDbEntity
  8
KANAMONO_SCREW
100
AcDbLine
 10
317.2586142088931
 20
94.69293780623344
 30
0.0
 11
316.9586142088929
 21
94.69293780623344
 31
0.0
  0
LINE
  5
434F
330
1F
100
AcDbEntity
  8
KANAMONO_SCREW
100
AcDbLine
 10
316.9586142088929
 20
93.58802740884767
 30
0.0
 11
316.9586142088929
 21
93.99293780623338
 31
0.0
  0
LINE
  5
4350
330
1F
100
AcDbEntity
  8
KANAMONO_SCREW
100
AcDbLine
 10
317.2586142088931
 20
93.99293780623338
 30
0.0
 11
316.9586142088929
 21
93.99293780623338
 31
0.0
  0
LINE
  5
4351
330
1F
100
AcDbEntity
  8
KANAMONO_SCREW
100
AcDbLine
 10
317.2586142088931
 20
93.58802740884767
 30
0.0
 11
317.2586142088931
 21
93.99293780623338
 31
0.0
  0
ARC
  5
4352
330
1F
100
AcDbEntity
  8
KANAMONO_SCREW
100
AcDbCircle
 10
318.7586145150546
 20
79.52702799959775
 30
0.0
 40
1.0
100
AcDbArc
 50
0.0
 51
57.141602707603
  0
LINE
  5
4353
330
1F
100
AcDbEntity
  8
KANAMONO_SCREW
100
AcDbLine
 10
319.7586145150546
 20
76.9588476128697
 30
0.0
 11
319.7586145150546
 21
79.52702799959775
 31
0.0
  0
LINE
  5
4354
330
1F
100
AcDbEntity
  8
KANAMONO_SCREW
100
AcDbLine
 10
317.5532801570229
 20
81.49600915109159
 30
0.0
 11
319.3011791703392
 21
80.3670420440253
 31
0.0
  0
ARC
  5
4355
330
1F
100
AcDbEntity
  8
KANAMONO_SCREW
100
AcDbCircle
 10
318.7586145150546
 20
76.9588476128697
 30
0.0
 40
1.0
100
AcDbArc
 50
302.858397292397
 51
0.0
  0
LINE
  5
4356
330
1F
100
AcDbEntity
  8
KANAMONO_SCREW
100
AcDbLine
 10
319.053280157023
 20
75.95871571851103
 30
0.0
 11
319.3011791703392
 21
76.11883356844192
 31
0.0
  0
ARC
  5
4357
330
1F
100
AcDbEntity
  8
KANAMONO_SCREW
100
AcDbCircle
 10
318.7586145150546
 20
76.9588476128697
 30
0.0
 40
1.3
100
AcDbArc
 50
302.8583972924124
 51
0.0
  0
LINE
  5
4358
330
1F
100
AcDbEntity
  8
KANAMONO_SCREW
100
AcDbLine
 10
319.2160495536082
 20
75.70671150518274
 30
0.0
 11
319.4639485669249
 21
75.86682935511362
 31
0.0
  0
LINE
  5
4359
330
1F
100
AcDbEntity
  8
KANAMONO_SCREW
100
AcDbLine
 10
320.0586145150546
 20
76.9588476128697
 30
0.0
 11
320.0586145150546
 21
79.52702799959775
 31
0.0
  0
ARC
  5
435A
330
1F
100
AcDbEntity
  8
KANAMONO_SCREW
100
AcDbCircle
 10
318.7586145150546
 20
79.52702799959775
 30
0.0
 40
1.3
100
AcDbArc
 50
0.0
 51
57.141602707603
  0
LINE
  5
435B
330
1F
100
AcDbEntity
  8
KANAMONO_SCREW
100
AcDbLine
 10
317.7160495536081
 20
81.74801336441964
 30
0.0
 11
319.4639485669247
 21
80.6190462573536
 31
0.0
  0
ARC
  5
435C
330
1F
100
AcDbEntity
  8
KANAMONO_SCREW
100
AcDbCircle
 10
318.258614208893
 20
93.58802740884767
 30
0.0
 40
1.3
100
AcDbArc
 50
180.0
 51
237.141602707603
  0
ARC
  5
435D
330
1F
100
AcDbEntity
  8
KANAMONO_SCREW
100
AcDbCircle
 10
318.258614208893
 20
93.58802740884767
 30
0.0
 40
1.0
100
AcDbArc
 50
180.0
 51
237.1416027075877
  0
ARC
  5
435E
330
1F
100
AcDbEntity
  8
KANAMONO_SCREW
100
AcDbCircle
 10
318.9586145150546
 20
88.08802751382087
 30
0.0
 40
1.0
100
AcDbArc
 50
302.858397292397
 51
0.0
  0
LINE
  5
435F
330
1F
100
AcDbEntity
  8
KANAMONO_SCREW
100
AcDbLine
 10
317.5532801570229
 20
92.49600915109159
 30
0.0
 11
319.5011791703393
 21
91.23786214307392
 31
0.0
  0
LINE
  5
4360
330
1F
100
AcDbEntity
  8
KANAMONO_SCREW
100
AcDbLine
 10
319.9586145150547
 20
88.08802751382087
 30
0.0
 11
319.9586145150547
 21
90.39784809864636
 31
0.0
  0
ARC
  5
4361
330
1F
100
AcDbEntity
  8
KANAMONO_SCREW
100
AcDbCircle
 10
318.9586145150546
 20
90.39784809864636
 30
0.0
 40
1.0
100
AcDbArc
 50
0.0
 51
57.141602707603
  0
LINE
  5
4362
330
1F
100
AcDbEntity
  8
KANAMONO_SCREW
100
AcDbLine
 10
317.7160495536081
 20
92.74801336441987
 30
0.0
 11
319.6639485669246
 21
91.48986635640222
 31
0.0
  0
ARC
  5
4363
330
1F
100
AcDbEntity
  8
KANAMONO_SCREW
100
AcDbCircle
 10
318.9586145150546
 20
90.39784809864636
 30
0.0
 40
1.3
100
AcDbArc
 50
0.0
 51
57.141602707603
  0
LINE
  5
4364
330
1F
100
AcDbEntity
  8
KANAMONO_SCREW
100
AcDbLine
 10
320.2586145150546
 20
88.08802751382087
 30
0.0
 11
320.2586145150546
 21
90.39784809864636
 31
0.0
  0
ARC
  5
4365
330
1F
100
AcDbEntity
  8
KANAMONO_SCREW
100
AcDbCircle
 10
318.9586145150546
 20
88.08802751382087
 30
0.0
 40
1.3
100
AcDbArc
 50
302.858397292397
 51
0.0
  0
ARC
  5
4366
330
1F
100
AcDbEntity
  8
KANAMONO_SCREW
100
AcDbCircle
 10
318.258614208893
 20
82.58802740884766
 30
0.0
 40
1.3
100
AcDbArc
 50
180.0
 51
237.141602707603
  0
ARC
  5
4367
330
1F
100
AcDbEntity
  8
KANAMONO_SCREW
100
AcDbCircle
 10
318.258614208893
 20
82.58802740884766
 30
0.0
 40
1.0
100
AcDbArc
 50
180.0
 51
237.1416027075877
  0
LINE
  5
4368
330
1F
100
AcDbEntity
  8
KANAMONO_SCREW
100
AcDbLine
 10
316.9586142088929
 20
82.58802740884766
 30
0.0
 11
316.9586142088929
 21
84.89784820361933
 31
0.0
  0
LINE
  5
4369
330
1F
100
AcDbEntity
  8
KANAMONO_SCREW
100
AcDbLine
 10
317.5532801570229
 20
85.98986646137564
 30
0.0
 11
319.5011791703393
 21
87.24801346939306
 31
0.0
  0
ARC
  5
436A
330
1F
100
AcDbEntity
  8
KANAMONO_SCREW
100
AcDbCircle
 10
318.258614208893
 20
84.89784820361933
 30
0.0
 40
1.3
100
AcDbArc
 50
122.858397292397
 51
180.0
  0
LINE
  5
436B
330
1F
100
AcDbEntity
  8
KANAMONO_SCREW
100
AcDbLine
 10
317.2586142088931
 20
82.58802740884766
 30
0.0
 11
317.2586142088931
 21
84.89784820361933
 31
0.0
  0
LINE
  5
436C
330
1F
100
AcDbEntity
  8
KANAMONO_SCREW
100
AcDbLine
 10
317.7160495536081
 20
85.73786224804734
 30
0.0
 11
319.6639485669246
 21
86.99600925606478
 31
0.0
  0
ARC
  5
436D
330
1F
100
AcDbEntity
  8
KANAMONO_SCREW
100
AcDbCircle
 10
318.258614208893
 20
84.89784820361933
 30
0.0
 40
1.0
100
AcDbArc
 50
122.8583972924123
 51
180.0
  0
ARC
  5
436E
330
1F
100
AcDbEntity
  8
KANAMONO_SCREW
100
AcDbCircle
 10
319.758614208893
 20
74.86669746075495
 30
0.0
 40
1.0
100
AcDbArc
 50
122.8583972924123
 51
180.0
  0
ARC
  5
436F
330
1F
100
AcDbEntity
  8
KANAMONO_SCREW
100
AcDbCircle
 10
319.758614208893
 20
74.86669746075495
 30
0.0
 40
1.3
100
AcDbArc
 50
122.858397292397
 51
180.0
  0
LINE
  5
4370
330
1F
100
AcDbEntity
  8
KANAMONO_SCREW
100
AcDbLine
 10
318.4586142088928
 20
74.69293780623343
 30
0.0
 11
318.4586142088928
 21
74.86669746075495
 31
0.0
  0
LINE
  5
4371
330
1F
100
AcDbEntity
  8
KANAMONO_SCREW
100
AcDbLine
 10
318.758614208893
 20
74.69293780623343
 30
0.0
 11
318.758614208893
 21
74.86669746075495
 31
0.0
  0
LINE
  5
4372
330
1F
100
AcDbEntity
  8
KANAMONO_SCREW
100
AcDbLine
 10
318.758614208893
 20
74.69293780623343
 30
0.0
 11
318.4586142088928
 21
74.69293780623343
 31
0.0
  0
LINE
  5
4373
330
1F
100
AcDbEntity
  8
KANAMONO_SCREW
100
AcDbLine
 10
321.8336142088929
 20
89.69293780623344
 30
0.0
 11
320.7495574932881
 21
89.69293780623344
 31
0.0
  0
LINE
  5
4374
330
1F
100
AcDbEntity
  8
KANAMONO_SCREW
100
AcDbLine
 10
316.467561577314
 20
89.69293780623344
 30
0.0
 11
315.383614208893
 21
89.69293780623344
 31
0.0
  0
LINE
  5
4375
330
1F
100
AcDbEntity
  8
KANAMONO_SCREW
100
AcDbLine
 10
321.7722387707032
 20
90.29293780623357
 30
0.0
 11
320.7273032904891
 21
90.29293780623357
 31
0.0
  0
LINE
  5
4376
330
1F
100
AcDbEntity
  8
KANAMONO_SCREW
100
AcDbLine
 10
321.719344033861
 20
90.89293780623348
 30
0.0
 11
320.7050490876897
 21
90.89293780623348
 31
0.0
  0
LINE
  5
4377
330
1F
100
AcDbEntity
  8
KANAMONO_SCREW
100
AcDbLine
 10
321.666449297019
 20
91.49293780623315
 30
0.0
 11
320.6827948848904
 21
91.49293780623315
 31
0.0
  0
LINE
  5
4378
330
1F
100
AcDbEntity
  8
KANAMONO_SCREW
100
AcDbLine
 10
321.6135545601767
 20
92.09293780623353
 30
0.0
 11
320.6605406820913
 21
92.09293780623353
 31
0.0
  0
LINE
  5
4379
330
1F
100
AcDbEntity
  8
KANAMONO_SCREW
100
AcDbLine
 10
321.5606598233344
 20
92.69293780623343
 30
0.0
 11
320.638286479292
 21
92.69293780623343
 31
0.0
  0
LINE
  5
437A
330
1F
100
AcDbEntity
  8
KANAMONO_SCREW
100
AcDbLine
 10
316.6011903861781
 20
93.29293780623357
 30
0.0
 11
315.7094636374552
 21
93.29293780623357
 31
0.0
  0
LINE
  5
437B
330
1F
100
AcDbEntity
  8
KANAMONO_SCREW
100
AcDbLine
 10
316.578918918034
 20
92.69293780623343
 30
0.0
 11
315.6565689006131
 21
92.69293780623343
 31
0.0
  0
LINE
  5
437C
330
1F
100
AcDbEntity
  8
KANAMONO_SCREW
100
AcDbLine
 10
316.5566474498902
 20
92.09293780623353
 30
0.0
 11
315.6036741637708
 21
92.09293780623353
 31
0.0
  0
LINE
  5
437D
330
1F
100
AcDbEntity
  8
KANAMONO_SCREW
100
AcDbLine
 10
316.534375981746
 20
91.49293780623315
 30
0.0
 11
315.5507794269289
 21
91.49293780623315
 31
0.0
  0
LINE
  5
437E
330
1F
100
AcDbEntity
  8
KANAMONO_SCREW
100
AcDbLine
 10
316.512104513602
 20
90.89293780623348
 30
0.0
 11
315.4978846900867
 21
90.89293780623348
 31
0.0
  0
LINE
  5
437F
330
1F
100
AcDbEntity
  8
KANAMONO_SCREW
100
AcDbLine
 10
316.4898330454581
 20
90.29293780623357
 30
0.0
 11
315.4449899532446
 21
90.29293780623357
 31
0.0
  0
LINE
  5
4380
330
1F
100
AcDbEntity
  8
KANAMONO_SCREW
100
AcDbLine
 10
320.7496845303892
 20
89.68951273361767
 30
0.0
 11
320.6086142088929
 21
93.49293780623316
 31
0.0
  0
LINE
  5
4381
330
1F
100
AcDbEntity
  8
KANAMONO_SCREW
100
AcDbLine
 10
316.467561577314
 20
89.69293780623344
 30
0.0
 11
316.6086142088929
 21
93.49293780623316
 31
0.0
  0
LINE
  5
4382
330
1F
100
AcDbEntity
  8
KANAMONO_SCREW
100
AcDbLine
 10
320.7586138721123
 20
87.99293780623315
 30
0.0
 11
320.7496845303892
 21
89.68951273361767
 31
0.0
  0
LINE
  5
4383
330
1F
100
AcDbEntity
  8
KANAMONO_SCREW
100
AcDbLine
 10
316.4586142088929
 20
87.99293780623315
 30
0.0
 11
316.4676064815869
 21
89.70146961810314
 31
0.0
  0
LINE
  5
4384
330
1F
100
AcDbEntity
  8
KANAMONO_SCREW
100
AcDbLine
 10
321.5077650864923
 20
93.29293780623357
 30
0.0
 11
320.6096668404719
 21
93.29293780623357
 31
0.0
  0
LINE
  5
4385
330
1F
100
AcDbEntity
  8
KANAMONO_SCREW
100
AcDbLine
 10
316.6086142088929
 20
95.29293780623357
 30
0.0
 11
315.718614208893
 21
95.29293780623357
 31
0.0
  0
LINE
  5
4386
330
1F
100
AcDbEntity
  8
KANAMONO_SCREW
100
AcDbLine
 10
321.498614208893
 20
95.29293780623357
 30
0.0
 11
320.6086142088929
 21
95.29293780623357
 31
0.0
  0
LINE
  5
4387
330
1F
100
AcDbEntity
  8
KANAMONO_SCREW
100
AcDbLine
 10
316.6086142088929
 20
93.49293780623316
 30
0.0
 11
315.718614208893
 21
93.49293780623316
 31
0.0
  0
LINE
  5
4388
330
1F
100
AcDbEntity
  8
KANAMONO_SCREW
100
AcDbLine
 10
321.498614208893
 20
93.49293780623316
 30
0.0
 11
320.6086142088929
 21
93.49293780623316
 31
0.0
  0
LINE
  5
4389
330
1F
100
AcDbEntity
  8
KANAMONO_SCREW
100
AcDbLine
 10
321.6722508786912
 20
89.69293780623365
 30
0.0
 11
321.3372508786911
 21
93.4929378062336
 31
0.0
  0
LINE
  5
438A
330
1F
100
AcDbEntity
  8
KANAMONO_SCREW
100
AcDbLine
 10
315.5449778452566
 20
89.69293780623365
 30
0.0
 11
315.8799778452566
 21
93.4929378062336
 31
0.0
  0
LINE
  5
438B
330
1F
100
AcDbEntity
  8
KANAMONO_SCREW
100
AcDbLine
 10
316.4686142088929
 20
87.59293780623352
 30
0.0
 11
315.4020952164023
 21
87.59293780623329
 31
0.0
  0
LINE
  5
438C
330
1F
100
AcDbEntity
  8
KANAMONO_SCREW
100
AcDbLine
 10
316.4836142088929
 20
86.99293780623316
 30
0.0
 11
315.4170952164024
 21
86.99293780623316
 31
0.0
  0
LINE
  5
438D
330
1F
100
AcDbEntity
  8
KANAMONO_SCREW
100
AcDbLine
 10
316.4986142088928
 20
86.39293780623347
 30
0.0
 11
315.4320952164025
 21
86.39293780623347
 31
0.0
  0
LINE
  5
438E
330
1F
100
AcDbEntity
  8
KANAMONO_SCREW
100
AcDbLine
 10
316.5136142088929
 20
85.79293780623357
 30
0.0
 11
315.4470952164024
 21
85.79293780623357
 31
0.0
  0
LINE
  5
438F
330
1F
100
AcDbEntity
  8
KANAMONO_SCREW
100
AcDbLine
 10
316.528614208893
 20
85.19293780623343
 30
0.0
 11
315.4620952164025
 21
85.19293780623343
 31
0.0
  0
LINE
  5
4390
330
1F
100
AcDbEntity
  8
KANAMONO_SCREW
100
AcDbLine
 10
316.5436142088929
 20
84.5929378062333
 30
0.0
 11
315.4770952164026
 21
84.5929378062333
 31
0.0
  0
LINE
  5
4391
330
1F
100
AcDbEntity
  8
KANAMONO_SCREW
100
AcDbLine
 10
321.8151331707645
 20
87.59293780623352
 30
0.0
 11
320.7486138721125
 21
87.59293780623352
 31
0.0
  0
LINE
  5
4392
330
1F
100
AcDbEntity
  8
KANAMONO_SCREW
100
AcDbLine
 10
321.8001331707644
 20
86.99293780623316
 30
0.0
 11
320.7336138721125
 21
86.99293780623316
 31
0.0
  0
LINE
  5
4393
330
1F
100
AcDbEntity
  8
KANAMONO_SCREW
100
AcDbLine
 10
321.7851331707645
 20
86.39293780623347
 30
0.0
 11
320.7186138721124
 21
86.39293780623347
 31
0.0
  0
LINE
  5
4394
330
1F
100
AcDbEntity
  8
KANAMONO_SCREW
100
AcDbLine
 10
321.7701331707644
 20
85.79293780623357
 30
0.0
 11
320.7036138721123
 21
85.79293780623357
 31
0.0
  0
LINE
  5
4395
330
1F
100
AcDbEntity
  8
KANAMONO_SCREW
100
AcDbLine
 10
321.7551331707645
 20
85.19293780623343
 30
0.0
 11
320.704663062039
 21
85.19293780623343
 31
0.0
  0
LINE
  5
4396
330
1F
100
AcDbEntity
  8
KANAMONO_SCREW
100
AcDbLine
 10
321.7401331707648
 20
84.59293780623353
 30
0.0
 11
320.6736138721125
 21
84.59293780623353
 31
0.0
  0
LINE
  5
4397
330
1F
100
AcDbEntity
  8
KANAMONO_SCREW
100
AcDbLine
 10
321.5722505725584
 20
83.99295127861364
 30
0.0
 11
321.6722505725584
 21
87.99295127861364
 31
0.0
  0
LINE
  5
4398
330
1F
100
AcDbEntity
  8
KANAMONO_SCREW
100
AcDbLine
 10
315.6449778452566
 20
83.99293780623315
 30
0.0
 11
315.5449778452566
 21
87.99293780623315
 31
0.0
  0
LINE
  5
4399
330
1F
100
AcDbEntity
  8
KANAMONO_SCREW
100
AcDbLine
 10
321.3586142088929
 20
78.49293780623316
 30
0.0
 11
321.4449778452565
 21
82.29293780623335
 31
0.0
  0
LINE
  5
439A
330
1F
100
AcDbEntity
  8
KANAMONO_SCREW
100
AcDbLine
 10
321.607250878691
 20
79.09293780623352
 30
0.0
 11
320.5066405246826
 21
79.09293780623352
 31
0.0
  0
LINE
  5
439B
330
1F
100
AcDbEntity
  8
KANAMONO_SCREW
100
AcDbLine
 10
321.6208872423274
 20
79.69293780623343
 30
0.0
 11
320.5296668404719
 21
79.69293780623343
 31
0.0
  0
LINE
  5
439C
330
1F
100
AcDbEntity
  8
KANAMONO_SCREW
100
AcDbLine
 10
321.6345236059637
 20
80.29293780623333
 30
0.0
 11
320.5526931562614
 21
80.29293780623333
 31
0.0
  0
LINE
  5
439D
330
1F
100
AcDbEntity
  8
KANAMONO_SCREW
100
AcDbLine
 10
321.6481599696002
 20
80.89293780623325
 30
0.0
 11
320.5757194720508
 21
80.89293780623325
 31
0.0
  0
LINE
  5
439E
330
1F
100
AcDbEntity
  8
KANAMONO_SCREW
100
AcDbLine
 10
321.6617963332364
 20
81.49293780623315
 30
0.0
 11
320.6217721036298
 21
81.49293780623315
 31
0.0
  0
LINE
  5
439F
330
1F
100
AcDbEntity
  8
KANAMONO_SCREW
100
AcDbLine
 10
316.5954563141561
 20
81.49293780623315
 30
0.0
 11
315.553581236682
 21
81.49293780623315
 31
0.0
  0
LINE
  5
43A0
330
1F
100
AcDbEntity
  8
KANAMONO_SCREW
100
AcDbLine
 10
316.641508945735
 20
80.89293780623325
 30
0.0
 11
315.5644218772854
 21
80.89293780623325
 31
0.0
  0
LINE
  5
43A1
330
1F
100
AcDbEntity
  8
KANAMONO_SCREW
100
AcDbLine
 10
316.6645352615246
 20
80.29293780623333
 30
0.0
 11
315.5752625178889
 21
80.29293780623333
 31
0.0
  0
LINE
  5
43A2
330
1F
100
AcDbEntity
  8
KANAMONO_SCREW
100
AcDbLine
 10
316.6875615773141
 20
79.69293780623343
 30
0.0
 11
315.586103158492
 21
79.69293780623343
 31
0.0
  0
LINE
  5
43A3
330
1F
100
AcDbEntity
  8
KANAMONO_SCREW
100
AcDbLine
 10
316.7105878931034
 20
79.09293780623329
 30
0.0
 11
315.5969437990954
 21
79.09293780623329
 31
0.0
  0
LINE
  5
43A4
330
1F
100
AcDbEntity
  8
KANAMONO_SCREW
100
AcDbLine
 10
316.4586142088929
 20
87.99293780623315
 30
0.0
 11
315.383614208893
 21
87.99293780623315
 31
0.0
  0
LINE
  5
43A5
330
1F
100
AcDbEntity
  8
KANAMONO_SCREW
100
AcDbLine
 10
321.8336142088929
 20
87.99293780623315
 30
0.0
 11
320.7586138721123
 21
87.99293780623315
 31
0.0
  0
LINE
  5
43A6
330
1F
100
AcDbEntity
  8
KANAMONO_SCREW
100
AcDbLine
 10
320.658614208922
 20
83.99295127861364
 30
0.0
 11
320.7586142089218
 21
87.99295127861364
 31
0.0
  0
LINE
  5
43A7
330
1F
100
AcDbEntity
  8
KANAMONO_SCREW
100
AcDbLine
 10
316.558614208893
 20
83.99293780623384
 30
0.0
 11
316.4586142088929
 21
87.99293780623385
 31
0.0
  0
LINE
  5
43A8
330
1F
100
AcDbEntity
  8
KANAMONO_SCREW
100
AcDbLine
 10
321.8336142088929
 20
87.99293780623315
 30
0.0
 11
321.8336142088929
 21
89.69293780623344
 31
0.0
  0
LINE
  5
43A9
330
1F
100
AcDbEntity
  8
KANAMONO_SCREW
100
AcDbLine
 10
315.383614208893
 20
87.99293780623315
 30
0.0
 11
315.383614208893
 21
89.69293780623344
 31
0.0
  0
LINE
  5
43AA
330
1F
100
AcDbEntity
  8
KANAMONO_SCREW
100
AcDbLine
 10
315.8586142088929
 20
78.49293780623316
 30
0.0
 11
315.683614208893
 21
82.29293780623335
 31
0.0
  0
LINE
  5
43AB
330
1F
100
AcDbEntity
  8
KANAMONO_SCREW
100
AcDbLine
 10
321.3586142088929
 20
74.09293780623352
 30
0.0
 11
321.3586142088929
 21
76.69293780623343
 31
0.0
  0
LINE
  5
43AC
330
1F
100
AcDbEntity
  8
KANAMONO_SCREW
100
AcDbLine
 10
315.8586142088929
 20
74.09293780623329
 30
0.0
 11
315.8586142088929
 21
76.69293780623343
 31
0.0
  0
LINE
  5
43AD
330
1F
100
AcDbEntity
  8
KANAMONO_SCREW
100
AcDbLine
 10
321.6731599696
 20
81.99293780623316
 30
0.0
 11
320.6365441879602
 21
81.99293780623316
 31
0.0
  0
LINE
  5
43AE
330
1F
100
AcDbEntity
  8
KANAMONO_SCREW
100
AcDbLine
 10
321.6086142088929
 20
78.49293780623316
 30
0.0
 11
320.4836142088929
 21
78.49293780623316
 31
0.0
  0
LINE
  5
43AF
330
1F
100
AcDbEntity
  8
KANAMONO_SCREW
100
AcDbLine
 10
316.5724299983667
 20
81.99293780623316
 30
0.0
 11
315.5445473695126
 21
81.99293780623316
 31
0.0
  0
LINE
  5
43B0
330
1F
100
AcDbEntity
  8
KANAMONO_SCREW
100
AcDbLine
 10
321.6949781514181
 20
82.29293780623335
 30
0.0
 11
321.7336145150545
 21
83.99293780623315
 31
0.0
  0
LINE
  5
43B1
330
1F
100
AcDbEntity
  8
KANAMONO_SCREW
100
AcDbLine
 10
315.5222505725295
 20
82.29293780623335
 30
0.0
 11
315.4836142088929
 21
83.99293780623315
 31
0.0
  0
LINE
  5
43B2
330
1F
100
AcDbEntity
  8
KANAMONO_SCREW
100
AcDbLine
 10
316.558614208893
 20
82.29293780623335
 30
0.0
 11
315.5222505725295
 21
82.29293780623335
 31
0.0
  0
LINE
  5
43B3
330
1F
100
AcDbEntity
  8
KANAMONO_SCREW
100
AcDbLine
 10
321.6949781514181
 20
82.29293780623335
 30
0.0
 11
320.6586142088931
 21
82.29293780623335
 31
0.0
  0
LINE
  5
43B4
330
1F
100
AcDbEntity
  8
KANAMONO_SCREW
100
AcDbLine
 10
316.558614208893
 20
83.99293780623315
 30
0.0
 11
315.4836142088929
 21
83.99293780623315
 31
0.0
  0
LINE
  5
43B5
330
1F
100
AcDbEntity
  8
KANAMONO_SCREW
100
AcDbLine
 10
321.7336142088929
 20
83.99293780623315
 30
0.0
 11
320.6586142088929
 21
83.99293780623315
 31
0.0
  0
LINE
  5
43B6
330
1F
100
AcDbEntity
  8
KANAMONO_SCREW
100
AcDbLine
 10
320.4836142088929
 20
78.49293780623316
 30
0.0
 11
320.6586142088929
 21
82.29293780623335
 31
0.0
  0
LINE
  5
43B7
330
1F
100
AcDbEntity
  8
KANAMONO_SCREW
100
AcDbLine
 10
316.7336142088929
 20
78.49293780623316
 30
0.0
 11
316.558614208893
 21
82.29293780623335
 31
0.0
  0
LINE
  5
43B8
330
1F
100
AcDbEntity
  8
KANAMONO_SCREW
100
AcDbLine
 10
318.6086145150548
 20
71.19293780623343
 30
0.0
 11
317.2123022143405
 21
73.00814379716143
 31
0.0
  0
ARC
  5
43B9
330
1F
100
AcDbEntity
  8
KANAMONO_SCREW
100
AcDbCircle
 10
317.6086142088929
 20
73.31299917758633
 30
0.0
 40
0.5
100
AcDbArc
 50
180.0
 51
217.5685920288021
  0
LINE
  5
43BA
330
1F
100
AcDbEntity
  8
KANAMONO_SCREW
100
AcDbLine
 10
317.108614208893
 20
73.49593210690932
 30
0.0
 11
317.108614208893
 21
73.3129991775861
 31
0.0
  0
LINE
  5
43BB
330
1F
100
AcDbEntity
  8
KANAMONO_SCREW
100
AcDbLine
 10
318.6086145150548
 20
71.6929378062332
 30
0.0
 11
317.1982454083482
 21
73.5264176449516
 31
0.0
  0
ARC
  5
43BC
330
1F
100
AcDbEntity
  8
KANAMONO_SCREW
100
AcDbCircle
 10
317.1586142088929
 20
73.49593210690932
 30
0.0
 40
0.05
100
AcDbArc
 50
37.56859202884636
 51
180.0
  0
LINE
  5
43BD
330
1F
100
AcDbEntity
  8
KANAMONO_SCREW
100
AcDbLine
 10
320.1086145150549
 20
73.49593210690932
 30
0.0
 11
320.1086145150549
 21
73.31299917758633
 31
0.0
  0
LINE
  5
43BE
330
1F
100
AcDbEntity
  8
KANAMONO_SCREW
100
AcDbLine
 10
318.6086142088927
 20
71.6929378062332
 30
0.0
 11
320.0189833155997
 21
73.52641764495183
 31
0.0
  0
ARC
  5
43BF
330
1F
100
AcDbEntity
  8
KANAMONO_SCREW
100
AcDbCircle
 10
320.0586145150546
 20
73.49593210690932
 30
0.0
 40
0.05
100
AcDbArc
 50
0.0
 51
142.4314079710051
  0
LINE
  5
43C0
330
1F
100
AcDbEntity
  8
KANAMONO_SCREW
100
AcDbLine
 10
318.6086142088929
 20
71.19293780623343
 30
0.0
 11
320.0049265096069
 21
73.00814379716143
 31
0.0
  0
ARC
  5
43C1
330
1F
100
AcDbEntity
  8
KANAMONO_SCREW
100
AcDbCircle
 10
319.6086145150549
 20
73.31299917758633
 30
0.0
 40
0.5
100
AcDbArc
 50
322.4314079711771
 51
0.0
  0
LINE
  5
43C2
330
1F
100
AcDbEntity
  8
KANAMONO_SCREW
100
AcDbLine
 10
317.108614208893
 20
75.79593210690927
 30
0.0
 11
317.108614208893
 21
75.61299917758674
 31
0.0
  0
LINE
  5
43C3
330
1F
100
AcDbEntity
  8
KANAMONO_SCREW
100
AcDbLine
 10
320.1086145150549
 20
75.79593210690927
 30
0.0
 11
320.1086145150549
 21
75.61299917758674
 31
0.0
  0
LINE
  5
43C4
330
1F
100
AcDbEntity
  8
KANAMONO_SCREW
100
AcDbLine
 10
318.6086145150548
 20
73.99293780623316
 30
0.0
 11
317.1982454083482
 21
75.82641764495201
 31
0.0
  0
ARC
  5
43C5
330
1F
100
AcDbEntity
  8
KANAMONO_SCREW
100
AcDbCircle
 10
317.1586142088929
 20
75.79593210690927
 30
0.0
 40
0.05
100
AcDbArc
 50
37.56859202884636
 51
180.0
  0
LINE
  5
43C6
330
1F
100
AcDbEntity
  8
KANAMONO_SCREW
100
AcDbLine
 10
318.6086145150548
 20
73.49293780623316
 30
0.0
 11
317.2123022143405
 21
75.30814379716185
 31
0.0
  0
ARC
  5
43C7
330
1F
100
AcDbEntity
  8
KANAMONO_SCREW
100
AcDbCircle
 10
317.6086142088929
 20
75.61299917758674
 30
0.0
 40
0.5
100
AcDbArc
 50
180.0
 51
217.5685920288229
  0
LINE
  5
43C8
330
1F
100
AcDbEntity
  8
KANAMONO_SCREW
100
AcDbLine
 10
318.6086142088929
 20
73.99293780623316
 30
0.0
 11
320.0189833155997
 21
75.82641764495201
 31
0.0
  0
ARC
  5
43C9
330
1F
100
AcDbEntity
  8
KANAMONO_SCREW
100
AcDbCircle
 10
320.0586145150546
 20
75.79593210690927
 30
0.0
 40
0.05
100
AcDbArc
 50
0.0
 51
142.4314079710051
  0
LINE
  5
43CA
330
1F
100
AcDbEntity
  8
KANAMONO_SCREW
100
AcDbLine
 10
318.6086142088929
 20
73.49293780623316
 30
0.0
 11
320.0049265096072
 21
75.30814379716161
 31
0.0
  0
ARC
  5
43CB
330
1F
100
AcDbEntity
  8
KANAMONO_SCREW
100
AcDbCircle
 10
319.6086145150549
 20
75.61299917758674
 30
0.0
 40
0.5
100
AcDbArc
 50
322.4314079711562
 51
0.0
  0
LINE
  5
43CC
330
1F
100
AcDbEntity
  8
KANAMONO_SCREW
100
AcDbLine
 10
316.7336142088929
 20
78.49293780623316
 30
0.0
 11
315.6086142088929
 21
78.49293780623316
 31
0.0
  0
LINE
  5
43CD
330
1F
100
AcDbEntity
  8
KANAMONO_SCREW
100
AcDbLine
 10
316.7336142088929
 20
76.69293780623343
 30
0.0
 11
315.6086142088929
 21
76.69293780623343
 31
0.0
  0
LINE
  5
43CE
330
1F
100
AcDbEntity
  8
KANAMONO_SCREW
100
AcDbLine
 10
321.6086142088929
 20
76.69293780623343
 30
0.0
 11
320.4836142088929
 21
76.69293780623343
 31
0.0
  0
LINE
  5
43CF
330
1F
100
AcDbEntity
  8
KANAMONO_SCREW
100
AcDbLine
 10
316.7336142088929
 20
74.09293780623329
 30
0.0
 11
315.6086142088929
 21
74.09293780623329
 31
0.0
  0
LINE
  5
43D0
330
1F
100
AcDbEntity
  8
KANAMONO_SCREW
100
AcDbLine
 10
321.6077725482737
 20
74.09293780623352
 30
0.0
 11
320.4836142088929
 21
74.09293780623352
 31
0.0
  0
LINE
  5
43D1
330
1F
100
AcDbEntity
  8
KANAMONO_SCREW
100
AcDbLine
 10
316.7336142088929
 20
75.64293780623325
 30
0.0
 11
315.683614208893
 21
75.64293780623325
 31
0.0
  0
LINE
  5
43D2
330
1F
100
AcDbEntity
  8
KANAMONO_SCREW
100
AcDbLine
 10
320.4836142088929
 20
74.09293780623352
 30
0.0
 11
320.4836142088929
 21
76.69293780623343
 31
0.0
  0
LINE
  5
43D3
330
1F
100
AcDbEntity
  8
KANAMONO_SCREW
100
AcDbLine
 10
316.7336142088929
 20
74.09293780623329
 30
0.0
 11
316.7336142088929
 21
76.69293780623343
 31
0.0
  0
LINE
  5
43D4
330
1F
100
AcDbEntity
  8
KANAMONO_SCREW
100
AcDbLine
 10
316.7336142088929
 20
74.64293780623325
 30
0.0
 11
315.683614208893
 21
74.64293780623325
 31
0.0
  0
LINE
  5
43D5
330
1F
100
AcDbEntity
  8
KANAMONO_SCREW
100
AcDbLine
 10
321.5336142088929
 20
74.64293780623325
 30
0.0
 11
320.4836142088929
 21
74.64293780623325
 31
0.0
  0
LINE
  5
43D6
330
1F
100
AcDbEntity
  8
KANAMONO_SCREW
100
AcDbLine
 10
316.7336142088929
 20
75.14293780623325
 30
0.0
 11
315.683614208893
 21
75.14293780623325
 31
0.0
  0
LINE
  5
43D7
330
1F
100
AcDbEntity
  8
KANAMONO_SCREW
100
AcDbLine
 10
321.5336142088929
 20
75.14293780623325
 30
0.0
 11
320.4836142088929
 21
75.14293780623325
 31
0.0
  0
LINE
  5
43D8
330
1F
100
AcDbEntity
  8
KANAMONO_SCREW
100
AcDbLine
 10
321.5336142088929
 20
75.64293780623325
 30
0.0
 11
320.4836142088929
 21
75.64293780623325
 31
0.0
  0
LINE
  5
43D9
330
1F
100
AcDbEntity
  8
KANAMONO_SCREW
100
AcDbLine
 10
316.7336142088929
 20
76.14293780623325
 30
0.0
 11
315.683614208893
 21
76.14293780623325
 31
0.0
  0
LINE
  5
43DA
330
1F
100
AcDbEntity
  8
KANAMONO_SCREW
100
AcDbLine
 10
321.5336142088929
 20
76.14293780623325
 30
0.0
 11
320.4836142088929
 21
76.14293780623325
 31
0.0
  0
LINE
  5
43DB
330
1F
100
AcDbEntity
  8
KANAMONO_SCREW
100
AcDbLine
 10
315.6086142088929
 20
76.69293780623343
 30
0.0
 11
315.6086142088929
 21
78.49293780623316
 31
0.0
  0
LINE
  5
43DC
330
1F
100
AcDbEntity
  8
KANAMONO_SCREW
100
AcDbLine
 10
321.6086142088929
 20
76.69293780623343
 30
0.0
 11
321.6086142088929
 21
78.49293780623316
 31
0.0
  0
LINE
  5
43DD
330
1F
100
AcDbEntity
  8
KANAMONO_SCREW
100
AcDbLine
 10
320.7086142088928
 20
70.69293780623343
 30
0.0
 11
321.6086142088929
 21
74.09293780623352
 31
0.0
  0
LINE
  5
43DE
330
1F
100
AcDbEntity
  8
KANAMONO_SCREW
100
AcDbLine
 10
320.7086142088928
 20
70.69293780623343
 30
0.0
 11
316.508614208893
 21
70.69293780623343
 31
0.0
  0
LINE
  5
43DF
330
1F
100
AcDbEntity
  8
KANAMONO_SCREW
100
AcDbLine
 10
316.508614208893
 20
70.69293780623343
 30
0.0
 11
315.6086142088929
 21
74.09293780623329
 31
0.0
  0
LINE
  5
43E0
330
1F
100
AcDbEntity
  8
KANAMONO_SCREW
100
AcDbLine
 10
321.998614208893
 20
95.69293780623343
 30
0.0
 11
321.498614208893
 21
93.79293780623356
 31
0.0
  0
LINE
  5
43E1
330
1F
100
AcDbEntity
  8
KANAMONO_SCREW
100
AcDbLine
 10
315.718614208893
 20
93.79293780623356
 30
0.0
 11
315.218614208893
 21
95.6929378062332
 31
0.0
  0
ARC
  5
43E2
330
1F
100
AcDbEntity
  8
KANAMONO_SCREW
100
AcDbCircle
 10
326.3917436797331
 20
72.49795363632893
 30
0.0
 40
9.382689926641683
100
AcDbArc
 50
191.0915488138293
 51
213.950532353797
  0
ARC
  5
43E3
330
1F
100
AcDbEntity
  8
KANAMONO_SCREW
100
AcDbCircle
 10
310.8254847380529
 20
72.49795363632893
 30
0.0
 40
9.382689926641683
100
AcDbArc
 50
326.049467646203
 51
348.9084511861707
  0
LINE
  5
43E4
330
1F
100
AcDbEntity
  8
KANAMONO_SCREW
100
AcDbLine
 10
323.1086142088932
 20
132.2579378062328
 30
0.0
 11
314.1086142088931
 21
132.2579378062328
 31
0.0
  0
LINE
  5
43E5
330
1F
100
AcDbEntity
  8
KANAMONO_SCREW
100
AcDbLine
 10
323.1086142088932
 20
131.517937806233
 30
0.0
 11
314.1086142088931
 21
131.517937806233
 31
0.0
  0
LINE
  5
43E6
330
1F
100
AcDbEntity
  8
KANAMONO_SCREW
100
AcDbLine
 10
323.1086142088932
 20
132.2579378062328
 30
0.0
 11
323.1086142088932
 21
131.517937806233
 31
0.0
  0
LINE
  5
43E7
330
1F
100
AcDbEntity
  8
KANAMONO_SCREW
100
AcDbLine
 10
314.1086142088931
 20
132.2579378062328
 30
0.0
 11
314.1086142088931
 21
131.517937806233
 31
0.0
  0
LINE
  5
43E8
330
1F
100
AcDbEntity
  8
KANAMONO_SCREW
100
AcDbLine
 10
322.2836142088932
 20
130.692937806233
 30
0.0
 11
323.1086142088932
 21
131.517937806233
 31
0.0
  0
LINE
  5
43E9
330
1F
100
AcDbEntity
  8
KANAMONO_SCREW
100
AcDbLine
 10
314.9336142088928
 20
130.6929378062334
 30
0.0
 11
314.1086142088931
 21
131.517937806233
 31
0.0
  0
LINE
  5
43EA
330
1F
100
AcDbEntity
  8
KANAMONO_SCREW
  6
DASHED1
100
AcDbLine
 10
339.1086142088931
 20
132.2579378062329
 30
0.0
 11
348.1086142088932
 21
132.2579378062329
 31
0.0
  0
LINE
  5
43EB
330
1F
100
AcDbEntity
  8
KANAMONO_SCREW
  6
DASHED1
100
AcDbLine
 10
348.1086142088932
 20
132.2579378062329
 30
0.0
 11
348.1086142088931
 21
131.5179378062331
 31
0.0
  0
LINE
  5
43EC
330
1F
100
AcDbEntity
  8
KANAMONO_SCREW
  6
DASHED1
100
AcDbLine
 10
348.1086142088931
 20
131.5179378062331
 30
0.0
 11
347.2836142088937
 21
130.6929378062335
 31
0.0
  0
LINE
  5
43ED
330
1F
100
AcDbEntity
  8
KANAMONO_SCREW
  6
DASHED1
100
AcDbLine
 10
347.2836142088937
 20
130.6929378062335
 30
0.0
 11
347.2836142088932
 21
130.2429378062335
 31
0.0
  0
LINE
  5
43EE
330
1F
100
AcDbEntity
  8
KANAMONO_SCREW
  6
DASHED1
100
AcDbLine
 10
347.2836142088932
 20
130.2429378062335
 30
0.0
 11
346.4986142088934
 21
129.3929378062336
 31
0.0
  0
LINE
  5
43EF
330
1F
100
AcDbEntity
  8
KANAMONO_SCREW
  6
DASHED1
100
AcDbLine
 10
346.4986142088934
 20
129.3929378062336
 30
0.0
 11
346.3986142088957
 21
129.3929378062336
 31
0.0
  0
LINE
  5
43F0
330
1F
100
AcDbEntity
  8
KANAMONO_SCREW
  6
DASHED1
100
AcDbLine
 10
346.3986142088957
 20
129.3929378062336
 30
0.0
 11
346.9986142088955
 21
128.8929378062338
 31
0.0
  0
LINE
  5
43F1
330
1F
100
AcDbEntity
  8
KANAMONO_SCREW
  6
DASHED1
100
AcDbLine
 10
346.9986142088955
 20
128.8929378062338
 30
0.0
 11
346.9986142088939
 21
123.592937806237
 31
0.0
  0
LINE
  5
43F2
330
1F
100
AcDbEntity
  8
KANAMONO_SCREW
  6
DASHED1
100
AcDbLine
 10
346.9986142088939
 20
123.592937806237
 30
0.0
 11
346.3986142088929
 21
121.6929378062335
 31
0.0
  0
LINE
  5
43F3
330
1F
100
AcDbEntity
  8
KANAMONO_SCREW
  6
DASHED1
100
AcDbLine
 10
346.3986142088929
 20
121.6929378062335
 30
0.0
 11
346.3986142088929
 21
108.6929378062337
 31
0.0
  0
LINE
  5
43F4
330
1F
100
AcDbEntity
  8
KANAMONO_SCREW
  6
DASHED1
100
AcDbLine
 10
346.3986142088929
 20
108.6929378062337
 30
0.0
 11
346.998614208893
 21
108.1929378062338
 31
0.0
  0
LINE
  5
43F5
330
1F
100
AcDbEntity
  8
KANAMONO_SCREW
  6
DASHED1
100
AcDbLine
 10
346.998614208893
 20
108.1929378062338
 30
0.0
 11
346.998614208893
 21
95.69293780623354
 31
0.0
  0
LINE
  5
43F6
330
1F
100
AcDbEntity
  8
KANAMONO_SCREW
  6
DASHED1
100
AcDbLine
 10
346.998614208893
 20
95.69293780623354
 30
0.0
 11
346.498614208893
 21
93.79293780623369
 31
0.0
  0
LINE
  5
43F7
330
1F
100
AcDbEntity
  8
KANAMONO_SCREW
  6
DASHED1
100
AcDbLine
 10
346.498614208893
 20
93.79293780623369
 30
0.0
 11
346.498614208893
 21
93.49293780623327
 31
0.0
  0
LINE
  5
43F8
330
1F
100
AcDbEntity
  8
KANAMONO_SCREW
  6
DASHED1
100
AcDbLine
 10
346.498614208893
 20
93.49293780623327
 30
0.0
 11
346.3372508786911
 21
93.49293780623327
 31
0.0
  0
LINE
  5
43F9
330
1F
100
AcDbEntity
  8
KANAMONO_SCREW
  6
DASHED1
100
AcDbLine
 10
346.3372508786911
 20
93.49293780623327
 30
0.0
 11
346.6722508786912
 21
89.69293780623377
 31
0.0
  0
LINE
  5
43FA
330
1F
100
AcDbEntity
  8
KANAMONO_SCREW
  6
DASHED1
100
AcDbLine
 10
346.6722508786912
 20
89.69293780623377
 30
0.0
 11
346.8336142088929
 21
89.69293780623354
 31
0.0
  0
LINE
  5
43FB
330
1F
100
AcDbEntity
  8
KANAMONO_SCREW
  6
DASHED1
100
AcDbLine
 10
346.8336142088929
 20
89.69293780623354
 30
0.0
 11
346.8336142088929
 21
87.99293780623328
 31
0.0
  0
LINE
  5
43FC
330
1F
100
AcDbEntity
  8
KANAMONO_SCREW
  6
DASHED1
100
AcDbLine
 10
346.8336142088929
 20
87.99293780623328
 30
0.0
 11
346.6722502357489
 21
87.99293780623328
 31
0.0
  0
LINE
  5
43FD
330
1F
100
AcDbEntity
  8
KANAMONO_SCREW
  6
DASHED1
100
AcDbLine
 10
346.6722502357489
 20
87.99293780623328
 30
0.0
 11
346.5722505725584
 21
83.99295127861376
 31
0.0
  0
LINE
  5
43FE
330
1F
100
AcDbEntity
  8
KANAMONO_SCREW
  6
DASHED1
100
AcDbLine
 10
346.5722505725584
 20
83.99295127861376
 30
0.0
 11
346.7336145150545
 21
83.99293780623327
 31
0.0
  0
LINE
  5
43FF
330
1F
100
AcDbEntity
  8
KANAMONO_SCREW
  6
DASHED1
100
AcDbLine
 10
346.7336145150545
 20
83.99293780623327
 30
0.0
 11
346.6949781514181
 21
82.29293780623345
 31
0.0
  0
LINE
  5
4400
330
1F
100
AcDbEntity
  8
KANAMONO_SCREW
  6
DASHED1
100
AcDbLine
 10
346.6949781514181
 20
82.29293780623345
 30
0.0
 11
346.4449778452565
 21
82.29293780623345
 31
0.0
  0
LINE
  5
4401
330
1F
100
AcDbEntity
  8
KANAMONO_SCREW
  6
DASHED1
100
AcDbLine
 10
346.4449778452565
 20
82.29293780623345
 30
0.0
 11
346.3586142088929
 21
78.49293780623327
 31
0.0
  0
LINE
  5
4402
330
1F
100
AcDbEntity
  8
KANAMONO_SCREW
  6
DASHED1
100
AcDbLine
 10
346.3586142088929
 20
78.49293780623327
 30
0.0
 11
346.6086142088929
 21
78.49293780623327
 31
0.0
  0
LINE
  5
4403
330
1F
100
AcDbEntity
  8
KANAMONO_SCREW
  6
DASHED1
100
AcDbLine
 10
346.6086142088929
 20
78.49293780623327
 30
0.0
 11
346.6086142088929
 21
76.69293780623366
 31
0.0
  0
LINE
  5
4404
330
1F
100
AcDbEntity
  8
KANAMONO_SCREW
  6
DASHED1
100
AcDbLine
 10
346.6086142088929
 20
76.69293780623366
 30
0.0
 11
346.3586142088929
 21
76.69293780623366
 31
0.0
  0
LINE
  5
4405
330
1F
100
AcDbEntity
  8
KANAMONO_SCREW
  6
DASHED1
100
AcDbLine
 10
346.3586142088929
 20
76.69293780623366
 30
0.0
 11
346.3586142088929
 21
74.09293780623375
 31
0.0
  0
LINE
  5
4406
330
1F
100
AcDbEntity
  8
KANAMONO_SCREW
  6
DASHED1
100
AcDbLine
 10
346.3586142088929
 20
74.09293780623375
 30
0.0
 11
346.6086142088929
 21
74.09293780623375
 31
0.0
  0
LINE
  5
4407
330
1F
100
AcDbEntity
  8
KANAMONO_SCREW
  6
DASHED1
100
AcDbLine
 10
346.6086142088929
 20
74.09293780623375
 30
0.0
 11
345.7086142088927
 21
70.69293780623332
 31
0.0
  0
LINE
  5
4408
330
1F
100
AcDbEntity
  8
KANAMONO_SCREW
  6
DASHED1
100
AcDbLine
 10
345.7086142088927
 20
70.69293780623332
 30
0.0
 11
345.0329158734243
 21
70.69293780623332
 31
0.0
  0
ARC
  5
4409
330
1F
100
AcDbEntity
  8
KANAMONO_SCREW
  6
DASHED1
100
AcDbCircle
 10
335.8254847380533
 20
72.49795363633051
 30
0.0
 40
9.382689926641541
100
AcDbArc
 50
326.0494676462092
 51
348.9084511861626
  0
ARC
  5
440A
330
1F
100
AcDbEntity
  8
KANAMONO_SCREW
  6
DASHED1
100
AcDbCircle
 10
351.3917436797317
 20
72.49795363632881
 30
0.0
 40
9.382689926640878
100
AcDbArc
 50
191.0915488138277
 51
213.950532353781
  0
LINE
  5
440B
330
1F
100
AcDbEntity
  8
KANAMONO_SCREW
  6
DASHED1
100
AcDbLine
 10
342.1843125443611
 20
70.69293780623332
 30
0.0
 11
341.5086142088926
 21
70.69293780623332
 31
0.0
  0
LINE
  5
440C
330
1F
100
AcDbEntity
  8
KANAMONO_SCREW
  6
DASHED1
100
AcDbLine
 10
341.5086142088926
 20
70.69293780623332
 30
0.0
 11
340.6086142088924
 21
74.09293780623375
 31
0.0
  0
LINE
  5
440D
330
1F
100
AcDbEntity
  8
KANAMONO_SCREW
  6
DASHED1
100
AcDbLine
 10
340.6086142088924
 20
74.09293780623375
 30
0.0
 11
340.8586142088925
 21
74.09293780623375
 31
0.0
  0
LINE
  5
440E
330
1F
100
AcDbEntity
  8
KANAMONO_SCREW
  6
DASHED1
100
AcDbLine
 10
340.8586142088925
 20
74.09293780623375
 30
0.0
 11
340.8586142088925
 21
76.69293780623366
 31
0.0
  0
LINE
  5
440F
330
1F
100
AcDbEntity
  8
KANAMONO_SCREW
  6
DASHED1
100
AcDbLine
 10
340.8586142088925
 20
76.69293780623366
 30
0.0
 11
340.6086142088924
 21
76.69293780623366
 31
0.0
  0
LINE
  5
4410
330
1F
100
AcDbEntity
  8
KANAMONO_SCREW
  6
DASHED1
100
AcDbLine
 10
340.6086142088924
 20
76.69293780623366
 30
0.0
 11
340.6086142088924
 21
78.49293780623327
 31
0.0
  0
LINE
  5
4411
330
1F
100
AcDbEntity
  8
KANAMONO_SCREW
  6
DASHED1
100
AcDbLine
 10
340.6086142088924
 20
78.49293780623327
 30
0.0
 11
340.8586142088925
 21
78.49293780623327
 31
0.0
  0
LINE
  5
4412
330
1F
100
AcDbEntity
  8
KANAMONO_SCREW
  6
DASHED1
100
AcDbLine
 10
340.8586142088925
 20
78.49293780623327
 30
0.0
 11
340.7722505725289
 21
82.29293780623345
 31
0.0
  0
LINE
  5
4413
330
1F
100
AcDbEntity
  8
KANAMONO_SCREW
  6
DASHED1
100
AcDbLine
 10
340.7722505725289
 20
82.29293780623345
 30
0.0
 11
340.5222502663673
 21
82.29293780623345
 31
0.0
  0
LINE
  5
4414
330
1F
100
AcDbEntity
  8
KANAMONO_SCREW
  6
DASHED1
100
AcDbLine
 10
340.5222502663673
 20
82.29293780623345
 30
0.0
 11
340.4836139027308
 21
83.99293780623327
 31
0.0
  0
LINE
  5
4415
330
1F
100
AcDbEntity
  8
KANAMONO_SCREW
  6
DASHED1
100
AcDbLine
 10
340.4836139027308
 20
83.99293780623327
 30
0.0
 11
340.644977845227
 21
83.99295127861376
 31
0.0
  0
LINE
  5
4416
330
1F
100
AcDbEntity
  8
KANAMONO_SCREW
  6
DASHED1
100
AcDbLine
 10
340.644977845227
 20
83.99295127861376
 30
0.0
 11
340.5449781820365
 21
87.99293780623328
 31
0.0
  0
LINE
  5
4417
330
1F
100
AcDbEntity
  8
KANAMONO_SCREW
  6
DASHED1
100
AcDbLine
 10
340.5449781820365
 20
87.99293780623328
 30
0.0
 11
340.3836142088924
 21
87.99293780623328
 31
0.0
  0
LINE
  5
4418
330
1F
100
AcDbEntity
  8
KANAMONO_SCREW
  6
DASHED1
100
AcDbLine
 10
340.3836142088924
 20
87.99293780623328
 30
0.0
 11
340.3836142088924
 21
89.69293780623354
 31
0.0
  0
LINE
  5
4419
330
1F
100
AcDbEntity
  8
KANAMONO_SCREW
  6
DASHED1
100
AcDbLine
 10
340.3836142088924
 20
89.69293780623354
 30
0.0
 11
340.5449775390942
 21
89.69293780623377
 31
0.0
  0
LINE
  5
441A
330
1F
100
AcDbEntity
  8
KANAMONO_SCREW
  6
DASHED1
100
AcDbLine
 10
340.5449775390942
 20
89.69293780623377
 30
0.0
 11
340.8799775390942
 21
93.49293780623327
 31
0.0
  0
LINE
  5
441B
330
1F
100
AcDbEntity
  8
KANAMONO_SCREW
  6
DASHED1
100
AcDbLine
 10
340.8799775390942
 20
93.49293780623327
 30
0.0
 11
340.7186142088924
 21
93.49293780623327
 31
0.0
  0
LINE
  5
441C
330
1F
100
AcDbEntity
  8
KANAMONO_SCREW
  6
DASHED1
100
AcDbLine
 10
340.7186142088924
 20
93.49293780623327
 30
0.0
 11
340.7186142088924
 21
93.79293780623369
 31
0.0
  0
LINE
  5
441D
330
1F
100
AcDbEntity
  8
KANAMONO_SCREW
  6
DASHED1
100
AcDbLine
 10
340.7186142088924
 20
93.79293780623369
 30
0.0
 11
340.2186142088924
 21
95.69293780623354
 31
0.0
  0
LINE
  5
441E
330
1F
100
AcDbEntity
  8
KANAMONO_SCREW
  6
DASHED1
100
AcDbLine
 10
340.2186142088924
 20
95.69293780623354
 30
0.0
 11
340.2186142088924
 21
108.1929378062338
 31
0.0
  0
LINE
  5
441F
330
1F
100
AcDbEntity
  8
KANAMONO_SCREW
  6
DASHED1
100
AcDbLine
 10
340.2186142088924
 20
108.1929378062338
 30
0.0
 11
340.8186142088925
 21
108.6929378062337
 31
0.0
  0
LINE
  5
4420
330
1F
100
AcDbEntity
  8
KANAMONO_SCREW
  6
DASHED1
100
AcDbLine
 10
340.8186142088925
 20
108.6929378062337
 30
0.0
 11
340.8186142088925
 21
121.6929378062335
 31
0.0
  0
LINE
  5
4421
330
1F
100
AcDbEntity
  8
KANAMONO_SCREW
  6
DASHED1
100
AcDbLine
 10
340.8186142088925
 20
121.6929378062335
 30
0.0
 11
340.2186142088914
 21
123.592937806237
 31
0.0
  0
LINE
  5
4422
330
1F
100
AcDbEntity
  8
KANAMONO_SCREW
  6
DASHED1
100
AcDbLine
 10
340.2186142088914
 20
123.592937806237
 30
0.0
 11
340.2186142088898
 21
128.8929378062338
 31
0.0
  0
LINE
  5
4423
330
1F
100
AcDbEntity
  8
KANAMONO_SCREW
  6
DASHED1
100
AcDbLine
 10
340.2186142088898
 20
128.8929378062338
 30
0.0
 11
340.8186142088896
 21
129.3929378062336
 31
0.0
  0
LINE
  5
4424
330
1F
100
AcDbEntity
  8
KANAMONO_SCREW
  6
DASHED1
100
AcDbLine
 10
340.8186142088896
 20
129.3929378062336
 30
0.0
 11
340.718614208892
 21
129.3929378062336
 31
0.0
  0
LINE
  5
4425
330
1F
100
AcDbEntity
  8
KANAMONO_SCREW
  6
DASHED1
100
AcDbLine
 10
340.718614208892
 20
129.3929378062336
 30
0.0
 11
339.9336142088921
 21
130.2429378062335
 31
0.0
  0
LINE
  5
4426
330
1F
100
AcDbEntity
  8
KANAMONO_SCREW
  6
DASHED1
100
AcDbLine
 10
339.9336142088921
 20
130.2429378062335
 30
0.0
 11
339.9336142088917
 21
130.6929378062335
 31
0.0
  0
LINE
  5
4427
330
1F
100
AcDbEntity
  8
KANAMONO_SCREW
  6
DASHED1
100
AcDbLine
 10
339.9336142088917
 20
130.6929378062335
 30
0.0
 11
339.1086142088922
 21
131.5179378062331
 31
0.0
  0
LINE
  5
4428
330
1F
100
AcDbEntity
  8
KANAMONO_SCREW
  6
DASHED1
100
AcDbLine
 10
339.1086142088922
 20
131.5179378062331
 30
0.0
 11
339.1086142088931
 21
132.2579378062329
 31
0.0
  0
ENDSEC
  0
SECTION
  2
OBJECTS
  0
DICTIONARY
  5
C
330
0
100
AcDbDictionary
281
     1
  3
ACAD_CIP_PREVIOUS_PRODUCT_INFO
350
3DEC
  3
ACAD_COLOR
350
3C7D
  3
ACAD_DETAILVIEWSTYLE
350
3DE7
  3
ACAD_GROUP
350
D
  3
ACAD_LAYOUT
350
1A
  3
ACAD_MATERIAL
350
3C50
  3
ACAD_MLEADERSTYLE
350
3C92
  3
ACAD_MLINESTYLE
350
17
  3
ACAD_PLOTSETTINGS
350
19
  3
ACAD_PLOTSTYLENAME
350
E
  3
ACAD_SCALELIST
350
3C80
  3
ACAD_SECTIONVIEWSTYLE
350
3DE5
  3
ACAD_TABLESTYLE
350
3C7E
  3
ACAD_VISUALSTYLE
350
3C69
  3
ACDB_RECOMPOSE_DATA
350
442B
  3
AcDbVariableDictionary
350
1835
  3
AEC_PROPERTY_SET_DEFS
350
3CC4
  3
DWGPROPS
350
442C
  0
DICTIONARY
  5
3CFE
330
8
100
AcDbDictionary
280
     1
281
     1
  0
DICTIONARY
  5
2D
330
2
100
AcDbDictionary
280
     1
281
     1
  3
ACAD_LAYERFILTERS
360
2E
  3
ACAD_LAYERSTATES
360
918
  0
DICTIONARY
  5
3CF0
330
10
100
AcDbDictionary
280
     1
281
     1
  3
ADSK_XREC_LAYER_RECONCILED
360
3CF1
  0
DICTIONARY
  5
3CF2
330
2388
100
AcDbDictionary
280
     1
281
     1
  3
ADSK_XREC_LAYER_RECONCILED
360
3CF3
  0
DICTIONARY
  5
3CF4
330
238A
100
AcDbDictionary
280
     1
281
     1
  3
ADSK_XREC_LAYER_RECONCILED
360
3CF5
  0
DICTIONARY
  5
3CF6
330
2757
100
AcDbDictionary
280
     1
281
     1
  3
ADSK_XREC_LAYER_RECONCILED
360
3CF7
  0
DICTIONARY
  5
3CF8
330
2758
100
AcDbDictionary
280
     1
281
     1
  3
ADSK_XREC_LAYER_RECONCILED
360
3CF9
  0
DICTIONARY
  5
3DEE
330
3DED
100
AcDbDictionary
280
     1
281
     1
  0
DICTIONARY
  5
41F0
330
41EF
100
AcDbDictionary
280
     1
281
     1
  0
DICTIONARY
  5
1C62
330
1F
100
AcDbDictionary
280
     1
281
     1
  3
ACAD_SORTENTS
360
1C63
  0
XRECORD
  5
3DEC
102
{ACAD_REACTORS
330
C
102
}
330
C
100
AcDbXrecord
280
     1
300
ACD
300
2022
300

  0
DICTIONARY
  5
3C7D
102
{ACAD_REACTORS
330
C
102
}
330
C
100
AcDbDictionary
281
     1
  0
DICTIONARY
  5
3DE7
102
{ACAD_REACTORS
330
C
102
}
330
C
100
AcDbDictionary
281
     1
  3
Metric50
350
3DE8
  0
DICTIONARY
  5
D
102
{ACAD_REACTORS
330
C
102
}
330
C
100
AcDbDictionary
281
     1
  0
DICTIONARY
  5
1A
102
{ACAD_REACTORS
330
C
102
}
330
C
100
AcDbDictionary
281
     1
  3
Model
350
22
  3
\U+FF9A\U+FF72\U+FF71\U+FF73\U+FF841
350
1CD1
  0
DICTIONARY
  5
3C50
102
{ACAD_REACTORS
330
C
102
}
330
C
100
AcDbDictionary
281
     1
  3
ByBlock
350
3C59
  3
ByLayer
350
3C51
  3
Global
350
3C61
  0
DICTIONARY
  5
3C92
102
{ACAD_REACTORS
330
C
102
}
330
C
100
AcDbDictionary
281
     1
  3
Standard
350
3C93
  0
DICTIONARY
  5
17
102
{ACAD_REACTORS
330
C
102
}
330
C
100
AcDbDictionary
281
     1
  3
Standard
350
18
  0
DICTIONARY
  5
19
102
{ACAD_REACTORS
330
C
102
}
330
C
100
AcDbDictionary
281
     1
  0
ACDBDICTIONARYWDFLT
  5
E
102
{ACAD_REACTORS
330
C
102
}
330
C
100
AcDbDictionary
281
     1
  3
Normal
350
F
  3
通常
350
29
100
AcDbDictionaryWithDefault
340
F
  0
DICTIONARY
  5
3C80
102
{ACAD_REACTORS
330
C
102
}
330
C
100
AcDbDictionary
281
     1
  3
A0
350
3C81
  3
A1
350
3C82
  3
A2
350
3C83
  3
A3
350
3C84
  3
A4
350
3C85
  3
A5
350
3C86
  3
A6
350
3C87
  3
A7
350
3C88
  3
A8
350
3C89
  3
A9
350
3C8A
  3
B0
350
3C8B
  3
B1
350
3C8C
  3
B2
350
3C8D
  3
B3
350
3C8E
  3
B4
350
3C8F
  3
B5
350
3C90
  3
B6
350
3C91
  0
DICTIONARY
  5
3DE5
102
{ACAD_REACTORS
330
C
102
}
330
C
100
AcDbDictionary
281
     1
  3
Metric50
350
3DE6
  0
DICTIONARY
  5
3C7E
102
{ACAD_REACTORS
330
C
102
}
330
C
100
AcDbDictionary
281
     1
  3
Standard
350
3C7F
  0
DICTIONARY
  5
3C69
102
{ACAD_REACTORS
330
C
102
}
330
C
100
AcDbDictionary
281
     1
  3
2dWireframe
350
3C6F
  3
3D Hidden
350
3C71
  3
3dWireframe
350
3C70
  3
Basic
350
3C6E
  3
Brighten
350
3C75
  3
ColorChange
350
3C79
  3
Conceptual
350
3C72
  3
Dim
350
3C74
  3
EdgeColorOff
350
3C7C
  3
Facepattern
350
3C78
  3
Flat
350
3C6A
  3
FlatWithEdges
350
3C6B
  3
Gouraud
350
3C6C
  3
GouraudWithEdges
350
3C6D
  3
Hidden
350
3DDF
  3
JitterOff
350
3C7A
  3
Linepattern
350
3C77
  3
OverhangOff
350
3C7B
  3
Realistic
350
3C73
  3
Shaded
350
3DE4
  3
Shaded with edges
350
3DE3
  3
Shades of Gray
350
3DE0
  3
Sketchy
350
3DE1
  3
Thicken
350
3C76
  3
Wireframe
350
3DDE
  3
X-Ray
350
3DE2
  0
XRECORD
  5
442B
102
{ACAD_REACTORS
330
C
102
}
330
C
100
AcDbXrecord
280
     1
 90
        1
330
3C7F
  0
DICTIONARY
  5
1835
102
{ACAD_REACTORS
330
C
102
}
330
C
100
AcDbDictionary
281
     1
  3
CANNOSCALE
350
3D31
  3
CMLEADERSTYLE
350
3D30
  3
CTABLESTYLE
350
3D2F
  3
CVIEWDETAILSTYLE
350
3E90
  3
CVIEWSECTIONSTYLE
350
3E91
  3
DIMASSOC
350
3D33
  3
INDEXCTL
350
3D32
  3
SORTENTS
350
1836
  3
XCLIPFRAME
350
4429
  0
DICTIONARY
  5
3CC4
102
{ACAD_REACTORS
330
C
102
}
330
C
100
AcDbDictionary
281
     1
  0
XRECORD
  5
442C
102
{ACAD_REACTORS
330
C
102
}
330
C
100
AcDbXrecord
280
     1
  1
DWGPROPS COOKIE
  2

  3

  4

  6

  7

  8
2020009
  9

300
=
301
=
302
=
303
=
304
=
305
=
306
=
307
=
308
=
309
=
 40
0.2517183680555555
 41
2453276.413761574
 42
2459989.48400463
  1

 90
        0
  0
DICTIONARY
  5
2E
102
{ACAD_REACTORS
330
2D
102
}
330
2D
100
AcDbDictionary
280
     1
281
     1
  0
DICTIONARY
  5
918
102
{ACAD_REACTORS
330
2D
102
}
330
2D
100
AcDbDictionary
281
     1
  0
XRECORD
  5
3CF1
102
{ACAD_REACTORS
330
3CF0
102
}
330
3CF0
100
AcDbXrecord
280
     1
290
     1
  0
XRECORD
  5
3CF3
102
{ACAD_REACTORS
330
3CF2
102
}
330
3CF2
100
AcDbXrecord
280
     1
290
     1
  0
XRECORD
  5
3CF5
102
{ACAD_REACTORS
330
3CF4
102
}
330
3CF4
100
AcDbXrecord
280
     1
290
     1
  0
XRECORD
  5
3CF7
102
{ACAD_REACTORS
330
3CF6
102
}
330
3CF6
100
AcDbXrecord
280
     1
290
     1
  0
XRECORD
  5
3CF9
102
{ACAD_REACTORS
330
3CF8
102
}
330
3CF8
100
AcDbXrecord
280
     1
290
     1
  0
SORTENTSTABLE
  5
1C63
102
{ACAD_REACTORS
330
1C62
102
}
330
1C62
100
AcDbSortentsTable
330
1F
331
2FAD
  5
2FB2
331
2FAE
  5
2FB4
331
2FAF
  5
2FB5
331
2FB0
  5
2FB6
331
2FB2
  5
2FB7
331
2FB4
  5
2FB8
331
2FB5
  5
2FBA
331
2FB6
  5
2FBB
331
2FB7
  5
2FBC
331
2FB8
  5
2FBD
331
2FBA
  5
2FBE
331
2FBB
  5
2FBF
331
2FBC
  5
2FC0
331
2FBD
  5
2FC1
331
2FBE
  5
2FC2
331
2FBF
  5
2FC3
331
2FC0
  5
2FC4
331
2FC1
  5
2FC5
331
2FC2
  5
2FC6
331
2FC3
  5
2FC7
331
2FC4
  5
2FC8
331
2FC5
  5
2FC9
331
2FC6
  5
2FCA
331
2FC7
  5
2FCB
331
2FC8
  5
2FCC
331
2FC9
  5
2FCD
331
2FCA
  5
2FCE
331
2FCB
  5
2FCF
331
2FCC
  5
2FD0
331
2FCD
  5
3CED
331
2FCE
  5
3CEE
331
2FCF
  5
3CEF
331
2FD0
  5
3E04
331
3CED
  5
42F8
331
3CEE
  5
42F9
331
3CEF
  5
42FA
331
3E04
  5
42FF
331
3E05
  5
4300
331
3E07
  5
4305
331
3E08
  5
4306
331
3E09
  5
4307
331
428A
  5
2FAD
331
428B
  5
2FAE
331
428C
  5
2FAF
331
428D
  5
2FB0
331
428E
  5
3E05
331
428F
  5
3E07
331
4290
  5
3E08
331
4291
  5
3E09
331
4292
  5
428A
331
4293
  5
428B
331
4294
  5
428C
331
4295
  5
428D
331
4296
  5
428E
331
4297
  5
428F
331
4298
  5
4290
331
4299
  5
4291
331
429A
  5
4292
331
429B
  5
4293
331
429C
  5
4294
331
429D
  5
4295
331
429E
  5
4296
331
429F
  5
4297
331
42A0
  5
4298
331
42A1
  5
4299
331
42A2
  5
429A
331
42A3
  5
429B
331
42A4
  5
429C
331
42A5
  5
429D
331
42A6
  5
429E
331
42A7
  5
429F
331
42A8
  5
42A0
331
42A9
  5
42A1
331
42AA
  5
42A2
331
42AB
  5
42A3
331
42AC
  5
42A4
331
42AD
  5
42A5
331
42AE
  5
42A6
331
42AF
  5
42A7
331
42B0
  5
42A8
331
42B1
  5
42A9
331
42B2
  5
42AA
331
42B3
  5
42AB
331
42B4
  5
42AC
331
42B5
  5
42AD
331
42B6
  5
42AE
331
42B7
  5
42AF
331
42B8
  5
42B0
331
42B9
  5
42B1
331
42BA
  5
42B2
331
42BB
  5
42B3
331
42BC
  5
42B4
331
42BD
  5
42B5
331
42BE
  5
42B6
331
42BF
  5
42B7
331
42C0
  5
42B8
331
42C1
  5
42B9
331
42C2
  5
42BA
331
42C3
  5
42BB
331
42C4
  5
42BC
331
42C5
  5
42BD
331
42C6
  5
42BE
331
42C7
  5
42BF
331
42C8
  5
42C0
331
42C9
  5
42C1
331
42CA
  5
42C2
331
42CB
  5
42C3
331
42CC
  5
42C4
331
42CD
  5
42C5
331
42CE
  5
42C6
331
42CF
  5
42C7
331
42D0
  5
42C8
331
42D1
  5
42C9
331
42D2
  5
42CA
331
42D3
  5
42CB
331
42D4
  5
42CC
331
42D5
  5
42CD
331
42D6
  5
42CE
331
42D7
  5
42CF
331
42D8
  5
42D0
331
42D9
  5
42D1
331
42DA
  5
42D2
331
42DB
  5
42D3
331
42DC
  5
42D4
331
42DD
  5
42D5
331
42DE
  5
42D6
331
42DF
  5
42D7
331
42E0
  5
42D8
331
42E1
  5
42D9
331
42E2
  5
42DA
331
42E3
  5
42DB
331
42E4
  5
42DC
331
42E5
  5
42DD
331
42E6
  5
42DE
331
42E7
  5
42DF
331
42E8
  5
42E0
331
42E9
  5
42E1
331
42EA
  5
42E2
331
42EB
  5
42E3
331
42EC
  5
42E4
331
42ED
  5
42E5
331
42EE
  5
42E6
331
42EF
  5
42E7
331
42F0
  5
42E8
331
42F1
  5
42E9
331
42F2
  5
42EA
331
42F3
  5
42EB
331
42F4
  5
42EC
331
42F5
  5
42ED
331
42F6
  5
42EE
331
42F7
  5
42EF
331
42F8
  5
42F0
331
42F9
  5
42F1
331
42FA
  5
42F2
331
42FB
  5
42F3
331
42FC
  5
42F4
331
42FD
  5
42F5
331
42FE
  5
42F6
331
42FF
  5
42F7
331
4300
  5
42FB
331
4301
  5
42FC
331
4302
  5
42FD
331
4303
  5
42FE
331
4304
  5
4301
331
4305
  5
4302
331
4306
  5
4303
331
4307
  5
4304
  0
ACDBDETAILVIEWSTYLE
  5
3DE8
102
{ACAD_XDICTIONARY
360
446B
102
}
102
{ACAD_REACTORS
330
3DE7
102
}
330
3DE7
100
AcDbModelDocViewStyle
 70
     0
  3
Metric50
290
     0
100
AcDbDetailViewStyle
 70
     0
 71
     0
 90
        3
 71
     1
340
11
 40
5.0
340
0
 40
5.0
300

 40
0.0
280
     1
 71
     2
340
16
 90
       25
 71
     3
340
11
 40
5.0
 90
        0
 40
15.0
 90
        1
300
%<\AcVar ViewDetailId>% (%<\AcVar ViewScale \f "%sn">%)
 71
     4
340
16
 90
       25
340
16
 90
       25
280
     0
1001
ACAD
1000
AcRTDxfName
1000
ACDBDETAILVIEWSTYLE
  0
LAYOUT
  5
22
102
{ACAD_XDICTIONARY
360
442D
102
}
102
{ACAD_REACTORS
330
1A
102
}
330
1A
100
AcDbPlotSettings
  1

  2
Canon LBP3800 LIPSLX
  4
A4
  6

 40
5.873749732971191
 41
5.873747825622558
 42
5.873748779296875
 43
5.873748779296875
 44
209.9733276367187
 45
296.9259948730469
 46
0.61
 47
0.59
 48
444.9983463649091
 49
-1090.000000918417
140
2395.001653364909
141
1659.999999081583
142
1.0
143
10.0
 70
 11940
 72
     1
 73
     1
 74
     2
  7
monochrome.ctb
 75
     0
147
0.1
148
0.0
149
0.0
100
AcDbLayout
  1
Model
 70
     1
 71
     0
 10
0.0
 20
0.0
 11
12.0
 21
9.0
 12
0.0
 22
0.0
 32
0.0
 14
0.0
 24
0.0
 34
0.0
 15
0.0
 25
0.0
 35
0.0
146
0.0
 13
0.0
 23
0.0
 33
0.0
 16
1.0
 26
0.0
 36
0.0
 17
0.0
 27
1.0
 37
0.0
 76
     0
330
1F
331
3C4E
  0
LAYOUT
  5
1CD1
102
{ACAD_XDICTIONARY
360
442F
102
}
102
{ACAD_REACTORS
330
1A
102
}
330
1A
100
AcDbPlotSettings
  1

  2
\\ek_srv\Canon LBP-880 LIPS4
  4

  6

 40
0.0
 41
0.0
 42
0.0
 43
0.0
 44
0.0
 45
0.0
 46
0.0
 47
0.0
 48
0.0
 49
0.0
140
0.0
141
0.0
142
1.0
143
1.0
 70
   688
 72
     0
 73
     0
 74
     5
  7
monochrome.ctb
 75
    16
147
1.0
148
0.0
149
0.0
100
AcDbLayout
  1
\U+FF9A\U+FF72\U+FF71\U+FF73\U+FF841
 70
     1
 71
     1
 10
0.0
 20
0.0
 11
12.0
 21
9.0
 12
0.0
 22
0.0
 32
0.0
 14
0.0
 24
0.0
 34
0.0
 15
0.0
 25
0.0
 35
0.0
146
0.0
 13
0.0
 23
0.0
 33
0.0
 16
1.0
 26
0.0
 36
0.0
 17
0.0
 27
1.0
 37
0.0
 76
     0
330
1CD0
  0
MATERIAL
  5
3C59
102
{ACAD_XDICTIONARY
360
3C5A
102
}
102
{ACAD_REACTORS
330
3C50
102
}
330
3C50
100
AcDbMaterial
  1
ByBlock
 72
     0
 43
0.0008202099737533
 43
0.0
 43
0.0
 43
0.0
 43
0.0
 43
0.0008202099737533
 43
0.0
 43
0.0
 43
0.0
 43
0.0
 43
1.0
 43
0.0
 43
0.0
 43
0.0
 43
0.0
 43
1.0
 77
     0
 47
0.0008202099737533
 47
0.0
 47
0.0
 47
0.0
 47
0.0
 47
0.0008202099737533
 47
0.0
 47
0.0
 47
0.0
 47
0.0
 47
1.0
 47
0.0
 47
0.0
 47
0.0
 47
0.0
 47
1.0
171
     0
 49
0.0008202099737533
 49
0.0
 49
0.0
 49
0.0
 49
0.0
 49
0.0008202099737533
 49
0.0
 49
0.0
 49
0.0
 49
0.0
 49
1.0
 49
0.0
 49
0.0
 49
0.0
 49
0.0
 49
1.0
175
     0
142
0.0008202099737533
142
0.0
142
0.0
142
0.0
142
0.0
142
0.0008202099737533
142
0.0
142
0.0
142
0.0
142
0.0
142
1.0
142
0.0
142
0.0
142
0.0
142
0.0
142
1.0
179
     0
144
0.0008202099737533
144
0.0
144
0.0
144
0.0
144
0.0
144
0.0008202099737533
144
0.0
144
0.0
144
0.0
144
0.0
144
1.0
144
0.0
144
0.0
144
0.0
144
0.0
144
1.0
147
0.0008202099737533
147
0.0
147
0.0
147
0.0
147
0.0
147
0.0008202099737533
147
0.0
147
0.0
147
0.0
147
0.0
147
1.0
147
0.0
147
0.0
147
0.0
147
0.0
147
1.0
  0
MATERIAL
  5
3C51
102
{ACAD_XDICTIONARY
360
3C52
102
}
102
{ACAD_REACTORS
330
3C50
102
}
330
3C50
100
AcDbMaterial
  1
ByLayer
 72
     0
 43
0.0008202099737533
 43
0.0
 43
0.0
 43
0.0
 43
0.0
 43
0.0008202099737533
 43
0.0
 43
0.0
 43
0.0
 43
0.0
 43
1.0
 43
0.0
 43
0.0
 43
0.0
 43
0.0
 43
1.0
 77
     0
 47
0.0008202099737533
 47
0.0
 47
0.0
 47
0.0
 47
0.0
 47
0.0008202099737533
 47
0.0
 47
0.0
 47
0.0
 47
0.0
 47
1.0
 47
0.0
 47
0.0
 47
0.0
 47
0.0
 47
1.0
171
     0
 49
0.0008202099737533
 49
0.0
 49
0.0
 49
0.0
 49
0.0
 49
0.0008202099737533
 49
0.0
 49
0.0
 49
0.0
 49
0.0
 49
1.0
 49
0.0
 49
0.0
 49
0.0
 49
0.0
 49
1.0
175
     0
142
0.0008202099737533
142
0.0
142
0.0
142
0.0
142
0.0
142
0.0008202099737533
142
0.0
142
0.0
142
0.0
142
0.0
142
1.0
142
0.0
142
0.0
142
0.0
142
0.0
142
1.0
179
     0
144
0.0008202099737533
144
0.0
144
0.0
144
0.0
144
0.0
144
0.0008202099737533
144
0.0
144
0.0
144
0.0
144
0.0
144
1.0
144
0.0
144
0.0
144
0.0
144
0.0
144
1.0
147
0.0008202099737533
147
0.0
147
0.0
147
0.0
147
0.0
147
0.0008202099737533
147
0.0
147
0.0
147
0.0
147
0.0
147
1.0
147
0.0
147
0.0
147
0.0
147
0.0
147
1.0
  0
MATERIAL
  5
3C61
102
{ACAD_XDICTIONARY
360
3C62
102
}
102
{ACAD_REACTORS
330
3C50
102
}
330
3C50
100
AcDbMaterial
  1
Global
 72
     0
 43
0.0008202099737533
 43
0.0
 43
0.0
 43
0.0
 43
0.0
 43
0.0008202099737533
 43
0.0
 43
0.0
 43
0.0
 43
0.0
 43
1.0
 43
0.0
 43
0.0
 43
0.0
 43
0.0
 43
1.0
 77
     0
 47
0.0008202099737533
 47
0.0
 47
0.0
 47
0.0
 47
0.0
 47
0.0008202099737533
 47
0.0
 47
0.0
 47
0.0
 47
0.0
 47
1.0
 47
0.0
 47
0.0
 47
0.0
 47
0.0
 47
1.0
171
     0
 49
0.0008202099737533
 49
0.0
 49
0.0
 49
0.0
 49
0.0
 49
0.0008202099737533
 49
0.0
 49
0.0
 49
0.0
 49
0.0
 49
1.0
 49
0.0
 49
0.0
 49
0.0
 49
0.0
 49
1.0
175
     0
142
0.0008202099737533
142
0.0
142
0.0
142
0.0
142
0.0
142
0.0008202099737533
142
0.0
142
0.0
142
0.0
142
0.0
142
1.0
142
0.0
142
0.0
142
0.0
142
0.0
142
1.0
179
     0
144
0.0008202099737533
144
0.0
144
0.0
144
0.0
144
0.0
144
0.0008202099737533
144
0.0
144
0.0
144
0.0
144
0.0
144
1.0
144
0.0
144
0.0
144
0.0
144
0.0
144
1.0
147
0.0008202099737533
147
0.0
147
0.0
147
0.0
147
0.0
147
0.0008202099737533
147
0.0
147
0.0
147
0.0
147
0.0
147
1.0
147
0.0
147
0.0
147
0.0
147
0.0
147
1.0
  0
MLEADERSTYLE
  5
3C93
102
{ACAD_REACTORS
330
3C92
102
}
330
3C92
100
AcDbMLeaderStyle
170
     2
171
     1
172
     0
 90
        2
 40
0.0
 41
0.0
173
     1
 91
-1056964608
340
14
 92
       -2
290
     1
 42
2.0
291
     1
 43
0.36
  3
Standard
 44
4.0
300

342
11
174
     1
178
     6
175
     1
176
     0
 93
-1056964608
 45
4.0
292
     0
297
     0
 46
4.0
 94
-1056964608
 47
1.0
 49
1.0
140
1.0
293
     1
141
0.0
294
     1
177
     0
142
1.0
295
     0
296
     0
143
0.125
1001
ACAD_MLEADERVER
1070
     2
  0
MLINESTYLE
  5
18
102
{ACAD_REACTORS
330
17
102
}
330
17
100
AcDbMlineStyle
  2
STANDARD
 70
     0
  3

 62
   256
 51
90.0
 52
90.0
 71
     2
 49
0.5
 62
   256
  6
BYLAYER
 49
-0.5
 62
   256
  6
BYLAYER
  0
ACDBPLACEHOLDER
  5
F
102
{ACAD_REACTORS
330
E
102
}
330
E
  0
ACDBPLACEHOLDER
  5
29
102
{ACAD_REACTORS
330
E
102
}
330
E
  0
SCALE
  5
3C81
102
{ACAD_REACTORS
330
3C80
102
}
330
3C80
100
AcDbScale
 70
     0
300
1:1
140
1.0
141
1.0
290
     1
  0
SCALE
  5
3C82
102
{ACAD_REACTORS
330
3C80
102
}
330
3C80
100
AcDbScale
 70
     0
300
1:2
140
1.0
141
2.0
290
     0
  0
SCALE
  5
3C83
102
{ACAD_REACTORS
330
3C80
102
}
330
3C80
100
AcDbScale
 70
     0
300
1:4
140
1.0
141
4.0
290
     0
  0
SCALE
  5
3C84
102
{ACAD_REACTORS
330
3C80
102
}
330
3C80
100
AcDbScale
 70
     0
300
1:5
140
1.0
141
5.0
290
     0
  0
SCALE
  5
3C85
102
{ACAD_REACTORS
330
3C80
102
}
330
3C80
100
AcDbScale
 70
     0
300
1:8
140
1.0
141
8.0
290
     0
  0
SCALE
  5
3C86
102
{ACAD_REACTORS
330
3C80
102
}
330
3C80
100
AcDbScale
 70
     0
300
1:10
140
1.0
141
10.0
290
     0
  0
SCALE
  5
3C87
102
{ACAD_REACTORS
330
3C80
102
}
330
3C80
100
AcDbScale
 70
     0
300
1:16
140
1.0
141
16.0
290
     0
  0
SCALE
  5
3C88
102
{ACAD_REACTORS
330
3C80
102
}
330
3C80
100
AcDbScale
 70
     0
300
1:20
140
1.0
141
20.0
290
     0
  0
SCALE
  5
3C89
102
{ACAD_REACTORS
330
3C80
102
}
330
3C80
100
AcDbScale
 70
     0
300
1:30
140
1.0
141
30.0
290
     0
  0
SCALE
  5
3C8A
102
{ACAD_REACTORS
330
3C80
102
}
330
3C80
100
AcDbScale
 70
     0
300
1:40
140
1.0
141
40.0
290
     0
  0
SCALE
  5
3C8B
102
{ACAD_REACTORS
330
3C80
102
}
330
3C80
100
AcDbScale
 70
     0
300
1:50
140
1.0
141
50.0
290
     0
  0
SCALE
  5
3C8C
102
{ACAD_REACTORS
330
3C80
102
}
330
3C80
100
AcDbScale
 70
     0
300
1:100
140
1.0
141
100.0
290
     0
  0
SCALE
  5
3C8D
102
{ACAD_REACTORS
330
3C80
102
}
330
3C80
100
AcDbScale
 70
     0
300
2:1
140
2.0
141
1.0
290
     0
  0
SCALE
  5
3C8E
102
{ACAD_REACTORS
330
3C80
102
}
330
3C80
100
AcDbScale
 70
     0
300
4:1
140
4.0
141
1.0
290
     0
  0
SCALE
  5
3C8F
102
{ACAD_REACTORS
330
3C80
102
}
330
3C80
100
AcDbScale
 70
     0
300
8:1
140
8.0
141
1.0
290
     0
  0
SCALE
  5
3C90
102
{ACAD_REACTORS
330
3C80
102
}
330
3C80
100
AcDbScale
 70
     0
300
10:1
140
10.0
141
1.0
290
     0
  0
SCALE
  5
3C91
102
{ACAD_REACTORS
330
3C80
102
}
330
3C80
100
AcDbScale
 70
     0
300
100:1
140
100.0
141
1.0
290
     0
  0
ACDBSECTIONVIEWSTYLE
  5
3DE6
102
{ACAD_XDICTIONARY
360
4469
102
}
102
{ACAD_REACTORS
330
3DE5
102
}
330
3DE5
100
AcDbModelDocViewStyle
 70
     0
  3
Metric50
290
     0
100
AcDbSectionViewStyle
 70
     0
 71
     0
 90
      102
 71
     1
340
11
 40
5.0
340
0
340
0
 40
5.0
300
I, O, Q, S, X, Z
 40
10.0
 90
        0
 40
2.5
 90
        0
 71
     2
340
16
 90
       25
340
16
 90
       50
 40
5.0
 40
2.5
 40
5.0
 71
     3
340
11
 40
5.0
 90
        0
 40
15.0
 90
        1
300
%<\AcVar ViewSectionStartId>%-%<\AcVar ViewSectionEndId>% (%<\AcVar ViewScale \f "%sn">%)
 71
     4
300
ANSI31
 40
1.0
 90
        0
290
     0
290
     0
 90
        6
 40
0.0
 40
1.570796326794896
 40
0.2617993877991494
 40
1.308996938995747
 40
-0.2617993877991494
 40
1.832595714594046
1001
ACAD
1000
AcRTDxfName
1000
ACDBSECTIONVIEWSTYLE
  0
TABLESTYLE
  5
3C7F
102
{ACAD_XDICTIONARY
360
3CFA
102
}
102
{ACAD_REACTORS
330
3C7E
102
}
330
3C7E
100
AcDbTableStyle
  3
Standard
 70
     0
 71
     0
 40
1.5
 41
1.5
280
     0
281
     0
  7
Standard
140
4.5
170
     2
 62
     0
 63
     7
283
     0
274
    -2
284
     1
 64
     0
275
    -2
285
     1
 65
     0
276
    -2
286
     1
 66
     0
277
    -2
287
     1
 67
     0
278
    -2
288
     1
 68
     0
279
    -2
289
     1
 69
     0
  7
Standard
140
6.0
170
     5
 62
     0
 63
     7
283
     0
274
    -2
284
     1
 64
     0
275
    -2
285
     1
 65
     0
276
    -2
286
     1
 66
     0
277
    -2
287
     1
 67
     0
278
    -2
288
     1
 68
     0
279
    -2
289
     1
 69
     0
  7
Standard
140
4.5
170
     5
 62
     0
 63
     7
283
     0
274
    -2
284
     1
 64
     0
275
    -2
285
     1
 65
     0
276
    -2
286
     1
 66
     0
277
    -2
287
     1
 67
     0
278
    -2
288
     1
 68
     0
279
    -2
289
     1
 69
     0
  0
VISUALSTYLE
  5
3C6F
102
{ACAD_XDICTIONARY
360
443E
102
}
102
{ACAD_REACTORS
330
3C69
102
}
330
3C69
100
AcDbVisualStyle
  2
2dWireframe
 70
     4
 71
     0
 72
     2
 73
     0
 90
        0
 40
-0.6
 41
-30.0
 62
     5
 63
     7
 74
     1
 91
        4
 64
     7
 65
   257
 75
     1
175
     1
 42
1.0
 92
        0
 66
   257
 43
1.0
 76
     1
 77
     6
 78
     2
 67
     7
 79
     5
170
     0
171
     0
290
     0
174
     0
 93
        1
 44
0.0
173
     0
291
     0
 45
0.0
1001
ACAD
1000
AcDbSavedByObjectVersion
1070
     0
  0
VISUALSTYLE
  5
3C71
102
{ACAD_XDICTIONARY
360
4442
102
}
102
{ACAD_REACTORS
330
3C69
102
}
330
3C69
100
AcDbVisualStyle
  2
3D Hidden
 70
     6
 71
     1
 72
     2
 73
     2
 90
        0
 40
-0.6
 41
-30.0
 62
     5
 63
     7
 74
     2
 91
        2
 64
     7
 65
   257
 75
     2
175
     1
 42
179.0
 92
        0
 66
   257
 43
1.0
 76
     1
 77
     6
 78
     2
 67
     7
 79
     3
170
     0
171
     0
290
     0
174
     0
 93
        1
 44
0.0
173
     0
291
     0
 45
0.0
1001
ACAD
1000
AcDbSavedByObjectVersion
1070
     0
  0
VISUALSTYLE
  5
3C70
102
{ACAD_XDICTIONARY
360
4440
102
}
102
{ACAD_REACTORS
330
3C69
102
}
330
3C69
100
AcDbVisualStyle
  2
3dWireframe
 70
     5
 71
     0
 72
     2
 73
     0
 90
        0
 40
-0.6
 41
-30.0
 62
     5
 63
     7
 74
     1
 91
        4
 64
     7
 65
   257
 75
     1
175
     1
 42
1.0
 92
        0
 66
   257
 43
1.0
 76
     1
 77
     6
 78
     2
 67
     7
 79
     5
170
     0
171
     0
290
     0
174
     0
 93
        1
 44
0.0
173
     0
291
     0
 45
0.0
1001
ACAD
1000
AcDbSavedByObjectVersion
1070
     0
  0
VISUALSTYLE
  5
3C6E
102
{ACAD_XDICTIONARY
360
443C
102
}
102
{ACAD_REACTORS
330
3C69
102
}
330
3C69
100
AcDbVisualStyle
  2
Basic
 70
     7
 71
     1
 72
     0
 73
     1
 90
        0
 40
-0.6
 41
-30.0
 62
     5
 63
     7
 74
     0
 91
        4
 64
     7
 65
   257
 75
     1
175
     1
 42
1.0
 92
        8
 66
     7
 43
1.0
 76
     1
 77
     6
 78
     2
 67
     7
 79
     5
170
     0
171
     0
290
     0
174
     0
 93
        1
 44
0.0
173
     0
291
     1
 45
0.0
1001
ACAD
1000
AcDbSavedByObjectVersion
1070
     0
  0
VISUALSTYLE
  5
3C75
102
{ACAD_XDICTIONARY
360
444A
102
}
102
{ACAD_REACTORS
330
3C69
102
}
330
3C69
100
AcDbVisualStyle
  2
Brighten
 70
    12
 71
     2
 72
     2
 73
     0
 90
        0
 40
-0.6
 41
-30.0
 62
     5
 63
     7
 74
     1
 91
        4
 64
     7
 65
   257
 75
     1
175
     1
 42
1.0
 92
        8
 66
     7
 43
1.0
 76
     1
 77
     6
 78
     2
 67
     7
 79
     5
170
     0
171
     0
290
     0
174
     0
 93
        1
 44
50.0
173
     0
291
     1
 45
0.0
1001
ACAD
1000
AcDbSavedByObjectVersion
1070
     0
  0
VISUALSTYLE
  5
3C79
102
{ACAD_XDICTIONARY
360
4452
102
}
102
{ACAD_REACTORS
330
3C69
102
}
330
3C69
100
AcDbVisualStyle
  2
ColorChange
 70
    16
 71
     2
 72
     2
 73
     3
 90
        0
 40
-0.6
 41
-30.0
 62
     5
 63
     8
 74
     1
 91
        4
 64
     7
 65
   257
 75
     1
175
     1
 42
1.0
 92
        8
 66
     8
 43
1.0
 76
     1
 77
     6
 78
     2
 67
     7
 79
     5
170
     0
171
     0
290
     0
174
     0
 93
        1
 44
0.0
173
     0
291
     1
 45
0.0
1001
ACAD
1000
AcDbSavedByObjectVersion
1070
     0
  0
VISUALSTYLE
  5
3C72
102
{ACAD_XDICTIONARY
360
4444
102
}
102
{ACAD_REACTORS
330
3C69
102
}
330
3C69
100
AcDbVisualStyle
  2
Conceptual
 70
     9
 71
     3
 72
     2
 73
     0
 90
        0
 40
-0.6
 41
-30.0
 62
     5
 63
     7
 74
     2
 91
        2
 64
     7
 65
   257
 75
     1
175
     1
 42
179.0
 92
        8
 66
     7
 43
1.0
 76
     1
 77
     6
 78
     2
 67
     7
 79
     3
170
     0
171
     0
290
     0
174
     0
 93
        1
 44
0.0
173
     0
291
     0
 45
0.0
1001
ACAD
1000
AcDbSavedByObjectVersion
1070
     0
  0
VISUALSTYLE
  5
3C74
102
{ACAD_XDICTIONARY
360
4448
102
}
102
{ACAD_REACTORS
330
3C69
102
}
330
3C69
100
AcDbVisualStyle
  2
Dim
 70
    11
 71
     2
 72
     2
 73
     0
 90
        0
 40
-0.6
 41
-30.0
 62
     5
 63
     7
 74
     1
 91
        4
 64
     7
 65
   257
 75
     1
175
     1
 42
1.0
 92
        8
 66
     7
 43
1.0
 76
     1
 77
     6
 78
     2
 67
     7
 79
     5
170
     0
171
     0
290
     0
174
     0
 93
        1
 44
-50.0
173
     0
291
     1
 45
0.0
1001
ACAD
1000
AcDbSavedByObjectVersion
1070
     0
  0
VISUALSTYLE
  5
3C7C
102
{ACAD_XDICTIONARY
360
4458
102
}
102
{ACAD_REACTORS
330
3C69
102
}
330
3C69
100
AcDbVisualStyle
  2
EdgeColorOff
 70
    22
 71
     2
 72
     2
 73
     0
 90
        0
 40
-0.6
 41
-30.0
 62
     5
 63
     7
 74
     1
 91
        4
 64
     7
 65
   257
 75
     1
175
     1
 42
1.0
 92
        8
 66
     7
 43
1.0
 76
     1
 77
     6
 78
     2
 67
     7
 79
     5
170
     0
171
     0
290
     0
174
     0
 93
        1
 44
0.0
173
     0
291
     1
 45
0.0
1001
ACAD
1000
AcDbSavedByObjectVersion
1070
     0
  0
VISUALSTYLE
  5
3C78
102
{ACAD_XDICTIONARY
360
4450
102
}
102
{ACAD_REACTORS
330
3C69
102
}
330
3C69
100
AcDbVisualStyle
  2
Facepattern
 70
    15
 71
     2
 72
     2
 73
     0
 90
        0
 40
-0.6
 41
-30.0
 62
     5
 63
     7
 74
     1
 91
        4
 64
     7
 65
   257
 75
     1
175
     1
 42
1.0
 92
        8
 66
     7
 43
1.0
 76
     1
 77
     6
 78
     2
 67
     7
 79
     5
170
     0
171
     0
290
     0
174
     0
 93
        1
 44
0.0
173
     0
291
     1
 45
0.0
1001
ACAD
1000
AcDbSavedByObjectVersion
1070
     0
  0
VISUALSTYLE
  5
3C6A
102
{ACAD_XDICTIONARY
360
4434
102
}
102
{ACAD_REACTORS
330
3C69
102
}
330
3C69
100
AcDbVisualStyle
  2
Flat
 70
     0
 71
     2
 72
     1
 73
     1
 90
        2
 40
-0.6
 41
30.0
 62
     5
 63
     7
 74
     0
 91
        4
 64
     7
 65
   257
 75
     1
175
     1
 42
1.0
 92
        8
 66
     7
 43
1.0
 76
     1
 77
     6
 78
     2
 67
     7
 79
     5
170
     0
171
     0
290
     0
174
     0
 93
       13
 44
0.0
173
     0
291
     1
 45
0.0
1001
ACAD
1000
AcDbSavedByObjectVersion
1070
     0
  0
VISUALSTYLE
  5
3C6B
102
{ACAD_XDICTIONARY
360
4436
102
}
102
{ACAD_REACTORS
330
3C69
102
}
330
3C69
100
AcDbVisualStyle
  2
FlatWithEdges
 70
     1
 71
     2
 72
     1
 73
     1
 90
        2
 40
-0.6
 41
30.0
 62
     5
 63
     7
 74
     1
 91
        4
 64
     7
 65
   257
 75
     1
175
     1
 42
1.0
 92
        0
 66
   257
 43
1.0
 76
     1
 77
     6
 78
     2
 67
     7
 79
     5
170
     0
171
     0
290
     0
174
     0
 93
       13
 44
0.0
173
     0
291
     1
 45
0.0
1001
ACAD
1000
AcDbSavedByObjectVersion
1070
     0
  0
VISUALSTYLE
  5
3C6C
102
{ACAD_XDICTIONARY
360
4438
102
}
102
{ACAD_REACTORS
330
3C69
102
}
330
3C69
100
AcDbVisualStyle
  2
Gouraud
 70
     2
 71
     2
 72
     2
 73
     1
 90
        2
 40
-0.6
 41
30.0
 62
     5
 63
     7
 74
     0
 91
        4
 64
     7
 65
   257
 75
     1
175
     1
 42
1.0
 92
        0
 66
     7
 43
1.0
 76
     1
 77
     6
 78
     2
 67
     7
 79
     5
170
     0
171
     0
290
     0
174
     0
 93
       13
 44
0.0
173
     0
291
     1
 45
0.0
1001
ACAD
1000
AcDbSavedByObjectVersion
1070
     0
  0
VISUALSTYLE
  5
3C6D
102
{ACAD_XDICTIONARY
360
443A
102
}
102
{ACAD_REACTORS
330
3C69
102
}
330
3C69
100
AcDbVisualStyle
  2
GouraudWithEdges
 70
     3
 71
     2
 72
     2
 73
     1
 90
        2
 40
-0.6
 41
30.0
 62
     5
 63
     7
 74
     1
 91
        4
 64
     7
 65
   257
 75
     1
175
     1
 42
1.0
 92
        0
 66
   257
 43
1.0
 76
     1
 77
     6
 78
     2
 67
     7
 79
     5
170
     0
171
     0
290
     0
174
     0
 93
       13
 44
0.0
173
     0
291
     1
 45
0.0
1001
ACAD
1000
AcDbSavedByObjectVersion
1070
     0
  0
VISUALSTYLE
  5
3DDF
102
{ACAD_XDICTIONARY
360
445D
102
}
102
{ACAD_REACTORS
330
3C69
102
}
330
3C69
100
AcDbVisualStyle
  2
Hidden
 70
     6
 71
     1
 72
     2
 73
     2
 90
        0
 40
-0.6
 41
-30.0
 62
     5
 63
     7
 74
     2
 91
        2
 64
     7
 65
   257
 75
     2
175
     1
 42
40.0
 92
        0
 66
   257
 43
1.0
 76
     1
 77
     6
 78
     2
 67
     7
 79
     3
170
     0
171
     0
290
     0
174
     0
 93
        1
 44
0.0
173
     0
291
     0
 45
0.0
1001
ACAD
1000
AcDbSavedByObjectVersion
1070
     0
  0
VISUALSTYLE
  5
3C7A
102
{ACAD_XDICTIONARY
360
4454
102
}
102
{ACAD_REACTORS
330
3C69
102
}
330
3C69
100
AcDbVisualStyle
  2
JitterOff
 70
    20
 71
     2
 72
     2
 73
     0
 90
        0
 40
-0.6
 41
-30.0
 62
     5
 63
     7
 74
     1
 91
        4
 64
     7
 65
   257
 75
     1
175
     1
 42
1.0
 92
       10
 66
     7
 43
1.0
 76
     1
 77
     6
 78
     2
 67
     7
 79
     5
170
     0
171
     0
290
     0
174
     0
 93
        1
 44
0.0
173
     0
291
     1
 45
0.0
1001
ACAD
1000
AcDbSavedByObjectVersion
1070
     0
  0
VISUALSTYLE
  5
3C77
102
{ACAD_XDICTIONARY
360
444E
102
}
102
{ACAD_REACTORS
330
3C69
102
}
330
3C69
100
AcDbVisualStyle
  2
Linepattern
 70
    14
 71
     2
 72
     2
 73
     0
 90
        0
 40
-0.6
 41
-30.0
 62
     5
 63
     7
 74
     1
 91
        4
 64
     7
 65
   257
 75
     7
175
     7
 42
1.0
 92
        8
 66
     7
 43
1.0
 76
     1
 77
     6
 78
     2
 67
     7
 79
     5
170
     0
171
     0
290
     0
174
     0
 93
        1
 44
0.0
173
     0
291
     1
 45
0.0
1001
ACAD
1000
AcDbSavedByObjectVersion
1070
     0
  0
VISUALSTYLE
  5
3C7B
102
{ACAD_XDICTIONARY
360
4456
102
}
102
{ACAD_REACTORS
330
3C69
102
}
330
3C69
100
AcDbVisualStyle
  2
OverhangOff
 70
    21
 71
     2
 72
     2
 73
     0
 90
        0
 40
-0.6
 41
-30.0
 62
     5
 63
     7
 74
     1
 91
        4
 64
     7
 65
   257
 75
     1
175
     1
 42
1.0
 92
        9
 66
     7
 43
1.0
 76
     1
 77
     6
 78
     2
 67
     7
 79
     5
170
     0
171
     0
290
     0
174
     0
 93
        1
 44
0.0
173
     0
291
     1
 45
0.0
1001
ACAD
1000
AcDbSavedByObjectVersion
1070
     0
  0
VISUALSTYLE
  5
3C73
102
{ACAD_XDICTIONARY
360
4446
102
}
102
{ACAD_REACTORS
330
3C69
102
}
330
3C69
100
AcDbVisualStyle
  2
Realistic
 70
     8
 71
     2
 72
     2
 73
     0
 90
        0
 40
-0.6
 41
-30.0
 62
     5
 63
     7
 74
     1
 91
        0
 64
     7
 65
   257
 75
     1
175
     1
 42
1.0
 92
        8
 66
     8
 43
1.0
 76
     1
 77
     6
 78
     2
 67
     7
 79
     5
170
     0
171
     0
290
     0
174
     0
 93
       13
 44
0.0
173
     0
291
     0
 45
0.0
1001
ACAD
1000
AcDbSavedByObjectVersion
1070
     0
  0
VISUALSTYLE
  5
3DE4
102
{ACAD_XDICTIONARY
360
4467
102
}
102
{ACAD_REACTORS
330
3C69
102
}
330
3C69
100
AcDbVisualStyle
  2
Shaded
 70
    27
 71
     2
 72
     2
 73
     1
 90
        2
 40
-0.6
 41
30.0
 62
     5
 63
     7
 74
     0
 91
        4
 64
     7
 65
   257
 75
     1
175
     1
 42
1.0
 92
        8
 66
   257
 43
1.0
 76
     1
 77
     6
 78
     2
 67
     8
 79
     3
170
     0
171
     0
290
     0
174
     0
 93
        5
 44
0.0
173
     0
291
     0
 45
0.0
1001
ACAD
1000
AcDbSavedByObjectVersion
1070
     0
  0
VISUALSTYLE
  5
3DE3
102
{ACAD_XDICTIONARY
360
4465
102
}
102
{ACAD_REACTORS
330
3C69
102
}
330
3C69
100
AcDbVisualStyle
  2
Shaded with edges
 70
    26
 71
     2
 72
     2
 73
     1
 90
        2
 40
-0.6
 41
30.0
 62
     5
 63
     7
 74
     1
 91
        2
 64
     7
 65
   257
 75
     2
175
     1
 42
1.0
 92
        8
 66
   257
 43
1.0
 76
     1
 77
     6
 78
     2
 67
     7
 79
     3
170
     0
171
     0
290
     0
174
     0
 93
        5
 44
0.0
173
     0
291
     0
 45
0.0
1001
ACAD
1000
AcDbSavedByObjectVersion
1070
     0
  0
VISUALSTYLE
  5
3DE0
102
{ACAD_XDICTIONARY
360
445F
102
}
102
{ACAD_REACTORS
330
3C69
102
}
330
3C69
100
AcDbVisualStyle
  2
Shades of Gray
 70
    23
 71
     2
 72
     2
 73
     3
 90
        0
 40
-0.6
 41
-30.0
 62
     5
 63
     7
 74
     2
 91
        2
 64
     7
 65
     7
 75
     1
175
     1
 42
40.0
 92
        8
 66
     7
 43
1.0
 76
     1
 77
     6
 78
     2
 67
     7
 79
     3
170
     0
171
     0
290
     0
174
     0
 93
        1
 44
0.0
173
     0
291
     0
 45
0.0
1001
ACAD
1000
AcDbSavedByObjectVersion
1070
     0
  0
VISUALSTYLE
  5
3DE1
102
{ACAD_XDICTIONARY
360
4461
102
}
102
{ACAD_REACTORS
330
3C69
102
}
330
3C69
100
AcDbVisualStyle
  2
Sketchy
 70
    24
 71
     1
 72
     2
 73
     2
 90
        0
 40
-0.6
 41
-30.0
 62
     5
 63
     7
 74
     2
 91
        2
 64
     7
 65
     7
 75
     1
175
     1
 42
40.0
 92
       11
 66
     7
 43
1.0
 76
     1
 77
     6
 78
     2
 67
     7
 79
     6
170
     0
171
     0
290
     0
174
     0
 93
        1
 44
0.0
173
     0
291
     0
 45
0.0
1001
ACAD
1000
AcDbSavedByObjectVersion
1070
     0
  0
VISUALSTYLE
  5
3C76
102
{ACAD_XDICTIONARY
360
444C
102
}
102
{ACAD_REACTORS
330
3C69
102
}
330
3C69
100
AcDbVisualStyle
  2
Thicken
 70
    13
 71
     2
 72
     2
 73
     0
 90
        0
 40
-0.6
 41
-30.0
 62
     5
 63
     7
 74
     1
 91
        4
 64
     7
 65
   257
 75
     1
175
     1
 42
1.0
 92
       12
 66
     7
 43
1.0
 76
     1
 77
     6
 78
     2
 67
     7
 79
     5
170
     0
171
     0
290
     0
174
     0
 93
        1
 44
0.0
173
     0
291
     1
 45
0.0
1001
ACAD
1000
AcDbSavedByObjectVersion
1070
     0
  0
VISUALSTYLE
  5
3DDE
102
{ACAD_XDICTIONARY
360
445B
102
}
102
{ACAD_REACTORS
330
3C69
102
}
330
3C69
100
AcDbVisualStyle
  2
Wireframe
 70
     5
 71
     0
 72
     2
 73
     0
 90
        0
 40
-0.6
 41
-30.0
 62
     5
 63
     7
 74
     1
 91
        4
 64
     7
 65
   257
 75
     1
175
     1
 42
1.0
 92
        0
 66
   257
 43
1.0
 76
     1
 77
     6
 78
     2
 67
     7
 79
     3
170
     0
171
     0
290
     0
174
     0
 93
        1
 44
0.0
173
     0
291
     0
 45
0.0
1001
ACAD
1000
AcDbSavedByObjectVersion
1070
     0
  0
VISUALSTYLE
  5
3DE2
102
{ACAD_XDICTIONARY
360
4463
102
}
102
{ACAD_REACTORS
330
3C69
102
}
330
3C69
100
AcDbVisualStyle
  2
X-Ray
 70
    25
 71
     2
 72
     2
 73
     1
 90
        1
 40
0.5
 41
-30.0
 62
     5
 63
     7
 74
     1
 91
        0
 64
     7
 65
   257
 75
     1
175
     1
 42
1.0
 92
        8
 66
     7
 43
1.0
 76
     1
 77
     6
 78
     2
 67
     7
 79
     3
170
     0
171
     0
290
     0
174
     0
 93
       13
 44
0.0
173
     0
291
     0
 45
0.0
1001
ACAD
1000
AcDbSavedByObjectVersion
1070
     0
  0
DICTIONARYVAR
  5
3D31
102
{ACAD_REACTORS
330
1835
102
}
330
1835
100
DictionaryVariables
280
     0
  1
1:1
  0
DICTIONARYVAR
  5
3D30
102
{ACAD_REACTORS
330
1835
102
}
330
1835
100
DictionaryVariables
280
     0
  1
STANDARD
  0
DICTIONARYVAR
  5
3D2F
102
{ACAD_REACTORS
330
1835
102
}
330
1835
100
DictionaryVariables
280
     0
  1
STANDARD
  0
DICTIONARYVAR
  5
3E90
102
{ACAD_REACTORS
330
1835
102
}
330
1835
100
DictionaryVariables
280
     0
  1
Metric50
  0
DICTIONARYVAR
  5
3E91
102
{ACAD_REACTORS
330
1835
102
}
330
1835
100
DictionaryVariables
280
     0
  1
Metric50
  0
DICTIONARYVAR
  5
3D33
102
{ACAD_REACTORS
330
1835
102
}
330
1835
100
DictionaryVariables
280
     0
  1
1
  0
DICTIONARYVAR
  5
3D32
102
{ACAD_REACTORS
330
1835
102
}
330
1835
100
DictionaryVariables
280
     0
  1
0
  0
DICTIONARYVAR
  5
1836
102
{ACAD_REACTORS
330
1835
102
}
330
1835
100
DictionaryVariables
280
     0
  1
127
  0
DICTIONARYVAR
  5
4429
102
{ACAD_REACTORS
330
1835
102
}
330
1835
100
DictionaryVariables
280
     0
  1
2
  0
DICTIONARY
  5
446B
330
3DE8
100
AcDbDictionary
280
     1
281
     1
  3
ACAD_XREC_ROUNDTRIP
360
446C
  0
DICTIONARY
  5
442D
330
22
100
AcDbDictionary
280
     1
281
     1
  3
ACAD_XREC_ROUNDTRIP
360
442E
  0
DICTIONARY
  5
442F
330
1CD1
100
AcDbDictionary
280
     1
281
     1
  3
ACAD_XREC_ROUNDTRIP
360
4430
  0
DICTIONARY
  5
3C5A
330
3C59
100
AcDbDictionary
280
     1
281
     1
  3
ACAD_XREC_ROUNDTRIP
360
4432
  3
BUMPTILE
360
3C5C
  3
DIFFUSETILE
360
3C5B
  3
OPACITYTILE
360
3C5F
  3
REFLECTIONTILE
360
3C5E
  3
REFRACTIONTILE
360
3C60
  3
SPECULARTILE
360
3C5D
  0
DICTIONARY
  5
3C52
330
3C51
100
AcDbDictionary
280
     1
281
     1
  3
ACAD_XREC_ROUNDTRIP
360
4431
  3
BUMPTILE
360
3C54
  3
DIFFUSETILE
360
3C53
  3
OPACITYTILE
360
3C57
  3
REFLECTIONTILE
360
3C56
  3
REFRACTIONTILE
360
3C58
  3
SPECULARTILE
360
3C55
  0
DICTIONARY
  5
3C62
330
3C61
100
AcDbDictionary
280
     1
281
     1
  3
ACAD_XREC_ROUNDTRIP
360
4433
  3
BUMPTILE
360
3C64
  3
DIFFUSETILE
360
3C63
  3
OPACITYTILE
360
3C67
  3
REFLECTIONTILE
360
3C66
  3
REFRACTIONTILE
360
3C68
  3
SPECULARTILE
360
3C65
  0
DICTIONARY
  5
4469
330
3DE6
100
AcDbDictionary
280
     1
281
     1
  3
ACAD_XREC_ROUNDTRIP
360
446A
  0
DICTIONARY
  5
3CFA
330
3C7F
100
AcDbDictionary
280
     1
281
     1
  3
ACAD_ROUNDTRIP_2008_TABLESTYLE_CELLSTYLEMAP
360
442A
  3
ACAD_XREC_ROUNDTRIP
360
445A
  0
DICTIONARY
  5
443E
330
3C6F
100
AcDbDictionary
280
     1
281
     1
  3
ACAD_XREC_ROUNDTRIP
360
443F
  0
DICTIONARY
  5
4442
330
3C71
100
AcDbDictionary
280
     1
281
     1
  3
ACAD_XREC_ROUNDTRIP
360
4443
  0
DICTIONARY
  5
4440
330
3C70
100
AcDbDictionary
280
     1
281
     1
  3
ACAD_XREC_ROUNDTRIP
360
4441
  0
DICTIONARY
  5
443C
330
3C6E
100
AcDbDictionary
280
     1
281
     1
  3
ACAD_XREC_ROUNDTRIP
360
443D
  0
DICTIONARY
  5
444A
330
3C75
100
AcDbDictionary
280
     1
281
     1
  3
ACAD_XREC_ROUNDTRIP
360
444B
  0
DICTIONARY
  5
4452
330
3C79
100
AcDbDictionary
280
     1
281
     1
  3
ACAD_XREC_ROUNDTRIP
360
4453
  0
DICTIONARY
  5
4444
330
3C72
100
AcDbDictionary
280
     1
281
     1
  3
ACAD_XREC_ROUNDTRIP
360
4445
  0
DICTIONARY
  5
4448
330
3C74
100
AcDbDictionary
280
     1
281
     1
  3
ACAD_XREC_ROUNDTRIP
360
4449
  0
DICTIONARY
  5
4458
330
3C7C
100
AcDbDictionary
280
     1
281
     1
  3
ACAD_XREC_ROUNDTRIP
360
4459
  0
DICTIONARY
  5
4450
330
3C78
100
AcDbDictionary
280
     1
281
     1
  3
ACAD_XREC_ROUNDTRIP
360
4451
  0
DICTIONARY
  5
4434
330
3C6A
100
AcDbDictionary
280
     1
281
     1
  3
ACAD_XREC_ROUNDTRIP
360
4435
  0
DICTIONARY
  5
4436
330
3C6B
100
AcDbDictionary
280
     1
281
     1
  3
ACAD_XREC_ROUNDTRIP
360
4437
  0
DICTIONARY
  5
4438
330
3C6C
100
AcDbDictionary
280
     1
281
     1
  3
ACAD_XREC_ROUNDTRIP
360
4439
  0
DICTIONARY
  5
443A
330
3C6D
100
AcDbDictionary
280
     1
281
     1
  3
ACAD_XREC_ROUNDTRIP
360
443B
  0
DICTIONARY
  5
445D
330
3DDF
100
AcDbDictionary
280
     1
281
     1
  3
ACAD_XREC_ROUNDTRIP
360
445E
  0
DICTIONARY
  5
4454
330
3C7A
100
AcDbDictionary
280
     1
281
     1
  3
ACAD_XREC_ROUNDTRIP
360
4455
  0
DICTIONARY
  5
444E
330
3C77
100
AcDbDictionary
280
     1
281
     1
  3
ACAD_XREC_ROUNDTRIP
360
444F
  0
DICTIONARY
  5
4456
330
3C7B
100
AcDbDictionary
280
     1
281
     1
  3
ACAD_XREC_ROUNDTRIP
360
4457
  0
DICTIONARY
  5
4446
330
3C73
100
AcDbDictionary
280
     1
281
     1
  3
ACAD_XREC_ROUNDTRIP
360
4447
  0
DICTIONARY
  5
4467
330
3DE4
100
AcDbDictionary
280
     1
281
     1
  3
ACAD_XREC_ROUNDTRIP
360
4468
  0
DICTIONARY
  5
4465
330
3DE3
100
AcDbDictionary
280
     1
281
     1
  3
ACAD_XREC_ROUNDTRIP
360
4466
  0
DICTIONARY
  5
445F
330
3DE0
100
AcDbDictionary
280
     1
281
     1
  3
ACAD_XREC_ROUNDTRIP
360
4460
  0
DICTIONARY
  5
4461
330
3DE1
100
AcDbDictionary
280
     1
281
     1
  3
ACAD_XREC_ROUNDTRIP
360
4462
  0
DICTIONARY
  5
444C
330
3C76
100
AcDbDictionary
280
     1
281
     1
  3
ACAD_XREC_ROUNDTRIP
360
444D
  0
DICTIONARY
  5
445B
330
3DDE
100
AcDbDictionary
280
     1
281
     1
  3
ACAD_XREC_ROUNDTRIP
360
445C
  0
DICTIONARY
  5
4463
330
3DE2
100
AcDbDictionary
280
     1
281
     1
  3
ACAD_XREC_ROUNDTRIP
360
4464
  0
XRECORD
  5
446C
102
{ACAD_REACTORS
330
446B
102
}
330
446B
100
AcDbXrecord
280
     1
102
DISPLAYNAME
  1
Metric50
102
FLAGS
 90
        0
  0
XRECORD
  5
442E
102
{ACAD_REACTORS
330
442D
102
}
330
442D
100
AcDbXrecord
280
     1
102
SHADEPLOT
 70
     0
102
SHADEPLOTRESLEVEL
 70
     2
102
SHADEPLOTCUSTOMDPI
 70
   300
  0
XRECORD
  5
4430
102
{ACAD_REACTORS
330
442F
102
}
330
442F
100
AcDbXrecord
280
     1
102
SHADEPLOT
 70
     0
102
SHADEPLOTRESLEVEL
 70
     2
102
SHADEPLOTCUSTOMDPI
 70
   300
  0
XRECORD
  5
4432
102
{ACAD_REACTORS
330
3C5A
102
}
330
3C5A
100
AcDbXrecord
280
     1
102
MATERIAL
148
0.0
149
0.0
149
0.0
 93
        0
 94
      127
282
     0
 72
     0
 77
     0
171
     0
175
     0
179
     0
273
     0
  0
XRECORD
  5
3C5C
102
{ACAD_REACTORS
330
3C5A
102
}
330
3C5A
100
AcDbXrecord
280
     1
270
     1
271
     1
  0
XRECORD
  5
3C5B
102
{ACAD_REACTORS
330
3C5A
102
}
330
3C5A
100
AcDbXrecord
280
     1
270
     1
271
     1
  0
XRECORD
  5
3C5F
102
{ACAD_REACTORS
330
3C5A
102
}
330
3C5A
100
AcDbXrecord
280
     1
270
     1
271
     1
  0
XRECORD
  5
3C5E
102
{ACAD_REACTORS
330
3C5A
102
}
330
3C5A
100
AcDbXrecord
280
     1
270
     1
271
     1
  0
XRECORD
  5
3C60
102
{ACAD_REACTORS
330
3C5A
102
}
330
3C5A
100
AcDbXrecord
280
     1
270
     1
271
     1
  0
XRECORD
  5
3C5D
102
{ACAD_REACTORS
330
3C5A
102
}
330
3C5A
100
AcDbXrecord
280
     1
270
     1
271
     1
  0
XRECORD
  5
4431
102
{ACAD_REACTORS
330
3C52
102
}
330
3C52
100
AcDbXrecord
280
     1
102
MATERIAL
148
0.0
149
0.0
149
0.0
 93
        0
 94
      127
282
     0
 72
     0
 77
     0
171
     0
175
     0
179
     0
273
     0
  0
XRECORD
  5
3C54
102
{ACAD_REACTORS
330
3C52
102
}
330
3C52
100
AcDbXrecord
280
     1
270
     1
271
     1
  0
XRECORD
  5
3C53
102
{ACAD_REACTORS
330
3C52
102
}
330
3C52
100
AcDbXrecord
280
     1
270
     1
271
     1
  0
XRECORD
  5
3C57
102
{ACAD_REACTORS
330
3C52
102
}
330
3C52
100
AcDbXrecord
280
     1
270
     1
271
     1
  0
XRECORD
  5
3C56
102
{ACAD_REACTORS
330
3C52
102
}
330
3C52
100
AcDbXrecord
280
     1
270
     1
271
     1
  0
XRECORD
  5
3C58
102
{ACAD_REACTORS
330
3C52
102
}
330
3C52
100
AcDbXrecord
280
     1
270
     1
271
     1
  0
XRECORD
  5
3C55
102
{ACAD_REACTORS
330
3C52
102
}
330
3C52
100
AcDbXrecord
280
     1
270
     1
271
     1
  0
XRECORD
  5
4433
102
{ACAD_REACTORS
330
3C62
102
}
330
3C62
100
AcDbXrecord
280
     1
102
MATERIAL
148
0.0
149
0.0
149
0.0
 93
        0
 94
      127
282
     0
 72
     0
 77
     0
171
     0
175
     0
179
     0
273
     0
  0
XRECORD
  5
3C64
102
{ACAD_REACTORS
330
3C62
102
}
330
3C62
100
AcDbXrecord
280
     1
270
     1
271
     1
  0
XRECORD
  5
3C63
102
{ACAD_REACTORS
330
3C62
102
}
330
3C62
100
AcDbXrecord
280
     1
270
     1
271
     1
  0
XRECORD
  5
3C67
102
{ACAD_REACTORS
330
3C62
102
}
330
3C62
100
AcDbXrecord
280
     1
270
     1
271
     1
  0
XRECORD
  5
3C66
102
{ACAD_REACTORS
330
3C62
102
}
330
3C62
100
AcDbXrecord
280
     1
270
     1
271
     1
  0
XRECORD
  5
3C68
102
{ACAD_REACTORS
330
3C62
102
}
330
3C62
100
AcDbXrecord
280
     1
270
     1
271
     1
  0
XRECORD
  5
3C65
102
{ACAD_REACTORS
330
3C62
102
}
330
3C62
100
AcDbXrecord
280
     1
270
     1
271
     1
  0
XRECORD
  5
446A
102
{ACAD_REACTORS
330
4469
102
}
330
4469
100
AcDbXrecord
280
     1
102
DISPLAYNAME
  1
Metric50
102
FLAGS
 90
        0
  0
CELLSTYLEMAP
  5
442A
102
{ACAD_REACTORS
330
3CFA
102
}
330
3CFA
100
AcDbCellStyleMap
 90
        3
300
CELLSTYLE
  1
TABLEFORMAT_BEGIN
 90
        5
170
     1
 91
        0
 92
    32768
 62
   257
 93
        1
300
CONTENTFORMAT
  1
CONTENTFORMAT_BEGIN
 90
        0
 91
        0
 92
      512
 93
        0
300

 40
0.0
140
1.0
 94
        5
 62
     0
340
11
144
6.0
309
CONTENTFORMAT_END
171
     1
301
MARGIN
  1
CELLMARGIN_BEGIN
 40
1.5
 40
1.5
 40
1.5
 40
1.5
 40
4.5
 40
4.5
309
CELLMARGIN_END
 94
        6
 95
        1
302
GRIDFORMAT
  1
GRIDFORMAT_BEGIN
 90
        0
 91
        1
 62
     0
 92
       -2
340
0
 93
        0
 40
1.125
309
GRIDFORMAT_END
 95
        2
302
GRIDFORMAT
  1
GRIDFORMAT_BEGIN
 90
        0
 91
        1
 62
     0
 92
       -2
340
0
 93
        0
 40
1.125
309
GRIDFORMAT_END
 95
        4
302
GRIDFORMAT
  1
GRIDFORMAT_BEGIN
 90
        0
 91
        1
 62
     0
 92
       -2
340
0
 93
        0
 40
1.125
309
GRIDFORMAT_END
 95
        8
302
GRIDFORMAT
  1
GRIDFORMAT_BEGIN
 90
        0
 91
        1
 62
     0
 92
       -2
340
0
 93
        0
 40
1.125
309
GRIDFORMAT_END
 95
       16
302
GRIDFORMAT
  1
GRIDFORMAT_BEGIN
 90
        0
 91
        1
 62
     0
 92
       -2
340
0
 93
        0
 40
1.125
309
GRIDFORMAT_END
 95
       32
302
GRIDFORMAT
  1
GRIDFORMAT_BEGIN
 90
        0
 91
        1
 62
     0
 92
       -2
340
0
 93
        0
 40
1.125
309
GRIDFORMAT_END
309
TABLEFORMAT_END
  1
CELLSTYLE_BEGIN
 90
        1
 91
        1
300
_TITLE
309
CELLSTYLE_END
300
CELLSTYLE
  1
TABLEFORMAT_BEGIN
 90
        5
170
     1
 91
        0
 92
        0
 62
   257
 93
        1
300
CONTENTFORMAT
  1
CONTENTFORMAT_BEGIN
 90
        0
 91
        0
 92
      512
 93
        0
300

 40
0.0
140
1.0
 94
        5
 62
     0
340
11
144
4.5
309
CONTENTFORMAT_END
171
     1
301
MARGIN
  1
CELLMARGIN_BEGIN
 40
1.5
 40
1.5
 40
1.5
 40
1.5
 40
4.5
 40
4.5
309
CELLMARGIN_END
 94
        6
 95
        1
302
GRIDFORMAT
  1
GRIDFORMAT_BEGIN
 90
        0
 91
        1
 62
     0
 92
       -2
340
0
 93
        0
 40
1.125
309
GRIDFORMAT_END
 95
        2
302
GRIDFORMAT
  1
GRIDFORMAT_BEGIN
 90
        0
 91
        1
 62
     0
 92
       -2
340
0
 93
        0
 40
1.125
309
GRIDFORMAT_END
 95
        4
302
GRIDFORMAT
  1
GRIDFORMAT_BEGIN
 90
        0
 91
        1
 62
     0
 92
       -2
340
0
 93
        0
 40
1.125
309
GRIDFORMAT_END
 95
        8
302
GRIDFORMAT
  1
GRIDFORMAT_BEGIN
 90
        0
 91
        1
 62
     0
 92
       -2
340
0
 93
        0
 40
1.125
309
GRIDFORMAT_END
 95
       16
302
GRIDFORMAT
  1
GRIDFORMAT_BEGIN
 90
        0
 91
        1
 62
     0
 92
       -2
340
0
 93
        0
 40
1.125
309
GRIDFORMAT_END
 95
       32
302
GRIDFORMAT
  1
GRIDFORMAT_BEGIN
 90
        0
 91
        1
 62
     0
 92
       -2
340
0
 93
        0
 40
1.125
309
GRIDFORMAT_END
309
TABLEFORMAT_END
  1
CELLSTYLE_BEGIN
 90
        2
 91
        1
300
_HEADER
309
CELLSTYLE_END
300
CELLSTYLE
  1
TABLEFORMAT_BEGIN
 90
        5
170
     1
 91
        0
 92
        0
 62
   257
 93
        1
300
CONTENTFORMAT
  1
CONTENTFORMAT_BEGIN
 90
        0
 91
        0
 92
      512
 93
        0
300

 40
0.0
140
1.0
 94
        2
 62
     0
340
11
144
4.5
309
CONTENTFORMAT_END
171
     1
301
MARGIN
  1
CELLMARGIN_BEGIN
 40
1.5
 40
1.5
 40
1.5
 40
1.5
 40
4.5
 40
4.5
309
CELLMARGIN_END
 94
        6
 95
        1
302
GRIDFORMAT
  1
GRIDFORMAT_BEGIN
 90
        0
 91
        1
 62
     0
 92
       -2
340
0
 93
        0
 40
1.125
309
GRIDFORMAT_END
 95
        2
302
GRIDFORMAT
  1
GRIDFORMAT_BEGIN
 90
        0
 91
        1
 62
     0
 92
       -2
340
0
 93
        0
 40
1.125
309
GRIDFORMAT_END
 95
        4
302
GRIDFORMAT
  1
GRIDFORMAT_BEGIN
 90
        0
 91
        1
 62
     0
 92
       -2
340
0
 93
        0
 40
1.125
309
GRIDFORMAT_END
 95
        8
302
GRIDFORMAT
  1
GRIDFORMAT_BEGIN
 90
        0
 91
        1
 62
     0
 92
       -2
340
0
 93
        0
 40
1.125
309
GRIDFORMAT_END
 95
       16
302
GRIDFORMAT
  1
GRIDFORMAT_BEGIN
 90
        0
 91
        1
 62
     0
 92
       -2
340
0
 93
        0
 40
1.125
309
GRIDFORMAT_END
 95
       32
302
GRIDFORMAT
  1
GRIDFORMAT_BEGIN
 90
        0
 91
        1
 62
     0
 92
       -2
340
0
 93
        0
 40
1.125
309
GRIDFORMAT_END
309
TABLEFORMAT_END
  1
CELLSTYLE_BEGIN
 90
        3
 91
        2
300
_DATA
309
CELLSTYLE_END
  0
XRECORD
  5
445A
102
{ACAD_REACTORS
330
3CFA
102
}
330
3CFA
100
AcDbXrecord
280
     1
102
ACAD_ROUNDTRIP_PRE2007_TABLESTYLE
 90
      512
 91
        0
  1

 92
      512
 93
        0
  2

 94
      512
 95
        0
  3

  0
XRECORD
  5
443F
102
{ACAD_REACTORS
330
443E
102
}
330
443E
100
AcDbXrecord
280
     1
102
RTVSPost2010Prop28
280
     1
102
RTVSPost2010PropOp28
 70
     1
102
RTVSPost2010Prop29
280
     1
102
RTVSPost2010PropOp29
 70
     1
102
RTVSPost2010Prop30
280
     0
102
RTVSPost2010PropOp30
 70
     1
102
RTVSPost2010Prop31
280
     0
102
RTVSPost2010PropOp31
 70
     1
102
RTVSPost2010Prop32
280
     0
102
RTVSPost2010PropOp32
 70
     1
102
RTVSPost2010Prop33
280
     0
102
RTVSPost2010PropOp33
 70
     1
102
RTVSPost2010Prop34
280
     0
102
RTVSPost2010PropOp34
 70
     1
102
RTVSPost2010Prop35
280
     0
102
RTVSPost2010PropOp35
 70
     1
102
RTVSPost2010Prop36
280
     0
102
RTVSPost2010PropOp36
 70
     1
102
RTVSPost2010Prop37
 90
       50
102
RTVSPost2010PropOp37
 70
     1
102
RTVSPost2010Prop38
140
0.0
102
RTVSPost2010PropOp38
 70
     1
102
RTVSPost2010Prop39
140
1.0
102
RTVSPost2010PropOp39
 70
     1
102
RTVSPost2010Prop40
 90
        0
102
RTVSPost2010PropOp40
 70
     1
102
RTVSPost2010Prop41ColorIndex
 90
       18
102
RTVSPost2010Prop41ColorRGB
 90
        0
102
RTVSPost2010PropOp41
 70
     1
102
RTVSPost2010Prop42
 90
       50
102
RTVSPost2010PropOp42
 70
     1
102
RTVSPost2010Prop43
 90
        3
102
RTVSPost2010PropOp43
 70
     1
102
RTVSPost2010Prop44ColorIndex
 90
        5
102
RTVSPost2010Prop44ColorRGB
 90
      255
102
RTVSPost2010PropOp44
 70
     1
102
RTVSPost2010Prop45
280
     0
102
RTVSPost2010PropOp45
 70
     1
102
RTVSPost2010Prop46
 90
       50
102
RTVSPost2010PropOp46
 70
     1
102
RTVSPost2010Prop47
 90
       50
102
RTVSPost2010PropOp47
 70
     1
102
RTVSPost2010Prop48
 90
       50
102
RTVSPost2010PropOp48
 70
     1
102
RTVSPost2010Prop49
280
     0
102
RTVSPost2010PropOp49
 70
     1
102
RTVSPost2010Prop50
 90
       50
102
RTVSPost2010PropOp50
 70
     1
102
RTVSPost2010Prop51ColorIndex
 90
      256
102
RTVSPost2010Prop51ColorRGB
 90
-16777216
102
RTVSPost2010PropOp51
 70
     0
102
RTVSPost2010Prop52
140
1.0
102
RTVSPost2010PropOp52
 70
     0
102
RTVSPost2010Prop53
 90
        2
102
RTVSPost2010PropOp53
 70
     1
102
RTVSPost2010Prop54
  1
strokes_ogs.tif
102
RTVSPost2010PropOp54
 70
     1
102
RTVSPost2010Prop55
280
     0
102
RTVSPost2010PropOp55
 70
     1
102
RTVSPost2010Prop56
140
1.0
102
RTVSPost2010PropOp56
 70
     1
102
RTVSPost2010Prop57
140
1.0
102
RTVSPost2010PropOp57
 70
     1
102
RTVSPropertyOp0
 70
     1
102
RTVSPropertyOp1
 70
     1
102
RTVSPropertyOp2
 70
     1
102
RTVSPropertyOp3
 70
     1
102
RTVSPropertyOp4
 70
     1
102
RTVSPropertyOp5
 70
     1
102
RTVSPropertyOp6
 70
     1
102
RTVSPropertyOp7
 70
     1
102
RTVSPropertyOp8
 70
     1
102
RTVSPropertyOp9
 70
     1
102
RTVSPropertyOp10
 70
     1
102
RTVSPropertyOp11
 70
     1
102
RTVSPropertyOp12
 70
     1
102
RTVSPropertyOp13
 70
     1
102
RTVSPropertyOp14
 70
     1
102
RTVSPropertyOp15
 70
     1
102
RTVSPropertyOp16
 70
     1
102
RTVSPropertyOp17
 70
     1
102
RTVSPropertyOp18
 70
     1
102
RTVSPropertyOp19
 70
     1
102
RTVSPropertyOp20
 70
     1
102
RTVSPropertyOp21
 70
     1
102
RTVSPropertyOp22
 70
     1
102
RTVSPropertyOp23
 70
     1
102
RTVSPropertyOp24
 70
     1
102
RTVSPropertyOp25
 70
     1
102
RTVSPropertyOp26
 70
     1
102
RTVSPropertyOp27
 70
     1
102
RTVSPropertyOp28
 70
     1
102
RTVSPropertyOp29
 70
     1
102
RTVSPropertyOp30
 70
     1
102
RTVSPropertyOp31
 70
     1
102
RTVSPropertyOp32
 70
     1
102
RTVSPropertyOp33
 70
     1
102
RTVSPropertyOp34
 70
     1
102
RTVSPropertyOp35
 70
     1
102
RTVSPropertyOp36
 70
     1
102
RTVSPropertyOp37
 70
     1
102
RTVSPropertyOp38
 70
     1
102
RTVSPropertyOp39
 70
     1
102
RTVSPropertyOp40
 70
     1
102
RTVSPropertyOp41
 70
     1
102
RTVSPropertyOp42
 70
     1
102
RTVSPropertyOp43
 70
     1
102
RTVSPropertyOp44
 70
     1
102
RTVSPropertyOp45
 70
     1
102
RTVSPropertyOp46
 70
     1
102
RTVSPropertyOp47
 70
     1
102
RTVSPropertyOp48
 70
     1
102
RTVSPropertyOp49
 70
     1
102
RTVSPropertyOp50
 70
     1
102
RTVSPropertyOp51
 70
     0
102
RTVSPropertyOp52
 70
     0
102
RTVSPropertyOp53
 70
     1
102
RTVSPropertyOp54
 70
     1
102
RTVSPropertyOp55
 70
     1
102
RTVSPropertyOp56
 70
     1
102
RTVSPropertyOp57
 70
     1
102
RTVSPropertyOp58
 70
     1
102
RTVSPropertyOp59
 70
     1
102
RTVSPropertyOp60
 70
     1
102
RTVSPropertyOp61
 70
     1
102
RTVSPropertyOp62
 70
     1
  0
XRECORD
  5
4443
102
{ACAD_REACTORS
330
4442
102
}
330
4442
100
AcDbXrecord
280
     1
102
RTVSPost2010Prop28
280
     0
102
RTVSPost2010PropOp28
 70
     1
102
RTVSPost2010Prop29
280
     1
102
RTVSPost2010PropOp29
 70
     1
102
RTVSPost2010Prop30
280
     1
102
RTVSPost2010PropOp30
 70
     1
102
RTVSPost2010Prop31
280
     0
102
RTVSPost2010PropOp31
 70
     1
102
RTVSPost2010Prop32
280
     0
102
RTVSPost2010PropOp32
 70
     1
102
RTVSPost2010Prop33
280
     0
102
RTVSPost2010PropOp33
 70
     1
102
RTVSPost2010Prop34
280
     0
102
RTVSPost2010PropOp34
 70
     1
102
RTVSPost2010Prop35
280
     0
102
RTVSPost2010PropOp35
 70
     1
102
RTVSPost2010Prop36
280
     0
102
RTVSPost2010PropOp36
 70
     1
102
RTVSPost2010Prop37
 90
       50
102
RTVSPost2010PropOp37
 70
     1
102
RTVSPost2010Prop38
140
0.0
102
RTVSPost2010PropOp38
 70
     1
102
RTVSPost2010Prop39
140
1.0
102
RTVSPost2010PropOp39
 70
     1
102
RTVSPost2010Prop40
 90
        0
102
RTVSPost2010PropOp40
 70
     1
102
RTVSPost2010Prop41ColorIndex
 90
       18
102
RTVSPost2010Prop41ColorRGB
 90
        0
102
RTVSPost2010PropOp41
 70
     1
102
RTVSPost2010Prop42
 90
       50
102
RTVSPost2010PropOp42
 70
     1
102
RTVSPost2010Prop43
 90
        3
102
RTVSPost2010PropOp43
 70
     1
102
RTVSPost2010Prop44ColorIndex
 90
        5
102
RTVSPost2010Prop44ColorRGB
 90
      255
102
RTVSPost2010PropOp44
 70
     1
102
RTVSPost2010Prop45
280
     0
102
RTVSPost2010PropOp45
 70
     1
102
RTVSPost2010Prop46
 90
       50
102
RTVSPost2010PropOp46
 70
     1
102
RTVSPost2010Prop47
 90
       50
102
RTVSPost2010PropOp47
 70
     1
102
RTVSPost2010Prop48
 90
       50
102
RTVSPost2010PropOp48
 70
     1
102
RTVSPost2010Prop49
280
     0
102
RTVSPost2010PropOp49
 70
     1
102
RTVSPost2010Prop50
 90
       50
102
RTVSPost2010PropOp50
 70
     1
102
RTVSPost2010Prop51ColorIndex
 90
      256
102
RTVSPost2010Prop51ColorRGB
 90
-16777216
102
RTVSPost2010PropOp51
 70
     0
102
RTVSPost2010Prop52
140
1.0
102
RTVSPost2010PropOp52
 70
     0
102
RTVSPost2010Prop53
 90
        2
102
RTVSPost2010PropOp53
 70
     1
102
RTVSPost2010Prop54
  1
strokes_ogs.tif
102
RTVSPost2010PropOp54
 70
     1
102
RTVSPost2010Prop55
280
     0
102
RTVSPost2010PropOp55
 70
     1
102
RTVSPost2010Prop56
140
1.0
102
RTVSPost2010PropOp56
 70
     1
102
RTVSPost2010Prop57
140
1.0
102
RTVSPost2010PropOp57
 70
     1
102
RTVSPropertyOp0
 70
     1
102
RTVSPropertyOp1
 70
     1
102
RTVSPropertyOp2
 70
     1
102
RTVSPropertyOp3
 70
     1
102
RTVSPropertyOp4
 70
     1
102
RTVSPropertyOp5
 70
     1
102
RTVSPropertyOp6
 70
     1
102
RTVSPropertyOp7
 70
     1
102
RTVSPropertyOp8
 70
     1
102
RTVSPropertyOp9
 70
     1
102
RTVSPropertyOp10
 70
     1
102
RTVSPropertyOp11
 70
     1
102
RTVSPropertyOp12
 70
     1
102
RTVSPropertyOp13
 70
     1
102
RTVSPropertyOp14
 70
     1
102
RTVSPropertyOp15
 70
     1
102
RTVSPropertyOp16
 70
     1
102
RTVSPropertyOp17
 70
     1
102
RTVSPropertyOp18
 70
     1
102
RTVSPropertyOp19
 70
     1
102
RTVSPropertyOp20
 70
     1
102
RTVSPropertyOp21
 70
     1
102
RTVSPropertyOp22
 70
     1
102
RTVSPropertyOp23
 70
     1
102
RTVSPropertyOp24
 70
     1
102
RTVSPropertyOp25
 70
     1
102
RTVSPropertyOp26
 70
     1
102
RTVSPropertyOp27
 70
     1
102
RTVSPropertyOp28
 70
     1
102
RTVSPropertyOp29
 70
     1
102
RTVSPropertyOp30
 70
     1
102
RTVSPropertyOp31
 70
     1
102
RTVSPropertyOp32
 70
     1
102
RTVSPropertyOp33
 70
     1
102
RTVSPropertyOp34
 70
     1
102
RTVSPropertyOp35
 70
     1
102
RTVSPropertyOp36
 70
     1
102
RTVSPropertyOp37
 70
     1
102
RTVSPropertyOp38
 70
     1
102
RTVSPropertyOp39
 70
     1
102
RTVSPropertyOp40
 70
     1
102
RTVSPropertyOp41
 70
     1
102
RTVSPropertyOp42
 70
     1
102
RTVSPropertyOp43
 70
     1
102
RTVSPropertyOp44
 70
     1
102
RTVSPropertyOp45
 70
     1
102
RTVSPropertyOp46
 70
     1
102
RTVSPropertyOp47
 70
     1
102
RTVSPropertyOp48
 70
     1
102
RTVSPropertyOp49
 70
     1
102
RTVSPropertyOp50
 70
     1
102
RTVSPropertyOp51
 70
     0
102
RTVSPropertyOp52
 70
     0
102
RTVSPropertyOp53
 70
     1
102
RTVSPropertyOp54
 70
     1
102
RTVSPropertyOp55
 70
     1
102
RTVSPropertyOp56
 70
     1
102
RTVSPropertyOp57
 70
     1
102
RTVSPropertyOp58
 70
     1
102
RTVSPropertyOp59
 70
     1
102
RTVSPropertyOp60
 70
     1
102
RTVSPropertyOp61
 70
     1
102
RTVSPropertyOp62
 70
     1
  0
XRECORD
  5
4441
102
{ACAD_REACTORS
330
4440
102
}
330
4440
100
AcDbXrecord
280
     1
102
RTVSPost2010Prop28
280
     0
102
RTVSPost2010PropOp28
 70
     1
102
RTVSPost2010Prop29
280
     1
102
RTVSPost2010PropOp29
 70
     1
102
RTVSPost2010Prop30
280
     1
102
RTVSPost2010PropOp30
 70
     1
102
RTVSPost2010Prop31
280
     0
102
RTVSPost2010PropOp31
 70
     1
102
RTVSPost2010Prop32
280
     0
102
RTVSPost2010PropOp32
 70
     1
102
RTVSPost2010Prop33
280
     0
102
RTVSPost2010PropOp33
 70
     1
102
RTVSPost2010Prop34
280
     0
102
RTVSPost2010PropOp34
 70
     1
102
RTVSPost2010Prop35
280
     0
102
RTVSPost2010PropOp35
 70
     1
102
RTVSPost2010Prop36
280
     0
102
RTVSPost2010PropOp36
 70
     1
102
RTVSPost2010Prop37
 90
       50
102
RTVSPost2010PropOp37
 70
     1
102
RTVSPost2010Prop38
140
0.0
102
RTVSPost2010PropOp38
 70
     1
102
RTVSPost2010Prop39
140
1.0
102
RTVSPost2010PropOp39
 70
     1
102
RTVSPost2010Prop40
 90
        0
102
RTVSPost2010PropOp40
 70
     1
102
RTVSPost2010Prop41ColorIndex
 90
       18
102
RTVSPost2010Prop41ColorRGB
 90
        0
102
RTVSPost2010PropOp41
 70
     1
102
RTVSPost2010Prop42
 90
       50
102
RTVSPost2010PropOp42
 70
     1
102
RTVSPost2010Prop43
 90
        3
102
RTVSPost2010PropOp43
 70
     1
102
RTVSPost2010Prop44ColorIndex
 90
        5
102
RTVSPost2010Prop44ColorRGB
 90
      255
102
RTVSPost2010PropOp44
 70
     1
102
RTVSPost2010Prop45
280
     0
102
RTVSPost2010PropOp45
 70
     1
102
RTVSPost2010Prop46
 90
       50
102
RTVSPost2010PropOp46
 70
     1
102
RTVSPost2010Prop47
 90
       50
102
RTVSPost2010PropOp47
 70
     1
102
RTVSPost2010Prop48
 90
       50
102
RTVSPost2010PropOp48
 70
     1
102
RTVSPost2010Prop49
280
     0
102
RTVSPost2010PropOp49
 70
     1
102
RTVSPost2010Prop50
 90
       50
102
RTVSPost2010PropOp50
 70
     1
102
RTVSPost2010Prop51ColorIndex
 90
      256
102
RTVSPost2010Prop51ColorRGB
 90
-16777216
102
RTVSPost2010PropOp51
 70
     0
102
RTVSPost2010Prop52
140
1.0
102
RTVSPost2010PropOp52
 70
     0
102
RTVSPost2010Prop53
 90
        2
102
RTVSPost2010PropOp53
 70
     1
102
RTVSPost2010Prop54
  1
strokes_ogs.tif
102
RTVSPost2010PropOp54
 70
     1
102
RTVSPost2010Prop55
280
     0
102
RTVSPost2010PropOp55
 70
     1
102
RTVSPost2010Prop56
140
1.0
102
RTVSPost2010PropOp56
 70
     1
102
RTVSPost2010Prop57
140
1.0
102
RTVSPost2010PropOp57
 70
     1
102
RTVSPropertyOp0
 70
     1
102
RTVSPropertyOp1
 70
     1
102
RTVSPropertyOp2
 70
     1
102
RTVSPropertyOp3
 70
     1
102
RTVSPropertyOp4
 70
     1
102
RTVSPropertyOp5
 70
     1
102
RTVSPropertyOp6
 70
     1
102
RTVSPropertyOp7
 70
     1
102
RTVSPropertyOp8
 70
     1
102
RTVSPropertyOp9
 70
     1
102
RTVSPropertyOp10
 70
     1
102
RTVSPropertyOp11
 70
     1
102
RTVSPropertyOp12
 70
     1
102
RTVSPropertyOp13
 70
     1
102
RTVSPropertyOp14
 70
     1
102
RTVSPropertyOp15
 70
     1
102
RTVSPropertyOp16
 70
     1
102
RTVSPropertyOp17
 70
     1
102
RTVSPropertyOp18
 70
     1
102
RTVSPropertyOp19
 70
     1
102
RTVSPropertyOp20
 70
     1
102
RTVSPropertyOp21
 70
     1
102
RTVSPropertyOp22
 70
     1
102
RTVSPropertyOp23
 70
     1
102
RTVSPropertyOp24
 70
     1
102
RTVSPropertyOp25
 70
     1
102
RTVSPropertyOp26
 70
     1
102
RTVSPropertyOp27
 70
     1
102
RTVSPropertyOp28
 70
     1
102
RTVSPropertyOp29
 70
     1
102
RTVSPropertyOp30
 70
     1
102
RTVSPropertyOp31
 70
     1
102
RTVSPropertyOp32
 70
     1
102
RTVSPropertyOp33
 70
     1
102
RTVSPropertyOp34
 70
     1
102
RTVSPropertyOp35
 70
     1
102
RTVSPropertyOp36
 70
     1
102
RTVSPropertyOp37
 70
     1
102
RTVSPropertyOp38
 70
     1
102
RTVSPropertyOp39
 70
     1
102
RTVSPropertyOp40
 70
     1
102
RTVSPropertyOp41
 70
     1
102
RTVSPropertyOp42
 70
     1
102
RTVSPropertyOp43
 70
     1
102
RTVSPropertyOp44
 70
     1
102
RTVSPropertyOp45
 70
     1
102
RTVSPropertyOp46
 70
     1
102
RTVSPropertyOp47
 70
     1
102
RTVSPropertyOp48
 70
     1
102
RTVSPropertyOp49
 70
     1
102
RTVSPropertyOp50
 70
     1
102
RTVSPropertyOp51
 70
     0
102
RTVSPropertyOp52
 70
     0
102
RTVSPropertyOp53
 70
     1
102
RTVSPropertyOp54
 70
     1
102
RTVSPropertyOp55
 70
     1
102
RTVSPropertyOp56
 70
     1
102
RTVSPropertyOp57
 70
     1
102
RTVSPropertyOp58
 70
     1
102
RTVSPropertyOp59
 70
     1
102
RTVSPropertyOp60
 70
     1
102
RTVSPropertyOp61
 70
     1
102
RTVSPropertyOp62
 70
     1
  0
XRECORD
  5
443D
102
{ACAD_REACTORS
330
443C
102
}
330
443C
100
AcDbXrecord
280
     1
102
RTVSPost2010Prop28
280
     0
102
RTVSPost2010PropOp28
 70
     1
102
RTVSPost2010Prop29
280
     1
102
RTVSPost2010PropOp29
 70
     1
102
RTVSPost2010Prop30
280
     1
102
RTVSPost2010PropOp30
 70
     1
102
RTVSPost2010Prop31
280
     0
102
RTVSPost2010PropOp31
 70
     1
102
RTVSPost2010Prop32
280
     0
102
RTVSPost2010PropOp32
 70
     1
102
RTVSPost2010Prop33
280
     0
102
RTVSPost2010PropOp33
 70
     1
102
RTVSPost2010Prop34
280
     0
102
RTVSPost2010PropOp34
 70
     1
102
RTVSPost2010Prop35
280
     0
102
RTVSPost2010PropOp35
 70
     1
102
RTVSPost2010Prop36
280
     0
102
RTVSPost2010PropOp36
 70
     1
102
RTVSPost2010Prop37
 90
       50
102
RTVSPost2010PropOp37
 70
     1
102
RTVSPost2010Prop38
140
0.0
102
RTVSPost2010PropOp38
 70
     1
102
RTVSPost2010Prop39
140
1.0
102
RTVSPost2010PropOp39
 70
     1
102
RTVSPost2010Prop40
 90
        0
102
RTVSPost2010PropOp40
 70
     1
102
RTVSPost2010Prop41ColorIndex
 90
       18
102
RTVSPost2010Prop41ColorRGB
 90
        0
102
RTVSPost2010PropOp41
 70
     1
102
RTVSPost2010Prop42
 90
       50
102
RTVSPost2010PropOp42
 70
     1
102
RTVSPost2010Prop43
 90
        3
102
RTVSPost2010PropOp43
 70
     1
102
RTVSPost2010Prop44ColorIndex
 90
        5
102
RTVSPost2010Prop44ColorRGB
 90
      255
102
RTVSPost2010PropOp44
 70
     1
102
RTVSPost2010Prop45
280
     0
102
RTVSPost2010PropOp45
 70
     1
102
RTVSPost2010Prop46
 90
       50
102
RTVSPost2010PropOp46
 70
     1
102
RTVSPost2010Prop47
 90
       50
102
RTVSPost2010PropOp47
 70
     1
102
RTVSPost2010Prop48
 90
       50
102
RTVSPost2010PropOp48
 70
     1
102
RTVSPost2010Prop49
280
     0
102
RTVSPost2010PropOp49
 70
     1
102
RTVSPost2010Prop50
 90
       50
102
RTVSPost2010PropOp50
 70
     1
102
RTVSPost2010Prop51ColorIndex
 90
      256
102
RTVSPost2010Prop51ColorRGB
 90
-16777216
102
RTVSPost2010PropOp51
 70
     0
102
RTVSPost2010Prop52
140
1.0
102
RTVSPost2010PropOp52
 70
     0
102
RTVSPost2010Prop53
 90
        2
102
RTVSPost2010PropOp53
 70
     1
102
RTVSPost2010Prop54
  1
strokes_ogs.tif
102
RTVSPost2010PropOp54
 70
     1
102
RTVSPost2010Prop55
280
     0
102
RTVSPost2010PropOp55
 70
     1
102
RTVSPost2010Prop56
140
1.0
102
RTVSPost2010PropOp56
 70
     1
102
RTVSPost2010Prop57
140
1.0
102
RTVSPost2010PropOp57
 70
     1
102
RTVSPropertyOp0
 70
     1
102
RTVSPropertyOp1
 70
     1
102
RTVSPropertyOp2
 70
     1
102
RTVSPropertyOp3
 70
     1
102
RTVSPropertyOp4
 70
     1
102
RTVSPropertyOp5
 70
     1
102
RTVSPropertyOp6
 70
     1
102
RTVSPropertyOp7
 70
     1
102
RTVSPropertyOp8
 70
     1
102
RTVSPropertyOp9
 70
     1
102
RTVSPropertyOp10
 70
     1
102
RTVSPropertyOp11
 70
     1
102
RTVSPropertyOp12
 70
     1
102
RTVSPropertyOp13
 70
     1
102
RTVSPropertyOp14
 70
     1
102
RTVSPropertyOp15
 70
     1
102
RTVSPropertyOp16
 70
     1
102
RTVSPropertyOp17
 70
     1
102
RTVSPropertyOp18
 70
     1
102
RTVSPropertyOp19
 70
     1
102
RTVSPropertyOp20
 70
     1
102
RTVSPropertyOp21
 70
     1
102
RTVSPropertyOp22
 70
     1
102
RTVSPropertyOp23
 70
     1
102
RTVSPropertyOp24
 70
     1
102
RTVSPropertyOp25
 70
     1
102
RTVSPropertyOp26
 70
     1
102
RTVSPropertyOp27
 70
     1
102
RTVSPropertyOp28
 70
     1
102
RTVSPropertyOp29
 70
     1
102
RTVSPropertyOp30
 70
     1
102
RTVSPropertyOp31
 70
     1
102
RTVSPropertyOp32
 70
     1
102
RTVSPropertyOp33
 70
     1
102
RTVSPropertyOp34
 70
     1
102
RTVSPropertyOp35
 70
     1
102
RTVSPropertyOp36
 70
     1
102
RTVSPropertyOp37
 70
     1
102
RTVSPropertyOp38
 70
     1
102
RTVSPropertyOp39
 70
     1
102
RTVSPropertyOp40
 70
     1
102
RTVSPropertyOp41
 70
     1
102
RTVSPropertyOp42
 70
     1
102
RTVSPropertyOp43
 70
     1
102
RTVSPropertyOp44
 70
     1
102
RTVSPropertyOp45
 70
     1
102
RTVSPropertyOp46
 70
     1
102
RTVSPropertyOp47
 70
     1
102
RTVSPropertyOp48
 70
     1
102
RTVSPropertyOp49
 70
     1
102
RTVSPropertyOp50
 70
     1
102
RTVSPropertyOp51
 70
     0
102
RTVSPropertyOp52
 70
     0
102
RTVSPropertyOp53
 70
     1
102
RTVSPropertyOp54
 70
     1
102
RTVSPropertyOp55
 70
     1
102
RTVSPropertyOp56
 70
     1
102
RTVSPropertyOp57
 70
     1
102
RTVSPropertyOp58
 70
     1
102
RTVSPropertyOp59
 70
     1
102
RTVSPropertyOp60
 70
     1
102
RTVSPropertyOp61
 70
     1
102
RTVSPropertyOp62
 70
     1
  0
XRECORD
  5
444B
102
{ACAD_REACTORS
330
444A
102
}
330
444A
100
AcDbXrecord
280
     1
102
RTVSPost2010Prop28
280
     0
102
RTVSPost2010PropOp28
 70
     1
102
RTVSPost2010Prop29
280
     1
102
RTVSPost2010PropOp29
 70
     1
102
RTVSPost2010Prop30
280
     1
102
RTVSPost2010PropOp30
 70
     1
102
RTVSPost2010Prop31
280
     0
102
RTVSPost2010PropOp31
 70
     1
102
RTVSPost2010Prop32
280
     0
102
RTVSPost2010PropOp32
 70
     1
102
RTVSPost2010Prop33
280
     0
102
RTVSPost2010PropOp33
 70
     1
102
RTVSPost2010Prop34
280
     0
102
RTVSPost2010PropOp34
 70
     1
102
RTVSPost2010Prop35
280
     0
102
RTVSPost2010PropOp35
 70
     1
102
RTVSPost2010Prop36
280
     0
102
RTVSPost2010PropOp36
 70
     1
102
RTVSPost2010Prop37
 90
       50
102
RTVSPost2010PropOp37
 70
     1
102
RTVSPost2010Prop38
140
0.0
102
RTVSPost2010PropOp38
 70
     1
102
RTVSPost2010Prop39
140
1.0
102
RTVSPost2010PropOp39
 70
     1
102
RTVSPost2010Prop40
 90
        0
102
RTVSPost2010PropOp40
 70
     1
102
RTVSPost2010Prop41ColorIndex
 90
       18
102
RTVSPost2010Prop41ColorRGB
 90
        0
102
RTVSPost2010PropOp41
 70
     1
102
RTVSPost2010Prop42
 90
       50
102
RTVSPost2010PropOp42
 70
     1
102
RTVSPost2010Prop43
 90
        3
102
RTVSPost2010PropOp43
 70
     1
102
RTVSPost2010Prop44ColorIndex
 90
        5
102
RTVSPost2010Prop44ColorRGB
 90
      255
102
RTVSPost2010PropOp44
 70
     1
102
RTVSPost2010Prop45
280
     0
102
RTVSPost2010PropOp45
 70
     1
102
RTVSPost2010Prop46
 90
       50
102
RTVSPost2010PropOp46
 70
     1
102
RTVSPost2010Prop47
 90
       50
102
RTVSPost2010PropOp47
 70
     1
102
RTVSPost2010Prop48
 90
       50
102
RTVSPost2010PropOp48
 70
     1
102
RTVSPost2010Prop49
280
     0
102
RTVSPost2010PropOp49
 70
     1
102
RTVSPost2010Prop50
 90
       50
102
RTVSPost2010PropOp50
 70
     1
102
RTVSPost2010Prop51ColorIndex
 90
      256
102
RTVSPost2010Prop51ColorRGB
 90
-16777216
102
RTVSPost2010PropOp51
 70
     0
102
RTVSPost2010Prop52
140
1.0
102
RTVSPost2010PropOp52
 70
     0
102
RTVSPost2010Prop53
 90
        2
102
RTVSPost2010PropOp53
 70
     1
102
RTVSPost2010Prop54
  1
strokes_ogs.tif
102
RTVSPost2010PropOp54
 70
     1
102
RTVSPost2010Prop55
280
     0
102
RTVSPost2010PropOp55
 70
     1
102
RTVSPost2010Prop56
140
1.0
102
RTVSPost2010PropOp56
 70
     1
102
RTVSPost2010Prop57
140
1.0
102
RTVSPost2010PropOp57
 70
     1
102
RTVSPropertyOp0
 70
     1
102
RTVSPropertyOp1
 70
     1
102
RTVSPropertyOp2
 70
     1
102
RTVSPropertyOp3
 70
     1
102
RTVSPropertyOp4
 70
     1
102
RTVSPropertyOp5
 70
     1
102
RTVSPropertyOp6
 70
     1
102
RTVSPropertyOp7
 70
     1
102
RTVSPropertyOp8
 70
     1
102
RTVSPropertyOp9
 70
     1
102
RTVSPropertyOp10
 70
     1
102
RTVSPropertyOp11
 70
     1
102
RTVSPropertyOp12
 70
     1
102
RTVSPropertyOp13
 70
     1
102
RTVSPropertyOp14
 70
     1
102
RTVSPropertyOp15
 70
     1
102
RTVSPropertyOp16
 70
     1
102
RTVSPropertyOp17
 70
     1
102
RTVSPropertyOp18
 70
     1
102
RTVSPropertyOp19
 70
     1
102
RTVSPropertyOp20
 70
     1
102
RTVSPropertyOp21
 70
     1
102
RTVSPropertyOp22
 70
     1
102
RTVSPropertyOp23
 70
     1
102
RTVSPropertyOp24
 70
     1
102
RTVSPropertyOp25
 70
     1
102
RTVSPropertyOp26
 70
     1
102
RTVSPropertyOp27
 70
     1
102
RTVSPropertyOp28
 70
     1
102
RTVSPropertyOp29
 70
     1
102
RTVSPropertyOp30
 70
     1
102
RTVSPropertyOp31
 70
     1
102
RTVSPropertyOp32
 70
     1
102
RTVSPropertyOp33
 70
     1
102
RTVSPropertyOp34
 70
     1
102
RTVSPropertyOp35
 70
     1
102
RTVSPropertyOp36
 70
     1
102
RTVSPropertyOp37
 70
     1
102
RTVSPropertyOp38
 70
     1
102
RTVSPropertyOp39
 70
     1
102
RTVSPropertyOp40
 70
     1
102
RTVSPropertyOp41
 70
     1
102
RTVSPropertyOp42
 70
     1
102
RTVSPropertyOp43
 70
     1
102
RTVSPropertyOp44
 70
     1
102
RTVSPropertyOp45
 70
     1
102
RTVSPropertyOp46
 70
     1
102
RTVSPropertyOp47
 70
     1
102
RTVSPropertyOp48
 70
     1
102
RTVSPropertyOp49
 70
     1
102
RTVSPropertyOp50
 70
     1
102
RTVSPropertyOp51
 70
     0
102
RTVSPropertyOp52
 70
     0
102
RTVSPropertyOp53
 70
     1
102
RTVSPropertyOp54
 70
     1
102
RTVSPropertyOp55
 70
     1
102
RTVSPropertyOp56
 70
     1
102
RTVSPropertyOp57
 70
     1
102
RTVSPropertyOp58
 70
     1
102
RTVSPropertyOp59
 70
     1
102
RTVSPropertyOp60
 70
     1
102
RTVSPropertyOp61
 70
     1
102
RTVSPropertyOp62
 70
     1
  0
XRECORD
  5
4453
102
{ACAD_REACTORS
330
4452
102
}
330
4452
100
AcDbXrecord
280
     1
102
RTVSPost2010Prop28
280
     0
102
RTVSPost2010PropOp28
 70
     1
102
RTVSPost2010Prop29
280
     1
102
RTVSPost2010PropOp29
 70
     1
102
RTVSPost2010Prop30
280
     1
102
RTVSPost2010PropOp30
 70
     1
102
RTVSPost2010Prop31
280
     0
102
RTVSPost2010PropOp31
 70
     1
102
RTVSPost2010Prop32
280
     0
102
RTVSPost2010PropOp32
 70
     1
102
RTVSPost2010Prop33
280
     0
102
RTVSPost2010PropOp33
 70
     1
102
RTVSPost2010Prop34
280
     0
102
RTVSPost2010PropOp34
 70
     1
102
RTVSPost2010Prop35
280
     0
102
RTVSPost2010PropOp35
 70
     1
102
RTVSPost2010Prop36
280
     0
102
RTVSPost2010PropOp36
 70
     1
102
RTVSPost2010Prop37
 90
       50
102
RTVSPost2010PropOp37
 70
     1
102
RTVSPost2010Prop38
140
0.0
102
RTVSPost2010PropOp38
 70
     1
102
RTVSPost2010Prop39
140
1.0
102
RTVSPost2010PropOp39
 70
     1
102
RTVSPost2010Prop40
 90
        0
102
RTVSPost2010PropOp40
 70
     1
102
RTVSPost2010Prop41ColorIndex
 90
       18
102
RTVSPost2010Prop41ColorRGB
 90
        0
102
RTVSPost2010PropOp41
 70
     1
102
RTVSPost2010Prop42
 90
       50
102
RTVSPost2010PropOp42
 70
     1
102
RTVSPost2010Prop43
 90
        3
102
RTVSPost2010PropOp43
 70
     1
102
RTVSPost2010Prop44ColorIndex
 90
        5
102
RTVSPost2010Prop44ColorRGB
 90
      255
102
RTVSPost2010PropOp44
 70
     1
102
RTVSPost2010Prop45
280
     0
102
RTVSPost2010PropOp45
 70
     1
102
RTVSPost2010Prop46
 90
       50
102
RTVSPost2010PropOp46
 70
     1
102
RTVSPost2010Prop47
 90
       50
102
RTVSPost2010PropOp47
 70
     1
102
RTVSPost2010Prop48
 90
       50
102
RTVSPost2010PropOp48
 70
     1
102
RTVSPost2010Prop49
280
     0
102
RTVSPost2010PropOp49
 70
     1
102
RTVSPost2010Prop50
 90
       50
102
RTVSPost2010PropOp50
 70
     1
102
RTVSPost2010Prop51ColorIndex
 90
      256
102
RTVSPost2010Prop51ColorRGB
 90
-16777216
102
RTVSPost2010PropOp51
 70
     0
102
RTVSPost2010Prop52
140
1.0
102
RTVSPost2010PropOp52
 70
     0
102
RTVSPost2010Prop53
 90
        2
102
RTVSPost2010PropOp53
 70
     1
102
RTVSPost2010Prop54
  1
strokes_ogs.tif
102
RTVSPost2010PropOp54
 70
     1
102
RTVSPost2010Prop55
280
     0
102
RTVSPost2010PropOp55
 70
     1
102
RTVSPost2010Prop56
140
1.0
102
RTVSPost2010PropOp56
 70
     1
102
RTVSPost2010Prop57
140
1.0
102
RTVSPost2010PropOp57
 70
     1
102
RTVSPropertyOp0
 70
     1
102
RTVSPropertyOp1
 70
     1
102
RTVSPropertyOp2
 70
     1
102
RTVSPropertyOp3
 70
     1
102
RTVSPropertyOp4
 70
     1
102
RTVSPropertyOp5
 70
     1
102
RTVSPropertyOp6
 70
     1
102
RTVSPropertyOp7
 70
     1
102
RTVSPropertyOp8
 70
     1
102
RTVSPropertyOp9
 70
     1
102
RTVSPropertyOp10
 70
     1
102
RTVSPropertyOp11
 70
     1
102
RTVSPropertyOp12
 70
     1
102
RTVSPropertyOp13
 70
     1
102
RTVSPropertyOp14
 70
     1
102
RTVSPropertyOp15
 70
     1
102
RTVSPropertyOp16
 70
     1
102
RTVSPropertyOp17
 70
     1
102
RTVSPropertyOp18
 70
     1
102
RTVSPropertyOp19
 70
     1
102
RTVSPropertyOp20
 70
     1
102
RTVSPropertyOp21
 70
     1
102
RTVSPropertyOp22
 70
     1
102
RTVSPropertyOp23
 70
     1
102
RTVSPropertyOp24
 70
     1
102
RTVSPropertyOp25
 70
     1
102
RTVSPropertyOp26
 70
     1
102
RTVSPropertyOp27
 70
     1
102
RTVSPropertyOp28
 70
     1
102
RTVSPropertyOp29
 70
     1
102
RTVSPropertyOp30
 70
     1
102
RTVSPropertyOp31
 70
     1
102
RTVSPropertyOp32
 70
     1
102
RTVSPropertyOp33
 70
     1
102
RTVSPropertyOp34
 70
     1
102
RTVSPropertyOp35
 70
     1
102
RTVSPropertyOp36
 70
     1
102
RTVSPropertyOp37
 70
     1
102
RTVSPropertyOp38
 70
     1
102
RTVSPropertyOp39
 70
     1
102
RTVSPropertyOp40
 70
     1
102
RTVSPropertyOp41
 70
     1
102
RTVSPropertyOp42
 70
     1
102
RTVSPropertyOp43
 70
     1
102
RTVSPropertyOp44
 70
     1
102
RTVSPropertyOp45
 70
     1
102
RTVSPropertyOp46
 70
     1
102
RTVSPropertyOp47
 70
     1
102
RTVSPropertyOp48
 70
     1
102
RTVSPropertyOp49
 70
     1
102
RTVSPropertyOp50
 70
     1
102
RTVSPropertyOp51
 70
     0
102
RTVSPropertyOp52
 70
     0
102
RTVSPropertyOp53
 70
     1
102
RTVSPropertyOp54
 70
     1
102
RTVSPropertyOp55
 70
     1
102
RTVSPropertyOp56
 70
     1
102
RTVSPropertyOp57
 70
     1
102
RTVSPropertyOp58
 70
     1
102
RTVSPropertyOp59
 70
     1
102
RTVSPropertyOp60
 70
     1
102
RTVSPropertyOp61
 70
     1
102
RTVSPropertyOp62
 70
     1
  0
XRECORD
  5
4445
102
{ACAD_REACTORS
330
4444
102
}
330
4444
100
AcDbXrecord
280
     1
102
RTVSPost2010Prop28
280
     0
102
RTVSPost2010PropOp28
 70
     1
102
RTVSPost2010Prop29
280
     1
102
RTVSPost2010PropOp29
 70
     1
102
RTVSPost2010Prop30
280
     1
102
RTVSPost2010PropOp30
 70
     1
102
RTVSPost2010Prop31
280
     0
102
RTVSPost2010PropOp31
 70
     1
102
RTVSPost2010Prop32
280
     0
102
RTVSPost2010PropOp32
 70
     1
102
RTVSPost2010Prop33
280
     0
102
RTVSPost2010PropOp33
 70
     1
102
RTVSPost2010Prop34
280
     0
102
RTVSPost2010PropOp34
 70
     1
102
RTVSPost2010Prop35
280
     0
102
RTVSPost2010PropOp35
 70
     1
102
RTVSPost2010Prop36
280
     0
102
RTVSPost2010PropOp36
 70
     1
102
RTVSPost2010Prop37
 90
       50
102
RTVSPost2010PropOp37
 70
     1
102
RTVSPost2010Prop38
140
0.0
102
RTVSPost2010PropOp38
 70
     1
102
RTVSPost2010Prop39
140
1.0
102
RTVSPost2010PropOp39
 70
     1
102
RTVSPost2010Prop40
 90
        0
102
RTVSPost2010PropOp40
 70
     1
102
RTVSPost2010Prop41ColorIndex
 90
       18
102
RTVSPost2010Prop41ColorRGB
 90
        0
102
RTVSPost2010PropOp41
 70
     1
102
RTVSPost2010Prop42
 90
       50
102
RTVSPost2010PropOp42
 70
     1
102
RTVSPost2010Prop43
 90
        3
102
RTVSPost2010PropOp43
 70
     1
102
RTVSPost2010Prop44ColorIndex
 90
        5
102
RTVSPost2010Prop44ColorRGB
 90
      255
102
RTVSPost2010PropOp44
 70
     1
102
RTVSPost2010Prop45
280
     0
102
RTVSPost2010PropOp45
 70
     1
102
RTVSPost2010Prop46
 90
       50
102
RTVSPost2010PropOp46
 70
     1
102
RTVSPost2010Prop47
 90
       50
102
RTVSPost2010PropOp47
 70
     1
102
RTVSPost2010Prop48
 90
       50
102
RTVSPost2010PropOp48
 70
     1
102
RTVSPost2010Prop49
280
     0
102
RTVSPost2010PropOp49
 70
     1
102
RTVSPost2010Prop50
 90
       50
102
RTVSPost2010PropOp50
 70
     1
102
RTVSPost2010Prop51ColorIndex
 90
      256
102
RTVSPost2010Prop51ColorRGB
 90
-16777216
102
RTVSPost2010PropOp51
 70
     0
102
RTVSPost2010Prop52
140
1.0
102
RTVSPost2010PropOp52
 70
     0
102
RTVSPost2010Prop53
 90
        2
102
RTVSPost2010PropOp53
 70
     1
102
RTVSPost2010Prop54
  1
strokes_ogs.tif
102
RTVSPost2010PropOp54
 70
     1
102
RTVSPost2010Prop55
280
     0
102
RTVSPost2010PropOp55
 70
     1
102
RTVSPost2010Prop56
140
1.0
102
RTVSPost2010PropOp56
 70
     1
102
RTVSPost2010Prop57
140
1.0
102
RTVSPost2010PropOp57
 70
     1
102
RTVSPropertyOp0
 70
     1
102
RTVSPropertyOp1
 70
     1
102
RTVSPropertyOp2
 70
     1
102
RTVSPropertyOp3
 70
     1
102
RTVSPropertyOp4
 70
     1
102
RTVSPropertyOp5
 70
     1
102
RTVSPropertyOp6
 70
     1
102
RTVSPropertyOp7
 70
     1
102
RTVSPropertyOp8
 70
     1
102
RTVSPropertyOp9
 70
     1
102
RTVSPropertyOp10
 70
     1
102
RTVSPropertyOp11
 70
     1
102
RTVSPropertyOp12
 70
     1
102
RTVSPropertyOp13
 70
     1
102
RTVSPropertyOp14
 70
     1
102
RTVSPropertyOp15
 70
     1
102
RTVSPropertyOp16
 70
     1
102
RTVSPropertyOp17
 70
     1
102
RTVSPropertyOp18
 70
     1
102
RTVSPropertyOp19
 70
     1
102
RTVSPropertyOp20
 70
     1
102
RTVSPropertyOp21
 70
     1
102
RTVSPropertyOp22
 70
     1
102
RTVSPropertyOp23
 70
     1
102
RTVSPropertyOp24
 70
     1
102
RTVSPropertyOp25
 70
     1
102
RTVSPropertyOp26
 70
     1
102
RTVSPropertyOp27
 70
     1
102
RTVSPropertyOp28
 70
     1
102
RTVSPropertyOp29
 70
     1
102
RTVSPropertyOp30
 70
     1
102
RTVSPropertyOp31
 70
     1
102
RTVSPropertyOp32
 70
     1
102
RTVSPropertyOp33
 70
     1
102
RTVSPropertyOp34
 70
     1
102
RTVSPropertyOp35
 70
     1
102
RTVSPropertyOp36
 70
     1
102
RTVSPropertyOp37
 70
     1
102
RTVSPropertyOp38
 70
     1
102
RTVSPropertyOp39
 70
     1
102
RTVSPropertyOp40
 70
     1
102
RTVSPropertyOp41
 70
     1
102
RTVSPropertyOp42
 70
     1
102
RTVSPropertyOp43
 70
     1
102
RTVSPropertyOp44
 70
     1
102
RTVSPropertyOp45
 70
     1
102
RTVSPropertyOp46
 70
     1
102
RTVSPropertyOp47
 70
     1
102
RTVSPropertyOp48
 70
     1
102
RTVSPropertyOp49
 70
     1
102
RTVSPropertyOp50
 70
     1
102
RTVSPropertyOp51
 70
     0
102
RTVSPropertyOp52
 70
     0
102
RTVSPropertyOp53
 70
     1
102
RTVSPropertyOp54
 70
     1
102
RTVSPropertyOp55
 70
     1
102
RTVSPropertyOp56
 70
     1
102
RTVSPropertyOp57
 70
     1
102
RTVSPropertyOp58
 70
     1
102
RTVSPropertyOp59
 70
     1
102
RTVSPropertyOp60
 70
     1
102
RTVSPropertyOp61
 70
     1
102
RTVSPropertyOp62
 70
     1
  0
XRECORD
  5
4449
102
{ACAD_REACTORS
330
4448
102
}
330
4448
100
AcDbXrecord
280
     1
102
RTVSPost2010Prop28
280
     0
102
RTVSPost2010PropOp28
 70
     1
102
RTVSPost2010Prop29
280
     1
102
RTVSPost2010PropOp29
 70
     1
102
RTVSPost2010Prop30
280
     1
102
RTVSPost2010PropOp30
 70
     1
102
RTVSPost2010Prop31
280
     0
102
RTVSPost2010PropOp31
 70
     1
102
RTVSPost2010Prop32
280
     0
102
RTVSPost2010PropOp32
 70
     1
102
RTVSPost2010Prop33
280
     0
102
RTVSPost2010PropOp33
 70
     1
102
RTVSPost2010Prop34
280
     0
102
RTVSPost2010PropOp34
 70
     1
102
RTVSPost2010Prop35
280
     0
102
RTVSPost2010PropOp35
 70
     1
102
RTVSPost2010Prop36
280
     0
102
RTVSPost2010PropOp36
 70
     1
102
RTVSPost2010Prop37
 90
       50
102
RTVSPost2010PropOp37
 70
     1
102
RTVSPost2010Prop38
140
0.0
102
RTVSPost2010PropOp38
 70
     1
102
RTVSPost2010Prop39
140
1.0
102
RTVSPost2010PropOp39
 70
     1
102
RTVSPost2010Prop40
 90
        0
102
RTVSPost2010PropOp40
 70
     1
102
RTVSPost2010Prop41ColorIndex
 90
       18
102
RTVSPost2010Prop41ColorRGB
 90
        0
102
RTVSPost2010PropOp41
 70
     1
102
RTVSPost2010Prop42
 90
       50
102
RTVSPost2010PropOp42
 70
     1
102
RTVSPost2010Prop43
 90
        3
102
RTVSPost2010PropOp43
 70
     1
102
RTVSPost2010Prop44ColorIndex
 90
        5
102
RTVSPost2010Prop44ColorRGB
 90
      255
102
RTVSPost2010PropOp44
 70
     1
102
RTVSPost2010Prop45
280
     0
102
RTVSPost2010PropOp45
 70
     1
102
RTVSPost2010Prop46
 90
       50
102
RTVSPost2010PropOp46
 70
     1
102
RTVSPost2010Prop47
 90
       50
102
RTVSPost2010PropOp47
 70
     1
102
RTVSPost2010Prop48
 90
       50
102
RTVSPost2010PropOp48
 70
     1
102
RTVSPost2010Prop49
280
     0
102
RTVSPost2010PropOp49
 70
     1
102
RTVSPost2010Prop50
 90
       50
102
RTVSPost2010PropOp50
 70
     1
102
RTVSPost2010Prop51ColorIndex
 90
      256
102
RTVSPost2010Prop51ColorRGB
 90
-16777216
102
RTVSPost2010PropOp51
 70
     0
102
RTVSPost2010Prop52
140
1.0
102
RTVSPost2010PropOp52
 70
     0
102
RTVSPost2010Prop53
 90
        2
102
RTVSPost2010PropOp53
 70
     1
102
RTVSPost2010Prop54
  1
strokes_ogs.tif
102
RTVSPost2010PropOp54
 70
     1
102
RTVSPost2010Prop55
280
     0
102
RTVSPost2010PropOp55
 70
     1
102
RTVSPost2010Prop56
140
1.0
102
RTVSPost2010PropOp56
 70
     1
102
RTVSPost2010Prop57
140
1.0
102
RTVSPost2010PropOp57
 70
     1
102
RTVSPropertyOp0
 70
     1
102
RTVSPropertyOp1
 70
     1
102
RTVSPropertyOp2
 70
     1
102
RTVSPropertyOp3
 70
     1
102
RTVSPropertyOp4
 70
     1
102
RTVSPropertyOp5
 70
     1
102
RTVSPropertyOp6
 70
     1
102
RTVSPropertyOp7
 70
     1
102
RTVSPropertyOp8
 70
     1
102
RTVSPropertyOp9
 70
     1
102
RTVSPropertyOp10
 70
     1
102
RTVSPropertyOp11
 70
     1
102
RTVSPropertyOp12
 70
     1
102
RTVSPropertyOp13
 70
     1
102
RTVSPropertyOp14
 70
     1
102
RTVSPropertyOp15
 70
     1
102
RTVSPropertyOp16
 70
     1
102
RTVSPropertyOp17
 70
     1
102
RTVSPropertyOp18
 70
     1
102
RTVSPropertyOp19
 70
     1
102
RTVSPropertyOp20
 70
     1
102
RTVSPropertyOp21
 70
     1
102
RTVSPropertyOp22
 70
     1
102
RTVSPropertyOp23
 70
     1
102
RTVSPropertyOp24
 70
     1
102
RTVSPropertyOp25
 70
     1
102
RTVSPropertyOp26
 70
     1
102
RTVSPropertyOp27
 70
     1
102
RTVSPropertyOp28
 70
     1
102
RTVSPropertyOp29
 70
     1
102
RTVSPropertyOp30
 70
     1
102
RTVSPropertyOp31
 70
     1
102
RTVSPropertyOp32
 70
     1
102
RTVSPropertyOp33
 70
     1
102
RTVSPropertyOp34
 70
     1
102
RTVSPropertyOp35
 70
     1
102
RTVSPropertyOp36
 70
     1
102
RTVSPropertyOp37
 70
     1
102
RTVSPropertyOp38
 70
     1
102
RTVSPropertyOp39
 70
     1
102
RTVSPropertyOp40
 70
     1
102
RTVSPropertyOp41
 70
     1
102
RTVSPropertyOp42
 70
     1
102
RTVSPropertyOp43
 70
     1
102
RTVSPropertyOp44
 70
     1
102
RTVSPropertyOp45
 70
     1
102
RTVSPropertyOp46
 70
     1
102
RTVSPropertyOp47
 70
     1
102
RTVSPropertyOp48
 70
     1
102
RTVSPropertyOp49
 70
     1
102
RTVSPropertyOp50
 70
     1
102
RTVSPropertyOp51
 70
     0
102
RTVSPropertyOp52
 70
     0
102
RTVSPropertyOp53
 70
     1
102
RTVSPropertyOp54
 70
     1
102
RTVSPropertyOp55
 70
     1
102
RTVSPropertyOp56
 70
     1
102
RTVSPropertyOp57
 70
     1
102
RTVSPropertyOp58
 70
     1
102
RTVSPropertyOp59
 70
     1
102
RTVSPropertyOp60
 70
     1
102
RTVSPropertyOp61
 70
     1
102
RTVSPropertyOp62
 70
     1
  0
XRECORD
  5
4459
102
{ACAD_REACTORS
330
4458
102
}
330
4458
100
AcDbXrecord
280
     1
102
RTVSPost2010Prop28
280
     0
102
RTVSPost2010PropOp28
 70
     1
102
RTVSPost2010Prop29
280
     1
102
RTVSPost2010PropOp29
 70
     1
102
RTVSPost2010Prop30
280
     1
102
RTVSPost2010PropOp30
 70
     1
102
RTVSPost2010Prop31
280
     0
102
RTVSPost2010PropOp31
 70
     1
102
RTVSPost2010Prop32
280
     0
102
RTVSPost2010PropOp32
 70
     1
102
RTVSPost2010Prop33
280
     0
102
RTVSPost2010PropOp33
 70
     1
102
RTVSPost2010Prop34
280
     0
102
RTVSPost2010PropOp34
 70
     1
102
RTVSPost2010Prop35
280
     0
102
RTVSPost2010PropOp35
 70
     1
102
RTVSPost2010Prop36
280
     0
102
RTVSPost2010PropOp36
 70
     1
102
RTVSPost2010Prop37
 90
       50
102
RTVSPost2010PropOp37
 70
     1
102
RTVSPost2010Prop38
140
0.0
102
RTVSPost2010PropOp38
 70
     1
102
RTVSPost2010Prop39
140
1.0
102
RTVSPost2010PropOp39
 70
     1
102
RTVSPost2010Prop40
 90
        0
102
RTVSPost2010PropOp40
 70
     1
102
RTVSPost2010Prop41ColorIndex
 90
       18
102
RTVSPost2010Prop41ColorRGB
 90
        0
102
RTVSPost2010PropOp41
 70
     1
102
RTVSPost2010Prop42
 90
       50
102
RTVSPost2010PropOp42
 70
     1
102
RTVSPost2010Prop43
 90
        3
102
RTVSPost2010PropOp43
 70
     1
102
RTVSPost2010Prop44ColorIndex
 90
        5
102
RTVSPost2010Prop44ColorRGB
 90
      255
102
RTVSPost2010PropOp44
 70
     1
102
RTVSPost2010Prop45
280
     0
102
RTVSPost2010PropOp45
 70
     1
102
RTVSPost2010Prop46
 90
       50
102
RTVSPost2010PropOp46
 70
     1
102
RTVSPost2010Prop47
 90
       50
102
RTVSPost2010PropOp47
 70
     1
102
RTVSPost2010Prop48
 90
       50
102
RTVSPost2010PropOp48
 70
     1
102
RTVSPost2010Prop49
280
     0
102
RTVSPost2010PropOp49
 70
     1
102
RTVSPost2010Prop50
 90
       50
102
RTVSPost2010PropOp50
 70
     1
102
RTVSPost2010Prop51ColorIndex
 90
      256
102
RTVSPost2010Prop51ColorRGB
 90
-16777216
102
RTVSPost2010PropOp51
 70
     0
102
RTVSPost2010Prop52
140
1.0
102
RTVSPost2010PropOp52
 70
     0
102
RTVSPost2010Prop53
 90
        2
102
RTVSPost2010PropOp53
 70
     1
102
RTVSPost2010Prop54
  1
strokes_ogs.tif
102
RTVSPost2010PropOp54
 70
     1
102
RTVSPost2010Prop55
280
     0
102
RTVSPost2010PropOp55
 70
     1
102
RTVSPost2010Prop56
140
1.0
102
RTVSPost2010PropOp56
 70
     1
102
RTVSPost2010Prop57
140
1.0
102
RTVSPost2010PropOp57
 70
     1
102
RTVSPropertyOp0
 70
     0
102
RTVSPropertyOp1
 70
     0
102
RTVSPropertyOp2
 70
     0
102
RTVSPropertyOp3
 70
     0
102
RTVSPropertyOp4
 70
     0
102
RTVSPropertyOp5
 70
     0
102
RTVSPropertyOp6
 70
     0
102
RTVSPropertyOp7
 70
     0
102
RTVSPropertyOp8
 70
     0
102
RTVSPropertyOp9
 70
     0
102
RTVSPropertyOp10
 70
     0
102
RTVSPropertyOp11
 70
     0
102
RTVSPropertyOp12
 70
     0
102
RTVSPropertyOp13
 70
     0
102
RTVSPropertyOp14
 70
     2
102
RTVSPropertyOp15
 70
     0
102
RTVSPropertyOp16
 70
     0
102
RTVSPropertyOp17
 70
     0
102
RTVSPropertyOp18
 70
     0
102
RTVSPropertyOp19
 70
     0
102
RTVSPropertyOp20
 70
     0
102
RTVSPropertyOp21
 70
     0
102
RTVSPropertyOp22
 70
     0
102
RTVSPropertyOp23
 70
     0
102
RTVSPropertyOp24
 70
     0
102
RTVSPropertyOp25
 70
     0
102
RTVSPropertyOp26
 70
     0
102
RTVSPropertyOp27
 70
     0
102
RTVSPropertyOp28
 70
     1
102
RTVSPropertyOp29
 70
     1
102
RTVSPropertyOp30
 70
     1
102
RTVSPropertyOp31
 70
     1
102
RTVSPropertyOp32
 70
     1
102
RTVSPropertyOp33
 70
     1
102
RTVSPropertyOp34
 70
     1
102
RTVSPropertyOp35
 70
     1
102
RTVSPropertyOp36
 70
     1
102
RTVSPropertyOp37
 70
     1
102
RTVSPropertyOp38
 70
     1
102
RTVSPropertyOp39
 70
     1
102
RTVSPropertyOp40
 70
     1
102
RTVSPropertyOp41
 70
     1
102
RTVSPropertyOp42
 70
     1
102
RTVSPropertyOp43
 70
     1
102
RTVSPropertyOp44
 70
     1
102
RTVSPropertyOp45
 70
     1
102
RTVSPropertyOp46
 70
     1
102
RTVSPropertyOp47
 70
     1
102
RTVSPropertyOp48
 70
     1
102
RTVSPropertyOp49
 70
     1
102
RTVSPropertyOp50
 70
     1
102
RTVSPropertyOp51
 70
     0
102
RTVSPropertyOp52
 70
     0
102
RTVSPropertyOp53
 70
     1
102
RTVSPropertyOp54
 70
     1
102
RTVSPropertyOp55
 70
     1
102
RTVSPropertyOp56
 70
     1
102
RTVSPropertyOp57
 70
     1
102
RTVSPropertyOp58
 70
     1
102
RTVSPropertyOp59
 70
     1
102
RTVSPropertyOp60
 70
     1
102
RTVSPropertyOp61
 70
     1
102
RTVSPropertyOp62
 70
     1
  0
XRECORD
  5
4451
102
{ACAD_REACTORS
330
4450
102
}
330
4450
100
AcDbXrecord
280
     1
102
RTVSPost2010Prop28
280
     0
102
RTVSPost2010PropOp28
 70
     1
102
RTVSPost2010Prop29
280
     1
102
RTVSPost2010PropOp29
 70
     1
102
RTVSPost2010Prop30
280
     1
102
RTVSPost2010PropOp30
 70
     1
102
RTVSPost2010Prop31
280
     0
102
RTVSPost2010PropOp31
 70
     1
102
RTVSPost2010Prop32
280
     0
102
RTVSPost2010PropOp32
 70
     1
102
RTVSPost2010Prop33
280
     0
102
RTVSPost2010PropOp33
 70
     1
102
RTVSPost2010Prop34
280
     0
102
RTVSPost2010PropOp34
 70
     1
102
RTVSPost2010Prop35
280
     0
102
RTVSPost2010PropOp35
 70
     1
102
RTVSPost2010Prop36
280
     0
102
RTVSPost2010PropOp36
 70
     1
102
RTVSPost2010Prop37
 90
       50
102
RTVSPost2010PropOp37
 70
     1
102
RTVSPost2010Prop38
140
0.0
102
RTVSPost2010PropOp38
 70
     1
102
RTVSPost2010Prop39
140
1.0
102
RTVSPost2010PropOp39
 70
     1
102
RTVSPost2010Prop40
 90
        0
102
RTVSPost2010PropOp40
 70
     1
102
RTVSPost2010Prop41ColorIndex
 90
       18
102
RTVSPost2010Prop41ColorRGB
 90
        0
102
RTVSPost2010PropOp41
 70
     1
102
RTVSPost2010Prop42
 90
       50
102
RTVSPost2010PropOp42
 70
     1
102
RTVSPost2010Prop43
 90
        3
102
RTVSPost2010PropOp43
 70
     1
102
RTVSPost2010Prop44ColorIndex
 90
        5
102
RTVSPost2010Prop44ColorRGB
 90
      255
102
RTVSPost2010PropOp44
 70
     1
102
RTVSPost2010Prop45
280
     0
102
RTVSPost2010PropOp45
 70
     1
102
RTVSPost2010Prop46
 90
       50
102
RTVSPost2010PropOp46
 70
     1
102
RTVSPost2010Prop47
 90
       50
102
RTVSPost2010PropOp47
 70
     1
102
RTVSPost2010Prop48
 90
       50
102
RTVSPost2010PropOp48
 70
     1
102
RTVSPost2010Prop49
280
     0
102
RTVSPost2010PropOp49
 70
     1
102
RTVSPost2010Prop50
 90
       50
102
RTVSPost2010PropOp50
 70
     1
102
RTVSPost2010Prop51ColorIndex
 90
      256
102
RTVSPost2010Prop51ColorRGB
 90
-16777216
102
RTVSPost2010PropOp51
 70
     0
102
RTVSPost2010Prop52
140
1.0
102
RTVSPost2010PropOp52
 70
     0
102
RTVSPost2010Prop53
 90
        2
102
RTVSPost2010PropOp53
 70
     1
102
RTVSPost2010Prop54
  1
strokes_ogs.tif
102
RTVSPost2010PropOp54
 70
     1
102
RTVSPost2010Prop55
280
     0
102
RTVSPost2010PropOp55
 70
     1
102
RTVSPost2010Prop56
140
1.0
102
RTVSPost2010PropOp56
 70
     1
102
RTVSPost2010Prop57
140
1.0
102
RTVSPost2010PropOp57
 70
     1
102
RTVSPropertyOp0
 70
     1
102
RTVSPropertyOp1
 70
     1
102
RTVSPropertyOp2
 70
     1
102
RTVSPropertyOp3
 70
     1
102
RTVSPropertyOp4
 70
     1
102
RTVSPropertyOp5
 70
     1
102
RTVSPropertyOp6
 70
     1
102
RTVSPropertyOp7
 70
     1
102
RTVSPropertyOp8
 70
     1
102
RTVSPropertyOp9
 70
     1
102
RTVSPropertyOp10
 70
     1
102
RTVSPropertyOp11
 70
     1
102
RTVSPropertyOp12
 70
     1
102
RTVSPropertyOp13
 70
     1
102
RTVSPropertyOp14
 70
     1
102
RTVSPropertyOp15
 70
     1
102
RTVSPropertyOp16
 70
     1
102
RTVSPropertyOp17
 70
     1
102
RTVSPropertyOp18
 70
     1
102
RTVSPropertyOp19
 70
     1
102
RTVSPropertyOp20
 70
     1
102
RTVSPropertyOp21
 70
     1
102
RTVSPropertyOp22
 70
     1
102
RTVSPropertyOp23
 70
     1
102
RTVSPropertyOp24
 70
     1
102
RTVSPropertyOp25
 70
     1
102
RTVSPropertyOp26
 70
     1
102
RTVSPropertyOp27
 70
     1
102
RTVSPropertyOp28
 70
     1
102
RTVSPropertyOp29
 70
     1
102
RTVSPropertyOp30
 70
     1
102
RTVSPropertyOp31
 70
     1
102
RTVSPropertyOp32
 70
     1
102
RTVSPropertyOp33
 70
     1
102
RTVSPropertyOp34
 70
     1
102
RTVSPropertyOp35
 70
     1
102
RTVSPropertyOp36
 70
     1
102
RTVSPropertyOp37
 70
     1
102
RTVSPropertyOp38
 70
     1
102
RTVSPropertyOp39
 70
     1
102
RTVSPropertyOp40
 70
     1
102
RTVSPropertyOp41
 70
     1
102
RTVSPropertyOp42
 70
     1
102
RTVSPropertyOp43
 70
     1
102
RTVSPropertyOp44
 70
     1
102
RTVSPropertyOp45
 70
     1
102
RTVSPropertyOp46
 70
     1
102
RTVSPropertyOp47
 70
     1
102
RTVSPropertyOp48
 70
     1
102
RTVSPropertyOp49
 70
     1
102
RTVSPropertyOp50
 70
     1
102
RTVSPropertyOp51
 70
     0
102
RTVSPropertyOp52
 70
     0
102
RTVSPropertyOp53
 70
     1
102
RTVSPropertyOp54
 70
     1
102
RTVSPropertyOp55
 70
     1
102
RTVSPropertyOp56
 70
     1
102
RTVSPropertyOp57
 70
     1
102
RTVSPropertyOp58
 70
     1
102
RTVSPropertyOp59
 70
     1
102
RTVSPropertyOp60
 70
     1
102
RTVSPropertyOp61
 70
     1
102
RTVSPropertyOp62
 70
     1
  0
XRECORD
  5
4435
102
{ACAD_REACTORS
330
4434
102
}
330
4434
100
AcDbXrecord
280
     1
102
RTVSPost2010Prop28
280
     0
102
RTVSPost2010PropOp28
 70
     1
102
RTVSPost2010Prop29
280
     1
102
RTVSPost2010PropOp29
 70
     1
102
RTVSPost2010Prop30
280
     1
102
RTVSPost2010PropOp30
 70
     1
102
RTVSPost2010Prop31
280
     0
102
RTVSPost2010PropOp31
 70
     1
102
RTVSPost2010Prop32
280
     0
102
RTVSPost2010PropOp32
 70
     1
102
RTVSPost2010Prop33
280
     0
102
RTVSPost2010PropOp33
 70
     1
102
RTVSPost2010Prop34
280
     0
102
RTVSPost2010PropOp34
 70
     1
102
RTVSPost2010Prop35
280
     0
102
RTVSPost2010PropOp35
 70
     1
102
RTVSPost2010Prop36
280
     0
102
RTVSPost2010PropOp36
 70
     1
102
RTVSPost2010Prop37
 90
       50
102
RTVSPost2010PropOp37
 70
     1
102
RTVSPost2010Prop38
140
0.0
102
RTVSPost2010PropOp38
 70
     1
102
RTVSPost2010Prop39
140
1.0
102
RTVSPost2010PropOp39
 70
     1
102
RTVSPost2010Prop40
 90
        0
102
RTVSPost2010PropOp40
 70
     1
102
RTVSPost2010Prop41ColorIndex
 90
       18
102
RTVSPost2010Prop41ColorRGB
 90
        0
102
RTVSPost2010PropOp41
 70
     1
102
RTVSPost2010Prop42
 90
       50
102
RTVSPost2010PropOp42
 70
     1
102
RTVSPost2010Prop43
 90
        3
102
RTVSPost2010PropOp43
 70
     1
102
RTVSPost2010Prop44ColorIndex
 90
        5
102
RTVSPost2010Prop44ColorRGB
 90
      255
102
RTVSPost2010PropOp44
 70
     1
102
RTVSPost2010Prop45
280
     0
102
RTVSPost2010PropOp45
 70
     1
102
RTVSPost2010Prop46
 90
       50
102
RTVSPost2010PropOp46
 70
     1
102
RTVSPost2010Prop47
 90
       50
102
RTVSPost2010PropOp47
 70
     1
102
RTVSPost2010Prop48
 90
       50
102
RTVSPost2010PropOp48
 70
     1
102
RTVSPost2010Prop49
280
     0
102
RTVSPost2010PropOp49
 70
     1
102
RTVSPost2010Prop50
 90
       50
102
RTVSPost2010PropOp50
 70
     1
102
RTVSPost2010Prop51ColorIndex
 90
      256
102
RTVSPost2010Prop51ColorRGB
 90
-16777216
102
RTVSPost2010PropOp51
 70
     0
102
RTVSPost2010Prop52
140
1.0
102
RTVSPost2010PropOp52
 70
     0
102
RTVSPost2010Prop53
 90
        2
102
RTVSPost2010PropOp53
 70
     1
102
RTVSPost2010Prop54
  1
strokes_ogs.tif
102
RTVSPost2010PropOp54
 70
     1
102
RTVSPost2010Prop55
280
     0
102
RTVSPost2010PropOp55
 70
     1
102
RTVSPost2010Prop56
140
1.0
102
RTVSPost2010PropOp56
 70
     1
102
RTVSPost2010Prop57
140
1.0
102
RTVSPost2010PropOp57
 70
     1
102
RTVSPropertyOp0
 70
     1
102
RTVSPropertyOp1
 70
     1
102
RTVSPropertyOp2
 70
     1
102
RTVSPropertyOp3
 70
     1
102
RTVSPropertyOp4
 70
     1
102
RTVSPropertyOp5
 70
     1
102
RTVSPropertyOp6
 70
     1
102
RTVSPropertyOp7
 70
     1
102
RTVSPropertyOp8
 70
     1
102
RTVSPropertyOp9
 70
     1
102
RTVSPropertyOp10
 70
     1
102
RTVSPropertyOp11
 70
     1
102
RTVSPropertyOp12
 70
     1
102
RTVSPropertyOp13
 70
     1
102
RTVSPropertyOp14
 70
     1
102
RTVSPropertyOp15
 70
     1
102
RTVSPropertyOp16
 70
     1
102
RTVSPropertyOp17
 70
     1
102
RTVSPropertyOp18
 70
     1
102
RTVSPropertyOp19
 70
     1
102
RTVSPropertyOp20
 70
     1
102
RTVSPropertyOp21
 70
     1
102
RTVSPropertyOp22
 70
     1
102
RTVSPropertyOp23
 70
     1
102
RTVSPropertyOp24
 70
     1
102
RTVSPropertyOp25
 70
     1
102
RTVSPropertyOp26
 70
     1
102
RTVSPropertyOp27
 70
     1
102
RTVSPropertyOp28
 70
     1
102
RTVSPropertyOp29
 70
     1
102
RTVSPropertyOp30
 70
     1
102
RTVSPropertyOp31
 70
     1
102
RTVSPropertyOp32
 70
     1
102
RTVSPropertyOp33
 70
     1
102
RTVSPropertyOp34
 70
     1
102
RTVSPropertyOp35
 70
     1
102
RTVSPropertyOp36
 70
     1
102
RTVSPropertyOp37
 70
     1
102
RTVSPropertyOp38
 70
     1
102
RTVSPropertyOp39
 70
     1
102
RTVSPropertyOp40
 70
     1
102
RTVSPropertyOp41
 70
     1
102
RTVSPropertyOp42
 70
     1
102
RTVSPropertyOp43
 70
     1
102
RTVSPropertyOp44
 70
     1
102
RTVSPropertyOp45
 70
     1
102
RTVSPropertyOp46
 70
     1
102
RTVSPropertyOp47
 70
     1
102
RTVSPropertyOp48
 70
     1
102
RTVSPropertyOp49
 70
     1
102
RTVSPropertyOp50
 70
     1
102
RTVSPropertyOp51
 70
     0
102
RTVSPropertyOp52
 70
     0
102
RTVSPropertyOp53
 70
     1
102
RTVSPropertyOp54
 70
     1
102
RTVSPropertyOp55
 70
     1
102
RTVSPropertyOp56
 70
     1
102
RTVSPropertyOp57
 70
     1
102
RTVSPropertyOp58
 70
     1
102
RTVSPropertyOp59
 70
     1
102
RTVSPropertyOp60
 70
     1
102
RTVSPropertyOp61
 70
     1
102
RTVSPropertyOp62
 70
     1
  0
XRECORD
  5
4437
102
{ACAD_REACTORS
330
4436
102
}
330
4436
100
AcDbXrecord
280
     1
102
RTVSPost2010Prop28
280
     0
102
RTVSPost2010PropOp28
 70
     1
102
RTVSPost2010Prop29
280
     1
102
RTVSPost2010PropOp29
 70
     1
102
RTVSPost2010Prop30
280
     1
102
RTVSPost2010PropOp30
 70
     1
102
RTVSPost2010Prop31
280
     0
102
RTVSPost2010PropOp31
 70
     1
102
RTVSPost2010Prop32
280
     0
102
RTVSPost2010PropOp32
 70
     1
102
RTVSPost2010Prop33
280
     0
102
RTVSPost2010PropOp33
 70
     1
102
RTVSPost2010Prop34
280
     0
102
RTVSPost2010PropOp34
 70
     1
102
RTVSPost2010Prop35
280
     0
102
RTVSPost2010PropOp35
 70
     1
102
RTVSPost2010Prop36
280
     0
102
RTVSPost2010PropOp36
 70
     1
102
RTVSPost2010Prop37
 90
       50
102
RTVSPost2010PropOp37
 70
     1
102
RTVSPost2010Prop38
140
0.0
102
RTVSPost2010PropOp38
 70
     1
102
RTVSPost2010Prop39
140
1.0
102
RTVSPost2010PropOp39
 70
     1
102
RTVSPost2010Prop40
 90
        0
102
RTVSPost2010PropOp40
 70
     1
102
RTVSPost2010Prop41ColorIndex
 90
       18
102
RTVSPost2010Prop41ColorRGB
 90
        0
102
RTVSPost2010PropOp41
 70
     1
102
RTVSPost2010Prop42
 90
       50
102
RTVSPost2010PropOp42
 70
     1
102
RTVSPost2010Prop43
 90
        3
102
RTVSPost2010PropOp43
 70
     1
102
RTVSPost2010Prop44ColorIndex
 90
        5
102
RTVSPost2010Prop44ColorRGB
 90
      255
102
RTVSPost2010PropOp44
 70
     1
102
RTVSPost2010Prop45
280
     0
102
RTVSPost2010PropOp45
 70
     1
102
RTVSPost2010Prop46
 90
       50
102
RTVSPost2010PropOp46
 70
     1
102
RTVSPost2010Prop47
 90
       50
102
RTVSPost2010PropOp47
 70
     1
102
RTVSPost2010Prop48
 90
       50
102
RTVSPost2010PropOp48
 70
     1
102
RTVSPost2010Prop49
280
     0
102
RTVSPost2010PropOp49
 70
     1
102
RTVSPost2010Prop50
 90
       50
102
RTVSPost2010PropOp50
 70
     1
102
RTVSPost2010Prop51ColorIndex
 90
      256
102
RTVSPost2010Prop51ColorRGB
 90
-16777216
102
RTVSPost2010PropOp51
 70
     0
102
RTVSPost2010Prop52
140
1.0
102
RTVSPost2010PropOp52
 70
     0
102
RTVSPost2010Prop53
 90
        2
102
RTVSPost2010PropOp53
 70
     1
102
RTVSPost2010Prop54
  1
strokes_ogs.tif
102
RTVSPost2010PropOp54
 70
     1
102
RTVSPost2010Prop55
280
     0
102
RTVSPost2010PropOp55
 70
     1
102
RTVSPost2010Prop56
140
1.0
102
RTVSPost2010PropOp56
 70
     1
102
RTVSPost2010Prop57
140
1.0
102
RTVSPost2010PropOp57
 70
     1
102
RTVSPropertyOp0
 70
     1
102
RTVSPropertyOp1
 70
     1
102
RTVSPropertyOp2
 70
     1
102
RTVSPropertyOp3
 70
     1
102
RTVSPropertyOp4
 70
     1
102
RTVSPropertyOp5
 70
     1
102
RTVSPropertyOp6
 70
     1
102
RTVSPropertyOp7
 70
     1
102
RTVSPropertyOp8
 70
     1
102
RTVSPropertyOp9
 70
     1
102
RTVSPropertyOp10
 70
     1
102
RTVSPropertyOp11
 70
     1
102
RTVSPropertyOp12
 70
     1
102
RTVSPropertyOp13
 70
     1
102
RTVSPropertyOp14
 70
     1
102
RTVSPropertyOp15
 70
     1
102
RTVSPropertyOp16
 70
     1
102
RTVSPropertyOp17
 70
     1
102
RTVSPropertyOp18
 70
     1
102
RTVSPropertyOp19
 70
     1
102
RTVSPropertyOp20
 70
     1
102
RTVSPropertyOp21
 70
     1
102
RTVSPropertyOp22
 70
     1
102
RTVSPropertyOp23
 70
     1
102
RTVSPropertyOp24
 70
     1
102
RTVSPropertyOp25
 70
     1
102
RTVSPropertyOp26
 70
     1
102
RTVSPropertyOp27
 70
     1
102
RTVSPropertyOp28
 70
     1
102
RTVSPropertyOp29
 70
     1
102
RTVSPropertyOp30
 70
     1
102
RTVSPropertyOp31
 70
     1
102
RTVSPropertyOp32
 70
     1
102
RTVSPropertyOp33
 70
     1
102
RTVSPropertyOp34
 70
     1
102
RTVSPropertyOp35
 70
     1
102
RTVSPropertyOp36
 70
     1
102
RTVSPropertyOp37
 70
     1
102
RTVSPropertyOp38
 70
     1
102
RTVSPropertyOp39
 70
     1
102
RTVSPropertyOp40
 70
     1
102
RTVSPropertyOp41
 70
     1
102
RTVSPropertyOp42
 70
     1
102
RTVSPropertyOp43
 70
     1
102
RTVSPropertyOp44
 70
     1
102
RTVSPropertyOp45
 70
     1
102
RTVSPropertyOp46
 70
     1
102
RTVSPropertyOp47
 70
     1
102
RTVSPropertyOp48
 70
     1
102
RTVSPropertyOp49
 70
     1
102
RTVSPropertyOp50
 70
     1
102
RTVSPropertyOp51
 70
     0
102
RTVSPropertyOp52
 70
     0
102
RTVSPropertyOp53
 70
     1
102
RTVSPropertyOp54
 70
     1
102
RTVSPropertyOp55
 70
     1
102
RTVSPropertyOp56
 70
     1
102
RTVSPropertyOp57
 70
     1
102
RTVSPropertyOp58
 70
     1
102
RTVSPropertyOp59
 70
     1
102
RTVSPropertyOp60
 70
     1
102
RTVSPropertyOp61
 70
     1
102
RTVSPropertyOp62
 70
     1
  0
XRECORD
  5
4439
102
{ACAD_REACTORS
330
4438
102
}
330
4438
100
AcDbXrecord
280
     1
102
RTVSPost2010Prop28
280
     0
102
RTVSPost2010PropOp28
 70
     1
102
RTVSPost2010Prop29
280
     1
102
RTVSPost2010PropOp29
 70
     1
102
RTVSPost2010Prop30
280
     1
102
RTVSPost2010PropOp30
 70
     1
102
RTVSPost2010Prop31
280
     0
102
RTVSPost2010PropOp31
 70
     1
102
RTVSPost2010Prop32
280
     0
102
RTVSPost2010PropOp32
 70
     1
102
RTVSPost2010Prop33
280
     0
102
RTVSPost2010PropOp33
 70
     1
102
RTVSPost2010Prop34
280
     0
102
RTVSPost2010PropOp34
 70
     1
102
RTVSPost2010Prop35
280
     0
102
RTVSPost2010PropOp35
 70
     1
102
RTVSPost2010Prop36
280
     0
102
RTVSPost2010PropOp36
 70
     1
102
RTVSPost2010Prop37
 90
       50
102
RTVSPost2010PropOp37
 70
     1
102
RTVSPost2010Prop38
140
0.0
102
RTVSPost2010PropOp38
 70
     1
102
RTVSPost2010Prop39
140
1.0
102
RTVSPost2010PropOp39
 70
     1
102
RTVSPost2010Prop40
 90
        0
102
RTVSPost2010PropOp40
 70
     1
102
RTVSPost2010Prop41ColorIndex
 90
       18
102
RTVSPost2010Prop41ColorRGB
 90
        0
102
RTVSPost2010PropOp41
 70
     1
102
RTVSPost2010Prop42
 90
       50
102
RTVSPost2010PropOp42
 70
     1
102
RTVSPost2010Prop43
 90
        3
102
RTVSPost2010PropOp43
 70
     1
102
RTVSPost2010Prop44ColorIndex
 90
        5
102
RTVSPost2010Prop44ColorRGB
 90
      255
102
RTVSPost2010PropOp44
 70
     1
102
RTVSPost2010Prop45
280
     0
102
RTVSPost2010PropOp45
 70
     1
102
RTVSPost2010Prop46
 90
       50
102
RTVSPost2010PropOp46
 70
     1
102
RTVSPost2010Prop47
 90
       50
102
RTVSPost2010PropOp47
 70
     1
102
RTVSPost2010Prop48
 90
       50
102
RTVSPost2010PropOp48
 70
     1
102
RTVSPost2010Prop49
280
     0
102
RTVSPost2010PropOp49
 70
     1
102
RTVSPost2010Prop50
 90
       50
102
RTVSPost2010PropOp50
 70
     1
102
RTVSPost2010Prop51ColorIndex
 90
      256
102
RTVSPost2010Prop51ColorRGB
 90
-16777216
102
RTVSPost2010PropOp51
 70
     0
102
RTVSPost2010Prop52
140
1.0
102
RTVSPost2010PropOp52
 70
     0
102
RTVSPost2010Prop53
 90
        2
102
RTVSPost2010PropOp53
 70
     1
102
RTVSPost2010Prop54
  1
strokes_ogs.tif
102
RTVSPost2010PropOp54
 70
     1
102
RTVSPost2010Prop55
280
     0
102
RTVSPost2010PropOp55
 70
     1
102
RTVSPost2010Prop56
140
1.0
102
RTVSPost2010PropOp56
 70
     1
102
RTVSPost2010Prop57
140
1.0
102
RTVSPost2010PropOp57
 70
     1
102
RTVSPropertyOp0
 70
     1
102
RTVSPropertyOp1
 70
     1
102
RTVSPropertyOp2
 70
     1
102
RTVSPropertyOp3
 70
     1
102
RTVSPropertyOp4
 70
     1
102
RTVSPropertyOp5
 70
     1
102
RTVSPropertyOp6
 70
     1
102
RTVSPropertyOp7
 70
     1
102
RTVSPropertyOp8
 70
     1
102
RTVSPropertyOp9
 70
     1
102
RTVSPropertyOp10
 70
     1
102
RTVSPropertyOp11
 70
     1
102
RTVSPropertyOp12
 70
     1
102
RTVSPropertyOp13
 70
     1
102
RTVSPropertyOp14
 70
     1
102
RTVSPropertyOp15
 70
     1
102
RTVSPropertyOp16
 70
     1
102
RTVSPropertyOp17
 70
     1
102
RTVSPropertyOp18
 70
     1
102
RTVSPropertyOp19
 70
     1
102
RTVSPropertyOp20
 70
     1
102
RTVSPropertyOp21
 70
     1
102
RTVSPropertyOp22
 70
     1
102
RTVSPropertyOp23
 70
     1
102
RTVSPropertyOp24
 70
     1
102
RTVSPropertyOp25
 70
     1
102
RTVSPropertyOp26
 70
     1
102
RTVSPropertyOp27
 70
     1
102
RTVSPropertyOp28
 70
     1
102
RTVSPropertyOp29
 70
     1
102
RTVSPropertyOp30
 70
     1
102
RTVSPropertyOp31
 70
     1
102
RTVSPropertyOp32
 70
     1
102
RTVSPropertyOp33
 70
     1
102
RTVSPropertyOp34
 70
     1
102
RTVSPropertyOp35
 70
     1
102
RTVSPropertyOp36
 70
     1
102
RTVSPropertyOp37
 70
     1
102
RTVSPropertyOp38
 70
     1
102
RTVSPropertyOp39
 70
     1
102
RTVSPropertyOp40
 70
     1
102
RTVSPropertyOp41
 70
     1
102
RTVSPropertyOp42
 70
     1
102
RTVSPropertyOp43
 70
     1
102
RTVSPropertyOp44
 70
     1
102
RTVSPropertyOp45
 70
     1
102
RTVSPropertyOp46
 70
     1
102
RTVSPropertyOp47
 70
     1
102
RTVSPropertyOp48
 70
     1
102
RTVSPropertyOp49
 70
     1
102
RTVSPropertyOp50
 70
     1
102
RTVSPropertyOp51
 70
     0
102
RTVSPropertyOp52
 70
     0
102
RTVSPropertyOp53
 70
     1
102
RTVSPropertyOp54
 70
     1
102
RTVSPropertyOp55
 70
     1
102
RTVSPropertyOp56
 70
     1
102
RTVSPropertyOp57
 70
     1
102
RTVSPropertyOp58
 70
     1
102
RTVSPropertyOp59
 70
     1
102
RTVSPropertyOp60
 70
     1
102
RTVSPropertyOp61
 70
     1
102
RTVSPropertyOp62
 70
     1
  0
XRECORD
  5
443B
102
{ACAD_REACTORS
330
443A
102
}
330
443A
100
AcDbXrecord
280
     1
102
RTVSPost2010Prop28
280
     0
102
RTVSPost2010PropOp28
 70
     1
102
RTVSPost2010Prop29
280
     1
102
RTVSPost2010PropOp29
 70
     1
102
RTVSPost2010Prop30
280
     1
102
RTVSPost2010PropOp30
 70
     1
102
RTVSPost2010Prop31
280
     0
102
RTVSPost2010PropOp31
 70
     1
102
RTVSPost2010Prop32
280
     0
102
RTVSPost2010PropOp32
 70
     1
102
RTVSPost2010Prop33
280
     0
102
RTVSPost2010PropOp33
 70
     1
102
RTVSPost2010Prop34
280
     0
102
RTVSPost2010PropOp34
 70
     1
102
RTVSPost2010Prop35
280
     0
102
RTVSPost2010PropOp35
 70
     1
102
RTVSPost2010Prop36
280
     0
102
RTVSPost2010PropOp36
 70
     1
102
RTVSPost2010Prop37
 90
       50
102
RTVSPost2010PropOp37
 70
     1
102
RTVSPost2010Prop38
140
0.0
102
RTVSPost2010PropOp38
 70
     1
102
RTVSPost2010Prop39
140
1.0
102
RTVSPost2010PropOp39
 70
     1
102
RTVSPost2010Prop40
 90
        0
102
RTVSPost2010PropOp40
 70
     1
102
RTVSPost2010Prop41ColorIndex
 90
       18
102
RTVSPost2010Prop41ColorRGB
 90
        0
102
RTVSPost2010PropOp41
 70
     1
102
RTVSPost2010Prop42
 90
       50
102
RTVSPost2010PropOp42
 70
     1
102
RTVSPost2010Prop43
 90
        3
102
RTVSPost2010PropOp43
 70
     1
102
RTVSPost2010Prop44ColorIndex
 90
        5
102
RTVSPost2010Prop44ColorRGB
 90
      255
102
RTVSPost2010PropOp44
 70
     1
102
RTVSPost2010Prop45
280
     0
102
RTVSPost2010PropOp45
 70
     1
102
RTVSPost2010Prop46
 90
       50
102
RTVSPost2010PropOp46
 70
     1
102
RTVSPost2010Prop47
 90
       50
102
RTVSPost2010PropOp47
 70
     1
102
RTVSPost2010Prop48
 90
       50
102
RTVSPost2010PropOp48
 70
     1
102
RTVSPost2010Prop49
280
     0
102
RTVSPost2010PropOp49
 70
     1
102
RTVSPost2010Prop50
 90
       50
102
RTVSPost2010PropOp50
 70
     1
102
RTVSPost2010Prop51ColorIndex
 90
      256
102
RTVSPost2010Prop51ColorRGB
 90
-16777216
102
RTVSPost2010PropOp51
 70
     0
102
RTVSPost2010Prop52
140
1.0
102
RTVSPost2010PropOp52
 70
     0
102
RTVSPost2010Prop53
 90
        2
102
RTVSPost2010PropOp53
 70
     1
102
RTVSPost2010Prop54
  1
strokes_ogs.tif
102
RTVSPost2010PropOp54
 70
     1
102
RTVSPost2010Prop55
280
     0
102
RTVSPost2010PropOp55
 70
     1
102
RTVSPost2010Prop56
140
1.0
102
RTVSPost2010PropOp56
 70
     1
102
RTVSPost2010Prop57
140
1.0
102
RTVSPost2010PropOp57
 70
     1
102
RTVSPropertyOp0
 70
     1
102
RTVSPropertyOp1
 70
     1
102
RTVSPropertyOp2
 70
     1
102
RTVSPropertyOp3
 70
     1
102
RTVSPropertyOp4
 70
     1
102
RTVSPropertyOp5
 70
     1
102
RTVSPropertyOp6
 70
     1
102
RTVSPropertyOp7
 70
     1
102
RTVSPropertyOp8
 70
     1
102
RTVSPropertyOp9
 70
     1
102
RTVSPropertyOp10
 70
     1
102
RTVSPropertyOp11
 70
     1
102
RTVSPropertyOp12
 70
     1
102
RTVSPropertyOp13
 70
     1
102
RTVSPropertyOp14
 70
     1
102
RTVSPropertyOp15
 70
     1
102
RTVSPropertyOp16
 70
     1
102
RTVSPropertyOp17
 70
     1
102
RTVSPropertyOp18
 70
     1
102
RTVSPropertyOp19
 70
     1
102
RTVSPropertyOp20
 70
     1
102
RTVSPropertyOp21
 70
     1
102
RTVSPropertyOp22
 70
     1
102
RTVSPropertyOp23
 70
     1
102
RTVSPropertyOp24
 70
     1
102
RTVSPropertyOp25
 70
     1
102
RTVSPropertyOp26
 70
     1
102
RTVSPropertyOp27
 70
     1
102
RTVSPropertyOp28
 70
     1
102
RTVSPropertyOp29
 70
     1
102
RTVSPropertyOp30
 70
     1
102
RTVSPropertyOp31
 70
     1
102
RTVSPropertyOp32
 70
     1
102
RTVSPropertyOp33
 70
     1
102
RTVSPropertyOp34
 70
     1
102
RTVSPropertyOp35
 70
     1
102
RTVSPropertyOp36
 70
     1
102
RTVSPropertyOp37
 70
     1
102
RTVSPropertyOp38
 70
     1
102
RTVSPropertyOp39
 70
     1
102
RTVSPropertyOp40
 70
     1
102
RTVSPropertyOp41
 70
     1
102
RTVSPropertyOp42
 70
     1
102
RTVSPropertyOp43
 70
     1
102
RTVSPropertyOp44
 70
     1
102
RTVSPropertyOp45
 70
     1
102
RTVSPropertyOp46
 70
     1
102
RTVSPropertyOp47
 70
     1
102
RTVSPropertyOp48
 70
     1
102
RTVSPropertyOp49
 70
     1
102
RTVSPropertyOp50
 70
     1
102
RTVSPropertyOp51
 70
     0
102
RTVSPropertyOp52
 70
     0
102
RTVSPropertyOp53
 70
     1
102
RTVSPropertyOp54
 70
     1
102
RTVSPropertyOp55
 70
     1
102
RTVSPropertyOp56
 70
     1
102
RTVSPropertyOp57
 70
     1
102
RTVSPropertyOp58
 70
     1
102
RTVSPropertyOp59
 70
     1
102
RTVSPropertyOp60
 70
     1
102
RTVSPropertyOp61
 70
     1
102
RTVSPropertyOp62
 70
     1
  0
XRECORD
  5
445E
102
{ACAD_REACTORS
330
445D
102
}
330
445D
100
AcDbXrecord
280
     1
102
RTVSPost2010Prop28
280
     0
102
RTVSPost2010PropOp28
 70
     1
102
RTVSPost2010Prop29
280
     1
102
RTVSPost2010PropOp29
 70
     1
102
RTVSPost2010Prop30
280
     1
102
RTVSPost2010PropOp30
 70
     1
102
RTVSPost2010Prop31
280
     0
102
RTVSPost2010PropOp31
 70
     1
102
RTVSPost2010Prop32
280
     0
102
RTVSPost2010PropOp32
 70
     1
102
RTVSPost2010Prop33
280
     0
102
RTVSPost2010PropOp33
 70
     1
102
RTVSPost2010Prop34
280
     0
102
RTVSPost2010PropOp34
 70
     1
102
RTVSPost2010Prop35
280
     0
102
RTVSPost2010PropOp35
 70
     1
102
RTVSPost2010Prop36
280
     0
102
RTVSPost2010PropOp36
 70
     1
102
RTVSPost2010Prop37
 90
       50
102
RTVSPost2010PropOp37
 70
     1
102
RTVSPost2010Prop38
140
0.0
102
RTVSPost2010PropOp38
 70
     1
102
RTVSPost2010Prop39
140
1.0
102
RTVSPost2010PropOp39
 70
     1
102
RTVSPost2010Prop40
 90
        0
102
RTVSPost2010PropOp40
 70
     1
102
RTVSPost2010Prop41ColorIndex
 90
       18
102
RTVSPost2010Prop41ColorRGB
 90
        0
102
RTVSPost2010PropOp41
 70
     1
102
RTVSPost2010Prop42
 90
       50
102
RTVSPost2010PropOp42
 70
     1
102
RTVSPost2010Prop43
 90
        3
102
RTVSPost2010PropOp43
 70
     1
102
RTVSPost2010Prop44ColorIndex
 90
        5
102
RTVSPost2010Prop44ColorRGB
 90
      255
102
RTVSPost2010PropOp44
 70
     1
102
RTVSPost2010Prop45
280
     0
102
RTVSPost2010PropOp45
 70
     1
102
RTVSPost2010Prop46
 90
       50
102
RTVSPost2010PropOp46
 70
     1
102
RTVSPost2010Prop47
 90
       50
102
RTVSPost2010PropOp47
 70
     1
102
RTVSPost2010Prop48
 90
       50
102
RTVSPost2010PropOp48
 70
     1
102
RTVSPost2010Prop49
280
     0
102
RTVSPost2010PropOp49
 70
     1
102
RTVSPost2010Prop50
 90
       50
102
RTVSPost2010PropOp50
 70
     1
102
RTVSPost2010Prop51ColorIndex
 90
      256
102
RTVSPost2010Prop51ColorRGB
 90
-16777216
102
RTVSPost2010PropOp51
 70
     0
102
RTVSPost2010Prop52
140
1.0
102
RTVSPost2010PropOp52
 70
     0
102
RTVSPost2010Prop53
 90
        2
102
RTVSPost2010PropOp53
 70
     1
102
RTVSPost2010Prop54
  1
strokes_ogs.tif
102
RTVSPost2010PropOp54
 70
     1
102
RTVSPost2010Prop55
280
     0
102
RTVSPost2010PropOp55
 70
     1
102
RTVSPost2010Prop56
140
1.0
102
RTVSPost2010PropOp56
 70
     1
102
RTVSPost2010Prop57
140
1.0
102
RTVSPost2010PropOp57
 70
     1
102
RTVSPropertyOp0
 70
     1
102
RTVSPropertyOp1
 70
     1
102
RTVSPropertyOp2
 70
     1
102
RTVSPropertyOp3
 70
     1
102
RTVSPropertyOp4
 70
     1
102
RTVSPropertyOp5
 70
     1
102
RTVSPropertyOp6
 70
     1
102
RTVSPropertyOp7
 70
     1
102
RTVSPropertyOp8
 70
     1
102
RTVSPropertyOp9
 70
     1
102
RTVSPropertyOp10
 70
     1
102
RTVSPropertyOp11
 70
     1
102
RTVSPropertyOp12
 70
     1
102
RTVSPropertyOp13
 70
     1
102
RTVSPropertyOp14
 70
     1
102
RTVSPropertyOp15
 70
     1
102
RTVSPropertyOp16
 70
     1
102
RTVSPropertyOp17
 70
     1
102
RTVSPropertyOp18
 70
     1
102
RTVSPropertyOp19
 70
     1
102
RTVSPropertyOp20
 70
     1
102
RTVSPropertyOp21
 70
     1
102
RTVSPropertyOp22
 70
     1
102
RTVSPropertyOp23
 70
     1
102
RTVSPropertyOp24
 70
     1
102
RTVSPropertyOp25
 70
     1
102
RTVSPropertyOp26
 70
     1
102
RTVSPropertyOp27
 70
     1
102
RTVSPropertyOp28
 70
     1
102
RTVSPropertyOp29
 70
     1
102
RTVSPropertyOp30
 70
     1
102
RTVSPropertyOp31
 70
     1
102
RTVSPropertyOp32
 70
     1
102
RTVSPropertyOp33
 70
     1
102
RTVSPropertyOp34
 70
     1
102
RTVSPropertyOp35
 70
     1
102
RTVSPropertyOp36
 70
     1
102
RTVSPropertyOp37
 70
     1
102
RTVSPropertyOp38
 70
     1
102
RTVSPropertyOp39
 70
     1
102
RTVSPropertyOp40
 70
     1
102
RTVSPropertyOp41
 70
     1
102
RTVSPropertyOp42
 70
     1
102
RTVSPropertyOp43
 70
     1
102
RTVSPropertyOp44
 70
     1
102
RTVSPropertyOp45
 70
     1
102
RTVSPropertyOp46
 70
     1
102
RTVSPropertyOp47
 70
     1
102
RTVSPropertyOp48
 70
     1
102
RTVSPropertyOp49
 70
     1
102
RTVSPropertyOp50
 70
     1
102
RTVSPropertyOp51
 70
     0
102
RTVSPropertyOp52
 70
     0
102
RTVSPropertyOp53
 70
     1
102
RTVSPropertyOp54
 70
     1
102
RTVSPropertyOp55
 70
     1
102
RTVSPropertyOp56
 70
     1
102
RTVSPropertyOp57
 70
     1
102
RTVSPropertyOp58
 70
     1
102
RTVSPropertyOp59
 70
     1
102
RTVSPropertyOp60
 70
     1
102
RTVSPropertyOp61
 70
     1
102
RTVSPropertyOp62
 70
     1
  0
XRECORD
  5
4455
102
{ACAD_REACTORS
330
4454
102
}
330
4454
100
AcDbXrecord
280
     1
102
RTVSPost2010Prop28
280
     0
102
RTVSPost2010PropOp28
 70
     1
102
RTVSPost2010Prop29
280
     1
102
RTVSPost2010PropOp29
 70
     1
102
RTVSPost2010Prop30
280
     1
102
RTVSPost2010PropOp30
 70
     1
102
RTVSPost2010Prop31
280
     0
102
RTVSPost2010PropOp31
 70
     1
102
RTVSPost2010Prop32
280
     0
102
RTVSPost2010PropOp32
 70
     1
102
RTVSPost2010Prop33
280
     0
102
RTVSPost2010PropOp33
 70
     1
102
RTVSPost2010Prop34
280
     0
102
RTVSPost2010PropOp34
 70
     1
102
RTVSPost2010Prop35
280
     0
102
RTVSPost2010PropOp35
 70
     1
102
RTVSPost2010Prop36
280
     0
102
RTVSPost2010PropOp36
 70
     1
102
RTVSPost2010Prop37
 90
       50
102
RTVSPost2010PropOp37
 70
     1
102
RTVSPost2010Prop38
140
0.0
102
RTVSPost2010PropOp38
 70
     1
102
RTVSPost2010Prop39
140
1.0
102
RTVSPost2010PropOp39
 70
     1
102
RTVSPost2010Prop40
 90
        0
102
RTVSPost2010PropOp40
 70
     1
102
RTVSPost2010Prop41ColorIndex
 90
       18
102
RTVSPost2010Prop41ColorRGB
 90
        0
102
RTVSPost2010PropOp41
 70
     1
102
RTVSPost2010Prop42
 90
       50
102
RTVSPost2010PropOp42
 70
     1
102
RTVSPost2010Prop43
 90
        3
102
RTVSPost2010PropOp43
 70
     1
102
RTVSPost2010Prop44ColorIndex
 90
        5
102
RTVSPost2010Prop44ColorRGB
 90
      255
102
RTVSPost2010PropOp44
 70
     1
102
RTVSPost2010Prop45
280
     0
102
RTVSPost2010PropOp45
 70
     1
102
RTVSPost2010Prop46
 90
       50
102
RTVSPost2010PropOp46
 70
     1
102
RTVSPost2010Prop47
 90
       50
102
RTVSPost2010PropOp47
 70
     1
102
RTVSPost2010Prop48
 90
       50
102
RTVSPost2010PropOp48
 70
     1
102
RTVSPost2010Prop49
280
     0
102
RTVSPost2010PropOp49
 70
     1
102
RTVSPost2010Prop50
 90
       50
102
RTVSPost2010PropOp50
 70
     1
102
RTVSPost2010Prop51ColorIndex
 90
      256
102
RTVSPost2010Prop51ColorRGB
 90
-16777216
102
RTVSPost2010PropOp51
 70
     0
102
RTVSPost2010Prop52
140
1.0
102
RTVSPost2010PropOp52
 70
     0
102
RTVSPost2010Prop53
 90
        2
102
RTVSPost2010PropOp53
 70
     1
102
RTVSPost2010Prop54
  1
strokes_ogs.tif
102
RTVSPost2010PropOp54
 70
     1
102
RTVSPost2010Prop55
280
     0
102
RTVSPost2010PropOp55
 70
     1
102
RTVSPost2010Prop56
140
1.0
102
RTVSPost2010PropOp56
 70
     1
102
RTVSPost2010Prop57
140
1.0
102
RTVSPost2010PropOp57
 70
     1
102
RTVSPropertyOp0
 70
     0
102
RTVSPropertyOp1
 70
     0
102
RTVSPropertyOp2
 70
     0
102
RTVSPropertyOp3
 70
     0
102
RTVSPropertyOp4
 70
     0
102
RTVSPropertyOp5
 70
     0
102
RTVSPropertyOp6
 70
     0
102
RTVSPropertyOp7
 70
     0
102
RTVSPropertyOp8
 70
     0
102
RTVSPropertyOp9
 70
     0
102
RTVSPropertyOp10
 70
     0
102
RTVSPropertyOp11
 70
     0
102
RTVSPropertyOp12
 70
     0
102
RTVSPropertyOp13
 70
     0
102
RTVSPropertyOp14
 70
     2
102
RTVSPropertyOp15
 70
     0
102
RTVSPropertyOp16
 70
     0
102
RTVSPropertyOp17
 70
     0
102
RTVSPropertyOp18
 70
     0
102
RTVSPropertyOp19
 70
     0
102
RTVSPropertyOp20
 70
     0
102
RTVSPropertyOp21
 70
     0
102
RTVSPropertyOp22
 70
     0
102
RTVSPropertyOp23
 70
     0
102
RTVSPropertyOp24
 70
     0
102
RTVSPropertyOp25
 70
     0
102
RTVSPropertyOp26
 70
     0
102
RTVSPropertyOp27
 70
     0
102
RTVSPropertyOp28
 70
     1
102
RTVSPropertyOp29
 70
     1
102
RTVSPropertyOp30
 70
     1
102
RTVSPropertyOp31
 70
     1
102
RTVSPropertyOp32
 70
     1
102
RTVSPropertyOp33
 70
     1
102
RTVSPropertyOp34
 70
     1
102
RTVSPropertyOp35
 70
     1
102
RTVSPropertyOp36
 70
     1
102
RTVSPropertyOp37
 70
     1
102
RTVSPropertyOp38
 70
     1
102
RTVSPropertyOp39
 70
     1
102
RTVSPropertyOp40
 70
     1
102
RTVSPropertyOp41
 70
     1
102
RTVSPropertyOp42
 70
     1
102
RTVSPropertyOp43
 70
     1
102
RTVSPropertyOp44
 70
     1
102
RTVSPropertyOp45
 70
     1
102
RTVSPropertyOp46
 70
     1
102
RTVSPropertyOp47
 70
     1
102
RTVSPropertyOp48
 70
     1
102
RTVSPropertyOp49
 70
     1
102
RTVSPropertyOp50
 70
     1
102
RTVSPropertyOp51
 70
     0
102
RTVSPropertyOp52
 70
     0
102
RTVSPropertyOp53
 70
     1
102
RTVSPropertyOp54
 70
     1
102
RTVSPropertyOp55
 70
     1
102
RTVSPropertyOp56
 70
     1
102
RTVSPropertyOp57
 70
     1
102
RTVSPropertyOp58
 70
     1
102
RTVSPropertyOp59
 70
     1
102
RTVSPropertyOp60
 70
     1
102
RTVSPropertyOp61
 70
     1
102
RTVSPropertyOp62
 70
     1
  0
XRECORD
  5
444F
102
{ACAD_REACTORS
330
444E
102
}
330
444E
100
AcDbXrecord
280
     1
102
RTVSPost2010Prop28
280
     0
102
RTVSPost2010PropOp28
 70
     1
102
RTVSPost2010Prop29
280
     1
102
RTVSPost2010PropOp29
 70
     1
102
RTVSPost2010Prop30
280
     1
102
RTVSPost2010PropOp30
 70
     1
102
RTVSPost2010Prop31
280
     0
102
RTVSPost2010PropOp31
 70
     1
102
RTVSPost2010Prop32
280
     0
102
RTVSPost2010PropOp32
 70
     1
102
RTVSPost2010Prop33
280
     0
102
RTVSPost2010PropOp33
 70
     1
102
RTVSPost2010Prop34
280
     0
102
RTVSPost2010PropOp34
 70
     1
102
RTVSPost2010Prop35
280
     0
102
RTVSPost2010PropOp35
 70
     1
102
RTVSPost2010Prop36
280
     0
102
RTVSPost2010PropOp36
 70
     1
102
RTVSPost2010Prop37
 90
       50
102
RTVSPost2010PropOp37
 70
     1
102
RTVSPost2010Prop38
140
0.0
102
RTVSPost2010PropOp38
 70
     1
102
RTVSPost2010Prop39
140
1.0
102
RTVSPost2010PropOp39
 70
     1
102
RTVSPost2010Prop40
 90
        0
102
RTVSPost2010PropOp40
 70
     1
102
RTVSPost2010Prop41ColorIndex
 90
       18
102
RTVSPost2010Prop41ColorRGB
 90
        0
102
RTVSPost2010PropOp41
 70
     1
102
RTVSPost2010Prop42
 90
       50
102
RTVSPost2010PropOp42
 70
     1
102
RTVSPost2010Prop43
 90
        3
102
RTVSPost2010PropOp43
 70
     1
102
RTVSPost2010Prop44ColorIndex
 90
        5
102
RTVSPost2010Prop44ColorRGB
 90
      255
102
RTVSPost2010PropOp44
 70
     1
102
RTVSPost2010Prop45
280
     0
102
RTVSPost2010PropOp45
 70
     1
102
RTVSPost2010Prop46
 90
       50
102
RTVSPost2010PropOp46
 70
     1
102
RTVSPost2010Prop47
 90
       50
102
RTVSPost2010PropOp47
 70
     1
102
RTVSPost2010Prop48
 90
       50
102
RTVSPost2010PropOp48
 70
     1
102
RTVSPost2010Prop49
280
     0
102
RTVSPost2010PropOp49
 70
     1
102
RTVSPost2010Prop50
 90
       50
102
RTVSPost2010PropOp50
 70
     1
102
RTVSPost2010Prop51ColorIndex
 90
      256
102
RTVSPost2010Prop51ColorRGB
 90
-16777216
102
RTVSPost2010PropOp51
 70
     0
102
RTVSPost2010Prop52
140
1.0
102
RTVSPost2010PropOp52
 70
     0
102
RTVSPost2010Prop53
 90
        2
102
RTVSPost2010PropOp53
 70
     1
102
RTVSPost2010Prop54
  1
strokes_ogs.tif
102
RTVSPost2010PropOp54
 70
     1
102
RTVSPost2010Prop55
280
     0
102
RTVSPost2010PropOp55
 70
     1
102
RTVSPost2010Prop56
140
1.0
102
RTVSPost2010PropOp56
 70
     1
102
RTVSPost2010Prop57
140
1.0
102
RTVSPost2010PropOp57
 70
     1
102
RTVSPropertyOp0
 70
     1
102
RTVSPropertyOp1
 70
     1
102
RTVSPropertyOp2
 70
     1
102
RTVSPropertyOp3
 70
     1
102
RTVSPropertyOp4
 70
     1
102
RTVSPropertyOp5
 70
     1
102
RTVSPropertyOp6
 70
     1
102
RTVSPropertyOp7
 70
     1
102
RTVSPropertyOp8
 70
     1
102
RTVSPropertyOp9
 70
     1
102
RTVSPropertyOp10
 70
     1
102
RTVSPropertyOp11
 70
     1
102
RTVSPropertyOp12
 70
     1
102
RTVSPropertyOp13
 70
     1
102
RTVSPropertyOp14
 70
     1
102
RTVSPropertyOp15
 70
     1
102
RTVSPropertyOp16
 70
     1
102
RTVSPropertyOp17
 70
     1
102
RTVSPropertyOp18
 70
     1
102
RTVSPropertyOp19
 70
     1
102
RTVSPropertyOp20
 70
     1
102
RTVSPropertyOp21
 70
     1
102
RTVSPropertyOp22
 70
     1
102
RTVSPropertyOp23
 70
     1
102
RTVSPropertyOp24
 70
     1
102
RTVSPropertyOp25
 70
     1
102
RTVSPropertyOp26
 70
     1
102
RTVSPropertyOp27
 70
     1
102
RTVSPropertyOp28
 70
     1
102
RTVSPropertyOp29
 70
     1
102
RTVSPropertyOp30
 70
     1
102
RTVSPropertyOp31
 70
     1
102
RTVSPropertyOp32
 70
     1
102
RTVSPropertyOp33
 70
     1
102
RTVSPropertyOp34
 70
     1
102
RTVSPropertyOp35
 70
     1
102
RTVSPropertyOp36
 70
     1
102
RTVSPropertyOp37
 70
     1
102
RTVSPropertyOp38
 70
     1
102
RTVSPropertyOp39
 70
     1
102
RTVSPropertyOp40
 70
     1
102
RTVSPropertyOp41
 70
     1
102
RTVSPropertyOp42
 70
     1
102
RTVSPropertyOp43
 70
     1
102
RTVSPropertyOp44
 70
     1
102
RTVSPropertyOp45
 70
     1
102
RTVSPropertyOp46
 70
     1
102
RTVSPropertyOp47
 70
     1
102
RTVSPropertyOp48
 70
     1
102
RTVSPropertyOp49
 70
     1
102
RTVSPropertyOp50
 70
     1
102
RTVSPropertyOp51
 70
     0
102
RTVSPropertyOp52
 70
     0
102
RTVSPropertyOp53
 70
     1
102
RTVSPropertyOp54
 70
     1
102
RTVSPropertyOp55
 70
     1
102
RTVSPropertyOp56
 70
     1
102
RTVSPropertyOp57
 70
     1
102
RTVSPropertyOp58
 70
     1
102
RTVSPropertyOp59
 70
     1
102
RTVSPropertyOp60
 70
     1
102
RTVSPropertyOp61
 70
     1
102
RTVSPropertyOp62
 70
     1
  0
XRECORD
  5
4457
102
{ACAD_REACTORS
330
4456
102
}
330
4456
100
AcDbXrecord
280
     1
102
RTVSPost2010Prop28
280
     0
102
RTVSPost2010PropOp28
 70
     1
102
RTVSPost2010Prop29
280
     1
102
RTVSPost2010PropOp29
 70
     1
102
RTVSPost2010Prop30
280
     1
102
RTVSPost2010PropOp30
 70
     1
102
RTVSPost2010Prop31
280
     0
102
RTVSPost2010PropOp31
 70
     1
102
RTVSPost2010Prop32
280
     0
102
RTVSPost2010PropOp32
 70
     1
102
RTVSPost2010Prop33
280
     0
102
RTVSPost2010PropOp33
 70
     1
102
RTVSPost2010Prop34
280
     0
102
RTVSPost2010PropOp34
 70
     1
102
RTVSPost2010Prop35
280
     0
102
RTVSPost2010PropOp35
 70
     1
102
RTVSPost2010Prop36
280
     0
102
RTVSPost2010PropOp36
 70
     1
102
RTVSPost2010Prop37
 90
       50
102
RTVSPost2010PropOp37
 70
     1
102
RTVSPost2010Prop38
140
0.0
102
RTVSPost2010PropOp38
 70
     1
102
RTVSPost2010Prop39
140
1.0
102
RTVSPost2010PropOp39
 70
     1
102
RTVSPost2010Prop40
 90
        0
102
RTVSPost2010PropOp40
 70
     1
102
RTVSPost2010Prop41ColorIndex
 90
       18
102
RTVSPost2010Prop41ColorRGB
 90
        0
102
RTVSPost2010PropOp41
 70
     1
102
RTVSPost2010Prop42
 90
       50
102
RTVSPost2010PropOp42
 70
     1
102
RTVSPost2010Prop43
 90
        3
102
RTVSPost2010PropOp43
 70
     1
102
RTVSPost2010Prop44ColorIndex
 90
        5
102
RTVSPost2010Prop44ColorRGB
 90
      255
102
RTVSPost2010PropOp44
 70
     1
102
RTVSPost2010Prop45
280
     0
102
RTVSPost2010PropOp45
 70
     1
102
RTVSPost2010Prop46
 90
       50
102
RTVSPost2010PropOp46
 70
     1
102
RTVSPost2010Prop47
 90
       50
102
RTVSPost2010PropOp47
 70
     1
102
RTVSPost2010Prop48
 90
       50
102
RTVSPost2010PropOp48
 70
     1
102
RTVSPost2010Prop49
280
     0
102
RTVSPost2010PropOp49
 70
     1
102
RTVSPost2010Prop50
 90
       50
102
RTVSPost2010PropOp50
 70
     1
102
RTVSPost2010Prop51ColorIndex
 90
      256
102
RTVSPost2010Prop51ColorRGB
 90
-16777216
102
RTVSPost2010PropOp51
 70
     0
102
RTVSPost2010Prop52
140
1.0
102
RTVSPost2010PropOp52
 70
     0
102
RTVSPost2010Prop53
 90
        2
102
RTVSPost2010PropOp53
 70
     1
102
RTVSPost2010Prop54
  1
strokes_ogs.tif
102
RTVSPost2010PropOp54
 70
     1
102
RTVSPost2010Prop55
280
     0
102
RTVSPost2010PropOp55
 70
     1
102
RTVSPost2010Prop56
140
1.0
102
RTVSPost2010PropOp56
 70
     1
102
RTVSPost2010Prop57
140
1.0
102
RTVSPost2010PropOp57
 70
     1
102
RTVSPropertyOp0
 70
     0
102
RTVSPropertyOp1
 70
     0
102
RTVSPropertyOp2
 70
     0
102
RTVSPropertyOp3
 70
     0
102
RTVSPropertyOp4
 70
     0
102
RTVSPropertyOp5
 70
     0
102
RTVSPropertyOp6
 70
     0
102
RTVSPropertyOp7
 70
     0
102
RTVSPropertyOp8
 70
     0
102
RTVSPropertyOp9
 70
     0
102
RTVSPropertyOp10
 70
     0
102
RTVSPropertyOp11
 70
     0
102
RTVSPropertyOp12
 70
     0
102
RTVSPropertyOp13
 70
     0
102
RTVSPropertyOp14
 70
     2
102
RTVSPropertyOp15
 70
     0
102
RTVSPropertyOp16
 70
     0
102
RTVSPropertyOp17
 70
     0
102
RTVSPropertyOp18
 70
     0
102
RTVSPropertyOp19
 70
     0
102
RTVSPropertyOp20
 70
     0
102
RTVSPropertyOp21
 70
     0
102
RTVSPropertyOp22
 70
     0
102
RTVSPropertyOp23
 70
     0
102
RTVSPropertyOp24
 70
     0
102
RTVSPropertyOp25
 70
     0
102
RTVSPropertyOp26
 70
     0
102
RTVSPropertyOp27
 70
     0
102
RTVSPropertyOp28
 70
     1
102
RTVSPropertyOp29
 70
     1
102
RTVSPropertyOp30
 70
     1
102
RTVSPropertyOp31
 70
     1
102
RTVSPropertyOp32
 70
     1
102
RTVSPropertyOp33
 70
     1
102
RTVSPropertyOp34
 70
     1
102
RTVSPropertyOp35
 70
     1
102
RTVSPropertyOp36
 70
     1
102
RTVSPropertyOp37
 70
     1
102
RTVSPropertyOp38
 70
     1
102
RTVSPropertyOp39
 70
     1
102
RTVSPropertyOp40
 70
     1
102
RTVSPropertyOp41
 70
     1
102
RTVSPropertyOp42
 70
     1
102
RTVSPropertyOp43
 70
     1
102
RTVSPropertyOp44
 70
     1
102
RTVSPropertyOp45
 70
     1
102
RTVSPropertyOp46
 70
     1
102
RTVSPropertyOp47
 70
     1
102
RTVSPropertyOp48
 70
     1
102
RTVSPropertyOp49
 70
     1
102
RTVSPropertyOp50
 70
     1
102
RTVSPropertyOp51
 70
     0
102
RTVSPropertyOp52
 70
     0
102
RTVSPropertyOp53
 70
     1
102
RTVSPropertyOp54
 70
     1
102
RTVSPropertyOp55
 70
     1
102
RTVSPropertyOp56
 70
     1
102
RTVSPropertyOp57
 70
     1
102
RTVSPropertyOp58
 70
     1
102
RTVSPropertyOp59
 70
     1
102
RTVSPropertyOp60
 70
     1
102
RTVSPropertyOp61
 70
     1
102
RTVSPropertyOp62
 70
     1
  0
XRECORD
  5
4447
102
{ACAD_REACTORS
330
4446
102
}
330
4446
100
AcDbXrecord
280
     1
102
RTVSPost2010Prop28
280
     0
102
RTVSPost2010PropOp28
 70
     1
102
RTVSPost2010Prop29
280
     1
102
RTVSPost2010PropOp29
 70
     1
102
RTVSPost2010Prop30
280
     1
102
RTVSPost2010PropOp30
 70
     1
102
RTVSPost2010Prop31
280
     0
102
RTVSPost2010PropOp31
 70
     1
102
RTVSPost2010Prop32
280
     0
102
RTVSPost2010PropOp32
 70
     1
102
RTVSPost2010Prop33
280
     0
102
RTVSPost2010PropOp33
 70
     1
102
RTVSPost2010Prop34
280
     0
102
RTVSPost2010PropOp34
 70
     1
102
RTVSPost2010Prop35
280
     0
102
RTVSPost2010PropOp35
 70
     1
102
RTVSPost2010Prop36
280
     0
102
RTVSPost2010PropOp36
 70
     1
102
RTVSPost2010Prop37
 90
       50
102
RTVSPost2010PropOp37
 70
     1
102
RTVSPost2010Prop38
140
0.0
102
RTVSPost2010PropOp38
 70
     1
102
RTVSPost2010Prop39
140
1.0
102
RTVSPost2010PropOp39
 70
     1
102
RTVSPost2010Prop40
 90
        0
102
RTVSPost2010PropOp40
 70
     1
102
RTVSPost2010Prop41ColorIndex
 90
       18
102
RTVSPost2010Prop41ColorRGB
 90
        0
102
RTVSPost2010PropOp41
 70
     1
102
RTVSPost2010Prop42
 90
       50
102
RTVSPost2010PropOp42
 70
     1
102
RTVSPost2010Prop43
 90
        3
102
RTVSPost2010PropOp43
 70
     1
102
RTVSPost2010Prop44ColorIndex
 90
        5
102
RTVSPost2010Prop44ColorRGB
 90
      255
102
RTVSPost2010PropOp44
 70
     1
102
RTVSPost2010Prop45
280
     0
102
RTVSPost2010PropOp45
 70
     1
102
RTVSPost2010Prop46
 90
       50
102
RTVSPost2010PropOp46
 70
     1
102
RTVSPost2010Prop47
 90
       50
102
RTVSPost2010PropOp47
 70
     1
102
RTVSPost2010Prop48
 90
       50
102
RTVSPost2010PropOp48
 70
     1
102
RTVSPost2010Prop49
280
     0
102
RTVSPost2010PropOp49
 70
     1
102
RTVSPost2010Prop50
 90
       50
102
RTVSPost2010PropOp50
 70
     1
102
RTVSPost2010Prop51ColorIndex
 90
      256
102
RTVSPost2010Prop51ColorRGB
 90
-16777216
102
RTVSPost2010PropOp51
 70
     0
102
RTVSPost2010Prop52
140
1.0
102
RTVSPost2010PropOp52
 70
     0
102
RTVSPost2010Prop53
 90
        2
102
RTVSPost2010PropOp53
 70
     1
102
RTVSPost2010Prop54
  1
strokes_ogs.tif
102
RTVSPost2010PropOp54
 70
     1
102
RTVSPost2010Prop55
280
     0
102
RTVSPost2010PropOp55
 70
     1
102
RTVSPost2010Prop56
140
1.0
102
RTVSPost2010PropOp56
 70
     1
102
RTVSPost2010Prop57
140
1.0
102
RTVSPost2010PropOp57
 70
     1
102
RTVSPropertyOp0
 70
     1
102
RTVSPropertyOp1
 70
     1
102
RTVSPropertyOp2
 70
     1
102
RTVSPropertyOp3
 70
     1
102
RTVSPropertyOp4
 70
     1
102
RTVSPropertyOp5
 70
     1
102
RTVSPropertyOp6
 70
     1
102
RTVSPropertyOp7
 70
     1
102
RTVSPropertyOp8
 70
     1
102
RTVSPropertyOp9
 70
     1
102
RTVSPropertyOp10
 70
     1
102
RTVSPropertyOp11
 70
     1
102
RTVSPropertyOp12
 70
     1
102
RTVSPropertyOp13
 70
     1
102
RTVSPropertyOp14
 70
     1
102
RTVSPropertyOp15
 70
     1
102
RTVSPropertyOp16
 70
     1
102
RTVSPropertyOp17
 70
     1
102
RTVSPropertyOp18
 70
     1
102
RTVSPropertyOp19
 70
     1
102
RTVSPropertyOp20
 70
     1
102
RTVSPropertyOp21
 70
     1
102
RTVSPropertyOp22
 70
     1
102
RTVSPropertyOp23
 70
     1
102
RTVSPropertyOp24
 70
     1
102
RTVSPropertyOp25
 70
     1
102
RTVSPropertyOp26
 70
     1
102
RTVSPropertyOp27
 70
     1
102
RTVSPropertyOp28
 70
     1
102
RTVSPropertyOp29
 70
     1
102
RTVSPropertyOp30
 70
     1
102
RTVSPropertyOp31
 70
     1
102
RTVSPropertyOp32
 70
     1
102
RTVSPropertyOp33
 70
     1
102
RTVSPropertyOp34
 70
     1
102
RTVSPropertyOp35
 70
     1
102
RTVSPropertyOp36
 70
     1
102
RTVSPropertyOp37
 70
     1
102
RTVSPropertyOp38
 70
     1
102
RTVSPropertyOp39
 70
     1
102
RTVSPropertyOp40
 70
     1
102
RTVSPropertyOp41
 70
     1
102
RTVSPropertyOp42
 70
     1
102
RTVSPropertyOp43
 70
     1
102
RTVSPropertyOp44
 70
     1
102
RTVSPropertyOp45
 70
     1
102
RTVSPropertyOp46
 70
     1
102
RTVSPropertyOp47
 70
     1
102
RTVSPropertyOp48
 70
     1
102
RTVSPropertyOp49
 70
     1
102
RTVSPropertyOp50
 70
     1
102
RTVSPropertyOp51
 70
     0
102
RTVSPropertyOp52
 70
     0
102
RTVSPropertyOp53
 70
     1
102
RTVSPropertyOp54
 70
     1
102
RTVSPropertyOp55
 70
     1
102
RTVSPropertyOp56
 70
     1
102
RTVSPropertyOp57
 70
     1
102
RTVSPropertyOp58
 70
     1
102
RTVSPropertyOp59
 70
     1
102
RTVSPropertyOp60
 70
     1
102
RTVSPropertyOp61
 70
     1
102
RTVSPropertyOp62
 70
     1
  0
XRECORD
  5
4468
102
{ACAD_REACTORS
330
4467
102
}
330
4467
100
AcDbXrecord
280
     1
102
RTVSPost2010Prop28
280
     0
102
RTVSPost2010PropOp28
 70
     1
102
RTVSPost2010Prop29
280
     1
102
RTVSPost2010PropOp29
 70
     1
102
RTVSPost2010Prop30
280
     1
102
RTVSPost2010PropOp30
 70
     1
102
RTVSPost2010Prop31
280
     0
102
RTVSPost2010PropOp31
 70
     1
102
RTVSPost2010Prop32
280
     0
102
RTVSPost2010PropOp32
 70
     1
102
RTVSPost2010Prop33
280
     0
102
RTVSPost2010PropOp33
 70
     1
102
RTVSPost2010Prop34
280
     0
102
RTVSPost2010PropOp34
 70
     1
102
RTVSPost2010Prop35
280
     0
102
RTVSPost2010PropOp35
 70
     1
102
RTVSPost2010Prop36
280
     0
102
RTVSPost2010PropOp36
 70
     1
102
RTVSPost2010Prop37
 90
       50
102
RTVSPost2010PropOp37
 70
     1
102
RTVSPost2010Prop38
140
0.0
102
RTVSPost2010PropOp38
 70
     1
102
RTVSPost2010Prop39
140
1.0
102
RTVSPost2010PropOp39
 70
     1
102
RTVSPost2010Prop40
 90
        0
102
RTVSPost2010PropOp40
 70
     1
102
RTVSPost2010Prop41ColorIndex
 90
       18
102
RTVSPost2010Prop41ColorRGB
 90
        0
102
RTVSPost2010PropOp41
 70
     1
102
RTVSPost2010Prop42
 90
       50
102
RTVSPost2010PropOp42
 70
     1
102
RTVSPost2010Prop43
 90
        3
102
RTVSPost2010PropOp43
 70
     1
102
RTVSPost2010Prop44ColorIndex
 90
        5
102
RTVSPost2010Prop44ColorRGB
 90
      255
102
RTVSPost2010PropOp44
 70
     1
102
RTVSPost2010Prop45
280
     0
102
RTVSPost2010PropOp45
 70
     1
102
RTVSPost2010Prop46
 90
       50
102
RTVSPost2010PropOp46
 70
     1
102
RTVSPost2010Prop47
 90
       50
102
RTVSPost2010PropOp47
 70
     1
102
RTVSPost2010Prop48
 90
       50
102
RTVSPost2010PropOp48
 70
     1
102
RTVSPost2010Prop49
280
     0
102
RTVSPost2010PropOp49
 70
     1
102
RTVSPost2010Prop50
 90
       50
102
RTVSPost2010PropOp50
 70
     1
102
RTVSPost2010Prop51ColorIndex
 90
      256
102
RTVSPost2010Prop51ColorRGB
 90
-16777216
102
RTVSPost2010PropOp51
 70
     0
102
RTVSPost2010Prop52
140
1.0
102
RTVSPost2010PropOp52
 70
     0
102
RTVSPost2010Prop53
 90
        2
102
RTVSPost2010PropOp53
 70
     1
102
RTVSPost2010Prop54
  1
strokes_ogs.tif
102
RTVSPost2010PropOp54
 70
     1
102
RTVSPost2010Prop55
280
     0
102
RTVSPost2010PropOp55
 70
     1
102
RTVSPost2010Prop56
140
1.0
102
RTVSPost2010PropOp56
 70
     1
102
RTVSPost2010Prop57
140
1.0
102
RTVSPost2010PropOp57
 70
     1
102
RTVSPropertyOp0
 70
     1
102
RTVSPropertyOp1
 70
     1
102
RTVSPropertyOp2
 70
     1
102
RTVSPropertyOp3
 70
     1
102
RTVSPropertyOp4
 70
     1
102
RTVSPropertyOp5
 70
     1
102
RTVSPropertyOp6
 70
     1
102
RTVSPropertyOp7
 70
     1
102
RTVSPropertyOp8
 70
     1
102
RTVSPropertyOp9
 70
     1
102
RTVSPropertyOp10
 70
     1
102
RTVSPropertyOp11
 70
     1
102
RTVSPropertyOp12
 70
     1
102
RTVSPropertyOp13
 70
     1
102
RTVSPropertyOp14
 70
     1
102
RTVSPropertyOp15
 70
     1
102
RTVSPropertyOp16
 70
     1
102
RTVSPropertyOp17
 70
     1
102
RTVSPropertyOp18
 70
     1
102
RTVSPropertyOp19
 70
     1
102
RTVSPropertyOp20
 70
     1
102
RTVSPropertyOp21
 70
     1
102
RTVSPropertyOp22
 70
     1
102
RTVSPropertyOp23
 70
     1
102
RTVSPropertyOp24
 70
     1
102
RTVSPropertyOp25
 70
     1
102
RTVSPropertyOp26
 70
     1
102
RTVSPropertyOp27
 70
     1
102
RTVSPropertyOp28
 70
     1
102
RTVSPropertyOp29
 70
     1
102
RTVSPropertyOp30
 70
     1
102
RTVSPropertyOp31
 70
     1
102
RTVSPropertyOp32
 70
     1
102
RTVSPropertyOp33
 70
     1
102
RTVSPropertyOp34
 70
     1
102
RTVSPropertyOp35
 70
     1
102
RTVSPropertyOp36
 70
     1
102
RTVSPropertyOp37
 70
     1
102
RTVSPropertyOp38
 70
     1
102
RTVSPropertyOp39
 70
     1
102
RTVSPropertyOp40
 70
     1
102
RTVSPropertyOp41
 70
     1
102
RTVSPropertyOp42
 70
     1
102
RTVSPropertyOp43
 70
     1
102
RTVSPropertyOp44
 70
     1
102
RTVSPropertyOp45
 70
     1
102
RTVSPropertyOp46
 70
     1
102
RTVSPropertyOp47
 70
     1
102
RTVSPropertyOp48
 70
     1
102
RTVSPropertyOp49
 70
     1
102
RTVSPropertyOp50
 70
     1
102
RTVSPropertyOp51
 70
     0
102
RTVSPropertyOp52
 70
     0
102
RTVSPropertyOp53
 70
     1
102
RTVSPropertyOp54
 70
     1
102
RTVSPropertyOp55
 70
     1
102
RTVSPropertyOp56
 70
     1
102
RTVSPropertyOp57
 70
     1
102
RTVSPropertyOp58
 70
     1
102
RTVSPropertyOp59
 70
     1
102
RTVSPropertyOp60
 70
     1
102
RTVSPropertyOp61
 70
     1
102
RTVSPropertyOp62
 70
     1
  0
XRECORD
  5
4466
102
{ACAD_REACTORS
330
4465
102
}
330
4465
100
AcDbXrecord
280
     1
102
RTVSPost2010Prop28
280
     0
102
RTVSPost2010PropOp28
 70
     1
102
RTVSPost2010Prop29
280
     1
102
RTVSPost2010PropOp29
 70
     1
102
RTVSPost2010Prop30
280
     1
102
RTVSPost2010PropOp30
 70
     1
102
RTVSPost2010Prop31
280
     0
102
RTVSPost2010PropOp31
 70
     1
102
RTVSPost2010Prop32
280
     0
102
RTVSPost2010PropOp32
 70
     1
102
RTVSPost2010Prop33
280
     0
102
RTVSPost2010PropOp33
 70
     1
102
RTVSPost2010Prop34
280
     0
102
RTVSPost2010PropOp34
 70
     1
102
RTVSPost2010Prop35
280
     0
102
RTVSPost2010PropOp35
 70
     1
102
RTVSPost2010Prop36
280
     0
102
RTVSPost2010PropOp36
 70
     1
102
RTVSPost2010Prop37
 90
       50
102
RTVSPost2010PropOp37
 70
     1
102
RTVSPost2010Prop38
140
0.0
102
RTVSPost2010PropOp38
 70
     1
102
RTVSPost2010Prop39
140
1.0
102
RTVSPost2010PropOp39
 70
     1
102
RTVSPost2010Prop40
 90
        0
102
RTVSPost2010PropOp40
 70
     1
102
RTVSPost2010Prop41ColorIndex
 90
       18
102
RTVSPost2010Prop41ColorRGB
 90
        0
102
RTVSPost2010PropOp41
 70
     1
102
RTVSPost2010Prop42
 90
       50
102
RTVSPost2010PropOp42
 70
     1
102
RTVSPost2010Prop43
 90
        3
102
RTVSPost2010PropOp43
 70
     1
102
RTVSPost2010Prop44ColorIndex
 90
        5
102
RTVSPost2010Prop44ColorRGB
 90
      255
102
RTVSPost2010PropOp44
 70
     1
102
RTVSPost2010Prop45
280
     0
102
RTVSPost2010PropOp45
 70
     1
102
RTVSPost2010Prop46
 90
       50
102
RTVSPost2010PropOp46
 70
     1
102
RTVSPost2010Prop47
 90
       50
102
RTVSPost2010PropOp47
 70
     1
102
RTVSPost2010Prop48
 90
       50
102
RTVSPost2010PropOp48
 70
     1
102
RTVSPost2010Prop49
280
     0
102
RTVSPost2010PropOp49
 70
     1
102
RTVSPost2010Prop50
 90
       50
102
RTVSPost2010PropOp50
 70
     1
102
RTVSPost2010Prop51ColorIndex
 90
      256
102
RTVSPost2010Prop51ColorRGB
 90
-16777216
102
RTVSPost2010PropOp51
 70
     0
102
RTVSPost2010Prop52
140
1.0
102
RTVSPost2010PropOp52
 70
     0
102
RTVSPost2010Prop53
 90
        2
102
RTVSPost2010PropOp53
 70
     1
102
RTVSPost2010Prop54
  1
strokes_ogs.tif
102
RTVSPost2010PropOp54
 70
     1
102
RTVSPost2010Prop55
280
     0
102
RTVSPost2010PropOp55
 70
     1
102
RTVSPost2010Prop56
140
1.0
102
RTVSPost2010PropOp56
 70
     1
102
RTVSPost2010Prop57
140
1.0
102
RTVSPost2010PropOp57
 70
     1
102
RTVSPropertyOp0
 70
     1
102
RTVSPropertyOp1
 70
     1
102
RTVSPropertyOp2
 70
     1
102
RTVSPropertyOp3
 70
     1
102
RTVSPropertyOp4
 70
     1
102
RTVSPropertyOp5
 70
     1
102
RTVSPropertyOp6
 70
     1
102
RTVSPropertyOp7
 70
     1
102
RTVSPropertyOp8
 70
     1
102
RTVSPropertyOp9
 70
     1
102
RTVSPropertyOp10
 70
     1
102
RTVSPropertyOp11
 70
     1
102
RTVSPropertyOp12
 70
     1
102
RTVSPropertyOp13
 70
     1
102
RTVSPropertyOp14
 70
     1
102
RTVSPropertyOp15
 70
     1
102
RTVSPropertyOp16
 70
     1
102
RTVSPropertyOp17
 70
     1
102
RTVSPropertyOp18
 70
     1
102
RTVSPropertyOp19
 70
     1
102
RTVSPropertyOp20
 70
     1
102
RTVSPropertyOp21
 70
     1
102
RTVSPropertyOp22
 70
     1
102
RTVSPropertyOp23
 70
     1
102
RTVSPropertyOp24
 70
     1
102
RTVSPropertyOp25
 70
     1
102
RTVSPropertyOp26
 70
     1
102
RTVSPropertyOp27
 70
     1
102
RTVSPropertyOp28
 70
     1
102
RTVSPropertyOp29
 70
     1
102
RTVSPropertyOp30
 70
     1
102
RTVSPropertyOp31
 70
     1
102
RTVSPropertyOp32
 70
     1
102
RTVSPropertyOp33
 70
     1
102
RTVSPropertyOp34
 70
     1
102
RTVSPropertyOp35
 70
     1
102
RTVSPropertyOp36
 70
     1
102
RTVSPropertyOp37
 70
     1
102
RTVSPropertyOp38
 70
     1
102
RTVSPropertyOp39
 70
     1
102
RTVSPropertyOp40
 70
     1
102
RTVSPropertyOp41
 70
     1
102
RTVSPropertyOp42
 70
     1
102
RTVSPropertyOp43
 70
     1
102
RTVSPropertyOp44
 70
     1
102
RTVSPropertyOp45
 70
     1
102
RTVSPropertyOp46
 70
     1
102
RTVSPropertyOp47
 70
     1
102
RTVSPropertyOp48
 70
     1
102
RTVSPropertyOp49
 70
     1
102
RTVSPropertyOp50
 70
     1
102
RTVSPropertyOp51
 70
     0
102
RTVSPropertyOp52
 70
     0
102
RTVSPropertyOp53
 70
     1
102
RTVSPropertyOp54
 70
     1
102
RTVSPropertyOp55
 70
     1
102
RTVSPropertyOp56
 70
     1
102
RTVSPropertyOp57
 70
     1
102
RTVSPropertyOp58
 70
     1
102
RTVSPropertyOp59
 70
     1
102
RTVSPropertyOp60
 70
     1
102
RTVSPropertyOp61
 70
     1
102
RTVSPropertyOp62
 70
     1
  0
XRECORD
  5
4460
102
{ACAD_REACTORS
330
445F
102
}
330
445F
100
AcDbXrecord
280
     1
102
RTVSPost2010Prop28
280
     0
102
RTVSPost2010PropOp28
 70
     1
102
RTVSPost2010Prop29
280
     1
102
RTVSPost2010PropOp29
 70
     1
102
RTVSPost2010Prop30
280
     1
102
RTVSPost2010PropOp30
 70
     1
102
RTVSPost2010Prop31
280
     0
102
RTVSPost2010PropOp31
 70
     1
102
RTVSPost2010Prop32
280
     0
102
RTVSPost2010PropOp32
 70
     1
102
RTVSPost2010Prop33
280
     0
102
RTVSPost2010PropOp33
 70
     1
102
RTVSPost2010Prop34
280
     0
102
RTVSPost2010PropOp34
 70
     1
102
RTVSPost2010Prop35
280
     0
102
RTVSPost2010PropOp35
 70
     1
102
RTVSPost2010Prop36
280
     0
102
RTVSPost2010PropOp36
 70
     1
102
RTVSPost2010Prop37
 90
       50
102
RTVSPost2010PropOp37
 70
     1
102
RTVSPost2010Prop38
140
0.0
102
RTVSPost2010PropOp38
 70
     1
102
RTVSPost2010Prop39
140
1.0
102
RTVSPost2010PropOp39
 70
     1
102
RTVSPost2010Prop40
 90
        0
102
RTVSPost2010PropOp40
 70
     1
102
RTVSPost2010Prop41ColorIndex
 90
       18
102
RTVSPost2010Prop41ColorRGB
 90
        0
102
RTVSPost2010PropOp41
 70
     1
102
RTVSPost2010Prop42
 90
       50
102
RTVSPost2010PropOp42
 70
     1
102
RTVSPost2010Prop43
 90
        3
102
RTVSPost2010PropOp43
 70
     1
102
RTVSPost2010Prop44ColorIndex
 90
        5
102
RTVSPost2010Prop44ColorRGB
 90
      255
102
RTVSPost2010PropOp44
 70
     1
102
RTVSPost2010Prop45
280
     0
102
RTVSPost2010PropOp45
 70
     1
102
RTVSPost2010Prop46
 90
       50
102
RTVSPost2010PropOp46
 70
     1
102
RTVSPost2010Prop47
 90
       50
102
RTVSPost2010PropOp47
 70
     1
102
RTVSPost2010Prop48
 90
       50
102
RTVSPost2010PropOp48
 70
     1
102
RTVSPost2010Prop49
280
     0
102
RTVSPost2010PropOp49
 70
     1
102
RTVSPost2010Prop50
 90
       50
102
RTVSPost2010PropOp50
 70
     1
102
RTVSPost2010Prop51ColorIndex
 90
      256
102
RTVSPost2010Prop51ColorRGB
 90
-16777216
102
RTVSPost2010PropOp51
 70
     0
102
RTVSPost2010Prop52
140
1.0
102
RTVSPost2010PropOp52
 70
     0
102
RTVSPost2010Prop53
 90
        2
102
RTVSPost2010PropOp53
 70
     1
102
RTVSPost2010Prop54
  1
strokes_ogs.tif
102
RTVSPost2010PropOp54
 70
     1
102
RTVSPost2010Prop55
280
     0
102
RTVSPost2010PropOp55
 70
     1
102
RTVSPost2010Prop56
140
1.0
102
RTVSPost2010PropOp56
 70
     1
102
RTVSPost2010Prop57
140
1.0
102
RTVSPost2010PropOp57
 70
     1
102
RTVSPropertyOp0
 70
     1
102
RTVSPropertyOp1
 70
     1
102
RTVSPropertyOp2
 70
     1
102
RTVSPropertyOp3
 70
     1
102
RTVSPropertyOp4
 70
     1
102
RTVSPropertyOp5
 70
     1
102
RTVSPropertyOp6
 70
     1
102
RTVSPropertyOp7
 70
     1
102
RTVSPropertyOp8
 70
     1
102
RTVSPropertyOp9
 70
     1
102
RTVSPropertyOp10
 70
     1
102
RTVSPropertyOp11
 70
     1
102
RTVSPropertyOp12
 70
     1
102
RTVSPropertyOp13
 70
     1
102
RTVSPropertyOp14
 70
     1
102
RTVSPropertyOp15
 70
     1
102
RTVSPropertyOp16
 70
     1
102
RTVSPropertyOp17
 70
     1
102
RTVSPropertyOp18
 70
     1
102
RTVSPropertyOp19
 70
     1
102
RTVSPropertyOp20
 70
     1
102
RTVSPropertyOp21
 70
     1
102
RTVSPropertyOp22
 70
     1
102
RTVSPropertyOp23
 70
     1
102
RTVSPropertyOp24
 70
     1
102
RTVSPropertyOp25
 70
     1
102
RTVSPropertyOp26
 70
     1
102
RTVSPropertyOp27
 70
     1
102
RTVSPropertyOp28
 70
     1
102
RTVSPropertyOp29
 70
     1
102
RTVSPropertyOp30
 70
     1
102
RTVSPropertyOp31
 70
     1
102
RTVSPropertyOp32
 70
     1
102
RTVSPropertyOp33
 70
     1
102
RTVSPropertyOp34
 70
     1
102
RTVSPropertyOp35
 70
     1
102
RTVSPropertyOp36
 70
     1
102
RTVSPropertyOp37
 70
     1
102
RTVSPropertyOp38
 70
     1
102
RTVSPropertyOp39
 70
     1
102
RTVSPropertyOp40
 70
     1
102
RTVSPropertyOp41
 70
     1
102
RTVSPropertyOp42
 70
     1
102
RTVSPropertyOp43
 70
     1
102
RTVSPropertyOp44
 70
     1
102
RTVSPropertyOp45
 70
     1
102
RTVSPropertyOp46
 70
     1
102
RTVSPropertyOp47
 70
     1
102
RTVSPropertyOp48
 70
     1
102
RTVSPropertyOp49
 70
     1
102
RTVSPropertyOp50
 70
     1
102
RTVSPropertyOp51
 70
     0
102
RTVSPropertyOp52
 70
     0
102
RTVSPropertyOp53
 70
     1
102
RTVSPropertyOp54
 70
     1
102
RTVSPropertyOp55
 70
     1
102
RTVSPropertyOp56
 70
     1
102
RTVSPropertyOp57
 70
     1
102
RTVSPropertyOp58
 70
     1
102
RTVSPropertyOp59
 70
     1
102
RTVSPropertyOp60
 70
     1
102
RTVSPropertyOp61
 70
     1
102
RTVSPropertyOp62
 70
     1
  0
XRECORD
  5
4462
102
{ACAD_REACTORS
330
4461
102
}
330
4461
100
AcDbXrecord
280
     1
102
RTVSPost2010Prop28
280
     0
102
RTVSPost2010PropOp28
 70
     1
102
RTVSPost2010Prop29
280
     1
102
RTVSPost2010PropOp29
 70
     1
102
RTVSPost2010Prop30
280
     1
102
RTVSPost2010PropOp30
 70
     1
102
RTVSPost2010Prop31
280
     0
102
RTVSPost2010PropOp31
 70
     1
102
RTVSPost2010Prop32
280
     0
102
RTVSPost2010PropOp32
 70
     1
102
RTVSPost2010Prop33
280
     0
102
RTVSPost2010PropOp33
 70
     1
102
RTVSPost2010Prop34
280
     0
102
RTVSPost2010PropOp34
 70
     1
102
RTVSPost2010Prop35
280
     0
102
RTVSPost2010PropOp35
 70
     1
102
RTVSPost2010Prop36
280
     0
102
RTVSPost2010PropOp36
 70
     1
102
RTVSPost2010Prop37
 90
       50
102
RTVSPost2010PropOp37
 70
     1
102
RTVSPost2010Prop38
140
0.0
102
RTVSPost2010PropOp38
 70
     1
102
RTVSPost2010Prop39
140
1.0
102
RTVSPost2010PropOp39
 70
     1
102
RTVSPost2010Prop40
 90
        0
102
RTVSPost2010PropOp40
 70
     1
102
RTVSPost2010Prop41ColorIndex
 90
       18
102
RTVSPost2010Prop41ColorRGB
 90
        0
102
RTVSPost2010PropOp41
 70
     1
102
RTVSPost2010Prop42
 90
       50
102
RTVSPost2010PropOp42
 70
     1
102
RTVSPost2010Prop43
 90
        3
102
RTVSPost2010PropOp43
 70
     1
102
RTVSPost2010Prop44ColorIndex
 90
        5
102
RTVSPost2010Prop44ColorRGB
 90
      255
102
RTVSPost2010PropOp44
 70
     1
102
RTVSPost2010Prop45
280
     0
102
RTVSPost2010PropOp45
 70
     1
102
RTVSPost2010Prop46
 90
       50
102
RTVSPost2010PropOp46
 70
     1
102
RTVSPost2010Prop47
 90
       50
102
RTVSPost2010PropOp47
 70
     1
102
RTVSPost2010Prop48
 90
       50
102
RTVSPost2010PropOp48
 70
     1
102
RTVSPost2010Prop49
280
     0
102
RTVSPost2010PropOp49
 70
     1
102
RTVSPost2010Prop50
 90
       50
102
RTVSPost2010PropOp50
 70
     1
102
RTVSPost2010Prop51ColorIndex
 90
      256
102
RTVSPost2010Prop51ColorRGB
 90
-16777216
102
RTVSPost2010PropOp51
 70
     0
102
RTVSPost2010Prop52
140
1.0
102
RTVSPost2010PropOp52
 70
     0
102
RTVSPost2010Prop53
 90
        2
102
RTVSPost2010PropOp53
 70
     1
102
RTVSPost2010Prop54
  1
strokes_ogs.tif
102
RTVSPost2010PropOp54
 70
     1
102
RTVSPost2010Prop55
280
     0
102
RTVSPost2010PropOp55
 70
     1
102
RTVSPost2010Prop56
140
1.0
102
RTVSPost2010PropOp56
 70
     1
102
RTVSPost2010Prop57
140
1.0
102
RTVSPost2010PropOp57
 70
     1
102
RTVSPropertyOp0
 70
     1
102
RTVSPropertyOp1
 70
     1
102
RTVSPropertyOp2
 70
     1
102
RTVSPropertyOp3
 70
     1
102
RTVSPropertyOp4
 70
     1
102
RTVSPropertyOp5
 70
     1
102
RTVSPropertyOp6
 70
     1
102
RTVSPropertyOp7
 70
     1
102
RTVSPropertyOp8
 70
     1
102
RTVSPropertyOp9
 70
     1
102
RTVSPropertyOp10
 70
     1
102
RTVSPropertyOp11
 70
     1
102
RTVSPropertyOp12
 70
     1
102
RTVSPropertyOp13
 70
     1
102
RTVSPropertyOp14
 70
     1
102
RTVSPropertyOp15
 70
     1
102
RTVSPropertyOp16
 70
     1
102
RTVSPropertyOp17
 70
     1
102
RTVSPropertyOp18
 70
     1
102
RTVSPropertyOp19
 70
     1
102
RTVSPropertyOp20
 70
     1
102
RTVSPropertyOp21
 70
     1
102
RTVSPropertyOp22
 70
     1
102
RTVSPropertyOp23
 70
     1
102
RTVSPropertyOp24
 70
     1
102
RTVSPropertyOp25
 70
     1
102
RTVSPropertyOp26
 70
     1
102
RTVSPropertyOp27
 70
     1
102
RTVSPropertyOp28
 70
     1
102
RTVSPropertyOp29
 70
     1
102
RTVSPropertyOp30
 70
     1
102
RTVSPropertyOp31
 70
     1
102
RTVSPropertyOp32
 70
     1
102
RTVSPropertyOp33
 70
     1
102
RTVSPropertyOp34
 70
     1
102
RTVSPropertyOp35
 70
     1
102
RTVSPropertyOp36
 70
     1
102
RTVSPropertyOp37
 70
     1
102
RTVSPropertyOp38
 70
     1
102
RTVSPropertyOp39
 70
     1
102
RTVSPropertyOp40
 70
     1
102
RTVSPropertyOp41
 70
     1
102
RTVSPropertyOp42
 70
     1
102
RTVSPropertyOp43
 70
     1
102
RTVSPropertyOp44
 70
     1
102
RTVSPropertyOp45
 70
     1
102
RTVSPropertyOp46
 70
     1
102
RTVSPropertyOp47
 70
     1
102
RTVSPropertyOp48
 70
     1
102
RTVSPropertyOp49
 70
     1
102
RTVSPropertyOp50
 70
     1
102
RTVSPropertyOp51
 70
     0
102
RTVSPropertyOp52
 70
     0
102
RTVSPropertyOp53
 70
     1
102
RTVSPropertyOp54
 70
     1
102
RTVSPropertyOp55
 70
     1
102
RTVSPropertyOp56
 70
     1
102
RTVSPropertyOp57
 70
     1
102
RTVSPropertyOp58
 70
     1
102
RTVSPropertyOp59
 70
     1
102
RTVSPropertyOp60
 70
     1
102
RTVSPropertyOp61
 70
     1
102
RTVSPropertyOp62
 70
     1
  0
XRECORD
  5
444D
102
{ACAD_REACTORS
330
444C
102
}
330
444C
100
AcDbXrecord
280
     1
102
RTVSPost2010Prop28
280
     0
102
RTVSPost2010PropOp28
 70
     1
102
RTVSPost2010Prop29
280
     1
102
RTVSPost2010PropOp29
 70
     1
102
RTVSPost2010Prop30
280
     1
102
RTVSPost2010PropOp30
 70
     1
102
RTVSPost2010Prop31
280
     0
102
RTVSPost2010PropOp31
 70
     1
102
RTVSPost2010Prop32
280
     0
102
RTVSPost2010PropOp32
 70
     1
102
RTVSPost2010Prop33
280
     0
102
RTVSPost2010PropOp33
 70
     1
102
RTVSPost2010Prop34
280
     0
102
RTVSPost2010PropOp34
 70
     1
102
RTVSPost2010Prop35
280
     0
102
RTVSPost2010PropOp35
 70
     1
102
RTVSPost2010Prop36
280
     0
102
RTVSPost2010PropOp36
 70
     1
102
RTVSPost2010Prop37
 90
       50
102
RTVSPost2010PropOp37
 70
     1
102
RTVSPost2010Prop38
140
0.0
102
RTVSPost2010PropOp38
 70
     1
102
RTVSPost2010Prop39
140
1.0
102
RTVSPost2010PropOp39
 70
     1
102
RTVSPost2010Prop40
 90
        0
102
RTVSPost2010PropOp40
 70
     1
102
RTVSPost2010Prop41ColorIndex
 90
       18
102
RTVSPost2010Prop41ColorRGB
 90
        0
102
RTVSPost2010PropOp41
 70
     1
102
RTVSPost2010Prop42
 90
       50
102
RTVSPost2010PropOp42
 70
     1
102
RTVSPost2010Prop43
 90
        3
102
RTVSPost2010PropOp43
 70
     1
102
RTVSPost2010Prop44ColorIndex
 90
        5
102
RTVSPost2010Prop44ColorRGB
 90
      255
102
RTVSPost2010PropOp44
 70
     1
102
RTVSPost2010Prop45
280
     0
102
RTVSPost2010PropOp45
 70
     1
102
RTVSPost2010Prop46
 90
       50
102
RTVSPost2010PropOp46
 70
     1
102
RTVSPost2010Prop47
 90
       50
102
RTVSPost2010PropOp47
 70
     1
102
RTVSPost2010Prop48
 90
       50
102
RTVSPost2010PropOp48
 70
     1
102
RTVSPost2010Prop49
280
     0
102
RTVSPost2010PropOp49
 70
     1
102
RTVSPost2010Prop50
 90
       50
102
RTVSPost2010PropOp50
 70
     1
102
RTVSPost2010Prop51ColorIndex
 90
      256
102
RTVSPost2010Prop51ColorRGB
 90
-16777216
102
RTVSPost2010PropOp51
 70
     0
102
RTVSPost2010Prop52
140
1.0
102
RTVSPost2010PropOp52
 70
     0
102
RTVSPost2010Prop53
 90
        2
102
RTVSPost2010PropOp53
 70
     1
102
RTVSPost2010Prop54
  1
strokes_ogs.tif
102
RTVSPost2010PropOp54
 70
     1
102
RTVSPost2010Prop55
280
     0
102
RTVSPost2010PropOp55
 70
     1
102
RTVSPost2010Prop56
140
1.0
102
RTVSPost2010PropOp56
 70
     1
102
RTVSPost2010Prop57
140
1.0
102
RTVSPost2010PropOp57
 70
     1
102
RTVSPropertyOp0
 70
     1
102
RTVSPropertyOp1
 70
     1
102
RTVSPropertyOp2
 70
     1
102
RTVSPropertyOp3
 70
     1
102
RTVSPropertyOp4
 70
     1
102
RTVSPropertyOp5
 70
     1
102
RTVSPropertyOp6
 70
     1
102
RTVSPropertyOp7
 70
     1
102
RTVSPropertyOp8
 70
     1
102
RTVSPropertyOp9
 70
     1
102
RTVSPropertyOp10
 70
     1
102
RTVSPropertyOp11
 70
     1
102
RTVSPropertyOp12
 70
     1
102
RTVSPropertyOp13
 70
     1
102
RTVSPropertyOp14
 70
     1
102
RTVSPropertyOp15
 70
     1
102
RTVSPropertyOp16
 70
     1
102
RTVSPropertyOp17
 70
     1
102
RTVSPropertyOp18
 70
     1
102
RTVSPropertyOp19
 70
     1
102
RTVSPropertyOp20
 70
     1
102
RTVSPropertyOp21
 70
     1
102
RTVSPropertyOp22
 70
     1
102
RTVSPropertyOp23
 70
     1
102
RTVSPropertyOp24
 70
     1
102
RTVSPropertyOp25
 70
     1
102
RTVSPropertyOp26
 70
     1
102
RTVSPropertyOp27
 70
     1
102
RTVSPropertyOp28
 70
     1
102
RTVSPropertyOp29
 70
     1
102
RTVSPropertyOp30
 70
     1
102
RTVSPropertyOp31
 70
     1
102
RTVSPropertyOp32
 70
     1
102
RTVSPropertyOp33
 70
     1
102
RTVSPropertyOp34
 70
     1
102
RTVSPropertyOp35
 70
     1
102
RTVSPropertyOp36
 70
     1
102
RTVSPropertyOp37
 70
     1
102
RTVSPropertyOp38
 70
     1
102
RTVSPropertyOp39
 70
     1
102
RTVSPropertyOp40
 70
     1
102
RTVSPropertyOp41
 70
     1
102
RTVSPropertyOp42
 70
     1
102
RTVSPropertyOp43
 70
     1
102
RTVSPropertyOp44
 70
     1
102
RTVSPropertyOp45
 70
     1
102
RTVSPropertyOp46
 70
     1
102
RTVSPropertyOp47
 70
     1
102
RTVSPropertyOp48
 70
     1
102
RTVSPropertyOp49
 70
     1
102
RTVSPropertyOp50
 70
     1
102
RTVSPropertyOp51
 70
     0
102
RTVSPropertyOp52
 70
     0
102
RTVSPropertyOp53
 70
     1
102
RTVSPropertyOp54
 70
     1
102
RTVSPropertyOp55
 70
     1
102
RTVSPropertyOp56
 70
     1
102
RTVSPropertyOp57
 70
     1
102
RTVSPropertyOp58
 70
     1
102
RTVSPropertyOp59
 70
     1
102
RTVSPropertyOp60
 70
     1
102
RTVSPropertyOp61
 70
     1
102
RTVSPropertyOp62
 70
     1
  0
XRECORD
  5
445C
102
{ACAD_REACTORS
330
445B
102
}
330
445B
100
AcDbXrecord
280
     1
102
RTVSPost2010Prop28
280
     0
102
RTVSPost2010PropOp28
 70
     1
102
RTVSPost2010Prop29
280
     1
102
RTVSPost2010PropOp29
 70
     1
102
RTVSPost2010Prop30
280
     1
102
RTVSPost2010PropOp30
 70
     1
102
RTVSPost2010Prop31
280
     0
102
RTVSPost2010PropOp31
 70
     1
102
RTVSPost2010Prop32
280
     0
102
RTVSPost2010PropOp32
 70
     1
102
RTVSPost2010Prop33
280
     0
102
RTVSPost2010PropOp33
 70
     1
102
RTVSPost2010Prop34
280
     0
102
RTVSPost2010PropOp34
 70
     1
102
RTVSPost2010Prop35
280
     0
102
RTVSPost2010PropOp35
 70
     1
102
RTVSPost2010Prop36
280
     0
102
RTVSPost2010PropOp36
 70
     1
102
RTVSPost2010Prop37
 90
       50
102
RTVSPost2010PropOp37
 70
     1
102
RTVSPost2010Prop38
140
0.0
102
RTVSPost2010PropOp38
 70
     1
102
RTVSPost2010Prop39
140
1.0
102
RTVSPost2010PropOp39
 70
     1
102
RTVSPost2010Prop40
 90
        0
102
RTVSPost2010PropOp40
 70
     1
102
RTVSPost2010Prop41ColorIndex
 90
       18
102
RTVSPost2010Prop41ColorRGB
 90
        0
102
RTVSPost2010PropOp41
 70
     1
102
RTVSPost2010Prop42
 90
       50
102
RTVSPost2010PropOp42
 70
     1
102
RTVSPost2010Prop43
 90
        3
102
RTVSPost2010PropOp43
 70
     1
102
RTVSPost2010Prop44ColorIndex
 90
        5
102
RTVSPost2010Prop44ColorRGB
 90
      255
102
RTVSPost2010PropOp44
 70
     1
102
RTVSPost2010Prop45
280
     0
102
RTVSPost2010PropOp45
 70
     1
102
RTVSPost2010Prop46
 90
       50
102
RTVSPost2010PropOp46
 70
     1
102
RTVSPost2010Prop47
 90
       50
102
RTVSPost2010PropOp47
 70
     1
102
RTVSPost2010Prop48
 90
       50
102
RTVSPost2010PropOp48
 70
     1
102
RTVSPost2010Prop49
280
     0
102
RTVSPost2010PropOp49
 70
     1
102
RTVSPost2010Prop50
 90
       50
102
RTVSPost2010PropOp50
 70
     1
102
RTVSPost2010Prop51ColorIndex
 90
      256
102
RTVSPost2010Prop51ColorRGB
 90
-16777216
102
RTVSPost2010PropOp51
 70
     0
102
RTVSPost2010Prop52
140
1.0
102
RTVSPost2010PropOp52
 70
     0
102
RTVSPost2010Prop53
 90
        2
102
RTVSPost2010PropOp53
 70
     1
102
RTVSPost2010Prop54
  1
strokes_ogs.tif
102
RTVSPost2010PropOp54
 70
     1
102
RTVSPost2010Prop55
280
     0
102
RTVSPost2010PropOp55
 70
     1
102
RTVSPost2010Prop56
140
1.0
102
RTVSPost2010PropOp56
 70
     1
102
RTVSPost2010Prop57
140
1.0
102
RTVSPost2010PropOp57
 70
     1
102
RTVSPropertyOp0
 70
     1
102
RTVSPropertyOp1
 70
     1
102
RTVSPropertyOp2
 70
     1
102
RTVSPropertyOp3
 70
     1
102
RTVSPropertyOp4
 70
     1
102
RTVSPropertyOp5
 70
     1
102
RTVSPropertyOp6
 70
     1
102
RTVSPropertyOp7
 70
     1
102
RTVSPropertyOp8
 70
     1
102
RTVSPropertyOp9
 70
     1
102
RTVSPropertyOp10
 70
     1
102
RTVSPropertyOp11
 70
     1
102
RTVSPropertyOp12
 70
     1
102
RTVSPropertyOp13
 70
     1
102
RTVSPropertyOp14
 70
     1
102
RTVSPropertyOp15
 70
     1
102
RTVSPropertyOp16
 70
     1
102
RTVSPropertyOp17
 70
     1
102
RTVSPropertyOp18
 70
     1
102
RTVSPropertyOp19
 70
     1
102
RTVSPropertyOp20
 70
     1
102
RTVSPropertyOp21
 70
     1
102
RTVSPropertyOp22
 70
     1
102
RTVSPropertyOp23
 70
     1
102
RTVSPropertyOp24
 70
     1
102
RTVSPropertyOp25
 70
     1
102
RTVSPropertyOp26
 70
     1
102
RTVSPropertyOp27
 70
     1
102
RTVSPropertyOp28
 70
     1
102
RTVSPropertyOp29
 70
     1
102
RTVSPropertyOp30
 70
     1
102
RTVSPropertyOp31
 70
     1
102
RTVSPropertyOp32
 70
     1
102
RTVSPropertyOp33
 70
     1
102
RTVSPropertyOp34
 70
     1
102
RTVSPropertyOp35
 70
     1
102
RTVSPropertyOp36
 70
     1
102
RTVSPropertyOp37
 70
     1
102
RTVSPropertyOp38
 70
     1
102
RTVSPropertyOp39
 70
     1
102
RTVSPropertyOp40
 70
     1
102
RTVSPropertyOp41
 70
     1
102
RTVSPropertyOp42
 70
     1
102
RTVSPropertyOp43
 70
     1
102
RTVSPropertyOp44
 70
     1
102
RTVSPropertyOp45
 70
     1
102
RTVSPropertyOp46
 70
     1
102
RTVSPropertyOp47
 70
     1
102
RTVSPropertyOp48
 70
     1
102
RTVSPropertyOp49
 70
     1
102
RTVSPropertyOp50
 70
     1
102
RTVSPropertyOp51
 70
     0
102
RTVSPropertyOp52
 70
     0
102
RTVSPropertyOp53
 70
     1
102
RTVSPropertyOp54
 70
     1
102
RTVSPropertyOp55
 70
     1
102
RTVSPropertyOp56
 70
     1
102
RTVSPropertyOp57
 70
     1
102
RTVSPropertyOp58
 70
     1
102
RTVSPropertyOp59
 70
     1
102
RTVSPropertyOp60
 70
     1
102
RTVSPropertyOp61
 70
     1
102
RTVSPropertyOp62
 70
     1
  0
XRECORD
  5
4464
102
{ACAD_REACTORS
330
4463
102
}
330
4463
100
AcDbXrecord
280
     1
102
RTVSPost2010Prop28
280
     0
102
RTVSPost2010PropOp28
 70
     1
102
RTVSPost2010Prop29
280
     1
102
RTVSPost2010PropOp29
 70
     1
102
RTVSPost2010Prop30
280
     1
102
RTVSPost2010PropOp30
 70
     1
102
RTVSPost2010Prop31
280
     0
102
RTVSPost2010PropOp31
 70
     1
102
RTVSPost2010Prop32
280
     0
102
RTVSPost2010PropOp32
 70
     1
102
RTVSPost2010Prop33
280
     0
102
RTVSPost2010PropOp33
 70
     1
102
RTVSPost2010Prop34
280
     0
102
RTVSPost2010PropOp34
 70
     1
102
RTVSPost2010Prop35
280
     0
102
RTVSPost2010PropOp35
 70
     1
102
RTVSPost2010Prop36
280
     0
102
RTVSPost2010PropOp36
 70
     1
102
RTVSPost2010Prop37
 90
       50
102
RTVSPost2010PropOp37
 70
     1
102
RTVSPost2010Prop38
140
0.0
102
RTVSPost2010PropOp38
 70
     1
102
RTVSPost2010Prop39
140
1.0
102
RTVSPost2010PropOp39
 70
     1
102
RTVSPost2010Prop40
 90
        0
102
RTVSPost2010PropOp40
 70
     1
102
RTVSPost2010Prop41ColorIndex
 90
       18
102
RTVSPost2010Prop41ColorRGB
 90
        0
102
RTVSPost2010PropOp41
 70
     1
102
RTVSPost2010Prop42
 90
       50
102
RTVSPost2010PropOp42
 70
     1
102
RTVSPost2010Prop43
 90
        3
102
RTVSPost2010PropOp43
 70
     1
102
RTVSPost2010Prop44ColorIndex
 90
        5
102
RTVSPost2010Prop44ColorRGB
 90
      255
102
RTVSPost2010PropOp44
 70
     1
102
RTVSPost2010Prop45
280
     0
102
RTVSPost2010PropOp45
 70
     1
102
RTVSPost2010Prop46
 90
       50
102
RTVSPost2010PropOp46
 70
     1
102
RTVSPost2010Prop47
 90
       50
102
RTVSPost2010PropOp47
 70
     1
102
RTVSPost2010Prop48
 90
       50
102
RTVSPost2010PropOp48
 70
     1
102
RTVSPost2010Prop49
280
     0
102
RTVSPost2010PropOp49
 70
     1
102
RTVSPost2010Prop50
 90
       50
102
RTVSPost2010PropOp50
 70
     1
102
RTVSPost2010Prop51ColorIndex
 90
      256
102
RTVSPost2010Prop51ColorRGB
 90
-16777216
102
RTVSPost2010PropOp51
 70
     0
102
RTVSPost2010Prop52
140
1.0
102
RTVSPost2010PropOp52
 70
     0
102
RTVSPost2010Prop53
 90
        2
102
RTVSPost2010PropOp53
 70
     1
102
RTVSPost2010Prop54
  1
strokes_ogs.tif
102
RTVSPost2010PropOp54
 70
     1
102
RTVSPost2010Prop55
280
     0
102
RTVSPost2010PropOp55
 70
     1
102
RTVSPost2010Prop56
140
1.0
102
RTVSPost2010PropOp56
 70
     1
102
RTVSPost2010Prop57
140
1.0
102
RTVSPost2010PropOp57
 70
     1
102
RTVSPropertyOp0
 70
     1
102
RTVSPropertyOp1
 70
     1
102
RTVSPropertyOp2
 70
     1
102
RTVSPropertyOp3
 70
     1
102
RTVSPropertyOp4
 70
     1
102
RTVSPropertyOp5
 70
     1
102
RTVSPropertyOp6
 70
     1
102
RTVSPropertyOp7
 70
     1
102
RTVSPropertyOp8
 70
     1
102
RTVSPropertyOp9
 70
     1
102
RTVSPropertyOp10
 70
     1
102
RTVSPropertyOp11
 70
     1
102
RTVSPropertyOp12
 70
     1
102
RTVSPropertyOp13
 70
     1
102
RTVSPropertyOp14
 70
     1
102
RTVSPropertyOp15
 70
     1
102
RTVSPropertyOp16
 70
     1
102
RTVSPropertyOp17
 70
     1
102
RTVSPropertyOp18
 70
     1
102
RTVSPropertyOp19
 70
     1
102
RTVSPropertyOp20
 70
     1
102
RTVSPropertyOp21
 70
     1
102
RTVSPropertyOp22
 70
     1
102
RTVSPropertyOp23
 70
     1
102
RTVSPropertyOp24
 70
     1
102
RTVSPropertyOp25
 70
     1
102
RTVSPropertyOp26
 70
     1
102
RTVSPropertyOp27
 70
     1
102
RTVSPropertyOp28
 70
     1
102
RTVSPropertyOp29
 70
     1
102
RTVSPropertyOp30
 70
     1
102
RTVSPropertyOp31
 70
     1
102
RTVSPropertyOp32
 70
     1
102
RTVSPropertyOp33
 70
     1
102
RTVSPropertyOp34
 70
     1
102
RTVSPropertyOp35
 70
     1
102
RTVSPropertyOp36
 70
     1
102
RTVSPropertyOp37
 70
     1
102
RTVSPropertyOp38
 70
     1
102
RTVSPropertyOp39
 70
     1
102
RTVSPropertyOp40
 70
     1
102
RTVSPropertyOp41
 70
     1
102
RTVSPropertyOp42
 70
     1
102
RTVSPropertyOp43
 70
     1
102
RTVSPropertyOp44
 70
     1
102
RTVSPropertyOp45
 70
     1
102
RTVSPropertyOp46
 70
     1
102
RTVSPropertyOp47
 70
     1
102
RTVSPropertyOp48
 70
     1
102
RTVSPropertyOp49
 70
     1
102
RTVSPropertyOp50
 70
     1
102
RTVSPropertyOp51
 70
     0
102
RTVSPropertyOp52
 70
     0
102
RTVSPropertyOp53
 70
     1
102
RTVSPropertyOp54
 70
     1
102
RTVSPropertyOp55
 70
     1
102
RTVSPropertyOp56
 70
     1
102
RTVSPropertyOp57
 70
     1
102
RTVSPropertyOp58
 70
     1
102
RTVSPropertyOp59
 70
     1
102
RTVSPropertyOp60
 70
     1
102
RTVSPropertyOp61
 70
     1
102
RTVSPropertyOp62
 70
     1
  0
ENDSEC
  0
EOF
