  0
SECTION
  2
HEADER
  9
$ACADVER
  1
AC1015
  9
$ACADMAINTVER
 70
    20
  9
$DWGCODEPAGE
  3
ANSI_932
  9
$INSBASE
 10
0.0
 20
0.0
 30
0.0
  9
$EXTMIN
 10
-0.216598756651365
 20
-0.1502463206347784
 30
-0.0000000000112498
  9
$EXTMAX
 10
552.112743928209
 20
382.0777789340482
 30
0.0000000000002956
  9
$LIMMIN
 10
0.0
 20
0.0
  9
$LIMMAX
 10
2840.0
 20
1970.0
  9
$ORTHOMODE
 70
     0
  9
$REGENMODE
 70
     1
  9
$FILLMODE
 70
     1
  9
$QTEXTMODE
 70
     0
  9
$MIRRTEXT
 70
     1
  9
$LTSCALE
 40
1.0
  9
$ATTMODE
 70
     1
  9
$TEXTSIZE
 40
2.5
  9
$TRACEWID
 40
1.0
  9
$TEXTSTYLE
  7
Standard
  9
$CLAYER
  8
KANAMONO
  9
$CELTYPE
  6
ByLayer
  9
$CECOLOR
 62
   256
  9
$CELTSCALE
 40
1.0
  9
$DISPSILH
 70
     0
  9
$DIMSCALE
 40
2.0
  9
$DIMASZ
 40
0.8
  9
$DIMEXO
 40
1.0
  9
$DIMDLI
 40
0.0
  9
$DIMRND
 40
0.0
  9
$DIMDLE
 40
0.0
  9
$DIMEXE
 40
0.0
  9
$DIMTP
 40
0.0
  9
$DIMTM
 40
0.0
  9
$DIMTXT
 40
2.0
  9
$DIMCEN
 40
2.5
  9
$DIMTSZ
 40
0.0
  9
$DIMTOL
 70
     0
  9
$DIMLIM
 70
     0
  9
$DIMTIH
 70
     0
  9
$DIMTOH
 70
     0
  9
$DIMSE1
 70
     0
  9
$DIMSE2
 70
     0
  9
$DIMTAD
 70
     2
  9
$DIMZIN
 70
     8
  9
$DIMBLK
  1

  9
$DIMASO
 70
     1
  9
$DIMSHO
 70
     1
  9
$DIMPOST
  1

  9
$DIMAPOST
  1

  9
$DIMALT
 70
     0
  9
$DIMALTD
 70
     4
  9
$DIMALTF
 40
0.0394
  9
$DIMLFAC
 40
1.0
  9
$DIMTOFL
 70
     1
  9
$DIMTVP
 40
0.0
  9
$DIMTIX
 70
     0
  9
$DIMSOXD
 70
     0
  9
$DIMSAH
 70
     1
  9
$DIMBLK1
  1
DOT
  9
$DIMBLK2
  1
DOT
  9
$DIMSTYLE
  2
STANDARD
  9
$DIMCLRD
 70
     0
  9
$DIMCLRE
 70
     0
  9
$DIMCLRT
 70
     0
  9
$DIMTFAC
 40
1.0
  9
$DIMGAP
 40
0.1
  9
$DIMJUST
 70
     0
  9
$DIMSD1
 70
     0
  9
$DIMSD2
 70
     0
  9
$DIMTOLJ
 70
     1
  9
$DIMTZIN
 70
     0
  9
$DIMALTZ
 70
     0
  9
$DIMALTTZ
 70
     0
  9
$DIMUPT
 70
     0
  9
$DIMDEC
 70
     4
  9
$DIMTDEC
 70
     4
  9
$DIMALTU
 70
     8
  9
$DIMALTTD
 70
     4
  9
$DIMTXSTY
  7
Standard
  9
$DIMAUNIT
 70
     0
  9
$DIMADEC
 70
     0
  9
$DIMALTRND
 40
0.0
  9
$DIMAZIN
 70
     0
  9
$DIMDSEP
 70
    46
  9
$DIMATFIT
 70
     3
  9
$DIMFRAC
 70
     0
  9
$DIMLDRBLK
  1
DOT
  9
$DIMLUNIT
 70
     2
  9
$DIMLWD
 70
    -2
  9
$DIMLWE
 70
    -2
  9
$DIMTMOVE
 70
     1
  9
$LUNITS
 70
     2
  9
$LUPREC
 70
     8
  9
$SKETCHINC
 40
1.0
  9
$FILLETRAD
 40
0.0
  9
$AUNITS
 70
     0
  9
$AUPREC
 70
     8
  9
$MENU
  1
.
  9
$ELEVATION
 40
0.0
  9
$PELEVATION
 40
0.0
  9
$THICKNESS
 40
0.0
  9
$LIMCHECK
 70
     0
  9
$CHAMFERA
 40
10.0
  9
$CHAMFERB
 40
10.0
  9
$CHAMFERC
 40
20.0
  9
$CHAMFERD
 40
0.0
  9
$SKPOLY
 70
     0
  9
$TDCREATE
 40
2453276.413761574
  9
$TDUCREATE
 40
2453276.038766620
  9
$TDUPDATE
 40
2459989.485983796
  9
$TDUUPDATE
 40
2459989.110983797
  9
$TDINDWG
 40
0.2855702778
  9
$TDUSRTIMER
 40
0.2855702778
  9
$USRTIMER
 70
     1
  9
$ANGBASE
 50
0.0
  9
$ANGDIR
 70
     0
  9
$PDMODE
 70
     0
  9
$PDSIZE
 40
0.0
  9
$PLINEWID
 40
0.0
  9
$SPLFRAME
 70
     0
  9
$SPLINETYPE
 70
     6
  9
$SPLINESEGS
 70
     8
  9
$HANDSEED
  5
3D1C
  9
$SURFTAB1
 70
     6
  9
$SURFTAB2
 70
     6
  9
$SURFTYPE
 70
     6
  9
$SURFU
 70
     6
  9
$SURFV
 70
     6
  9
$UCSBASE
  2

  9
$UCSNAME
  2

  9
$UCSORG
 10
0.0
 20
0.0
 30
0.0
  9
$UCSXDIR
 10
1.0
 20
0.0
 30
0.0
  9
$UCSYDIR
 10
0.0
 20
1.0
 30
0.0
  9
$UCSORTHOREF
  2

  9
$UCSORTHOVIEW
 70
     0
  9
$UCSORGTOP
 10
0.0
 20
0.0
 30
0.0
  9
$UCSORGBOTTOM
 10
0.0
 20
0.0
 30
0.0
  9
$UCSORGLEFT
 10
0.0
 20
0.0
 30
0.0
  9
$UCSORGRIGHT
 10
0.0
 20
0.0
 30
0.0
  9
$UCSORGFRONT
 10
0.0
 20
0.0
 30
0.0
  9
$UCSORGBACK
 10
0.0
 20
0.0
 30
0.0
  9
$PUCSBASE
  2

  9
$PUCSNAME
  2

  9
$PUCSORG
 10
0.0
 20
0.0
 30
0.0
  9
$PUCSXDIR
 10
1.0
 20
0.0
 30
0.0
  9
$PUCSYDIR
 10
0.0
 20
1.0
 30
0.0
  9
$PUCSORTHOREF
  2

  9
$PUCSORTHOVIEW
 70
     0
  9
$PUCSORGTOP
 10
0.0
 20
0.0
 30
0.0
  9
$PUCSORGBOTTOM
 10
0.0
 20
0.0
 30
0.0
  9
$PUCSORGLEFT
 10
0.0
 20
0.0
 30
0.0
  9
$PUCSORGRIGHT
 10
0.0
 20
0.0
 30
0.0
  9
$PUCSORGFRONT
 10
0.0
 20
0.0
 30
0.0
  9
$PUCSORGBACK
 10
0.0
 20
0.0
 30
0.0
  9
$USERI1
 70
     0
  9
$USERI2
 70
     0
  9
$USERI3
 70
     0
  9
$USERI4
 70
     0
  9
$USERI5
 70
     0
  9
$USERR1
 40
0.0
  9
$USERR2
 40
0.0
  9
$USERR3
 40
0.0
  9
$USERR4
 40
0.0
  9
$USERR5
 40
0.0
  9
$WORLDVIEW
 70
     1
  9
$SHADEDGE
 70
     2
  9
$SHADEDIF
 70
    70
  9
$TILEMODE
 70
     1
  9
$MAXACTVP
 70
    64
  9
$PINSBASE
 10
0.0
 20
0.0
 30
0.0
  9
$PLIMCHECK
 70
     0
  9
$PEXTMIN
 10
0.0
 20
0.0
 30
0.0
  9
$PEXTMAX
 10
0.0
 20
0.0
 30
0.0
  9
$PLIMMIN
 10
0.0
 20
0.0
  9
$PLIMMAX
 10
12.0
 20
9.0
  9
$UNITMODE
 70
     0
  9
$VISRETAIN
 70
     1
  9
$PLINEGEN
 70
     0
  9
$PSLTSCALE
 70
     1
  9
$TREEDEPTH
 70
  3020
  9
$CMLSTYLE
  2
Standard
  9
$CMLJUST
 70
     0
  9
$CMLSCALE
 40
20.0
  9
$PROXYGRAPHICS
 70
     1
  9
$MEASUREMENT
 70
     1
  9
$CELWEIGHT
370
    -1
  9
$ENDCAPS
280
     0
  9
$JOINSTYLE
280
     0
  9
$LWDISPLAY
290
     0
  9
$INSUNITS
 70
     4
  9
$HYPERLINKBASE
  1

  9
$STYLESHEET
  1
monochrome.stb
  9
$XEDIT
290
     1
  9
$CEPSNTYPE
380
     0
  9
$PSTYLEMODE
290
     1
  9
$FINGERPRINTGUID
  2
{B4E61C12-08AD-407D-A83C-7C7812CA1D8B}
  9
$VERSIONGUID
  2
{64D6A81E-153C-7742-A0EA-05323EC12897}
  9
$EXTNAMES
290
     1
  9
$PSVPSCALE
 40
0.0
  9
$OLESTARTUP
290
     0
  0
ENDSEC
  0
SECTION
  2
CLASSES
  0
CLASS
  1
ACDBDICTIONARYWDFLT
  2
AcDbDictionaryWithDefault
  3
ObjectDBX Classes
 90
        0
280
     0
281
     0
  0
CLASS
  1
ACDBPLACEHOLDER
  2
AcDbPlaceHolder
  3
ObjectDBX Classes
 90
        0
280
     0
281
     0
  0
CLASS
  1
LAYOUT
  2
AcDbLayout
  3
ObjectDBX Classes
 90
        0
280
     0
281
     0
  0
CLASS
  1
DICTIONARYVAR
  2
AcDbDictionaryVar
  3
ObjectDBX Classes
 90
        0
280
     0
281
     0
  0
CLASS
  1
SORTENTSTABLE
  2
AcDbSortentsTable
  3
ObjectDBX Classes
 90
        0
280
     0
281
     0
  0
CLASS
  1
MATERIAL
  2
AcDbMaterial
  3
ObjectDBX Classes
 90
     1153
280
     0
281
     0
  0
CLASS
  1
VISUALSTYLE
  2
AcDbVisualStyle
  3
ObjectDBX Classes
 90
     4095
280
     0
281
     0
  0
CLASS
  1
TABLESTYLE
  2
AcDbTableStyle
  3
ObjectDBX Classes
 90
     4095
280
     0
281
     0
  0
CLASS
  1
SCALE
  2
AcDbScale
  3
ObjectDBX Classes
 90
     1153
280
     0
281
     0
  0
CLASS
  1
MLEADERSTYLE
  2
AcDbMLeaderStyle
  3
ACDB_MLEADERSTYLE_CLASS
 90
     4095
280
     0
281
     0
  0
CLASS
  1
AEC_REFEDIT_STATUS_TRACKER
  2
AecDbRefEditStatusTracker
  3
AecArchBase80|Product Desc: Autodesk Architectural Desktop 2007 |Company: Autodesk,Inc. |WEB Address: www.autodesk.com
 90
    32897
280
     0
281
     0
  0
CLASS
  1
NPOCOLLECTION
  2
AcDbImpNonPersistentObjectsCollection
  3
ObjectDBX Classes
 90
    33921
280
     0
281
     0
  0
CLASS
  1
CELLSTYLEMAP
  2
AcDbCellStyleMap
  3
ObjectDBX Classes
 90
     1152
280
     0
281
     0
  0
CLASS
  1
EXACXREFPANELOBJECT
  2
ExAcXREFPanelObject
  3
EXAC_ESW
 90
    33793
280
     0
281
     0
  0
CLASS
  1
ACDBSECTIONVIEWSTYLE
  2
AcDbSectionViewStyle
  3
ObjectDBX Classes
 90
     1025
280
     0
281
     0
  0
CLASS
  1
ACDBDETAILVIEWSTYLE
  2
AcDbDetailViewStyle
  3
ObjectDBX Classes
 90
     1025
280
     0
281
     0
  0
ENDSEC
  0
SECTION
  2
TABLES
  0
TABLE
  2
VPORT
  5
8
102
{ACAD_XDICTIONARY
360
2E0C
102
}
330
0
100
AcDbSymbolTable
 70
     1
  0
VPORT
  5
2D5C
330
8
100
AcDbSymbolTableRecord
100
AcDbViewportTableRecord
  2
*Active
 70
     0
 10
0.0
 20
0.0
 11
1.0
 21
1.0
 12
275.948072585779
 22
190.9637663067067
 13
0.0
 23
0.0
 14
10.0
 24
10.0
 15
10.0
 25
10.0
 16
0.0
 26
0.0
 36
1.0
 17
0.0
 27
0.0
 37
0.0
 40
385.0593439602732
 41
2.122373300370828
 42
50.0
 43
0.0
 44
0.0
 50
0.0
 51
0.0
 71
     0
 72
   100
 73
     1
 74
     3
 75
     0
 76
     0
 77
     0
 78
     0
281
     0
 65
     1
110
0.0
120
0.0
130
0.0
111
1.0
121
0.0
131
0.0
112
0.0
122
1.0
132
0.0
 79
     0
146
0.0
1001
ACAD_NAV_VCDISPLAY
1070
     3
  0
ENDTAB
  0
TABLE
  2
LTYPE
  5
5
330
0
100
AcDbSymbolTable
 70
     4
  0
LTYPE
  5
14
330
5
100
AcDbSymbolTableRecord
100
AcDbLinetypeTableRecord
  2
ByBlock
 70
     0
  3

 72
    65
 73
     0
 40
0.0
  0
LTYPE
  5
15
330
5
100
AcDbSymbolTableRecord
100
AcDbLinetypeTableRecord
  2
ByLayer
 70
     0
  3

 72
    65
 73
     0
 40
0.0
  0
LTYPE
  5
16
330
5
100
AcDbSymbolTableRecord
100
AcDbLinetypeTableRecord
  2
Continuous
 70
     0
  3
Solid line
 72
    65
 73
     0
 40
0.0
  0
LTYPE
  5
2B0B
330
5
100
AcDbSymbolTableRecord
100
AcDbLinetypeTableRecord
  2
DASHED
 70
     0
  3
__ __ __ __ __ __ __ __ __ __ __ __ __ __ __ __
 72
    65
 73
     2
 40
0.75
 49
0.5
 74
     0
 49
-0.25
 74
     0
  0
LTYPE
  5
3AC2
330
5
100
AcDbSymbolTableRecord
100
AcDbLinetypeTableRecord
  2
DASHED1
 70
     0
  3
--  --  --  --  --  --  --  --  
 72
    65
 73
     2
 40
2.5
 49
1.25
 74
     0
 49
-1.25
 74
     0
  0
ENDTAB
  0
TABLE
  2
LAYER
  5
2
102
{ACAD_XDICTIONARY
360
2D
102
}
330
0
100
AcDbSymbolTable
 70
     8
  0
LAYER
  5
10
102
{ACAD_XDICTIONARY
360
2DFE
102
}
330
2
100
AcDbSymbolTableRecord
100
AcDbLayerTableRecord
  2
0
 70
     0
 62
     7
  6
Continuous
290
     0
370
    -3
390
29
  0
LAYER
  5
2301
330
2
100
AcDbSymbolTableRecord
100
AcDbLayerTableRecord
  2
Defpoints
 70
     0
 62
     7
  6
Continuous
290
     0
370
    -3
390
F
  0
LAYER
  5
2388
102
{ACAD_XDICTIONARY
360
2E00
102
}
330
2
100
AcDbSymbolTableRecord
100
AcDbLayerTableRecord
  2
moji
 70
     0
 62
     7
  6
Continuous
370
    -3
390
29
  0
LAYER
  5
238A
102
{ACAD_XDICTIONARY
360
2E02
102
}
330
2
100
AcDbSymbolTableRecord
100
AcDbLayerTableRecord
  2
SUNPO
 70
     0
 62
     7
  6
Continuous
370
    -3
390
29
  0
LAYER
  5
2757
102
{ACAD_XDICTIONARY
360
2E04
102
}
330
2
100
AcDbSymbolTableRecord
100
AcDbLayerTableRecord
  2
KANAMONO
 70
     0
 62
     5
  6
Continuous
370
    -3
390
29
  0
LAYER
  5
2758
102
{ACAD_XDICTIONARY
360
2E06
102
}
330
2
100
AcDbSymbolTableRecord
100
AcDbLayerTableRecord
  2
KANAMONO_SCREW
 70
     0
 62
     4
  6
Continuous
370
    -3
390
29
  0
LAYER
  5
2EFD
102
{ACAD_XDICTIONARY
360
2EFE
102
}
330
2
100
AcDbSymbolTableRecord
100
AcDbLayerTableRecord
  2
WAKU
 70
     0
 62
     7
  6
Continuous
370
    -3
390
29
  0
LAYER
  5
3AC3
102
{ACAD_XDICTIONARY
360
3AC4
102
}
330
2
100
AcDbSymbolTableRecord
100
AcDbLayerTableRecord
  2
single
 70
     0
 62
     6
  6
Continuous
370
    -3
390
F
  0
ENDTAB
  0
TABLE
  2
STYLE
  5
3
330
0
100
AcDbSymbolTable
 70
     2
  0
STYLE
  5
11
330
3
100
AcDbSymbolTableRecord
100
AcDbTextStyleTableRecord
  2
Standard
 70
     0
 40
0.0
 41
1.0
 50
0.0
 71
     0
 42
2.5
  3

  4

1001
ACAD
1000
MS Gothic
1071
    32817
  0
STYLE
  5
2EFF
330
3
100
AcDbSymbolTableRecord
100
AcDbTextStyleTableRecord
  2
MSゴシック
 70
     0
 40
0.0
 41
1.0
 50
0.0
 71
     0
 42
2.5
  3

  4

1001
ACAD
1000
MS Gothic
1071
    32817
  0
ENDTAB
  0
TABLE
  2
VIEW
  5
6
330
0
100
AcDbSymbolTable
 70
     0
  0
ENDTAB
  0
TABLE
  2
UCS
  5
7
330
0
100
AcDbSymbolTable
 70
     0
  0
ENDTAB
  0
TABLE
  2
APPID
  5
9
330
0
100
AcDbSymbolTable
 70
     7
  0
APPID
  5
12
330
9
100
AcDbSymbolTableRecord
100
AcDbRegAppTableRecord
  2
ACAD
 70
     0
  0
APPID
  5
2E3C
330
9
100
AcDbSymbolTableRecord
100
AcDbRegAppTableRecord
  2
ACAD_MLEADERVER
 70
     0
  0
APPID
  5
2E7E
330
9
100
AcDbSymbolTableRecord
100
AcDbRegAppTableRecord
  2
ACAD_EXEMPT_FROM_CAD_STANDARDS
 70
     0
  0
APPID
  5
2F00
330
9
100
AcDbSymbolTableRecord
100
AcDbRegAppTableRecord
  2
ACAD_PSEXT
 70
     0
  0
APPID
  5
2F01
330
9
100
AcDbSymbolTableRecord
100
AcDbRegAppTableRecord
  2
ACAD_NAV_VCDISPLAY
 70
     0
  0
APPID
  5
38F1
330
9
100
AcDbSymbolTableRecord
100
AcDbRegAppTableRecord
  2
AcadAnnoPO
 70
     0
  0
APPID
  5
3965
330
9
100
AcDbSymbolTableRecord
100
AcDbRegAppTableRecord
  2
Acad_TC
 70
     0
  0
ENDTAB
  0
TABLE
  2
DIMSTYLE
  5
A
330
0
100
AcDbSymbolTable
 70
     2
100
AcDbDimStyleTable
 71
     1
340
22E4
  0
DIMSTYLE
105
22E4
330
A
100
AcDbSymbolTableRecord
100
AcDbDimStyleTableRecord
  2
STANDARD
 70
     0
 40
2.0
 41
0.8
 42
1.0
 43
0.0
 44
0.0
 73
     0
 74
     0
 77
     2
 78
     8
140
2.0
141
2.5
143
0.0394
147
0.1
171
     4
172
     1
173
     1
273
     8
274
     4
279
     1
340
11
341
903
343
903
344
903
  0
ENDTAB
  0
TABLE
  2
BLOCK_RECORD
  5
1
330
0
100
AcDbSymbolTable
 70
     8
  0
BLOCK_RECORD
  5
1F
102
{ACAD_XDICTIONARY
360
1C62
102
}
330
1
100
AcDbSymbolTableRecord
100
AcDbBlockTableRecord
  2
*Model_Space
340
22
  0
BLOCK_RECORD
  5
1CD0
330
1
100
AcDbSymbolTableRecord
100
AcDbBlockTableRecord
  2
*Paper_Space
340
1CD1
  0
BLOCK_RECORD
  5
903
330
1
100
AcDbSymbolTableRecord
100
AcDbBlockTableRecord
  2
_DOT
340
0
102
{BLKREFS
331
3969
331
396A
331
3972
331
3973
331
397B
331
397C
331
3985
331
3986
331
3B75
331
3B76
331
3B7B
331
3B7C
331
3B81
331
3B82
331
3B88
331
3B89
102
}
  0
BLOCK_RECORD
  5
2A86
330
1
100
AcDbSymbolTableRecord
100
AcDbBlockTableRecord
  2
s6r-60
340
0
310
2800000020000000200000000100080000000000000400000000000000000000000000000000000000000000000080000080000000808000800000008000800080800000C0C0C000C0DCC000F0CAA6000020400000206000002080000020A0000020C0000020E00000400000004020000040400000406000004080000040A0
310
000040C0000040E00000600000006020000060400000606000006080000060A0000060C0000060E00000800000008020000080400000806000008080000080A0000080C0000080E00000A0000000A0200000A0400000A0600000A0800000A0A00000A0C00000A0E00000C0000000C0200000C0400000C0600000C0800000C0
310
A00000C0C00000C0E00000E0000000E0200000E0400000E0600000E0800000E0A00000E0C00000E0E00040000000400020004000400040006000400080004000A0004000C0004000E00040200000402020004020400040206000402080004020A0004020C0004020E000404000004040200040404000404060004040800040
310
40A0004040C0004040E00040600000406020004060400040606000406080004060A0004060C0004060E00040800000408020004080400040806000408080004080A0004080C0004080E00040A0000040A0200040A0400040A0600040A0800040A0A00040A0C00040A0E00040C0000040C0200040C0400040C0600040C08000
310
40C0A00040C0C00040C0E00040E0000040E0200040E0400040E0600040E0800040E0A00040E0C00040E0E00080000000800020008000400080006000800080008000A0008000C0008000E00080200000802020008020400080206000802080008020A0008020C0008020E00080400000804020008040400080406000804080
310
008040A0008040C0008040E00080600000806020008060400080606000806080008060A0008060C0008060E00080800000808020008080400080806000808080008080A0008080C0008080E00080A0000080A0200080A0400080A0600080A0800080A0A00080A0C00080A0E00080C0000080C0200080C0400080C0600080C0
310
800080C0A00080C0C00080C0E00080E0000080E0200080E0400080E0600080E0800080E0A00080E0C00080E0E000C0000000C0002000C0004000C0006000C0008000C000A000C000C000C000E000C0200000C0202000C0204000C0206000C0208000C020A000C020C000C020E000C0400000C0402000C0404000C0406000C0
310
408000C040A000C040C000C040E000C0600000C0602000C0604000C0606000C0608000C060A000C060C000C060E000C0800000C0802000C0804000C0806000C0808000C080A000C080C000C080E000C0A00000C0A02000C0A04000C0A06000C0A08000C0A0A000C0A0C000C0A0E000C0C00000C0C02000C0C04000C0C06000
310
C0C08000C0C0A000F0FBFF00A4A0A000808080000000FF0000FF000000FFFF00FF000000FF00FF00FFFF0000FFFFFF00FFFFFFFFFFFFFFFFFFFFFFFFFFFFFFFFFFFFFFFFFFFFFFFFFFFFFFFFFFFFFFFFFFFFFFFFFFFFFFFFFFFFFFFFFFFFFFFFFEFFFFFFFFFFFFFFFFFFFFFFFFFFFFFFFFFFFFFFFFFFFFFFFFFFFFFFFFFFFF
310
FEFEFFFFFFFFFFFFFFFFFFFFFFFFFFFFFFFFFFFFFFFFFFFFFFFFFFFFFFFFFFFEFEFEFEFFFFFFFFFFFFFFFFFFFFFFFFFFFFFFFFFFFFFFFFFFFFFFFFFFFFFFFEFEFEFEFEFEFFFFFFFFFFFFFFFFFFFFFFFFFFFFFFFFFFFFFFFFFFFFFFFFFFFFFEFEFEFEFEFEFFFFFFFFFFFFFFFFFFFFFFFFFFFFFFFFFFFFFFFFFFFFFFFFFFFFFE
310
FEFEFEFEFEFFFFFFFFFFFFFFFFFFFFFFFFFFFFFFFFFFFFFFFFFFFFFFFFFFFFFEFEFEFEFEFEFFFFFFFFFFFFFFFFFFFFFFFFFFFFFFFFFFFFFFFFFFFFFFFFFFFFFEFEFEFEFEFEFFFFFFFFFFFFFFFFFFFFFFFFFFFFFFFFFFFFFFFFFFFFFFFFFFFFFEFEFEFEFEFEFFFFFFFFFFFFFFFFFFFFFFFFFFFFFFFFFFFFFFFFFFFFFFFFFFFF
310
FEFEFEFEFEFEFFFFFFFFFFFFFFFFFFFFFFFFFFFFFFFFFFFFFFFFFFFFFFFFFFFFFEFFFEFEFFFEFFFFFFFFFFFFFFFFFFFFFFFFFFFFFFFFFFFFFFFFFFFFFFFFFFFFFEFFFEFEFFFEFFFFFFFFFFFFFFFFFFFFFFFFFFFFFFFFFFFFFFFFFFFFFFFFFFFFFEFFFEFEFFFEFFFFFFFFFFFFFFFFFFFFFFFFFFFFFFFFFFFFFFFFFFFFFFFFFF
310
FFFFFEFEFEFFFEFFFFFFFFFFFFFFFFFFFFFFFFFFFFFFFFFFFFFFFFFFFFFFFFFFFFFFFEFFFFFEFFFFFFFFFFFFFFFFFFFFFFFFFFFFFFFFFFFFFFFFFFFFFFFFFFFFFFFFFEFEFEFEFFFFFFFFFFFFFFFFFFFFFFFFFFFFFFFFFFFFFFFFFFFFFFFFFFFFFFFFFEFEFEFEFFFFFFFFFFFFFFFFFFFFFFFFFFFFFFFFFFFFFFFFFFFFFFFFFF
310
FFFFFFFEFFFFFEFFFFFFFFFFFFFFFFFFFFFFFFFFFFFFFFFFFFFFFFFFFFFFFFFFFFFFFFFEFFFFFEFFFFFFFFFFFFFFFFFFFFFFFFFFFFFFFFFFFFFFFFFFFFFFFFFFFFFFFFFEFFFFFEFFFFFFFFFFFFFFFFFFFFFFFFFFFFFFFFFFFFFFFFFFFFFFFFFFFFFFFFFEFFFFFEFFFFFFFFFFFFFFFFFFFFFFFFFFFFFFFFFFFFFFFFFFFFFFFF
310
FFFFFFFFFEFFFFFEFFFFFFFFFFFFFFFFFFFFFFFFFFFFFFFFFFFFFFFFFFFFFFFFFFFFFFFFFEFFFFFEFFFFFFFFFFFFFFFFFFFFFFFFFFFFFFFFFFFFFFFFFFFFFFFFFFFFFFFFFEFFFFFEFFFFFFFFFFFFFFFFFFFFFFFFFFFFFFFFFFFFFFFFFFFFFFFFFFFFFFFFFEFFFFFEFFFFFFFFFFFFFFFFFFFFFFFFFFFFFFFFFFFFFFFFFFFFFF
310
FFFFFFFFFFFEFFFFFEFFFFFFFFFFFFFFFFFFFFFFFFFFFFFFFFFFFFFFFFFFFFFFFFFFFFFFFFFEFFFFFEFFFFFFFFFFFFFFFFFFFFFFFFFFFFFFFFFFFFFFFFFFFFFFFFFFFFFFFFFEFEFEFEFFFFFFFFFFFFFFFFFFFFFFFFFFFFFFFFFFFFFFFFFFFFFFFFFFFFFFFFFEFEFEFEFFFFFFFFFFFFFFFFFFFFFFFFFFFFFFFFFFFFFFFFFFFF
310
FFFFFFFFFFFFFEFEFEFEFFFFFFFFFFFFFFFFFFFFFFFFFFFFFFFFFFFFFFFFFFFFFFFFFFFFFFFFFFFFFFFFFFFFFFFFFFFFFFFFFFFFFFFFFFFF
1001
ACAD
1000
DesignCenter Data
1002
{
1070
     1
1070
     4
1002
}
  0
BLOCK_RECORD
  5
2C0E
330
1
100
AcDbSymbolTableRecord
100
AcDbBlockTableRecord
  2
*D2
340
0
  0
BLOCK_RECORD
  5
2C1A
330
1
100
AcDbSymbolTableRecord
100
AcDbBlockTableRecord
  2
*D3
340
0
  0
BLOCK_RECORD
  5
2C26
330
1
100
AcDbSymbolTableRecord
100
AcDbBlockTableRecord
  2
*D4
340
0
  0
BLOCK_RECORD
  5
2C32
330
1
100
AcDbSymbolTableRecord
100
AcDbBlockTableRecord
  2
*D5
340
0
  0
BLOCK_RECORD
  5
39DD
330
1
100
AcDbSymbolTableRecord
100
AcDbBlockTableRecord
  2
up60_2020
340
0
310
28000000200000002000000001002000000000000010000001000000010000000000000000000000302821FF302821FF302821FF302821FF302821FF302821FF302821FF302821FF302821FF302821FF302821FF302821FF302821FF302821FF302821FF302821FF302821FF302821FF302821FF302821FF302821FF302821
310
FF302821FF302821FF302821FF302821FF302821FF302821FF302821FF302821FF302821FF302821FF302821FF302821FF302821FF302821FF302821FF302821FF302821FF302821FF302821FF302821FF302821FF302821FF302821FF302821FF302821FF302821FFFFFF00FF302821FF302821FF302821FF302821FF3028
310
21FF302821FF302821FF302821FF302821FF302821FF302821FF302821FF302821FF302821FF302821FF302821FF302821FF302821FF302821FF302821FF302821FF302821FF302821FF302821FF302821FF302821FF302821FF302821FF302821FF302821FFFFFF00FFFFFF00FF302821FF302821FF302821FF302821FF30
310
2821FF302821FF302821FF302821FF302821FF302821FF302821FF302821FF302821FF302821FF302821FF302821FF302821FF302821FF302821FF302821FF302821FF302821FF302821FF302821FF302821FF302821FF302821FF302821FF302821FF302821FFFFFF00FFFFFF00FF302821FF302821FF302821FF302821FF
310
302821FF302821FF302821FF302821FF302821FF302821FF302821FF302821FF302821FF302821FF302821FF302821FF302821FF302821FF302821FF302821FF302821FF302821FF302821FF302821FF302821FF302821FF302821FF302821FF302821FFFFFF00FFFFFF00FFFFFF00FFFFFF00FF302821FF302821FF302821
310
FF302821FF302821FF302821FF302821FF302821FF302821FF302821FF302821FF302821FF302821FF302821FF302821FF302821FF302821FF302821FF302821FF302821FF302821FF302821FF302821FF302821FF302821FF302821FF302821FF302821FFFFFF00FFFFFF00FFFFFF00FFFFFF00FF302821FF302821FF3028
310
21FF302821FF302821FF302821FF302821FF302821FF302821FF302821FF302821FF302821FF302821FF302821FF302821FF302821FF302821FF302821FF302821FF302821FF302821FF302821FF302821FF302821FF302821FF302821FF302821FF302821FFFFFF00FFFFFF00FFFFFF00FFFFFF00FF302821FF302821FF30
310
2821FF302821FF302821FF302821FF302821FF302821FF302821FF302821FF302821FF302821FF302821FF302821FF302821FF302821FF302821FF302821FF302821FF302821FF302821FF302821FF302821FF302821FF302821FF302821FF302821FF302821FFFFFF00FFFFFF00FFFFFF00FFFFFF00FF302821FF302821FF
310
302821FF302821FF302821FF302821FF302821FF302821FF302821FF302821FF302821FF302821FF302821FF302821FF302821FF302821FF302821FF302821FF302821FF302821FF302821FF302821FF302821FF302821FF302821FF302821FF302821FF302821FFFFFF00FFFFFF00FFFFFF00FFFFFF00FF302821FF302821
310
FF302821FF302821FF302821FF302821FF302821FF302821FF302821FF302821FF302821FF302821FF302821FF302821FF302821FF302821FF302821FF302821FF302821FF302821FF302821FF302821FF302821FF302821FF302821FF302821FF302821FF302821FFFFFF00FFFFFF00FFFFFF00FFFFFF00FF302821FF3028
310
21FF302821FF302821FF302821FF302821FF302821FF302821FF302821FF302821FF302821FF302821FF302821FF302821FF302821FF302821FF302821FF302821FF302821FF302821FF302821FF302821FF302821FF302821FF302821FF302821FF302821FF302821FFFFFF00FFFFFF00FFFFFF00FFFFFF00FF302821FF30
310
2821FF302821FF302821FF302821FF302821FF302821FF302821FF302821FF302821FF302821FF302821FF302821FF302821FF302821FF302821FF302821FF302821FF302821FF302821FF302821FF302821FF302821FF302821FF302821FF302821FF302821FF302821FFFFFF00FFFFFF00FFFFFF00FFFFFF00FF302821FF
310
302821FF302821FF302821FF302821FF302821FF302821FF302821FF302821FF302821FF302821FF302821FF302821FF302821FF302821FF302821FF302821FF302821FF302821FF302821FF302821FF302821FF302821FF302821FF302821FF302821FF302821FF302821FFFFFF00FFFFFF00FFFFFF00FFFFFF00FF302821
310
FF302821FF302821FF302821FF302821FF302821FF302821FF302821FF302821FF302821FF302821FF302821FF302821FF302821FF302821FF302821FF302821FF302821FF302821FF302821FF302821FF302821FF302821FF302821FF302821FF302821FF302821FF302821FFFFFF00FFFFFF00FFFFFF00FFFFFF00FF3028
310
21FF302821FF302821FF302821FF302821FF302821FF302821FF302821FF302821FF302821FF302821FF302821FF302821FF302821FF302821FF302821FF302821FF302821FF302821FF302821FF302821FF302821FF302821FF302821FF302821FF302821FF302821FF302821FFFFFF00FFFFFF00FFFFFF00FFFFFF00FF30
310
2821FF302821FF302821FF302821FF302821FF302821FF302821FF302821FF302821FF302821FF302821FF302821FF302821FF302821FF302821FF302821FF302821FF302821FF302821FF302821FF302821FF302821FF302821FF302821FF302821FF302821FF302821FF302821FFFFFF00FFFFFF00FFFFFF00FFFFFF00FF
310
302821FF302821FF302821FF302821FF302821FF302821FF302821FF302821FF302821FF302821FF302821FF302821FF302821FF302821FF302821FF302821FF302821FF302821FF302821FF302821FF302821FF302821FF302821FF302821FF302821FF302821FF302821FF302821FFFFFF00FFFFFF00FFFFFF00FFFFFF00
310
FF302821FF302821FF302821FF302821FF302821FF302821FF302821FF302821FF302821FF302821FF302821FF302821FF302821FF302821FF302821FF302821FF302821FF302821FF302821FF302821FF302821FF302821FF302821FF302821FF302821FF302821FF302821FF302821FFFFFF00FFFFFF00FFFFFF00FFFFFF
310
00FF302821FF302821FF302821FF302821FF302821FF302821FF302821FF302821FF302821FF302821FF302821FF302821FF302821FF302821FF302821FF302821FF302821FF302821FF302821FF302821FF302821FF302821FF302821FF302821FF302821FF302821FF302821FF302821FFFFFF00FFFFFF00FFFFFF00FFFF
310
FF00FF302821FF302821FF302821FF302821FF302821FF302821FF302821FF302821FF302821FF302821FF302821FF302821FF302821FF302821FF302821FF302821FF302821FF302821FF302821FF302821FF302821FF302821FF302821FF302821FF302821FF302821FF302821FF302821FFFFFF00FFFFFF00FFFFFF00FF
310
FFFF00FF302821FF302821FF302821FF302821FF302821FF302821FF302821FF302821FF302821FF302821FF302821FF302821FF302821FF302821FF302821FF302821FF302821FF302821FF302821FF302821FF302821FF302821FF302821FF302821FF302821FF302821FF302821FF302821FFFFFF00FFFFFF00FFFFFF00
310
FFFFFF00FF302821FF302821FF302821FF302821FF302821FF302821FF302821FF302821FF302821FF302821FF302821FF302821FF302821FF302821FF302821FF302821FF302821FF302821FF302821FF302821FF302821FF302821FF302821FF302821FF302821FF302821FF302821FF302821FFFFFF00FF302821FF3028
310
21FFFFFF00FF302821FF302821FF302821FF302821FF302821FF302821FF302821FF302821FF302821FF302821FF302821FF302821FF302821FF302821FF302821FF302821FF302821FF302821FF302821FF302821FF302821FF302821FF302821FF302821FF302821FF302821FF302821FF302821FFFFFF00FF302821FF30
310
2821FFFFFF00FF302821FF302821FF302821FF302821FF302821FF302821FF302821FF302821FF302821FF302821FF302821FF302821FF302821FF302821FF302821FF302821FF302821FF302821FF302821FF302821FF302821FF302821FF302821FF302821FF302821FF302821FF302821FF302821FFFFFF00FF302821FF
310
302821FFFFFF00FF302821FF302821FF302821FF302821FF302821FF302821FF302821FF302821FF302821FF302821FF302821FF302821FF302821FF302821FF302821FF302821FF302821FF302821FF302821FF302821FF302821FF302821FF302821FF302821FF302821FF302821FF302821FF302821FFFFFF00FF302821
310
FF302821FFFFFF00FF302821FF302821FF302821FF302821FF302821FF302821FF302821FF302821FF302821FF302821FF302821FF302821FF302821FF302821FF302821FF302821FF302821FF302821FF302821FF302821FF302821FF302821FF302821FF302821FF302821FF302821FF302821FF302821FFFFFF00FFFFFF
310
00FFFFFF00FFFFFF00FF302821FF302821FF302821FF302821FF302821FF302821FF302821FF302821FF302821FF302821FF302821FF302821FF302821FF302821FF302821FF302821FF302821FF302821FF302821FF302821FF302821FF302821FF302821FF302821FF302821FF302821FF302821FF302821FFFFFF00FFFF
310
FF00FFFFFF00FFFFFF00FF302821FF302821FF302821FF302821FF302821FF302821FF302821FF302821FF302821FF302821FF302821FF302821FF302821FF302821FF302821FF302821FF302821FF302821FF302821FF302821FF302821FF302821FF302821FF302821FF302821FF302821FF302821FF302821FFFFFF00FF
310
FFFF00FFFFFF00FFFFFF00FF302821FF302821FF302821FF302821FF302821FF302821FF302821FF302821FF302821FF302821FF302821FF302821FF302821FF302821FF302821FF302821FF302821FF302821FF302821FF302821FF302821FF302821FF302821FF302821FF302821FF302821FF302821FF302821FFFFFF00
310
FFFFFF00FFFFFF00FFFFFF00FF302821FF302821FF302821FF302821FF302821FF302821FF302821FF302821FF302821FF302821FF302821FF302821FF302821FF302821FF302821FF302821FF302821FF302821FF302821FF302821FF302821FF302821FF302821FF302821FF302821FF302821FF302821FF302821FFFFFF
310
00FFFFFF00FFFFFF00FFFFFF00FF302821FF302821FF302821FF302821FF302821FF302821FF302821FF302821FF302821FF302821FF302821FF302821FF302821FF302821FF302821FF302821FF302821FF302821FF302821FF302821FF302821FF302821FF302821FF302821FF302821FF302821FF302821FF302821FFFF
310
FF00FFFFFF00FFFFFF00FFFFFF00FF302821FF302821FF302821FF302821FF302821FF302821FF302821FF302821FF302821FF302821FF302821FF302821FF302821FF302821FF302821FF302821FF302821FF302821FF302821FF302821FF302821FF302821FF302821FF302821FF302821FF302821FF302821FF302821FF
310
302821FF302821FF302821FF302821FF302821FF302821FF302821FF302821FF302821FF302821FF302821FF302821FF302821FF302821FF302821FF302821FF302821FF302821FF
1001
ACAD
1000
DesignCenter Data
1002
{
1070
     1
1070
     4
1002
}
  0
ENDTAB
  0
ENDSEC
  0
SECTION
  2
BLOCKS
  0
BLOCK
  5
20
330
1F
100
AcDbEntity
  8
0
100
AcDbBlockBegin
  2
*Model_Space
 70
     0
 10
0.0
 20
0.0
 30
0.0
  3
*Model_Space
  1

  0
ENDBLK
  5
21
330
1F
100
AcDbEntity
  8
0
100
AcDbBlockEnd
  0
BLOCK
  5
1CD2
330
1CD0
100
AcDbEntity
 67
     1
  8
0
100
AcDbBlockBegin
  2
*Paper_Space
 70
     0
 10
0.0
 20
0.0
 30
0.0
  3
*Paper_Space
  1

  0
ENDBLK
  5
1CD3
330
1CD0
100
AcDbEntity
 67
     1
  8
0
100
AcDbBlockEnd
  0
BLOCK
  5
906
330
903
100
AcDbEntity
  8
0
100
AcDbBlockBegin
  2
_DOT
 70
     0
 10
0.0
 20
0.0
 30
0.0
  3
_DOT
  1

  0
LWPOLYLINE
  5
904
330
903
100
AcDbEntity
  8
0
  6
ByBlock
 62
     0
100
AcDbPolyline
 90
        2
 70
     1
 43
0.5
 10
-0.25
 20
0.0
 42
1.0
 10
0.25
 20
0.0
 42
1.0
  0
LINE
  5
905
330
903
100
AcDbEntity
  8
0
  6
ByBlock
 62
     0
100
AcDbLine
 10
-0.5
 20
0.0
 30
0.0
 11
-1.0
 21
0.0
 31
0.0
  0
ENDBLK
  5
907
330
903
100
AcDbEntity
  8
0
100
AcDbBlockEnd
  0
BLOCK
  5
2AD9
330
2A86
100
AcDbEntity
  8
0
 48
20.0
100
AcDbBlockBegin
  2
s6r-60
 70
     0
 10
0.0
 20
0.0
 30
0.0
  3
s6r-60
  1

  0
LWPOLYLINE
  5
2A87
330
2A86
100
AcDbEntity
  8
KANAMONO_SCREW
100
AcDbPolyline
 90
        7
 70
     0
 43
0.0
 10
3.0
 20
-29.5
 10
3.0
 20
-1.299999999999954
 10
4.0
 20
0.0
 10
4.0
 20
0.5
 10
-4.0
 20
0.5
 10
-4.0
 20
0.0
 10
4.0
 20
0.0
  0
LWPOLYLINE
  5
2A88
330
2A86
100
AcDbEntity
  8
KANAMONO_SCREW
100
AcDbPolyline
 90
        3
 70
     0
 43
0.0
 10
-4.0
 20
0.0
 10
-3.0
 20
-1.299999999999954
 10
-3.000000000000454
 20
-29.50000000000085
  0
LINE
  5
2A89
330
2A86
100
AcDbEntity
  8
KANAMONO_SCREW
100
AcDbLine
 10
0.0
 20
-63.29999999999995
 30
0.0
 11
-2.200000000000045
 21
-55.29999999999995
 31
0.0
  0
LINE
  5
2A8A
330
2A86
100
AcDbEntity
  8
KANAMONO_SCREW
100
AcDbLine
 10
2.200000000000045
 20
-55.29999999999995
 30
0.0
 11
0.0
 21
-63.29999999999995
 31
0.0
  0
LINE
  5
2A8B
330
2A86
100
AcDbEntity
  8
KANAMONO_SCREW
100
AcDbLine
 10
-0.2729385095193493
 20
-62.30749632902098
 30
0.0
 11
0.3532357144075604
 21
-62.01550649306478
 31
0.0
  0
ARC
  5
2A8C
330
2A86
100
AcDbEntity
  8
KANAMONO_SCREW
100
AcDbCircle
 10
-7.659849134879777
 20
-40.17943698590795
 30
0.0
 40
9.859876903588483
100
AcDbArc
 50
0.1359815000569386
 51
35.17074423212627
  0
LINE
  5
2A8D
330
2A86
100
AcDbEntity
  8
KANAMONO_SCREW
100
AcDbLine
 10
-2.199999999999931
 20
-40.43513805717942
 30
0.0
 11
1.608586036090741
 21
-38.65916522180817
 31
0.0
  0
ARC
  5
2A8E
330
2A86
100
AcDbEntity
  8
KANAMONO_SCREW
100
AcDbCircle
 10
7.65984913487955
 20
-40.17943698590795
 30
0.0
 40
9.859876903588483
100
AcDbArc
 50
144.8292557678737
 51
179.864018499943
  0
LINE
  5
2A8F
330
2A86
100
AcDbEntity
  8
KANAMONO_SCREW
100
AcDbLine
 10
-4.800000000000068
 20
-38.74999999999955
 30
0.0
 11
-4.800000000000068
 21
-42.99999999999989
 31
0.0
  0
LINE
  5
2A90
330
2A86
100
AcDbEntity
  8
KANAMONO_SCREW
100
AcDbLine
 10
4.799999999999954
 20
-42.99999999999989
 30
0.0
 11
4.799999999999954
 21
-38.74999999999977
 31
0.0
  0
LINE
  5
2A91
330
2A86
100
AcDbEntity
  8
KANAMONO_SCREW
100
AcDbLine
 10
2.200000000000045
 20
-59.5
 30
0.0
 11
3.800000000000181
 21
-59.50000000000011
 31
0.0
  0
LINE
  5
2A92
330
2A86
100
AcDbEntity
  8
KANAMONO_SCREW
100
AcDbLine
 10
-4.800000000000295
 20
-49.0
 30
0.0
 11
-4.800000000000181
 21
-50.99999999999977
 31
0.0
  0
LINE
  5
2A93
330
2A86
100
AcDbEntity
  8
KANAMONO_SCREW
100
AcDbLine
 10
-2.199999999999931
 20
-50.94481273529709
 30
0.0
 11
2.200000000000159
 21
-48.89305903941511
 31
0.0
  0
LINE
  5
2A94
330
2A86
100
AcDbEntity
  8
KANAMONO_SCREW
100
AcDbLine
 10
-2.200000000000045
 20
-59.49999999999988
 30
0.0
 11
-2.200000000000045
 21
-40.15603631653152
 31
0.0
  0
LINE
  5
2A95
330
2A86
100
AcDbEntity
  8
KANAMONO_SCREW
100
AcDbLine
 10
2.200000000000045
 20
-40.15603631653209
 30
0.0
 11
2.200000000000045
 21
-59.5
 31
0.0
  0
LINE
  5
2A96
330
2A86
100
AcDbEntity
  8
KANAMONO_SCREW
100
AcDbLine
 10
-1.980716023836066
 20
-56.09739627696012
 30
0.0
 11
2.200000000000045
 21
-54.147896378474
 31
0.0
  0
LINE
  5
2A97
330
2A86
100
AcDbEntity
  8
KANAMONO_SCREW
100
AcDbLine
 10
-3.299999999999954
 20
-55.49999999999989
 30
0.0
 11
-3.299999999999954
 21
-57.0
 31
0.0
  0
LINE
  5
2A98
330
2A86
100
AcDbEntity
  8
KANAMONO_SCREW
100
AcDbLine
 10
-1.126827266677764
 20
-59.20244630299066
 30
0.0
 11
1.45833446243796
 21
-57.99696559113477
 31
0.0
  0
LINE
  5
2A99
330
2A86
100
AcDbEntity
  8
KANAMONO_SCREW
100
AcDbLine
 10
-1.553771645256915
 20
-57.64992128997528
 30
0.0
 11
2.010883836453444
 21
-55.98769514016954
 31
0.0
  0
LINE
  5
2A9A
330
2A86
100
AcDbEntity
  8
KANAMONO_SCREW
100
AcDbLine
 10
-3.799999999999954
 20
-59.50000000000011
 30
0.0
 11
-2.200000000000045
 21
-59.49999999999988
 31
0.0
  0
LINE
  5
2A9B
330
2A86
100
AcDbEntity
  8
KANAMONO_SCREW
100
AcDbLine
 10
-4.800000000000068
 20
-57.0
 30
0.0
 11
-4.800000000000068
 21
-58.0
 31
0.0
  0
LINE
  5
2A9C
330
2A86
100
AcDbEntity
  8
KANAMONO_SCREW
100
AcDbLine
 10
-4.800000000000068
 20
-58.0
 30
0.0
 11
-3.799999999999954
 21
-59.50000000000011
 31
0.0
  0
LINE
  5
2A9D
330
2A86
100
AcDbEntity
  8
KANAMONO_SCREW
100
AcDbLine
 10
-3.299999999999954
 20
-57.0
 30
0.0
 11
-4.800000000000068
 21
-57.0
 31
0.0
  0
LINE
  5
2A9E
330
2A86
100
AcDbEntity
  8
KANAMONO_SCREW
100
AcDbLine
 10
-0.6998828880982729
 20
-60.75497131600582
 30
0.0
 11
0.9057850884225899
 21
-60.00623604209977
 31
0.0
  0
LINE
  5
2A9F
330
2A86
100
AcDbEntity
  8
KANAMONO_SCREW
100
AcDbLine
 10
-2.200000000000045
 20
-54.44803762800302
 30
0.0
 11
2.200000000000272
 21
-52.39628393212092
 31
0.0
  0
LINE
  5
2AA0
330
2A86
100
AcDbEntity
  8
KANAMONO_SCREW
100
AcDbLine
 10
-2.200000000000159
 20
-52.69642518165017
 30
0.0
 11
2.200000000000159
 21
-50.64467148576795
 31
0.0
  0
LINE
  5
2AA1
330
2A86
100
AcDbEntity
  8
KANAMONO_SCREW
100
AcDbLine
 10
-4.800000000000181
 20
-50.99999999999977
 30
0.0
 11
-3.300000000000068
 21
-51.49999999999988
 31
0.0
  0
LINE
  5
2AA2
330
2A86
100
AcDbEntity
  8
KANAMONO_SCREW
100
AcDbLine
 10
-4.800000000000181
 20
-53.0
 30
0.0
 11
-4.800000000000068
 21
-55.0
 31
0.0
  0
LINE
  5
2AA3
330
2A86
100
AcDbEntity
  8
KANAMONO_SCREW
100
AcDbLine
 10
-4.800000000000068
 20
-55.0
 30
0.0
 11
-3.299999999999954
 21
-55.49999999999989
 31
0.0
  0
LINE
  5
2AA4
330
2A86
100
AcDbEntity
  8
KANAMONO_SCREW
100
AcDbLine
 10
-3.300000000000068
 20
-53.0
 30
0.0
 11
-4.800000000000181
 21
-53.0
 31
0.0
  0
LINE
  5
2AA5
330
2A86
100
AcDbEntity
  8
KANAMONO_SCREW
100
AcDbLine
 10
-3.300000000000068
 20
-51.49999999999988
 30
0.0
 11
-3.300000000000068
 21
-53.0
 31
0.0
  0
LINE
  5
2AA6
330
2A86
100
AcDbEntity
  8
KANAMONO_SCREW
100
AcDbLine
 10
-4.800000000000181
 20
-40.00833404712671
 30
0.0
 11
-5.088567175761681
 21
-40.00833404712693
 31
0.0
  0
ARC
  5
2AA7
330
2A86
100
AcDbEntity
  8
KANAMONO_SCREW
100
AcDbCircle
 10
0.1473318668159891
 20
-42.20982178778513
 30
0.0
 40
5.679893225786392
100
AcDbArc
 50
157.1951788054447
 51
209.4219706231233
  0
LINE
  5
2AA8
330
2A86
100
AcDbEntity
  8
KANAMONO_SCREW
100
AcDbLine
 10
-4.800000000000068
 20
-45.0
 30
0.0
 11
-4.800000000000068
 21
-47.0
 31
0.0
  0
LINE
  5
2AA9
330
2A86
100
AcDbEntity
  8
KANAMONO_SCREW
100
AcDbLine
 10
-2.200000000000159
 20
-45.68997539623842
 30
0.0
 11
2.200000000000386
 21
-43.6382217003561
 31
0.0
  0
LINE
  5
2AAA
330
2A86
100
AcDbEntity
  8
KANAMONO_SCREW
100
AcDbLine
 10
-2.200000000000045
 20
-47.44158784259127
 30
0.0
 11
2.200000000000272
 21
-45.38983414670918
 31
0.0
  0
LINE
  5
2AAB
330
2A86
100
AcDbEntity
  8
KANAMONO_SCREW
100
AcDbLine
 10
-2.200000000000045
 20
-49.19320028894424
 30
0.0
 11
2.200000000000272
 21
-47.14144659306202
 31
0.0
  0
LINE
  5
2AAC
330
2A86
100
AcDbEntity
  8
KANAMONO_SCREW
100
AcDbLine
 10
-4.800000000000068
 20
-47.0
 30
0.0
 11
-3.300000000000181
 21
-47.49999999999988
 31
0.0
  0
LINE
  5
2AAD
330
2A86
100
AcDbEntity
  8
KANAMONO_SCREW
100
AcDbLine
 10
-3.300000000000181
 20
-49.0
 30
0.0
 11
-4.800000000000295
 21
-49.0
 31
0.0
  0
LINE
  5
2AAE
330
2A86
100
AcDbEntity
  8
KANAMONO_SCREW
100
AcDbLine
 10
-3.300000000000181
 20
-47.49999999999988
 30
0.0
 11
-3.300000000000181
 21
-49.0
 31
0.0
  0
LINE
  5
2AAF
330
2A86
100
AcDbEntity
  8
KANAMONO_SCREW
100
AcDbLine
 10
-2.200000000000045
 20
-43.93836294988534
 30
0.0
 11
2.200000000000272
 21
-41.88660925400324
 31
0.0
  0
LINE
  5
2AB0
330
2A86
100
AcDbEntity
  8
KANAMONO_SCREW
100
AcDbLine
 10
-2.200000000000045
 20
-42.18675050353249
 30
0.0
 11
2.200000000000272
 21
-40.13499680765028
 31
0.0
  0
LINE
  5
2AB1
330
2A86
100
AcDbEntity
  8
KANAMONO_SCREW
100
AcDbLine
 10
-3.300000000000181
 20
-44.99999999999988
 30
0.0
 11
-3.876239569296672
 21
-44.99999999999977
 31
0.0
  0
LINE
  5
2AB2
330
2A86
100
AcDbEntity
  8
KANAMONO_SCREW
100
AcDbLine
 10
-3.300000000000181
 20
-43.49999999999977
 30
0.0
 11
-3.300000000000181
 21
-44.99999999999988
 31
0.0
  0
LINE
  5
2AB3
330
2A86
100
AcDbEntity
  8
KANAMONO_SCREW
100
AcDbLine
 10
-4.800000000000068
 20
-42.99999999999989
 30
0.0
 11
-3.300000000000181
 21
-43.49999999999977
 31
0.0
  0
ARC
  5
2AB4
330
2A86
100
AcDbEntity
  8
KANAMONO_SCREW
100
AcDbCircle
 10
1.071092297519271
 20
-42.20982178778479
 30
0.0
 40
5.679893225786392
100
AcDbArc
 50
188.8781154175122
 51
209.4219706231233
  0
LINE
  5
2AB5
330
2A86
100
AcDbEntity
  8
KANAMONO_SCREW
100
AcDbLine
 10
4.800000000000068
 20
-51.00000000000012
 30
0.0
 11
4.799999999999954
 21
-49.00000000000011
 31
0.0
  0
LINE
  5
2AB6
330
2A86
100
AcDbEntity
  8
KANAMONO_SCREW
100
AcDbLine
 10
3.300000000000181
 20
-57.0
 30
0.0
 11
3.300000000000181
 21
-55.49999999999989
 31
0.0
  0
LINE
  5
2AB7
330
2A86
100
AcDbEntity
  8
KANAMONO_SCREW
100
AcDbLine
 10
4.800000000000181
 20
-58.00000000000011
 30
0.0
 11
4.800000000000181
 21
-57.00000000000011
 31
0.0
  0
LINE
  5
2AB8
330
2A86
100
AcDbEntity
  8
KANAMONO_SCREW
100
AcDbLine
 10
3.800000000000181
 20
-59.50000000000011
 30
0.0
 11
4.800000000000181
 21
-58.00000000000011
 31
0.0
  0
LINE
  5
2AB9
330
2A86
100
AcDbEntity
  8
KANAMONO_SCREW
100
AcDbLine
 10
4.800000000000181
 20
-57.00000000000011
 30
0.0
 11
3.300000000000181
 21
-57.0
 31
0.0
  0
LINE
  5
2ABA
330
2A86
100
AcDbEntity
  8
KANAMONO_SCREW
100
AcDbLine
 10
4.800000000000068
 20
-55.00000000000011
 30
0.0
 11
4.800000000000068
 21
-53.00000000000011
 31
0.0
  0
LINE
  5
2ABB
330
2A86
100
AcDbEntity
  8
KANAMONO_SCREW
100
AcDbLine
 10
3.300000000000068
 20
-53.0
 30
0.0
 11
3.300000000000068
 21
-51.49999999999988
 31
0.0
  0
LINE
  5
2ABC
330
2A86
100
AcDbEntity
  8
KANAMONO_SCREW
100
AcDbLine
 10
3.300000000000068
 20
-51.49999999999988
 30
0.0
 11
4.800000000000068
 21
-51.00000000000012
 31
0.0
  0
LINE
  5
2ABD
330
2A86
100
AcDbEntity
  8
KANAMONO_SCREW
100
AcDbLine
 10
4.800000000000068
 20
-53.00000000000011
 30
0.0
 11
3.300000000000068
 21
-53.0
 31
0.0
  0
LINE
  5
2ABE
330
2A86
100
AcDbEntity
  8
KANAMONO_SCREW
100
AcDbLine
 10
3.300000000000181
 20
-55.49999999999989
 30
0.0
 11
4.800000000000068
 21
-55.00000000000011
 31
0.0
  0
LINE
  5
2ABF
330
2A86
100
AcDbEntity
  8
KANAMONO_SCREW
100
AcDbLine
 10
4.799999999999954
 20
-47.0
 30
0.0
 11
4.799999999999954
 21
-45.0
 31
0.0
  0
LINE
  5
2AC0
330
2A86
100
AcDbEntity
  8
KANAMONO_SCREW
100
AcDbLine
 10
3.299999999999954
 20
-47.49999999999988
 30
0.0
 11
4.799999999999954
 21
-47.0
 31
0.0
  0
LINE
  5
2AC1
330
2A86
100
AcDbEntity
  8
KANAMONO_SCREW
100
AcDbLine
 10
4.799999999999954
 20
-49.00000000000011
 30
0.0
 11
3.299999999999954
 21
-49.0
 31
0.0
  0
LINE
  5
2AC2
330
2A86
100
AcDbEntity
  8
KANAMONO_SCREW
100
AcDbLine
 10
3.299999999999954
 20
-49.0
 30
0.0
 11
3.299999999999954
 21
-47.49999999999988
 31
0.0
  0
LINE
  5
2AC3
330
2A86
100
AcDbEntity
  8
KANAMONO_SCREW
100
AcDbLine
 10
4.799999999999954
 20
-40.00833404712671
 30
0.0
 11
5.088567175761454
 21
-40.00833404712693
 31
0.0
  0
ARC
  5
2AC4
330
2A86
100
AcDbEntity
  8
KANAMONO_SCREW
100
AcDbCircle
 10
-1.071092297519498
 20
-42.20982178778479
 30
0.0
 40
5.679893225786392
100
AcDbArc
 50
330.5780293768767
 51
351.1218845824877
  0
LINE
  5
2AC5
330
2A86
100
AcDbEntity
  8
KANAMONO_SCREW
100
AcDbLine
 10
3.299999999999954
 20
-44.99999999999988
 30
0.0
 11
3.299999999999954
 21
-43.49999999999977
 31
0.0
  0
LINE
  5
2AC6
330
2A86
100
AcDbEntity
  8
KANAMONO_SCREW
100
AcDbLine
 10
3.299999999999954
 20
-43.49999999999977
 30
0.0
 11
4.799999999999954
 21
-42.99999999999989
 31
0.0
  0
LINE
  5
2AC7
330
2A86
100
AcDbEntity
  8
KANAMONO_SCREW
100
AcDbLine
 10
3.876239569296672
 20
-44.99999999999977
 30
0.0
 11
3.299999999999954
 21
-44.99999999999988
 31
0.0
  0
ARC
  5
2AC8
330
2A86
100
AcDbEntity
  8
KANAMONO_SCREW
100
AcDbCircle
 10
-0.1473318668162165
 20
-42.20982178778513
 30
0.0
 40
5.679893225786392
100
AcDbArc
 50
330.5780293768767
 51
22.8048211945553
  0
LINE
  5
2AC9
330
2A86
100
AcDbEntity
  8
KANAMONO_SCREW
100
AcDbLine
 10
3.0
 20
-27.5
 30
0.0
 11
-3.0
 21
-27.5
 31
0.0
  0
LINE
  5
2ACA
330
2A86
100
AcDbEntity
  8
KANAMONO_SCREW
100
AcDbLine
 10
3.0
 20
-28.5
 30
0.0
 11
-3.0
 21
-28.5
 31
0.0
  0
LINE
  5
2ACB
330
2A86
100
AcDbEntity
  8
KANAMONO_SCREW
100
AcDbLine
 10
3.0
 20
-29.5
 30
0.0
 11
-3.0
 21
-29.5
 31
0.0
  0
ARC
  5
2ACC
330
2A86
100
AcDbEntity
  8
KANAMONO_SCREW
100
AcDbCircle
 10
26.87278604750498
 20
-40.11321782546042
 30
0.0
 40
31.70210937541362
100
AcDbArc
 50
160.44086710814
 51
177.535472548574
  0
LINE
  5
2ACD
330
2A86
100
AcDbEntity
  8
KANAMONO_SCREW
100
AcDbLine
 10
-1.499669838132945
 20
-38.35695629311101
 30
0.0
 11
1.097300952475279
 21
-37.14596892544558
 31
0.0
  0
LINE
  5
2ACE
330
2A86
100
AcDbEntity
  8
KANAMONO_SCREW
100
AcDbLine
 10
-0.400000000000091
 20
-34.49999999999989
 30
0.0
 11
0.3999999999998636
 21
-34.49999999999989
 31
0.0
  0
LINE
  5
2ACF
330
2A86
100
AcDbEntity
  8
KANAMONO_SCREW
100
AcDbLine
 10
-0.8481885289712636
 20
-36.30155312315106
 30
0.0
 11
0.6599209906190709
 21
-35.5983101048297
 31
0.0
  0
ARC
  5
2AD0
330
2A86
100
AcDbEntity
  8
KANAMONO_SCREW
100
AcDbCircle
 10
-26.8727860475052
 20
-40.11321782546042
 30
0.0
 40
31.70210937541362
100
AcDbArc
 50
2.464527451426015
 51
19.55913289186
  0
LINE
  5
2AD1
330
2A86
100
AcDbEntity
  8
KANAMONO_SCREW
100
AcDbLine
 10
-3.0
 20
-1.299999999999954
 30
0.0
 11
3.0
 21
-1.299999999999954
 31
0.0
  0
LINE
  5
2AD2
330
2A86
100
AcDbEntity
  8
KANAMONO_SCREW
100
AcDbLine
 10
-4.399999999999977
 20
1.200000000000045
 30
0.0
 11
4.399999999999977
 21
1.200000000000045
 31
0.0
  0
LINE
  5
2AD3
330
2A86
100
AcDbEntity
  8
KANAMONO_SCREW
100
AcDbLine
 10
-4.399999999999977
 20
1.700000000000045
 30
0.0
 11
4.399999999999977
 21
1.700000000000045
 31
0.0
  0
LINE
  5
2AD4
330
2A86
100
AcDbEntity
  8
KANAMONO_SCREW
100
AcDbLine
 10
-2.200000000000045
 20
-1.299999999999954
 30
0.0
 11
2.200000000000045
 21
-1.299999999999954
 31
0.0
  0
LINE
  5
2AD5
330
2A86
100
AcDbEntity
  8
KANAMONO_SCREW
100
AcDbLine
 10
-4.399999999999977
 20
1.200000000000045
 30
0.0
 11
-4.399999999999863
 21
1.700000000000045
 31
0.0
  0
LINE
  5
2AD6
330
2A86
100
AcDbEntity
  8
KANAMONO_SCREW
100
AcDbLine
 10
-3.783999999999991
 20
0.5
 30
0.0
 11
-4.399999999999977
 21
1.200000000000045
 31
0.0
  0
LINE
  5
2AD7
330
2A86
100
AcDbEntity
  8
KANAMONO_SCREW
100
AcDbLine
 10
4.399999999999977
 20
1.700000000000045
 30
0.0
 11
4.399999999999977
 21
1.200000000000045
 31
0.0
  0
LINE
  5
2AD8
330
2A86
100
AcDbEntity
  8
KANAMONO_SCREW
100
AcDbLine
 10
4.399999999999977
 20
1.200000000000045
 30
0.0
 11
3.783999999999991
 21
0.5
 31
0.0
  0
ENDBLK
  5
2ADA
330
2A86
100
AcDbEntity
  8
0
 48
20.0
100
AcDbBlockEnd
  0
BLOCK
  5
2C18
330
2C0E
100
AcDbEntity
  8
0
100
AcDbBlockBegin
  2
*D2
 70
     1
 10
0.0
 20
0.0
 30
0.0
  3
*D2
  1

  0
LINE
  5
3966
330
2C0E
100
AcDbEntity
  8
SUNPO
 62
     0
370
    -2
100
AcDbLine
 10
230.0000568477983
 20
154.0636749201966
 30
0.0
 11
230.0000568477983
 21
166.2983250471409
 31
0.0
  0
LINE
  5
3967
330
2C0E
100
AcDbEntity
  8
SUNPO
 62
     0
370
    -2
100
AcDbLine
 10
350.0000568477983
 20
153.1636749201966
 30
0.0
 11
350.0000568477983
 21
166.2983250471409
 31
0.0
  0
LINE
  5
3968
330
2C0E
100
AcDbEntity
  8
SUNPO
 62
     0
370
    -2
100
AcDbLine
 10
231.6000568477983
 20
166.2983250471409
 30
0.0
 11
348.4000568477983
 21
166.2983250471409
 31
0.0
  0
INSERT
  5
3969
330
2C0E
100
AcDbEntity
  8
SUNPO
 62
     0
370
    -2
100
AcDbBlockReference
  2
_DOT
 10
230.0000568477983
 20
166.2983250471409
 30
0.0
 41
1.6
 42
1.6
 43
1.6
 50
180.0
  0
INSERT
  5
396A
330
2C0E
100
AcDbEntity
  8
SUNPO
 62
     0
370
    -2
100
AcDbBlockReference
  2
_DOT
 10
350.0000568477983
 20
166.2983250471409
 30
0.0
 41
1.6
 42
1.6
 43
1.6
  0
MTEXT
  5
396B
330
2C0E
100
AcDbEntity
  8
SUNPO
 62
     0
100
AcDbMText
 10
290.0000568477983
 20
168.4983250471409
 30
0.0
 40
4.0
 41
0.0
 71
     5
 72
     1
  1
\A1;120
  7
MSゴシック
 73
     1
 44
1.0
1001
ACAD
1000
MTEXTBEGIN
1070
    73
1070
     1
1070
    44
1040
1.0
1070
    74
1070
     0
1000
MTEXTEND
  0
POINT
  5
396C
330
2C0E
100
AcDbEntity
  8
Defpoints
 62
     0
100
AcDbPoint
 10
230.0000568477983
 20
152.0636749201966
 30
0.0
  0
POINT
  5
396D
330
2C0E
100
AcDbEntity
  8
Defpoints
 62
     0
100
AcDbPoint
 10
350.0000568477983
 20
151.1636749201966
 30
0.0
  0
POINT
  5
396E
330
2C0E
100
AcDbEntity
  8
Defpoints
 62
     0
100
AcDbPoint
 10
350.0000568477983
 20
166.2983250471409
 30
0.0
  0
ENDBLK
  5
2C19
330
2C0E
100
AcDbEntity
  8
0
100
AcDbBlockEnd
  0
BLOCK
  5
2C24
330
2C1A
100
AcDbEntity
  8
0
100
AcDbBlockBegin
  2
*D3
 70
     1
 10
0.0
 20
0.0
 30
0.0
  3
*D3
  1

  0
LINE
  5
396F
330
2C1A
100
AcDbEntity
  8
SUNPO
 62
     0
370
    -2
100
AcDbLine
 10
215.0000568477983
 20
154.0636749201966
 30
0.0
 11
215.0000568477983
 21
177.2898261091724
 31
0.0
  0
LINE
  5
3970
330
2C1A
100
AcDbEntity
  8
SUNPO
 62
     0
370
    -2
100
AcDbLine
 10
350.0000568477983
 20
153.1636749201966
 30
0.0
 11
350.0000568477983
 21
177.2898261091724
 31
0.0
  0
LINE
  5
3971
330
2C1A
100
AcDbEntity
  8
SUNPO
 62
     0
370
    -2
100
AcDbLine
 10
216.6000568477983
 20
177.2898261091724
 30
0.0
 11
348.4000568477983
 21
177.2898261091724
 31
0.0
  0
INSERT
  5
3972
330
2C1A
100
AcDbEntity
  8
SUNPO
 62
     0
370
    -2
100
AcDbBlockReference
  2
_DOT
 10
215.0000568477983
 20
177.2898261091724
 30
0.0
 41
1.6
 42
1.6
 43
1.6
 50
180.0
  0
INSERT
  5
3973
330
2C1A
100
AcDbEntity
  8
SUNPO
 62
     0
370
    -2
100
AcDbBlockReference
  2
_DOT
 10
350.0000568477983
 20
177.2898261091724
 30
0.0
 41
1.6
 42
1.6
 43
1.6
  0
MTEXT
  5
3974
330
2C1A
100
AcDbEntity
  8
SUNPO
 62
     0
100
AcDbMText
 10
282.5000568477983
 20
179.4898261091724
 30
0.0
 40
4.0
 41
0.0
 71
     5
 72
     1
  1
\A1;135
  7
MSゴシック
 73
     1
 44
1.0
1001
ACAD
1000
MTEXTBEGIN
1070
    73
1070
     1
1070
    44
1040
1.0
1070
    74
1070
     0
1000
MTEXTEND
  0
POINT
  5
3975
330
2C1A
100
AcDbEntity
  8
Defpoints
 62
     0
100
AcDbPoint
 10
215.0000568477983
 20
152.0636749201966
 30
0.0
  0
POINT
  5
3976
330
2C1A
100
AcDbEntity
  8
Defpoints
 62
     0
100
AcDbPoint
 10
350.0000568477983
 20
151.1636749201966
 30
0.0
  0
POINT
  5
3977
330
2C1A
100
AcDbEntity
  8
Defpoints
 62
     0
100
AcDbPoint
 10
350.0000568477983
 20
177.2898261091724
 30
0.0
  0
ENDBLK
  5
2C25
330
2C1A
100
AcDbEntity
  8
0
100
AcDbBlockEnd
  0
BLOCK
  5
2C30
330
2C26
100
AcDbEntity
  8
0
100
AcDbBlockBegin
  2
*D4
 70
     1
 10
0.0
 20
0.0
 30
0.0
  3
*D4
  1

  0
LINE
  5
3978
330
2C26
100
AcDbEntity
  8
SUNPO
 62
     0
370
    -2
100
AcDbLine
 10
228.0000568477984
 20
102.0636749201967
 30
0.0
 11
202.0350228477987
 21
102.0636749201967
 31
0.0
  0
LINE
  5
3979
330
2C26
100
AcDbEntity
  8
SUNPO
 62
     0
370
    -2
100
AcDbLine
 10
213.0000568477984
 20
152.0636749201967
 30
0.0
 11
202.0350228477987
 21
152.0636749201967
 31
0.0
  0
LINE
  5
397A
330
2C26
100
AcDbEntity
  8
SUNPO
 62
     0
370
    -2
100
AcDbLine
 10
202.0350228477987
 20
103.6636749201967
 30
0.0
 11
202.0350228477987
 21
150.4636749201967
 31
0.0
  0
INSERT
  5
397B
330
2C26
100
AcDbEntity
  8
SUNPO
 62
     0
370
    -2
100
AcDbBlockReference
  2
_DOT
 10
202.0350228477987
 20
102.0636749201967
 30
0.0
 41
1.6
 42
1.6
 43
1.6
 50
270.0
  0
INSERT
  5
397C
330
2C26
100
AcDbEntity
  8
SUNPO
 62
     0
370
    -2
100
AcDbBlockReference
  2
_DOT
 10
202.0350228477987
 20
152.0636749201967
 30
0.0
 41
1.6
 42
1.6
 43
1.6
 50
90.0
  0
MTEXT
  5
397D
330
2C26
100
AcDbEntity
  8
SUNPO
 62
     0
100
AcDbMText
 10
199.8350228477987
 20
127.0636749201966
 30
0.0
 40
4.0
 41
0.0
 71
     5
 72
     1
  1
\A1;50
  7
MSゴシック
 11
0.0000000000000001
 21
1.0
 31
0.0
 73
     1
 44
1.0
1001
ACAD
1000
MTEXTBEGIN
1070
    73
1070
     1
1070
    44
1040
1.0
1070
    74
1070
     0
1000
MTEXTEND
  0
POINT
  5
397E
330
2C26
100
AcDbEntity
  8
Defpoints
 62
     0
100
AcDbPoint
 10
230.0000568477984
 20
102.0636749201967
 30
0.0
  0
POINT
  5
397F
330
2C26
100
AcDbEntity
  8
Defpoints
 62
     0
100
AcDbPoint
 10
215.0000568477984
 20
152.0636749201967
 30
0.0
  0
POINT
  5
3980
330
2C26
100
AcDbEntity
  8
Defpoints
 62
     0
100
AcDbPoint
 10
202.0350228477987
 20
152.0636749201967
 30
0.0
  0
ENDBLK
  5
2C31
330
2C26
100
AcDbEntity
  8
0
100
AcDbBlockEnd
  0
BLOCK
  5
2C3C
330
2C32
100
AcDbEntity
  8
0
100
AcDbBlockBegin
  2
*D5
 70
     1
 10
0.0
 20
0.0
 30
0.0
  3
*D5
  1

  0
LINE
  5
3981
330
2C32
100
AcDbEntity
  8
SUNPO
 62
     0
370
    -2
100
AcDbLine
 10
215.0000568477983
 20
154.0636749201966
 30
0.0
 11
215.0000568477983
 21
166.2983250471409
 31
0.0
  0
LINE
  5
3982
330
2C32
100
AcDbEntity
  8
SUNPO
 62
     0
370
    -2
100
AcDbLine
 10
230.0000568477983
 20
154.0636749201966
 30
0.0
 11
230.0000568477983
 21
166.2983250471409
 31
0.0
  0
LINE
  5
3983
330
2C32
100
AcDbEntity
  8
SUNPO
 62
     0
370
    -2
100
AcDbLine
 10
216.6000568477983
 20
166.2983250471409
 30
0.0
 11
228.4000568477983
 21
166.2983250471409
 31
0.0
  0
MTEXT
  5
3984
330
2C32
100
AcDbEntity
  8
SUNPO
 62
     0
100
AcDbMText
 10
223.765886398973
 20
169.8722629455854
 30
0.0
 40
4.0
 41
0.0
 71
     5
 72
     1
  1
\A1;15
  7
MSゴシック
 73
     1
 44
1.0
1001
ACAD
1000
MTEXTBEGIN
1070
    73
1070
     1
1070
    44
1040
1.0
1070
    74
1070
     0
1000
MTEXTEND
  0
INSERT
  5
3985
330
2C32
100
AcDbEntity
  8
SUNPO
 62
     0
370
    -2
100
AcDbBlockReference
  2
_DOT
 10
215.0000568477983
 20
166.2983250471409
 30
0.0
 41
1.6
 42
1.6
 43
1.6
 50
180.0
  0
INSERT
  5
3986
330
2C32
100
AcDbEntity
  8
SUNPO
 62
     0
370
    -2
100
AcDbBlockReference
  2
_DOT
 10
230.0000568477983
 20
166.2983250471409
 30
0.0
 41
1.6
 42
1.6
 43
1.6
  0
POINT
  5
3987
330
2C32
100
AcDbEntity
  8
Defpoints
 62
     0
100
AcDbPoint
 10
215.0000568477983
 20
152.0636749201966
 30
0.0
  0
POINT
  5
3988
330
2C32
100
AcDbEntity
  8
Defpoints
 62
     0
100
AcDbPoint
 10
230.0000568477983
 20
152.0636749201966
 30
0.0
  0
POINT
  5
3989
330
2C32
100
AcDbEntity
  8
Defpoints
 62
     0
100
AcDbPoint
 10
230.0000568477983
 20
166.2983250471409
 30
0.0
  0
ENDBLK
  5
2C3D
330
2C32
100
AcDbEntity
  8
0
100
AcDbBlockEnd
  0
BLOCK
  5
39DE
330
39DD
100
AcDbEntity
  8
0
100
AcDbBlockBegin
  2
up60_2020
 70
     0
 10
0.0
 20
0.0
 30
0.0
  3
up60_2020
  1

  0
LINE
  5
39DF
330
39DD
100
AcDbEntity
  8
KANAMONO_SCREW
100
AcDbLine
 10
2.789999999999736
 20
-31.56499999999937
 30
0.0
 11
2.789999999999736
 21
-2.864999999999326
 31
0.0
  0
LINE
  5
39E0
330
39DD
100
AcDbEntity
  8
KANAMONO_SCREW
100
AcDbLine
 10
-2.790000000000077
 20
-31.56499999999937
 30
0.0
 11
-2.789999999995984
 21
-2.864999999999326
 31
0.0
  0
LINE
  5
39E1
330
39DD
100
AcDbEntity
  8
KANAMONO_SCREW
100
AcDbLine
 10
0.2499999999998863
 20
-10.56499999999937
 30
0.0
 11
0.2499999999998863
 21
-2.864999999999781
 31
0.0
  0
LINE
  5
39E2
330
39DD
100
AcDbEntity
  8
KANAMONO_SCREW
100
AcDbLine
 10
3.390000000000782
 20
-8.66499999999587
 30
0.0
 11
2.789999999999736
 21
-10.56499999999937
 31
0.0
  0
LINE
  5
39E3
330
39DD
100
AcDbEntity
  8
KANAMONO_SCREW
100
AcDbLine
 10
-2.790000000000077
 20
-10.56499999999937
 30
0.0
 11
-3.389999999999076
 21
-8.665000000003146
 31
0.0
  0
LINE
  5
39E4
330
39DD
100
AcDbEntity
  8
KANAMONO_SCREW
100
AcDbLine
 10
0.2499999999998863
 20
-10.56499999999937
 30
0.0
 11
-0.0000000000002274
 21
-8.665000000003146
 31
0.0
  0
LINE
  5
39E5
330
39DD
100
AcDbEntity
  8
KANAMONO_SCREW
100
AcDbLine
 10
-0.0000000000014779
 20
-8.665000000000645
 30
0.0
 11
-0.2499999999965894
 21
-10.56499999999528
 31
0.0
  0
LINE
  5
39E6
330
39DD
100
AcDbEntity
  8
KANAMONO_SCREW
100
AcDbLine
 10
-0.2499999999965894
 20
-10.56499999999528
 30
0.0
 11
-0.2499999999943157
 21
-2.86500000001115
 31
0.0
  0
LINE
  5
39E7
330
39DD
100
AcDbEntity
  8
KANAMONO_SCREW
100
AcDbLine
 10
-0.0000000000014779
 20
-8.665000000000645
 30
0.0
 11
0.0000000000001137
 21
-3.36500000001115
 31
0.0
  0
LINE
  5
39E8
330
39DD
100
AcDbEntity
  8
KANAMONO_SCREW
100
AcDbLine
 10
3.390000000000782
 20
-8.66499999999587
 30
0.0
 11
3.390000000002373
 21
-3.364999999999099
 31
0.0
  0
LINE
  5
39E9
330
39DD
100
AcDbEntity
  8
KANAMONO_SCREW
100
AcDbLine
 10
-3.389999999999076
 20
-8.665000000003146
 30
0.0
 11
-3.389999999997371
 21
-3.364999999999554
 31
0.0
  0
LINE
  5
39EA
330
39DD
100
AcDbEntity
  8
KANAMONO_SCREW
100
AcDbLine
 10
3.390000000002373
 20
-3.364999999999099
 30
0.0
 11
2.790000000002578
 21
-2.864999999999326
 31
0.0
  0
LINE
  5
39EB
330
39DD
100
AcDbEntity
  8
KANAMONO_SCREW
100
AcDbLine
 10
-2.789999999997462
 20
-2.864999999999326
 30
0.0
 11
-3.389999999997371
 21
-3.364999999999554
 31
0.0
  0
LINE
  5
39EC
330
39DD
100
AcDbEntity
  8
KANAMONO_SCREW
100
AcDbLine
 10
0.2499999999998863
 20
-2.864999999999781
 30
0.0
 11
0.0000000000001137
 21
-3.364999999999554
 31
0.0
  0
LINE
  5
39ED
330
39DD
100
AcDbEntity
  8
KANAMONO_SCREW
100
AcDbLine
 10
0.0000000000001137
 20
-3.364999999999554
 30
0.0
 11
-0.2499999999943157
 21
-2.86500000001115
 31
0.0
  0
LINE
  5
39EE
330
39DD
100
AcDbEntity
  8
KANAMONO_SCREW
100
AcDbLine
 10
2.890000000000213
 20
-2.864999999999326
 30
0.0
 11
-2.889999999999872
 21
-2.864999999999326
 31
0.0
  0
LINE
  5
39EF
330
39DD
100
AcDbEntity
  8
KANAMONO_SCREW
100
AcDbLine
 10
2.890000000000213
 20
-2.864999999999326
 30
0.0
 11
3.675000000000068
 21
-2.014999999999417
 31
0.0
  0
LINE
  5
39F0
330
39DD
100
AcDbEntity
  8
KANAMONO_SCREW
100
AcDbLine
 10
-2.889999999999872
 20
-2.864999999999326
 30
0.0
 11
-3.674999999999954
 21
-2.014999999999645
 31
0.0
  0
LINE
  5
39F1
330
39DD
100
AcDbEntity
  8
KANAMONO_SCREW
100
AcDbLine
 10
3.675000000000068
 20
-2.014999999999417
 30
0.0
 11
-3.674999999999954
 21
-2.014999999999645
 31
0.0
  0
LINE
  5
39F2
330
39DD
100
AcDbEntity
  8
KANAMONO_SCREW
100
AcDbLine
 10
3.675000000000068
 20
-2.014999999999417
 30
0.0
 11
3.675000000000068
 21
-1.564999999999372
 31
0.0
  0
LINE
  5
39F3
330
39DD
100
AcDbEntity
  8
KANAMONO_SCREW
100
AcDbLine
 10
3.675000000000068
 20
-1.564999999999372
 30
0.0
 11
-3.674999999999954
 21
-1.564999999999372
 31
0.0
  0
LINE
  5
39F4
330
39DD
100
AcDbEntity
  8
KANAMONO_SCREW
100
AcDbLine
 10
-3.674999999999954
 20
-2.014999999999645
 30
0.0
 11
-3.674999999999954
 21
-1.564999999999372
 31
0.0
  0
ARC
  5
39F5
330
39DD
100
AcDbEntity
  8
KANAMONO_SCREW
100
AcDbCircle
 10
1.249999999999772
 20
-30.86499999999956
 30
0.0
 40
0.5999999999999998
100
AcDbArc
 50
270.0
 51
0.0
  0
LINE
  5
39F6
330
39DD
100
AcDbEntity
  8
KANAMONO_SCREW
100
AcDbLine
 10
1.849999999999795
 20
-30.86499999999956
 30
0.0
 11
1.849999999999795
 21
-22.66499999999928
 31
0.0
  0
ARC
  5
39F7
330
39DD
100
AcDbEntity
  8
KANAMONO_SCREW
100
AcDbCircle
 10
-1.250000000000227
 20
-30.86499999999956
 30
0.0
 40
0.5999999999999998
100
AcDbArc
 50
180.0
 51
270.0
  0
LINE
  5
39F8
330
39DD
100
AcDbEntity
  8
KANAMONO_SCREW
100
AcDbLine
 10
-1.850000000000363
 20
-30.86499999999956
 30
0.0
 11
-1.850000000000363
 21
-22.66499999999928
 31
0.0
  0
LINE
  5
39F9
330
39DD
100
AcDbEntity
  8
KANAMONO_SCREW
100
AcDbLine
 10
-1.250000000000227
 20
-31.46499999999946
 30
0.0
 11
1.249999999999772
 21
-31.46499999999946
 31
0.0
  0
LINE
  5
39FA
330
39DD
100
AcDbEntity
  8
KANAMONO_SCREW
100
AcDbLine
 10
3.389999999999872
 20
-24.06499999999915
 30
0.0
 11
2.789999999999963
 21
-23.56499999999937
 31
0.0
  0
LINE
  5
39FB
330
39DD
100
AcDbEntity
  8
KANAMONO_SCREW
100
AcDbLine
 10
3.389999999999872
 20
-36.56499999999937
 30
0.0
 11
3.389999999999872
 21
-24.06499999999915
 31
0.0
  0
LINE
  5
39FC
330
39DD
100
AcDbEntity
  8
KANAMONO_SCREW
100
AcDbLine
 10
-2.789999999999963
 20
-23.56499999999937
 30
0.0
 11
-3.3900000000001
 21
-24.0649999999996
 31
0.0
  0
LINE
  5
39FD
330
39DD
100
AcDbEntity
  8
KANAMONO_SCREW
100
AcDbLine
 10
-3.3900000000001
 20
-36.5649999999996
 30
0.0
 11
-3.3900000000001
 21
-24.0649999999996
 31
0.0
  0
ARC
  5
39FE
330
39DD
100
AcDbEntity
  8
KANAMONO_SCREW
100
AcDbCircle
 10
1.249999999999772
 20
-22.66499999999928
 30
0.0
 40
0.5999999999999998
100
AcDbArc
 50
0.0
 51
90.0
  0
LINE
  5
39FF
330
39DD
100
AcDbEntity
  8
KANAMONO_SCREW
100
AcDbLine
 10
1.249999999999772
 20
-22.06499999999937
 30
0.0
 11
-1.250000000000227
 21
-22.06499999999937
 31
0.0
  0
ARC
  5
3A00
330
39DD
100
AcDbEntity
  8
KANAMONO_SCREW
100
AcDbCircle
 10
-1.250000000000227
 20
-22.66499999999928
 30
0.0
 40
0.5999999999999998
100
AcDbArc
 50
90.0
 51
180.0
  0
LINE
  5
3A01
330
39DD
100
AcDbEntity
  8
KANAMONO_SCREW
100
AcDbLine
 10
2.889999999999872
 20
-33.36499999999956
 30
0.0
 11
2.889999999999872
 21
-31.56499999999937
 31
0.0
  0
LINE
  5
3A02
330
39DD
100
AcDbEntity
  8
KANAMONO_SCREW
100
AcDbLine
 10
2.889999999999872
 20
-38.76499999999964
 30
0.0
 11
2.889999999999872
 21
-36.96499999999924
 31
0.0
  0
LINE
  5
3A03
330
39DD
100
AcDbEntity
  8
KANAMONO_SCREW
100
AcDbLine
 10
-2.8900000000001
 20
-33.36499999999956
 30
0.0
 11
-2.8900000000001
 21
-31.56499999999937
 31
0.0
  0
LINE
  5
3A04
330
39DD
100
AcDbEntity
  8
KANAMONO_SCREW
100
AcDbLine
 10
-2.8900000000001
 20
-38.76499999999964
 30
0.0
 11
-2.8900000000001
 21
-36.96499999999924
 31
0.0
  0
LINE
  5
3A05
330
39DD
100
AcDbEntity
  8
KANAMONO_SCREW
100
AcDbLine
 10
2.789999999999736
 20
-36.36499999999933
 30
0.0
 11
1.999999999999772
 21
-36.36499999999933
 31
0.0
  0
LINE
  5
3A06
330
39DD
100
AcDbEntity
  8
KANAMONO_SCREW
100
AcDbLine
 10
2.789999999999736
 20
-36.96499999999924
 30
0.0
 11
2.789999999999736
 21
-33.36499999999956
 31
0.0
  0
LINE
  5
3A07
330
39DD
100
AcDbEntity
  8
KANAMONO_SCREW
100
AcDbLine
 10
2.789999999999736
 20
-35.86499999999933
 30
0.0
 11
1.999999999999772
 21
-35.86499999999933
 31
0.0
  0
LINE
  5
3A08
330
39DD
100
AcDbEntity
  8
KANAMONO_SCREW
100
AcDbLine
 10
2.789999999999736
 20
-35.36499999999933
 30
0.0
 11
1.999999999999772
 21
-35.36499999999933
 31
0.0
  0
LINE
  5
3A09
330
39DD
100
AcDbEntity
  8
KANAMONO_SCREW
100
AcDbLine
 10
2.789999999999736
 20
-34.86499999999933
 30
0.0
 11
1.999999999999772
 21
-34.86499999999933
 31
0.0
  0
LINE
  5
3A0A
330
39DD
100
AcDbEntity
  8
KANAMONO_SCREW
100
AcDbLine
 10
2.789999999999736
 20
-34.36499999999933
 30
0.0
 11
1.999999999999772
 21
-34.36499999999933
 31
0.0
  0
LINE
  5
3A0B
330
39DD
100
AcDbEntity
  8
KANAMONO_SCREW
100
AcDbLine
 10
2.789999999999736
 20
-33.86499999999933
 30
0.0
 11
1.999999999999772
 21
-33.86499999999933
 31
0.0
  0
LINE
  5
3A0C
330
39DD
100
AcDbEntity
  8
KANAMONO_SCREW
100
AcDbLine
 10
-2.000000000000227
 20
-36.36499999999933
 30
0.0
 11
-2.789999999999963
 21
-36.36499999999933
 31
0.0
  0
LINE
  5
3A0D
330
39DD
100
AcDbEntity
  8
KANAMONO_SCREW
100
AcDbLine
 10
-2.000000000000227
 20
-35.86499999999933
 30
0.0
 11
-2.789999999999963
 21
-35.86499999999933
 31
0.0
  0
LINE
  5
3A0E
330
39DD
100
AcDbEntity
  8
KANAMONO_SCREW
100
AcDbLine
 10
-2.789999999999963
 20
-36.96499999999924
 30
0.0
 11
-2.790000000000077
 21
-33.36499999999956
 31
0.0
  0
LINE
  5
3A0F
330
39DD
100
AcDbEntity
  8
KANAMONO_SCREW
100
AcDbLine
 10
-2.000000000000227
 20
-35.36499999999933
 30
0.0
 11
-2.790000000000077
 21
-35.36499999999933
 31
0.0
  0
LINE
  5
3A10
330
39DD
100
AcDbEntity
  8
KANAMONO_SCREW
100
AcDbLine
 10
-2.000000000000227
 20
-34.86499999999933
 30
0.0
 11
-2.790000000000077
 21
-34.86499999999933
 31
0.0
  0
LINE
  5
3A11
330
39DD
100
AcDbEntity
  8
KANAMONO_SCREW
100
AcDbLine
 10
-2.000000000000227
 20
-34.36499999999933
 30
0.0
 11
-2.790000000000077
 21
-34.36499999999933
 31
0.0
  0
LINE
  5
3A12
330
39DD
100
AcDbEntity
  8
KANAMONO_SCREW
100
AcDbLine
 10
-2.000000000000227
 20
-33.86499999999933
 30
0.0
 11
-2.790000000000077
 21
-33.86499999999933
 31
0.0
  0
LINE
  5
3A13
330
39DD
100
AcDbEntity
  8
KANAMONO_SCREW
100
AcDbLine
 10
2.889999999999872
 20
-33.36499999999956
 30
0.0
 11
1.999999999999772
 21
-33.36499999999956
 31
0.0
  0
LINE
  5
3A14
330
39DD
100
AcDbEntity
  8
KANAMONO_SCREW
100
AcDbLine
 10
1.999999999999772
 20
-38.76499999999964
 30
0.0
 11
1.999999999999772
 21
-33.36499999999956
 31
0.0
  0
LINE
  5
3A15
330
39DD
100
AcDbEntity
  8
KANAMONO_SCREW
100
AcDbLine
 10
-2.000000000000227
 20
-38.76499999999806
 30
0.0
 11
-2.000000000000227
 21
-33.36499999999956
 31
0.0
  0
LINE
  5
3A16
330
39DD
100
AcDbEntity
  8
KANAMONO_SCREW
100
AcDbLine
 10
-2.000000000000227
 20
-33.36499999999956
 30
0.0
 11
-2.8900000000001
 21
-33.36499999999956
 31
0.0
  0
LINE
  5
3A17
330
39DD
100
AcDbEntity
  8
KANAMONO_SCREW
100
AcDbLine
 10
2.889999999999872
 20
-31.56499999999937
 30
0.0
 11
-2.8900000000001
 21
-31.56499999999937
 31
0.0
  0
LINE
  5
3A18
330
39DD
100
AcDbEntity
  8
KANAMONO_SCREW
100
AcDbLine
 10
1.350000306161518
 20
-32.56499999999937
 30
0.0
 11
-2.8900000000001
 21
-32.56499999999937
 31
0.0
  0
LINE
  5
3A19
330
39DD
100
AcDbEntity
  8
KANAMONO_SCREW
100
AcDbLine
 10
2.889999999999872
 20
-32.56499999999937
 30
0.0
 11
1.6500003061617
 21
-32.56499999999937
 31
0.0
  0
LINE
  5
3A1A
330
39DD
100
AcDbEntity
  8
KANAMONO_SCREW
100
AcDbLine
 10
1.6500003061617
 20
-33.96991029241235
 30
0.0
 11
1.6500003061617
 21
-32.36499999999978
 31
0.0
  0
LINE
  5
3A1B
330
39DD
100
AcDbEntity
  8
KANAMONO_SCREW
100
AcDbLine
 10
1.6500003061617
 20
-32.36499999999978
 30
0.0
 11
1.350000306161518
 21
-32.36499999999978
 31
0.0
  0
LINE
  5
3A1C
330
39DD
100
AcDbEntity
  8
KANAMONO_SCREW
100
AcDbLine
 10
1.350000306161518
 20
-33.96991029241235
 30
0.0
 11
1.350000306161518
 21
-32.36499999999978
 31
0.0
  0
ARC
  5
3A1D
330
39DD
100
AcDbEntity
  8
KANAMONO_SCREW
100
AcDbCircle
 10
-0.3500000000001364
 20
-37.16008960261365
 30
0.0
 40
1.3
100
AcDbArc
 50
122.858397292397
 51
180.0
  0
LINE
  5
3A1E
330
39DD
100
AcDbEntity
  8
KANAMONO_SCREW
100
AcDbLine
 10
-1.650000000000204
 20
-37.56499999999937
 30
0.0
 11
-1.650000000000204
 21
-37.16008960261365
 31
0.0
  0
ARC
  5
3A1F
330
39DD
100
AcDbEntity
  8
KANAMONO_SCREW
100
AcDbCircle
 10
-0.3500000000001364
 20
-37.16008960261365
 30
0.0
 40
1.0
100
AcDbArc
 50
122.8583972924123
 51
180.0
  0
LINE
  5
3A20
330
39DD
100
AcDbEntity
  8
KANAMONO_SCREW
100
AcDbLine
 10
-1.350000000000022
 20
-37.56499999999937
 30
0.0
 11
-1.350000000000022
 21
-37.16008960261365
 31
0.0
  0
ARC
  5
3A21
330
39DD
100
AcDbEntity
  8
KANAMONO_SCREW
100
AcDbCircle
 10
0.3500003061615189
 20
-33.96991029241235
 30
0.0
 40
1.0
100
AcDbArc
 50
302.8583972924124
 51
0.0
  0
LINE
  5
3A22
330
39DD
100
AcDbEntity
  8
KANAMONO_SCREW
100
AcDbLine
 10
-0.8925646552850139
 20
-36.32007555818586
 30
0.0
 11
1.055334358031473
 21
-35.06192855016843
 31
0.0
  0
ARC
  5
3A23
330
39DD
100
AcDbEntity
  8
KANAMONO_SCREW
100
AcDbCircle
 10
0.3500003061615189
 20
-33.96991029241235
 30
0.0
 40
1.3
100
AcDbArc
 50
302.858397292397
 51
0.0
  0
LINE
  5
3A24
330
39DD
100
AcDbEntity
  8
KANAMONO_SCREW
100
AcDbLine
 10
-1.055334051870204
 20
-36.06807134485757
 30
0.0
 11
0.8925649614463964
 21
-34.80992433684014
 31
0.0
  0
LINE
  5
3A25
330
39DD
100
AcDbEntity
  8
KANAMONO_SCREW
100
AcDbLine
 10
-1.350000000000022
 20
-37.56499999999937
 30
0.0
 11
-1.650000000000204
 21
-37.56499999999937
 31
0.0
  0
LINE
  5
3A26
330
39DD
100
AcDbEntity
  8
KANAMONO_SCREW
100
AcDbLine
 10
-1.650000000000204
 20
-38.66991039738514
 30
0.0
 11
-1.650000000000204
 21
-38.26499999999942
 31
0.0
  0
LINE
  5
3A27
330
39DD
100
AcDbEntity
  8
KANAMONO_SCREW
100
AcDbLine
 10
-1.350000000000022
 20
-38.26499999999942
 30
0.0
 11
-1.650000000000204
 21
-38.26499999999942
 31
0.0
  0
LINE
  5
3A28
330
39DD
100
AcDbEntity
  8
KANAMONO_SCREW
100
AcDbLine
 10
-1.350000000000022
 20
-38.66991039738514
 30
0.0
 11
-1.350000000000022
 21
-38.26499999999942
 31
0.0
  0
ARC
  5
3A29
330
39DD
100
AcDbEntity
  8
KANAMONO_SCREW
100
AcDbCircle
 10
0.1500003061614734
 20
-52.73090980663505
 30
0.0
 40
1.0
100
AcDbArc
 50
0.0
 51
57.141602707603
  0
LINE
  5
3A2A
330
39DD
100
AcDbEntity
  8
KANAMONO_SCREW
100
AcDbLine
 10
1.150000306161473
 20
-55.2990901933631
 30
0.0
 11
1.150000306161473
 21
-52.73090980663505
 31
0.0
  0
LINE
  5
3A2B
330
39DD
100
AcDbEntity
  8
KANAMONO_SCREW
100
AcDbLine
 10
-1.055334051870204
 20
-50.76192865514122
 30
0.0
 11
0.6925649614461236
 21
-51.89089576220749
 31
0.0
  0
ARC
  5
3A2C
330
39DD
100
AcDbEntity
  8
KANAMONO_SCREW
100
AcDbCircle
 10
0.1500003061614734
 20
-55.2990901933631
 30
0.0
 40
1.0
100
AcDbArc
 50
302.858397292397
 51
0.0
  0
LINE
  5
3A2D
330
39DD
100
AcDbEntity
  8
KANAMONO_SCREW
100
AcDbLine
 10
0.4446659481299094
 20
-56.29922208772177
 30
0.0
 11
0.6925649614461236
 21
-56.13910423779088
 31
0.0
  0
ARC
  5
3A2E
330
39DD
100
AcDbEntity
  8
KANAMONO_SCREW
100
AcDbCircle
 10
0.1500003061614734
 20
-55.2990901933631
 30
0.0
 40
1.3
100
AcDbArc
 50
302.8583972924124
 51
0.0
  0
LINE
  5
3A2F
330
39DD
100
AcDbEntity
  8
KANAMONO_SCREW
100
AcDbLine
 10
0.6074353447150998
 20
-56.55122630105006
 30
0.0
 11
0.8553343580317687
 21
-56.39110845111918
 31
0.0
  0
LINE
  5
3A30
330
39DD
100
AcDbEntity
  8
KANAMONO_SCREW
100
AcDbLine
 10
1.450000306161427
 20
-55.2990901933631
 30
0.0
 11
1.450000306161427
 21
-52.73090980663505
 31
0.0
  0
ARC
  5
3A31
330
39DD
100
AcDbEntity
  8
KANAMONO_SCREW
100
AcDbCircle
 10
0.1500003061614734
 20
-52.73090980663505
 30
0.0
 40
1.3
100
AcDbArc
 50
0.0
 51
57.141602707603
  0
LINE
  5
3A32
330
39DD
100
AcDbEntity
  8
KANAMONO_SCREW
100
AcDbLine
 10
-0.8925646552850139
 20
-50.50992444181315
 30
0.0
 11
0.8553343580315413
 21
-51.6388915488792
 31
0.0
  0
ARC
  5
3A33
330
39DD
100
AcDbEntity
  8
KANAMONO_SCREW
100
AcDbCircle
 10
-0.3500000000001364
 20
-38.66991039738514
 30
0.0
 40
1.3
100
AcDbArc
 50
180.0
 51
237.141602707603
  0
ARC
  5
3A34
330
39DD
100
AcDbEntity
  8
KANAMONO_SCREW
100
AcDbCircle
 10
-0.3500000000001364
 20
-38.66991039738514
 30
0.0
 40
1.0
100
AcDbArc
 50
180.0
 51
237.1416027075877
  0
ARC
  5
3A35
330
39DD
100
AcDbEntity
  8
KANAMONO_SCREW
100
AcDbCircle
 10
0.3500003061615189
 20
-44.16991029241194
 30
0.0
 40
1.0
100
AcDbArc
 50
302.858397292397
 51
0.0
  0
LINE
  5
3A36
330
39DD
100
AcDbEntity
  8
KANAMONO_SCREW
100
AcDbLine
 10
-1.055334051870204
 20
-39.76192865514122
 30
0.0
 11
0.892564961446169
 21
-41.02007566315887
 31
0.0
  0
LINE
  5
3A37
330
39DD
100
AcDbEntity
  8
KANAMONO_SCREW
100
AcDbLine
 10
1.350000306161518
 20
-44.16991029241194
 30
0.0
 11
1.350000306161518
 21
-41.86008970758644
 31
0.0
  0
ARC
  5
3A38
330
39DD
100
AcDbEntity
  8
KANAMONO_SCREW
100
AcDbCircle
 10
0.3500003061615189
 20
-41.86008970758644
 30
0.0
 40
1.0
100
AcDbArc
 50
0.0
 51
57.141602707603
  0
LINE
  5
3A39
330
39DD
100
AcDbEntity
  8
KANAMONO_SCREW
100
AcDbLine
 10
-0.8925646552850139
 20
-39.50992444181293
 30
0.0
 11
1.055334358031473
 21
-40.76807144983058
 31
0.0
  0
ARC
  5
3A3A
330
39DD
100
AcDbEntity
  8
KANAMONO_SCREW
100
AcDbCircle
 10
0.3500003061615189
 20
-41.86008970758644
 30
0.0
 40
1.3
100
AcDbArc
 50
0.0
 51
57.141602707603
  0
LINE
  5
3A3B
330
39DD
100
AcDbEntity
  8
KANAMONO_SCREW
100
AcDbLine
 10
1.650000306161473
 20
-44.16991029241194
 30
0.0
 11
1.650000306161473
 21
-41.86008970758644
 31
0.0
  0
ARC
  5
3A3C
330
39DD
100
AcDbEntity
  8
KANAMONO_SCREW
100
AcDbCircle
 10
0.3500003061615189
 20
-44.16991029241194
 30
0.0
 40
1.3
100
AcDbArc
 50
302.858397292397
 51
0.0
  0
ARC
  5
3A3D
330
39DD
100
AcDbEntity
  8
KANAMONO_SCREW
100
AcDbCircle
 10
-0.3500000000001364
 20
-49.66991039738513
 30
0.0
 40
1.3
100
AcDbArc
 50
180.0
 51
237.141602707603
  0
ARC
  5
3A3E
330
39DD
100
AcDbEntity
  8
KANAMONO_SCREW
100
AcDbCircle
 10
-0.3500000000001364
 20
-49.66991039738513
 30
0.0
 40
1.0
100
AcDbArc
 50
180.0
 51
237.1416027075877
  0
LINE
  5
3A3F
330
39DD
100
AcDbEntity
  8
KANAMONO_SCREW
100
AcDbLine
 10
-1.650000000000204
 20
-49.66991039738513
 30
0.0
 11
-1.650000000000204
 21
-47.36008960261346
 31
0.0
  0
LINE
  5
3A40
330
39DD
100
AcDbEntity
  8
KANAMONO_SCREW
100
AcDbLine
 10
-1.055334051870204
 20
-46.26807134485716
 30
0.0
 11
0.892564961446169
 21
-45.00992433683973
 31
0.0
  0
ARC
  5
3A41
330
39DD
100
AcDbEntity
  8
KANAMONO_SCREW
100
AcDbCircle
 10
-0.3500000000001364
 20
-47.36008960261346
 30
0.0
 40
1.3
100
AcDbArc
 50
122.858397292397
 51
180.0
  0
LINE
  5
3A42
330
39DD
100
AcDbEntity
  8
KANAMONO_SCREW
100
AcDbLine
 10
-1.350000000000022
 20
-49.66991039738513
 30
0.0
 11
-1.350000000000022
 21
-47.36008960261346
 31
0.0
  0
LINE
  5
3A43
330
39DD
100
AcDbEntity
  8
KANAMONO_SCREW
100
AcDbLine
 10
-0.8925646552850139
 20
-46.52007555818545
 30
0.0
 11
1.055334358031473
 21
-45.26192855016802
 31
0.0
  0
ARC
  5
3A44
330
39DD
100
AcDbEntity
  8
KANAMONO_SCREW
100
AcDbCircle
 10
-0.3500000000001364
 20
-47.36008960261346
 30
0.0
 40
1.0
100
AcDbArc
 50
122.8583972924123
 51
180.0
  0
ARC
  5
3A45
330
39DD
100
AcDbEntity
  8
KANAMONO_SCREW
100
AcDbCircle
 10
1.149999999999863
 20
-57.39124034547785
 30
0.0
 40
1.0
100
AcDbArc
 50
122.8583972924123
 51
180.0
  0
ARC
  5
3A46
330
39DD
100
AcDbEntity
  8
KANAMONO_SCREW
100
AcDbCircle
 10
1.149999999999863
 20
-57.39124034547785
 30
0.0
 40
1.3
100
AcDbArc
 50
122.858397292397
 51
180.0
  0
LINE
  5
3A47
330
39DD
100
AcDbEntity
  8
KANAMONO_SCREW
100
AcDbLine
 10
-0.1500000000003183
 20
-57.56499999999937
 30
0.0
 11
-0.1500000000003183
 21
-57.39124034547785
 31
0.0
  0
LINE
  5
3A48
330
39DD
100
AcDbEntity
  8
KANAMONO_SCREW
100
AcDbLine
 10
0.1499999999998636
 20
-57.56499999999937
 30
0.0
 11
0.1499999999998636
 21
-57.39124034547785
 31
0.0
  0
LINE
  5
3A49
330
39DD
100
AcDbEntity
  8
KANAMONO_SCREW
100
AcDbLine
 10
0.1499999999998636
 20
-57.56499999999937
 30
0.0
 11
-0.1500000000003183
 21
-57.56499999999937
 31
0.0
  0
LINE
  5
3A4A
330
39DD
100
AcDbEntity
  8
KANAMONO_SCREW
100
AcDbLine
 10
3.224999999999795
 20
-42.56499999999937
 30
0.0
 11
2.140943284395007
 21
-42.56499999999937
 31
0.0
  0
LINE
  5
3A4B
330
39DD
100
AcDbEntity
  8
KANAMONO_SCREW
100
AcDbLine
 10
-2.1410526315791
 20
-42.56499999999937
 30
0.0
 11
-3.225000000000136
 21
-42.56499999999937
 31
0.0
  0
LINE
  5
3A4C
330
39DD
100
AcDbEntity
  8
KANAMONO_SCREW
100
AcDbLine
 10
3.163624561810024
 20
-41.96499999999923
 30
0.0
 11
2.118689081596016
 21
-41.96499999999923
 31
0.0
  0
LINE
  5
3A4D
330
39DD
100
AcDbEntity
  8
KANAMONO_SCREW
100
AcDbLine
 10
3.110729824967847
 20
-41.36499999999933
 30
0.0
 11
2.096434878796571
 21
-41.36499999999933
 31
0.0
  0
LINE
  5
3A4E
330
39DD
100
AcDbEntity
  8
KANAMONO_SCREW
100
AcDbLine
 10
3.057835088125898
 20
-40.76499999999964
 30
0.0
 11
2.07418067599724
 21
-40.76499999999964
 31
0.0
  0
LINE
  5
3A4F
330
39DD
100
AcDbEntity
  8
KANAMONO_SCREW
100
AcDbLine
 10
3.004940351283607
 20
-40.16499999999928
 30
0.0
 11
2.051926473198136
 21
-40.16499999999928
 31
0.0
  0
LINE
  5
3A50
330
39DD
100
AcDbEntity
  8
KANAMONO_SCREW
100
AcDbLine
 10
2.952045614441317
 20
-39.56499999999937
 30
0.0
 11
2.029672270398805
 21
-39.56499999999937
 31
0.0
  0
LINE
  5
3A51
330
39DD
100
AcDbEntity
  8
KANAMONO_SCREW
100
AcDbLine
 10
-2.007423822715054
 20
-38.96499999999924
 30
0.0
 11
-2.899150571437985
 21
-38.96499999999924
 31
0.0
  0
LINE
  5
3A52
330
39DD
100
AcDbEntity
  8
KANAMONO_SCREW
100
AcDbLine
 10
-2.029695290859081
 20
-39.56499999999937
 30
0.0
 11
-2.952045308280048
 21
-39.56499999999937
 31
0.0
  0
LINE
  5
3A53
330
39DD
100
AcDbEntity
  8
KANAMONO_SCREW
100
AcDbLine
 10
-2.051966759002993
 20
-40.16499999999928
 30
0.0
 11
-3.004940045122339
 21
-40.16499999999928
 31
0.0
  0
LINE
  5
3A54
330
39DD
100
AcDbEntity
  8
KANAMONO_SCREW
100
AcDbLine
 10
-2.074238227147134
 20
-40.76499999999964
 30
0.0
 11
-3.057834781964288
 21
-40.76499999999964
 31
0.0
  0
LINE
  5
3A55
330
39DD
100
AcDbEntity
  8
KANAMONO_SCREW
100
AcDbLine
 10
-2.09650969529116
 20
-41.36499999999933
 30
0.0
 11
-3.110729518806465
 21
-41.36499999999933
 31
0.0
  0
LINE
  5
3A56
330
39DD
100
AcDbEntity
  8
KANAMONO_SCREW
100
AcDbLine
 10
-2.118781163435073
 20
-41.96499999999923
 30
0.0
 11
-3.163624255648528
 21
-41.96499999999923
 31
0.0
  0
LINE
  5
3A57
330
39DD
100
AcDbEntity
  8
KANAMONO_SCREW
100
AcDbLine
 10
2.141070321496044
 20
-42.56842507261512
 30
0.0
 11
1.999999999999772
 21
-38.76499999999964
 31
0.0
  0
LINE
  5
3A58
330
39DD
100
AcDbEntity
  8
KANAMONO_SCREW
100
AcDbLine
 10
-2.1410526315791
 20
-42.56499999999937
 30
0.0
 11
-2.000000000000227
 21
-38.76499999999964
 31
0.0
  0
LINE
  5
3A59
330
39DD
100
AcDbEntity
  8
KANAMONO_SCREW
100
AcDbLine
 10
2.149999663219205
 20
-44.26499999999964
 30
0.0
 11
2.141070321496044
 21
-42.56842507261512
 31
0.0
  0
LINE
  5
3A5A
330
39DD
100
AcDbEntity
  8
KANAMONO_SCREW
100
AcDbLine
 10
-2.150000000000204
 20
-44.26499999999964
 30
0.0
 11
-2.141007727306259
 21
-42.55646818812965
 31
0.0
  0
LINE
  5
3A5B
330
39DD
100
AcDbEntity
  8
KANAMONO_SCREW
100
AcDbLine
 10
2.89915087759914
 20
-38.96499999999924
 30
0.0
 11
2.001052631578772
 21
-38.96499999999924
 31
0.0
  0
LINE
  5
3A5C
330
39DD
100
AcDbEntity
  8
KANAMONO_SCREW
100
AcDbLine
 10
-2.000000000000227
 20
-36.96499999999924
 30
0.0
 11
-2.8900000000001
 21
-36.96499999999924
 31
0.0
  0
LINE
  5
3A5D
330
39DD
100
AcDbEntity
  8
KANAMONO_SCREW
100
AcDbLine
 10
2.889999999999872
 20
-36.96499999999924
 30
0.0
 11
1.999999999999772
 21
-36.96499999999924
 31
0.0
  0
LINE
  5
3A5E
330
39DD
100
AcDbEntity
  8
KANAMONO_SCREW
100
AcDbLine
 10
-2.000000000000227
 20
-38.76499999999964
 30
0.0
 11
-2.8900000000001
 21
-38.76499999999964
 31
0.0
  0
LINE
  5
3A5F
330
39DD
100
AcDbEntity
  8
KANAMONO_SCREW
100
AcDbLine
 10
2.889999999999872
 20
-38.76499999999964
 30
0.0
 11
1.999999999999772
 21
-38.76499999999964
 31
0.0
  0
LINE
  5
3A60
330
39DD
100
AcDbEntity
  8
KANAMONO_SCREW
100
AcDbLine
 10
3.063636669798029
 20
-42.56499999999914
 30
0.0
 11
2.728636669797992
 21
-38.76499999999919
 31
0.0
  0
LINE
  5
3A61
330
39DD
100
AcDbEntity
  8
KANAMONO_SCREW
100
AcDbLine
 10
-3.063636363636533
 20
-42.56499999999914
 30
0.0
 11
-2.728636363636496
 21
-38.76499999999919
 31
0.0
  0
LINE
  5
3A62
330
39DD
100
AcDbEntity
  8
KANAMONO_SCREW
100
AcDbLine
 10
-2.140000000000213
 20
-44.66499999999927
 30
0.0
 11
-3.206518992490828
 21
-44.66499999999951
 31
0.0
  0
LINE
  5
3A63
330
39DD
100
AcDbEntity
  8
KANAMONO_SCREW
100
AcDbLine
 10
-2.125000000000227
 20
-45.26499999999964
 30
0.0
 11
-3.191518992490728
 21
-45.26499999999964
 31
0.0
  0
LINE
  5
3A64
330
39DD
100
AcDbEntity
  8
KANAMONO_SCREW
100
AcDbLine
 10
-2.110000000000354
 20
-45.86499999999932
 30
0.0
 11
-3.176518992490628
 21
-45.86499999999932
 31
0.0
  0
LINE
  5
3A65
330
39DD
100
AcDbEntity
  8
KANAMONO_SCREW
100
AcDbLine
 10
-2.095000000000254
 20
-46.46499999999924
 30
0.0
 11
-3.161518992490755
 21
-46.46499999999924
 31
0.0
  0
LINE
  5
3A66
330
39DD
100
AcDbEntity
  8
KANAMONO_SCREW
100
AcDbLine
 10
-2.080000000000154
 20
-47.06499999999937
 30
0.0
 11
-3.146518992490655
 21
-47.06499999999937
 31
0.0
  0
LINE
  5
3A67
330
39DD
100
AcDbEntity
  8
KANAMONO_SCREW
100
AcDbLine
 10
-2.065000000000281
 20
-47.6649999999995
 30
0.0
 11
-3.131518992490555
 21
-47.6649999999995
 31
0.0
  0
LINE
  5
3A68
330
39DD
100
AcDbEntity
  8
KANAMONO_SCREW
100
AcDbLine
 10
3.206518961871324
 20
-44.66499999999927
 30
0.0
 11
2.139999663219327
 21
-44.66499999999927
 31
0.0
  0
LINE
  5
3A69
330
39DD
100
AcDbEntity
  8
KANAMONO_SCREW
100
AcDbLine
 10
3.191518961871224
 20
-45.26499999999964
 30
0.0
 11
2.124999663219341
 21
-45.26499999999964
 31
0.0
  0
LINE
  5
3A6A
330
39DD
100
AcDbEntity
  8
KANAMONO_SCREW
100
AcDbLine
 10
3.176518961871352
 20
-45.86499999999932
 30
0.0
 11
2.109999663219241
 21
-45.86499999999932
 31
0.0
  0
LINE
  5
3A6B
330
39DD
100
AcDbEntity
  8
KANAMONO_SCREW
100
AcDbLine
 10
3.161518961871252
 20
-46.46499999999924
 30
0.0
 11
2.094999663219141
 21
-46.46499999999924
 31
0.0
  0
LINE
  5
3A6C
330
39DD
100
AcDbEntity
  8
KANAMONO_SCREW
100
AcDbLine
 10
3.146518961871379
 20
-47.06499999999937
 30
0.0
 11
2.096048853145816
 21
-47.06499999999937
 31
0.0
  0
LINE
  5
3A6D
330
39DD
100
AcDbEntity
  8
KANAMONO_SCREW
100
AcDbLine
 10
3.13151896187162
 20
-47.66499999999928
 30
0.0
 11
2.064999663219396
 21
-47.66499999999928
 31
0.0
  0
LINE
  5
3A6E
330
39DD
100
AcDbEntity
  8
KANAMONO_SCREW
100
AcDbLine
 10
2.963636363665273
 20
-48.26498652761916
 30
0.0
 11
3.063636363665295
 21
-44.26498652761916
 31
0.0
  0
LINE
  5
3A6F
330
39DD
100
AcDbEntity
  8
KANAMONO_SCREW
100
AcDbLine
 10
-2.96363636363651
 20
-48.26499999999964
 30
0.0
 11
-3.063636363636533
 21
-44.26499999999964
 31
0.0
  0
LINE
  5
3A70
330
39DD
100
AcDbEntity
  8
KANAMONO_SCREW
100
AcDbLine
 10
2.749999999999772
 20
-53.76499999999964
 30
0.0
 11
2.83636363636333
 21
-49.96499999999946
 31
0.0
  0
LINE
  5
3A71
330
39DD
100
AcDbEntity
  8
KANAMONO_SCREW
100
AcDbLine
 10
2.998636669797861
 20
-53.16499999999928
 30
0.0
 11
1.898026315789479
 21
-53.16499999999928
 31
0.0
  0
LINE
  5
3A72
330
39DD
100
AcDbEntity
  8
KANAMONO_SCREW
100
AcDbLine
 10
3.012273033434325
 20
-52.56499999999937
 30
0.0
 11
1.921052631578731
 21
-52.56499999999937
 31
0.0
  0
LINE
  5
3A73
330
39DD
100
AcDbEntity
  8
KANAMONO_SCREW
100
AcDbLine
 10
3.025909397070563
 20
-51.96499999999947
 30
0.0
 11
1.944078947368211
 21
-51.96499999999947
 31
0.0
  0
LINE
  5
3A74
330
39DD
100
AcDbEntity
  8
KANAMONO_SCREW
100
AcDbLine
 10
3.039545760707028
 20
-51.36499999999955
 30
0.0
 11
1.967105263157691
 21
-51.36499999999955
 31
0.0
  0
LINE
  5
3A75
330
39DD
100
AcDbEntity
  8
KANAMONO_SCREW
100
AcDbLine
 10
3.053182124343265
 20
-50.76499999999964
 30
0.0
 11
2.01315789473665
 21
-50.76499999999964
 31
0.0
  0
LINE
  5
3A76
330
39DD
100
AcDbEntity
  8
KANAMONO_SCREW
100
AcDbLine
 10
-2.013157894736991
 20
-50.76499999999964
 30
0.0
 11
-3.055032972211165
 21
-50.76499999999964
 31
0.0
  0
LINE
  5
3A77
330
39DD
100
AcDbEntity
  8
KANAMONO_SCREW
100
AcDbLine
 10
-1.967105263158146
 20
-51.36499999999955
 30
0.0
 11
-3.044192331607746
 21
-51.36499999999955
 31
0.0
  0
LINE
  5
3A78
330
39DD
100
AcDbEntity
  8
KANAMONO_SCREW
100
AcDbLine
 10
-1.944078947368552
 20
-51.96499999999947
 30
0.0
 11
-3.033351691004213
 21
-51.96499999999947
 31
0.0
  0
LINE
  5
3A79
330
39DD
100
AcDbEntity
  8
KANAMONO_SCREW
100
AcDbLine
 10
-1.921052631579073
 20
-52.56499999999937
 30
0.0
 11
-3.022511050401135
 21
-52.56499999999937
 31
0.0
  0
LINE
  5
3A7A
330
39DD
100
AcDbEntity
  8
KANAMONO_SCREW
100
AcDbLine
 10
-1.898026315789707
 20
-53.16499999999951
 30
0.0
 11
-3.011670409797716
 21
-53.16499999999951
 31
0.0
  0
LINE
  5
3A7B
330
39DD
100
AcDbEntity
  8
KANAMONO_SCREW
100
AcDbLine
 10
-2.150000000000204
 20
-44.26499999999964
 30
0.0
 11
-3.225000000000136
 21
-44.26499999999964
 31
0.0
  0
LINE
  5
3A7C
330
39DD
100
AcDbEntity
  8
KANAMONO_SCREW
100
AcDbLine
 10
3.224999999999795
 20
-44.26499999999964
 30
0.0
 11
2.149999663219205
 21
-44.26499999999964
 31
0.0
  0
LINE
  5
3A7D
330
39DD
100
AcDbEntity
  8
KANAMONO_SCREW
100
AcDbLine
 10
2.05000000002883
 20
-48.26498652761916
 30
0.0
 11
2.150000000028626
 21
-44.26498652761916
 31
0.0
  0
LINE
  5
3A7E
330
39DD
100
AcDbEntity
  8
KANAMONO_SCREW
100
AcDbLine
 10
-2.050000000000181
 20
-48.26499999999896
 30
0.0
 11
-2.150000000000204
 21
-44.26499999999896
 31
0.0
  0
LINE
  5
3A7F
330
39DD
100
AcDbEntity
  8
KANAMONO_SCREW
100
AcDbLine
 10
3.224999999999795
 20
-44.26499999999964
 30
0.0
 11
3.224999999999795
 21
-42.56499999999937
 31
0.0
  0
LINE
  5
3A80
330
39DD
100
AcDbEntity
  8
KANAMONO_SCREW
100
AcDbLine
 10
-3.225000000000136
 20
-44.26499999999964
 30
0.0
 11
-3.225000000000136
 21
-42.56499999999937
 31
0.0
  0
LINE
  5
3A81
330
39DD
100
AcDbEntity
  8
KANAMONO_SCREW
100
AcDbLine
 10
-2.750000000000227
 20
-53.76499999999964
 30
0.0
 11
-2.925000000000181
 21
-49.96499999999946
 31
0.0
  0
LINE
  5
3A82
330
39DD
100
AcDbEntity
  8
KANAMONO_SCREW
100
AcDbLine
 10
2.749999999999772
 20
-58.16499999999928
 30
0.0
 11
2.749999999999772
 21
-55.56499999999937
 31
0.0
  0
LINE
  5
3A83
330
39DD
100
AcDbEntity
  8
KANAMONO_SCREW
100
AcDbLine
 10
-2.750000000000227
 20
-58.16499999999951
 30
0.0
 11
-2.750000000000227
 21
-55.56499999999937
 31
0.0
  0
LINE
  5
3A84
330
39DD
100
AcDbEntity
  8
KANAMONO_SCREW
100
AcDbLine
 10
3.064545760706891
 20
-50.26499999999964
 30
0.0
 11
2.027929979067039
 21
-50.26499999999964
 31
0.0
  0
LINE
  5
3A85
330
39DD
100
AcDbEntity
  8
KANAMONO_SCREW
100
AcDbLine
 10
2.999999999999772
 20
-53.76499999999964
 30
0.0
 11
1.874999999999772
 21
-53.76499999999964
 31
0.0
  0
LINE
  5
3A86
330
39DD
100
AcDbEntity
  8
KANAMONO_SCREW
100
AcDbLine
 10
-2.036184210526471
 20
-50.26499999999964
 30
0.0
 11
-3.064066839380529
 21
-50.26499999999964
 31
0.0
  0
LINE
  5
3A87
330
39DD
100
AcDbEntity
  8
KANAMONO_SCREW
100
AcDbLine
 10
3.08636394252494
 20
-49.96499999999946
 30
0.0
 11
3.125000306161382
 21
-48.26499999999964
 31
0.0
  0
LINE
  5
3A88
330
39DD
100
AcDbEntity
  8
KANAMONO_SCREW
100
AcDbLine
 10
-3.086363636363671
 20
-49.96499999999946
 30
0.0
 11
-3.125000000000227
 21
-48.26499999999964
 31
0.0
  0
LINE
  5
3A89
330
39DD
100
AcDbEntity
  8
KANAMONO_SCREW
100
AcDbLine
 10
-2.050000000000181
 20
-49.96499999999946
 30
0.0
 11
-3.086363636363671
 21
-49.96499999999946
 31
0.0
  0
LINE
  5
3A8A
330
39DD
100
AcDbEntity
  8
KANAMONO_SCREW
100
AcDbLine
 10
3.08636394252494
 20
-49.96499999999946
 30
0.0
 11
2.049999999999954
 21
-49.96499999999946
 31
0.0
  0
LINE
  5
3A8B
330
39DD
100
AcDbEntity
  8
KANAMONO_SCREW
100
AcDbLine
 10
-2.050000000000181
 20
-48.26499999999964
 30
0.0
 11
-3.125000000000227
 21
-48.26499999999964
 31
0.0
  0
LINE
  5
3A8C
330
39DD
100
AcDbEntity
  8
KANAMONO_SCREW
100
AcDbLine
 10
3.124999999999772
 20
-48.26499999999964
 30
0.0
 11
2.049999999999727
 21
-48.26499999999964
 31
0.0
  0
LINE
  5
3A8D
330
39DD
100
AcDbEntity
  8
KANAMONO_SCREW
100
AcDbLine
 10
1.874999999999772
 20
-53.76499999999964
 30
0.0
 11
2.049999999999727
 21
-49.96499999999946
 31
0.0
  0
LINE
  5
3A8E
330
39DD
100
AcDbEntity
  8
KANAMONO_SCREW
100
AcDbLine
 10
-1.875000000000227
 20
-53.76499999999964
 30
0.0
 11
-2.050000000000181
 21
-49.96499999999946
 31
0.0
  0
LINE
  5
3A8F
330
39DD
100
AcDbEntity
  8
KANAMONO_SCREW
100
AcDbLine
 10
0.0000003061617235
 20
-61.06499999999937
 30
0.0
 11
-1.396311994552661
 21
-59.24979400907137
 31
0.0
  0
ARC
  5
3A90
330
39DD
100
AcDbEntity
  8
KANAMONO_SCREW
100
AcDbCircle
 10
-1.000000000000227
 20
-58.94493862864647
 30
0.0
 40
0.5
100
AcDbArc
 50
180.0
 51
217.5685920288021
  0
LINE
  5
3A91
330
39DD
100
AcDbEntity
  8
KANAMONO_SCREW
100
AcDbLine
 10
-1.500000000000113
 20
-58.76200569932348
 30
0.0
 11
-1.500000000000113
 21
-58.9449386286467
 31
0.0
  0
LINE
  5
3A92
330
39DD
100
AcDbEntity
  8
KANAMONO_SCREW
100
AcDbLine
 10
0.0000003061617235
 20
-60.5649999999996
 30
0.0
 11
-1.410368800544915
 21
-58.7315201612812
 31
0.0
  0
ARC
  5
3A93
330
39DD
100
AcDbEntity
  8
KANAMONO_SCREW
100
AcDbCircle
 10
-1.450000000000272
 20
-58.76200569932348
 30
0.0
 40
0.05
100
AcDbArc
 50
37.56859202884636
 51
180.0
  0
LINE
  5
3A94
330
39DD
100
AcDbEntity
  8
KANAMONO_SCREW
100
AcDbLine
 10
1.500000306161723
 20
-58.76200569932348
 30
0.0
 11
1.500000306161723
 21
-58.94493862864647
 31
0.0
  0
LINE
  5
3A95
330
39DD
100
AcDbEntity
  8
KANAMONO_SCREW
100
AcDbLine
 10
-0.0000000000004547
 20
-60.5649999999996
 30
0.0
 11
1.410369106706525
 21
-58.73152016128097
 31
0.0
  0
ARC
  5
3A96
330
39DD
100
AcDbEntity
  8
KANAMONO_SCREW
100
AcDbCircle
 10
1.450000306161427
 20
-58.76200569932348
 30
0.0
 40
0.05
100
AcDbArc
 50
0.0
 51
142.4314079710051
  0
LINE
  5
3A97
330
39DD
100
AcDbEntity
  8
KANAMONO_SCREW
100
AcDbLine
 10
-0.0000000000002274
 20
-61.06499999999937
 30
0.0
 11
1.396312300713816
 21
-59.24979400907137
 31
0.0
  0
ARC
  5
3A98
330
39DD
100
AcDbEntity
  8
KANAMONO_SCREW
100
AcDbCircle
 10
1.000000306161723
 20
-58.94493862864647
 30
0.0
 40
0.5
100
AcDbArc
 50
322.4314079711771
 51
0.0
  0
LINE
  5
3A99
330
39DD
100
AcDbEntity
  8
KANAMONO_SCREW
100
AcDbLine
 10
-1.500000000000113
 20
-56.46200569932353
 30
0.0
 11
-1.500000000000113
 21
-56.64493862864606
 31
0.0
  0
LINE
  5
3A9A
330
39DD
100
AcDbEntity
  8
KANAMONO_SCREW
100
AcDbLine
 10
1.500000306161723
 20
-56.46200569932353
 30
0.0
 11
1.500000306161723
 21
-56.64493862864606
 31
0.0
  0
LINE
  5
3A9B
330
39DD
100
AcDbEntity
  8
KANAMONO_SCREW
100
AcDbLine
 10
0.0000003061617235
 20
-58.26499999999964
 30
0.0
 11
-1.410368800544915
 21
-56.43152016128079
 31
0.0
  0
ARC
  5
3A9C
330
39DD
100
AcDbEntity
  8
KANAMONO_SCREW
100
AcDbCircle
 10
-1.450000000000272
 20
-56.46200569932353
 30
0.0
 40
0.05
100
AcDbArc
 50
37.56859202884636
 51
180.0
  0
LINE
  5
3A9D
330
39DD
100
AcDbEntity
  8
KANAMONO_SCREW
100
AcDbLine
 10
0.0000003061617235
 20
-58.76499999999964
 30
0.0
 11
-1.396311994552661
 21
-56.94979400907095
 31
0.0
  0
ARC
  5
3A9E
330
39DD
100
AcDbEntity
  8
KANAMONO_SCREW
100
AcDbCircle
 10
-1.000000000000227
 20
-56.64493862864606
 30
0.0
 40
0.5
100
AcDbArc
 50
180.0
 51
217.5685920288229
  0
LINE
  5
3A9F
330
39DD
100
AcDbEntity
  8
KANAMONO_SCREW
100
AcDbLine
 10
-0.0000000000002274
 20
-58.26499999999964
 30
0.0
 11
1.410369106706525
 21
-56.43152016128079
 31
0.0
  0
ARC
  5
3AA0
330
39DD
100
AcDbEntity
  8
KANAMONO_SCREW
100
AcDbCircle
 10
1.450000306161427
 20
-56.46200569932353
 30
0.0
 40
0.05
100
AcDbArc
 50
0.0
 51
142.4314079710051
  0
LINE
  5
3AA1
330
39DD
100
AcDbEntity
  8
KANAMONO_SCREW
100
AcDbLine
 10
-0.0000000000002274
 20
-58.76499999999964
 30
0.0
 11
1.396312300714043
 21
-56.94979400907119
 31
0.0
  0
ARC
  5
3AA2
330
39DD
100
AcDbEntity
  8
KANAMONO_SCREW
100
AcDbCircle
 10
1.000000306161723
 20
-56.64493862864606
 30
0.0
 40
0.5
100
AcDbArc
 50
322.4314079711562
 51
0.0
  0
LINE
  5
3AA3
330
39DD
100
AcDbEntity
  8
KANAMONO_SCREW
100
AcDbLine
 10
-1.875000000000227
 20
-53.76499999999964
 30
0.0
 11
-3.000000000000227
 21
-53.76499999999964
 31
0.0
  0
LINE
  5
3AA4
330
39DD
100
AcDbEntity
  8
KANAMONO_SCREW
100
AcDbLine
 10
-1.875000000000227
 20
-55.56499999999937
 30
0.0
 11
-3.000000000000227
 21
-55.56499999999937
 31
0.0
  0
LINE
  5
3AA5
330
39DD
100
AcDbEntity
  8
KANAMONO_SCREW
100
AcDbLine
 10
2.999999999999772
 20
-55.56499999999937
 30
0.0
 11
1.874999999999772
 21
-55.56499999999937
 31
0.0
  0
LINE
  5
3AA6
330
39DD
100
AcDbEntity
  8
KANAMONO_SCREW
100
AcDbLine
 10
-1.875000000000227
 20
-58.16499999999951
 30
0.0
 11
-3.000000000000227
 21
-58.16499999999951
 31
0.0
  0
LINE
  5
3AA7
330
39DD
100
AcDbEntity
  8
KANAMONO_SCREW
100
AcDbLine
 10
2.999158339380528
 20
-58.16499999999928
 30
0.0
 11
1.874999999999772
 21
-58.16499999999928
 31
0.0
  0
LINE
  5
3AA8
330
39DD
100
AcDbEntity
  8
KANAMONO_SCREW
100
AcDbLine
 10
-1.875000000000227
 20
-56.61499999999955
 30
0.0
 11
-2.925000000000181
 21
-56.61499999999955
 31
0.0
  0
LINE
  5
3AA9
330
39DD
100
AcDbEntity
  8
KANAMONO_SCREW
100
AcDbLine
 10
1.874999999999772
 20
-58.16499999999928
 30
0.0
 11
1.874999999999772
 21
-55.56499999999937
 31
0.0
  0
LINE
  5
3AAA
330
39DD
100
AcDbEntity
  8
KANAMONO_SCREW
100
AcDbLine
 10
-1.875000000000227
 20
-58.16499999999951
 30
0.0
 11
-1.875000000000227
 21
-55.56499999999937
 31
0.0
  0
LINE
  5
3AAB
330
39DD
100
AcDbEntity
  8
KANAMONO_SCREW
100
AcDbLine
 10
-1.875000000000227
 20
-57.61499999999955
 30
0.0
 11
-2.925000000000181
 21
-57.61499999999955
 31
0.0
  0
LINE
  5
3AAC
330
39DD
100
AcDbEntity
  8
KANAMONO_SCREW
100
AcDbLine
 10
2.924999999999727
 20
-57.61499999999955
 30
0.0
 11
1.874999999999772
 21
-57.61499999999955
 31
0.0
  0
LINE
  5
3AAD
330
39DD
100
AcDbEntity
  8
KANAMONO_SCREW
100
AcDbLine
 10
-1.875000000000227
 20
-57.11499999999955
 30
0.0
 11
-2.925000000000181
 21
-57.11499999999955
 31
0.0
  0
LINE
  5
3AAE
330
39DD
100
AcDbEntity
  8
KANAMONO_SCREW
100
AcDbLine
 10
2.924999999999727
 20
-57.11499999999955
 30
0.0
 11
1.874999999999772
 21
-57.11499999999955
 31
0.0
  0
LINE
  5
3AAF
330
39DD
100
AcDbEntity
  8
KANAMONO_SCREW
100
AcDbLine
 10
2.924999999999727
 20
-56.61499999999955
 30
0.0
 11
1.874999999999772
 21
-56.61499999999955
 31
0.0
  0
LINE
  5
3AB0
330
39DD
100
AcDbEntity
  8
KANAMONO_SCREW
100
AcDbLine
 10
-1.875000000000227
 20
-56.11499999999955
 30
0.0
 11
-2.925000000000181
 21
-56.11499999999955
 31
0.0
  0
LINE
  5
3AB1
330
39DD
100
AcDbEntity
  8
KANAMONO_SCREW
100
AcDbLine
 10
2.924999999999727
 20
-56.11499999999955
 30
0.0
 11
1.874999999999772
 21
-56.11499999999955
 31
0.0
  0
LINE
  5
3AB2
330
39DD
100
AcDbEntity
  8
KANAMONO_SCREW
100
AcDbLine
 10
-3.000000000000227
 20
-55.56499999999937
 30
0.0
 11
-3.000000000000227
 21
-53.76499999999964
 31
0.0
  0
LINE
  5
3AB3
330
39DD
100
AcDbEntity
  8
KANAMONO_SCREW
100
AcDbLine
 10
2.999999999999772
 20
-55.56499999999937
 30
0.0
 11
2.999999999999772
 21
-53.76499999999964
 31
0.0
  0
LINE
  5
3AB4
330
39DD
100
AcDbEntity
  8
KANAMONO_SCREW
100
AcDbLine
 10
2.099999999999681
 20
-61.56499999999937
 30
0.0
 11
2.999999999999772
 21
-58.16499999999928
 31
0.0
  0
LINE
  5
3AB5
330
39DD
100
AcDbEntity
  8
KANAMONO_SCREW
100
AcDbLine
 10
2.099999999999681
 20
-61.56499999999937
 30
0.0
 11
-2.100000000000136
 21
-61.56499999999937
 31
0.0
  0
LINE
  5
3AB6
330
39DD
100
AcDbEntity
  8
KANAMONO_SCREW
100
AcDbLine
 10
-2.100000000000136
 20
-61.56499999999937
 30
0.0
 11
-3.000000000000227
 21
-58.16499999999951
 31
0.0
  0
LINE
  5
3AB7
330
39DD
100
AcDbEntity
  8
KANAMONO_SCREW
100
AcDbLine
 10
3.389999999999872
 20
-36.56499999999937
 30
0.0
 11
2.889999999999872
 21
-38.46499999999924
 31
0.0
  0
LINE
  5
3AB8
330
39DD
100
AcDbEntity
  8
KANAMONO_SCREW
100
AcDbLine
 10
-2.8900000000001
 20
-38.46499999999924
 30
0.0
 11
-3.3900000000001
 21
-36.5649999999996
 31
0.0
  0
ARC
  5
3AB9
330
39DD
100
AcDbEntity
  8
KANAMONO_SCREW
100
AcDbCircle
 10
7.78312947083998
 20
-59.75998416990387
 30
0.0
 40
9.382689926641683
100
AcDbArc
 50
191.0915488138293
 51
213.9505323537957
  0
ARC
  5
3ABA
330
39DD
100
AcDbEntity
  8
KANAMONO_SCREW
100
AcDbCircle
 10
-7.783129470840208
 20
-59.75998416990387
 30
0.0
 40
9.382689926641683
100
AcDbArc
 50
326.0494676462043
 51
348.9084511861707
  0
LINE
  5
3ABB
330
39DD
100
AcDbEntity
  8
KANAMONO_SCREW
100
AcDbLine
 10
4.500000000000113
 20
0.0
 30
0.0
 11
-4.5
 21
0.0
 31
0.0
  0
LINE
  5
3ABC
330
39DD
100
AcDbEntity
  8
KANAMONO_SCREW
100
AcDbLine
 10
4.500000000000113
 20
-0.7399999999997818
 30
0.0
 11
-4.5
 21
-0.7399999999997818
 31
0.0
  0
LINE
  5
3ABD
330
39DD
100
AcDbEntity
  8
KANAMONO_SCREW
100
AcDbLine
 10
4.500000000000113
 20
0.0
 30
0.0
 11
4.500000000000113
 21
-0.7399999999997818
 31
0.0
  0
LINE
  5
3ABE
330
39DD
100
AcDbEntity
  8
KANAMONO_SCREW
100
AcDbLine
 10
-4.5
 20
0.0
 30
0.0
 11
-4.5
 21
-0.7399999999997818
 31
0.0
  0
LINE
  5
3ABF
330
39DD
100
AcDbEntity
  8
KANAMONO_SCREW
100
AcDbLine
 10
3.675000000000068
 20
-1.564999999999827
 30
0.0
 11
4.500000000000113
 21
-0.7399999999997818
 31
0.0
  0
LINE
  5
3AC0
330
39DD
100
AcDbEntity
  8
KANAMONO_SCREW
100
AcDbLine
 10
-3.675000000000295
 20
-1.564999999999372
 30
0.0
 11
-4.5
 21
-0.7399999999997818
 31
0.0
  0
ENDBLK
  5
3AC1
330
39DD
100
AcDbEntity
  8
0
100
AcDbBlockEnd
  0
ENDSEC
  0
SECTION
  2
ENTITIES
  0
LINE
  5
2B92
330
1F
100
AcDbEntity
  8
moji
100
AcDbLine
 10
154.7503306999999
 20
200.0000000000001
 30
0.0
 11
329.7503306999999
 21
200.0000000000001
 31
0.0
  0
LINE
  5
2B93
330
1F
100
AcDbEntity
  8
moji
100
AcDbLine
 10
154.7503307
 20
200.0000000000001
 30
0.0
 11
154.7503306999999
 21
263.0000000000001
 31
0.0
  0
LINE
  5
2B94
330
1F
100
AcDbEntity
  8
moji
100
AcDbLine
 10
194.7503307
 20
200.0000000000001
 30
0.0
 11
194.7503306999999
 21
263.0000000000001
 31
0.0
  0
TEXT
  5
2B95
330
1F
100
AcDbEntity
  8
moji
100
AcDbText
 10
157.2503306999999
 20
208.5000000000001
 30
0.0
 40
4.0
  1
　　　　　特注
  7
MSゴシック
100
AcDbText
  0
LINE
  5
2B97
330
1F
100
AcDbEntity
  8
moji
100
AcDbLine
 10
154.7503306999999
 20
214.0000000000001
 30
0.0
 11
329.7503306999999
 21
214.0000000000001
 31
0.0
  0
TEXT
  5
2B99
330
1F
100
AcDbEntity
  8
moji
100
AcDbText
 10
157.2503306999999
 20
222.5000000000001
 30
0.0
 40
4.0
  1
表面処理　標準
  7
MSゴシック
100
AcDbText
  0
TEXT
  5
2B9A
330
1F
100
AcDbEntity
  8
moji
100
AcDbText
 10
197.2503306999999
 20
250.5000000000002
 30
0.0
 40
4.0
  1
A6063S-T5
  7
MSゴシック
100
AcDbText
  0
TEXT
  5
2B9B
330
1F
100
AcDbEntity
  8
moji
100
AcDbText
 10
157.2503306999999
 20
250.5000000000002
 30
0.0
 40
4.0
  1
材質
  7
MSゴシック
100
AcDbText
  0
LINE
  5
2B9C
330
1F
100
AcDbEntity
  8
moji
100
AcDbLine
 10
154.7503306999999
 20
249.0000000000001
 30
0.0
 11
329.7503306999999
 21
249.0000000000001
 31
0.0
  0
LINE
  5
2B9D
330
1F
100
AcDbEntity
  8
moji
100
AcDbLine
 10
154.7503306999999
 20
256.0000000000001
 30
0.0
 11
329.7503306999999
 21
256.0000000000001
 31
0.0
  0
LINE
  5
2B9F
330
1F
100
AcDbEntity
  8
moji
100
AcDbLine
 10
262.2503306999999
 20
228.0000000000002
 30
0.0
 11
262.2503307
 21
263.0000000000001
 31
0.0
  0
LINE
  5
2BA0
330
1F
100
AcDbEntity
  8
moji
100
AcDbLine
 10
329.7503307000001
 20
200.0000000000001
 30
0.0
 11
329.7503306999999
 21
263.0000000000001
 31
0.0
  0
TEXT
  5
2BA1
330
1F
100
AcDbEntity
  8
moji
100
AcDbText
 10
157.2503306999999
 20
264.5000000000002
 30
0.0
 40
4.0
  1
シングルドリッパーＳ
  7
MSゴシック
100
AcDbText
  0
LINE
  5
2BA2
330
1F
100
AcDbEntity
  8
moji
100
AcDbLine
 10
154.7503306999999
 20
263.0000000000001
 30
0.0
 11
329.7503306999999
 21
263.0000000000001
 31
0.0
  0
TEXT
  5
2BA3
330
1F
100
AcDbEntity
  8
moji
100
AcDbText
 10
197.2503306999999
 20
257.5000000000001
 30
0.0
 40
4.0
  1
本体
  7
MSゴシック
100
AcDbText
  0
TEXT
  5
2BA4
330
1F
100
AcDbEntity
  8
moji
100
AcDbText
 10
264.7503307
 20
257.5000000000001
 30
0.0
 40
4.0
  1
ジョイント板
  7
MSゴシック
100
AcDbText
  0
TEXT
  5
2BA5
330
1F
100
AcDbEntity
  8
moji
100
AcDbText
 10
264.7503307
 20
250.5
 30
0.0
 40
4.0
  1
A1050B-H24
  7
MSゴシック
100
AcDbText
  0
LINE
  5
2BA6
330
1F
100
AcDbEntity
  8
moji
100
AcDbLine
 10
154.7503307
 20
235.0000000000001
 30
0.0
 11
329.7503307000001
 21
235.0000000000001
 31
0.0
  0
LINE
  5
2BA7
330
1F
100
AcDbEntity
  8
moji
100
AcDbLine
 10
194.7503306999999
 20
242.0000000000001
 30
0.0
 11
329.7503307000001
 21
242.0000000000001
 31
0.0
  0
LINE
  5
2BA8
330
1F
100
AcDbEntity
  8
moji
100
AcDbLine
 10
228.5003307
 20
249.0000000000001
 30
0.0
 11
228.5003307
 21
235.0000000000001
 31
0.0
  0
LINE
  5
2BA9
330
1F
100
AcDbEntity
  8
moji
100
AcDbLine
 10
296.0003307
 20
249.0000000000001
 30
0.0
 11
296.0003307
 21
235.0000000000001
 31
0.0
  0
LINE
  5
2BAA
330
1F
100
AcDbEntity
  8
moji
100
AcDbLine
 10
154.7503307
 20
228.0000000000002
 30
0.0
 11
329.7503307000001
 21
228.0000000000002
 31
0.0
  0
TEXT
  5
2BAB
330
1F
100
AcDbEntity
  8
moji
100
AcDbText
 10
157.2503306999999
 20
243.5000000000001
 30
0.0
 40
4.0
  1
規格(mm)
  7
MSゴシック
100
AcDbText
  0
TEXT
  5
2BAC
330
1F
100
AcDbEntity
  8
moji
100
AcDbText
 10
197.2503307
 20
243.5000000000001
 30
0.0
 40
4.0
  1
長さ
  7
MSゴシック
100
AcDbText
  0
TEXT
  5
2BAD
330
1F
100
AcDbEntity
  8
moji
100
AcDbText
 10
231.0003307
 20
243.5000000000001
 30
0.0
 40
4.0
  1
厚さ
  7
MSゴシック
100
AcDbText
  0
TEXT
  5
2BAE
330
1F
100
AcDbEntity
  8
moji
100
AcDbText
 10
197.2503306999999
 20
236.5000000000001
 30
0.0
 40
4.0
  1
2000
  7
MSゴシック
100
AcDbText
  0
TEXT
  5
2BAF
330
1F
100
AcDbEntity
  8
moji
100
AcDbText
 10
231.0003307
 20
236.5000000000001
 30
0.0
 40
4.0
  1
1.4
  7
MSゴシック
100
AcDbText
  0
TEXT
  5
2BB0
330
1F
100
AcDbEntity
  8
moji
100
AcDbText
 10
264.7503307
 20
243.5
 30
0.0
 40
4.0
  1
長さ
  7
MSゴシック
100
AcDbText
  0
TEXT
  5
2BB1
330
1F
100
AcDbEntity
  8
moji
100
AcDbText
 10
264.7503307
 20
236.5000000000001
 30
0.0
 40
4.0
  1
80
  7
MSゴシック
100
AcDbText
  0
TEXT
  5
2BB2
330
1F
100
AcDbEntity
  8
moji
100
AcDbText
 10
298.5003306999999
 20
243.5
 30
0.0
 40
4.0
  1
厚さ
  7
MSゴシック
100
AcDbText
  0
TEXT
  5
2BB3
330
1F
100
AcDbEntity
  8
moji
100
AcDbText
 10
298.5003306999999
 20
236.5000000000001
 30
0.0
 40
4.0
  1
0.6
  7
MSゴシック
100
AcDbText
  0
TEXT
  5
2BB4
330
1F
100
AcDbEntity
  8
moji
100
AcDbText
 10
157.2503307
 20
229.5000000000001
 30
0.0
 40
4.0
  1
ビス穴
  7
MSゴシック
100
AcDbText
  0
TEXT
  5
2BB5
330
1F
100
AcDbEntity
  8
moji
100
AcDbText
 10
197.2503307
 20
229.5000000000001
 30
0.0
 40
4.0
  1
7穴　300mm間隔
  7
MSゴシック
100
AcDbText
  0
TEXT
  5
2DFB
330
1F
100
AcDbEntity
  8
moji
100
AcDbText
 10
197.2503306999999
 20
201.5000000000001
 30
0.0
 40
4.0
  1
アクリル樹脂系塗装（デュラクロン他）
  7
MSゴシック
100
AcDbText
  0
TEXT
  5
2DFC
330
1F
100
AcDbEntity
  8
moji
100
AcDbText
 10
197.2503306999999
 20
208.5000000000001
 30
0.0
 40
4.0
  1
2次電解着色（ブロンズ）
  7
MSゴシック
100
AcDbText
  0
TEXT
  5
2DFD
330
1F
100
AcDbEntity
  8
moji
100
AcDbText
 10
197.2503306999999
 20
222.5
 30
0.0
 40
4.0
  1
JIS H 8602-2010 A1種
  7
MSゴシック
100
AcDbText
  0
LINE
  5
2F14
330
1F
100
AcDbEntity
  8
0
100
AcDbLine
 10
0.0
 20
369.9999999999997
 30
0.0
 11
552.0000000000001
 21
369.999999999999
 31
0.0
  0
TEXT
  5
2F15
330
1F
100
AcDbEntity
  8
WAKU
100
AcDbText
 10
537.3045685279189
 20
372.0000000000001
 30
0.0
 40
6.0
  1
sds
  7
MSゴシック
 72
     2
 11
549.0000000000001
 21
372.0000000000001
 31
0.0
100
AcDbText
  0
TEXT
  5
2F17
330
1F
100
AcDbEntity
  8
WAKU
100
AcDbText
 10
3.0
 20
372.0000000000001
 30
0.0
 40
8.0
  1
アルミ雨仕舞材／勾配屋根用
  7
MSゴシック
100
AcDbText
  0
TEXT
  5
2F18
330
1F
100
AcDbEntity
  8
WAKU
100
AcDbText
 10
3.0
 20
360.0000000000008
 30
0.0
 40
6.0
  1
シングルドリッパーＳ／軒先アルミ金物
  7
MSゴシック
100
AcDbText
  0
TEXT
  5
2F19
330
1F
100
AcDbEntity
  8
WAKU
100
AcDbText
 10
521.7106598984773
 20
360.000000000001
 30
0.0
 40
6.0
  1
1/2(A4)
  7
MSゴシック
 72
     2
 11
549.0000000000001
 21
360.000000000001
 31
0.0
100
AcDbText
  0
LINE
  5
3B6E
330
1F
100
AcDbEntity
  8
0
100
AcDbLine
 10
96.00000000000001
 20
59.00000000000003
 30
0.0
 11
456.0
 21
59.00000000000003
 31
0.0
  0
LINE
  5
3B6F
330
1F
100
AcDbEntity
  8
0
100
AcDbLine
 10
456.0
 20
59.00000000000003
 30
0.0
 11
456.0
 21
299.0
 31
0.0
  0
LINE
  5
3B70
330
1F
100
AcDbEntity
  8
0
100
AcDbLine
 10
456.0
 20
299.0
 30
0.0
 11
96.00000000000001
 21
299.0
 31
0.0
  0
LINE
  5
3B71
330
1F
100
AcDbEntity
  8
0
100
AcDbLine
 10
96.00000000000001
 20
299.0
 30
0.0
 11
96.00000000000001
 21
59.00000000000003
 31
0.0
  0
LINE
  5
3B72
330
1F
100
AcDbEntity
  8
SUNPO
100
AcDbLine
 10
230.0000568477983
 20
154.0636749201966
 30
0.0
 11
230.0000568477983
 21
166.2983250471409
 31
0.0
  0
LINE
  5
3B73
330
1F
100
AcDbEntity
  8
SUNPO
100
AcDbLine
 10
350.0000568477983
 20
153.1636749201966
 30
0.0
 11
350.0000568477983
 21
166.2983250471409
 31
0.0
  0
LINE
  5
3B74
330
1F
100
AcDbEntity
  8
SUNPO
100
AcDbLine
 10
231.6000568477983
 20
166.2983250471409
 30
0.0
 11
348.4000568477983
 21
166.2983250471409
 31
0.0
  0
INSERT
  5
3B75
330
1F
100
AcDbEntity
  8
SUNPO
100
AcDbBlockReference
  2
_DOT
 10
230.0000568477983
 20
166.2983250471409
 30
0.0
 41
1.6
 42
1.6
 43
1.6
 50
180.0
  0
INSERT
  5
3B76
330
1F
100
AcDbEntity
  8
SUNPO
100
AcDbBlockReference
  2
_DOT
 10
350.0000568477983
 20
166.2983250471409
 30
0.0
 41
1.6
 42
1.6
 43
1.6
  0
MTEXT
  5
3B77
330
1F
100
AcDbEntity
  8
SUNPO
100
AcDbMText
 10
290.0000568477983
 20
168.4983250471409
 30
0.0
 40
4.0
 41
0.0
 71
     5
 72
     1
  1
\A1;120
  7
MSゴシック
 73
     1
 44
1.0
1001
ACAD
1000
MTEXTBEGIN
1070
    73
1070
     1
1070
    44
1040
1.0
1070
    74
1070
     0
1000
MTEXTEND
  0
LINE
  5
3B78
330
1F
100
AcDbEntity
  8
SUNPO
100
AcDbLine
 10
215.0000568477983
 20
154.0636749201966
 30
0.0
 11
215.0000568477983
 21
177.2898261091724
 31
0.0
  0
LINE
  5
3B79
330
1F
100
AcDbEntity
  8
SUNPO
100
AcDbLine
 10
350.0000568477983
 20
153.1636749201966
 30
0.0
 11
350.0000568477983
 21
177.2898261091724
 31
0.0
  0
LINE
  5
3B7A
330
1F
100
AcDbEntity
  8
SUNPO
100
AcDbLine
 10
216.6000568477983
 20
177.2898261091724
 30
0.0
 11
348.4000568477983
 21
177.2898261091724
 31
0.0
  0
INSERT
  5
3B7B
330
1F
100
AcDbEntity
  8
SUNPO
100
AcDbBlockReference
  2
_DOT
 10
215.0000568477983
 20
177.2898261091724
 30
0.0
 41
1.6
 42
1.6
 43
1.6
 50
180.0
  0
INSERT
  5
3B7C
330
1F
100
AcDbEntity
  8
SUNPO
100
AcDbBlockReference
  2
_DOT
 10
350.0000568477983
 20
177.2898261091724
 30
0.0
 41
1.6
 42
1.6
 43
1.6
  0
MTEXT
  5
3B7D
330
1F
100
AcDbEntity
  8
SUNPO
100
AcDbMText
 10
282.5000568477983
 20
179.4898261091724
 30
0.0
 40
4.0
 41
0.0
 71
     5
 72
     1
  1
\A1;135
  7
MSゴシック
 73
     1
 44
1.0
1001
ACAD
1000
MTEXTBEGIN
1070
    73
1070
     1
1070
    44
1040
1.0
1070
    74
1070
     0
1000
MTEXTEND
  0
LINE
  5
3B7E
330
1F
100
AcDbEntity
  8
SUNPO
100
AcDbLine
 10
228.0000568477984
 20
102.0636749201967
 30
0.0
 11
202.0350228477987
 21
102.0636749201967
 31
0.0
  0
LINE
  5
3B7F
330
1F
100
AcDbEntity
  8
SUNPO
100
AcDbLine
 10
213.0000568477984
 20
152.0636749201967
 30
0.0
 11
202.0350228477987
 21
152.0636749201967
 31
0.0
  0
LINE
  5
3B80
330
1F
100
AcDbEntity
  8
SUNPO
100
AcDbLine
 10
202.0350228477987
 20
103.6636749201967
 30
0.0
 11
202.0350228477987
 21
150.4636749201967
 31
0.0
  0
INSERT
  5
3B81
330
1F
100
AcDbEntity
  8
SUNPO
100
AcDbBlockReference
  2
_DOT
 10
202.0350228477987
 20
102.0636749201967
 30
0.0
 41
1.6
 42
1.6
 43
1.6
 50
270.0
  0
INSERT
  5
3B82
330
1F
100
AcDbEntity
  8
SUNPO
100
AcDbBlockReference
  2
_DOT
 10
202.0350228477987
 20
152.0636749201967
 30
0.0
 41
1.6
 42
1.6
 43
1.6
 50
90.0
  0
MTEXT
  5
3B83
330
1F
100
AcDbEntity
  8
SUNPO
100
AcDbMText
 10
199.8350228477987
 20
127.0636749201966
 30
0.0
 40
4.0
 41
0.0
 71
     5
 72
     1
  1
\A1;50
  7
MSゴシック
 11
0.0000000000000001
 21
1.0
 31
0.0
 73
     1
 44
1.0
1001
ACAD
1000
MTEXTBEGIN
1070
    73
1070
     1
1070
    44
1040
1.0
1070
    74
1070
     0
1000
MTEXTEND
  0
LINE
  5
3B84
330
1F
100
AcDbEntity
  8
SUNPO
100
AcDbLine
 10
215.0000568477983
 20
154.0636749201966
 30
0.0
 11
215.0000568477983
 21
166.2983250471409
 31
0.0
  0
LINE
  5
3B85
330
1F
100
AcDbEntity
  8
SUNPO
100
AcDbLine
 10
230.0000568477983
 20
154.0636749201966
 30
0.0
 11
230.0000568477983
 21
166.2983250471409
 31
0.0
  0
LINE
  5
3B86
330
1F
100
AcDbEntity
  8
SUNPO
100
AcDbLine
 10
216.6000568477983
 20
166.2983250471409
 30
0.0
 11
228.4000568477983
 21
166.2983250471409
 31
0.0
  0
MTEXT
  5
3B87
330
1F
100
AcDbEntity
  8
SUNPO
100
AcDbMText
 10
223.765886398973
 20
169.8722629455854
 30
0.0
 40
4.0
 41
0.0
 71
     5
 72
     1
  1
\A1;15
  7
MSゴシック
 73
     1
 44
1.0
1001
ACAD
1000
MTEXTBEGIN
1070
    73
1070
     1
1070
    44
1040
1.0
1070
    74
1070
     0
1000
MTEXTEND
  0
INSERT
  5
3B88
330
1F
100
AcDbEntity
  8
SUNPO
100
AcDbBlockReference
  2
_DOT
 10
215.0000568477983
 20
166.2983250471409
 30
0.0
 41
1.6
 42
1.6
 43
1.6
 50
180.0
  0
INSERT
  5
3B89
330
1F
100
AcDbEntity
  8
SUNPO
100
AcDbBlockReference
  2
_DOT
 10
230.0000568477983
 20
166.2983250471409
 30
0.0
 41
1.6
 42
1.6
 43
1.6
  0
LINE
  5
3B8A
330
1F
100
AcDbEntity
  8
WAKU
100
AcDbLine
 10
0.0
 20
0.0
 30
0.0
 11
552.0000000000001
 21
0.0
 31
0.0
  0
LINE
  5
3B8B
330
1F
100
AcDbEntity
  8
WAKU
100
AcDbLine
 10
552.0000000000001
 20
0.0
 30
0.0
 11
552.0000000000001
 21
382.0000000000001
 31
0.0
  0
LINE
  5
3B8C
330
1F
100
AcDbEntity
  8
WAKU
100
AcDbLine
 10
552.0000000000001
 20
382.0000000000001
 30
0.0
 11
0.0
 21
382.0000000000001
 31
0.0
  0
LINE
  5
3B8D
330
1F
100
AcDbEntity
  8
WAKU
100
AcDbLine
 10
0.0
 20
382.0000000000001
 30
0.0
 11
0.0
 21
0.0
 31
0.0
  0
LINE
  5
3B8E
330
1F
100
AcDbEntity
  8
WAKU
100
AcDbLine
 10
552.0000000000001
 20
358.0
 30
0.0
 11
0.0
 21
358.0
 31
0.0
  0
LINE
  5
3B8F
330
1F
100
AcDbEntity
  8
WAKU
100
AcDbLine
 10
0.0
 20
358.0
 30
0.0
 11
0.0
 21
382.0000000000001
 31
0.0
  0
LINE
  5
3B90
330
1F
100
AcDbEntity
  8
WAKU
100
AcDbLine
 10
0.0
 20
382.0000000000001
 30
0.0
 11
552.0000000000001
 21
382.0000000000001
 31
0.0
  0
LINE
  5
3B91
330
1F
100
AcDbEntity
  8
WAKU
100
AcDbLine
 10
552.0000000000001
 20
382.0000000000001
 30
0.0
 11
552.0000000000001
 21
358.0
 31
0.0
  0
LINE
  5
3B92
330
1F
100
AcDbEntity
  8
KANAMONO
100
AcDbLine
 10
305.2121888821542
 20
151.8515428858407
 30
0.0
 11
305.4243209165103
 21
152.0636749201966
 31
0.0
  0
LINE
  5
3B93
330
1F
100
AcDbEntity
  8
KANAMONO
100
AcDbLine
 10
305.4243209165103
 20
152.0636749201966
 30
0.0
 11
334.5757927790864
 21
152.0636749201966
 31
0.0
  0
LINE
  5
3B94
330
1F
100
AcDbEntity
  8
KANAMONO
100
AcDbLine
 10
334.5757927790864
 20
152.0636749201966
 30
0.0
 11
334.7879248134424
 21
151.8515428858407
 31
0.0
  0
ARC
  5
3B95
330
1F
100
AcDbEntity
  8
KANAMONO
100
AcDbCircle
 10
335.0000568477983
 20
152.0636749201967
 30
0.0
 40
0.2999999999999944
100
AcDbArc
 50
225.0000000000077
 51
314.9999999999923
  0
LINE
  5
3B96
330
1F
100
AcDbEntity
  8
KANAMONO
100
AcDbLine
 10
335.2121888821542
 20
151.8515428858407
 30
0.0
 11
335.4243209165103
 21
152.0636749201966
 31
0.0
  0
LINE
  5
3B97
330
1F
100
AcDbEntity
  8
KANAMONO
100
AcDbLine
 10
335.4243209165103
 20
152.0636749201966
 30
0.0
 11
345.0000568477983
 21
152.0636749201966
 31
0.0
  0
LINE
  5
3B98
330
1F
100
AcDbEntity
  8
KANAMONO
100
AcDbLine
 10
345.0000568477983
 20
152.0636749201966
 30
0.0
 11
349.5441123582937
 21
151.6617302504513
 31
0.0
  0
ARC
  5
3B99
330
1F
100
AcDbEntity
  8
KANAMONO
100
AcDbCircle
 10
349.5000568477983
 20
151.1636749201967
 30
0.0
 40
0.5000000000000263
100
AcDbArc
 50
270.0
 51
84.94505520234993
  0
LINE
  5
3B9A
330
1F
100
AcDbEntity
  8
KANAMONO
100
AcDbLine
 10
349.5000568477983
 20
150.6636749201966
 30
0.0
 11
232.3000568477983
 21
150.6636749201966
 31
0.0
  0
ARC
  5
3B9B
330
1F
100
AcDbEntity
  8
KANAMONO
100
AcDbCircle
 10
232.3000568477983
 20
150.3636749201966
 30
0.0
 40
0.3000000000000114
100
AcDbArc
 50
90.0
 51
180.0
  0
LINE
  5
3B9C
330
1F
100
AcDbEntity
  8
KANAMONO
100
AcDbLine
 10
232.0000568477983
 20
150.3636749201966
 30
0.0
 11
232.0000568477983
 21
127.0636749201966
 31
0.0
  0
LINE
  5
3B9D
330
1F
100
AcDbEntity
  8
KANAMONO
100
AcDbLine
 10
232.0000568477983
 20
127.0636749201966
 30
0.0
 11
231.7000568477983
 21
126.7636749201967
 31
0.0
  0
LINE
  5
3B9E
330
1F
100
AcDbEntity
  8
KANAMONO
100
AcDbLine
 10
231.7000568477983
 20
126.7636749201967
 30
0.0
 11
231.7000568477983
 21
103.9636749201967
 31
0.0
  0
ARC
  5
3B9F
330
1F
100
AcDbEntity
  8
KANAMONO
100
AcDbCircle
 10
232.0000568477983
 20
103.9636749201966
 30
0.0
 40
0.2999999999999829
100
AcDbArc
 50
179.9999999999945
 51
269.9999999999945
  0
LINE
  5
3BA0
330
1F
100
AcDbEntity
  8
KANAMONO
100
AcDbLine
 10
232.0000568477983
 20
103.6636749201967
 30
0.0
 11
232.7000568477983
 21
103.6636749201967
 31
0.0
  0
ARC
  5
3BA1
330
1F
100
AcDbEntity
  8
KANAMONO
100
AcDbCircle
 10
232.7000568477983
 20
103.9636749201967
 30
0.0
 40
0.3000000000000114
100
AcDbArc
 50
270.0
 51
0.0
  0
LINE
  5
3BA2
330
1F
100
AcDbEntity
  8
KANAMONO
100
AcDbLine
 10
233.0000568477983
 20
103.9636749201967
 30
0.0
 11
233.0000568477983
 21
105.1636749201967
 31
0.0
  0
ARC
  5
3BA3
330
1F
100
AcDbEntity
  8
KANAMONO
100
AcDbCircle
 10
235.5000568477983
 20
105.1636749201967
 30
0.0
 40
2.499999999999971
100
AcDbArc
 50
118.0724869358527
 51
180.0
  0
ARC
  5
3BA4
330
1F
100
AcDbEntity
  8
KANAMONO
100
AcDbCircle
 10
234.7000568477983
 20
106.6636749201967
 30
0.0
 40
0.7999999999999847
100
AcDbArc
 50
298.0724869358534
 51
118.0724869358534
  0
ARC
  5
3BA5
330
1F
100
AcDbEntity
  8
KANAMONO
100
AcDbCircle
 10
235.5000568477983
 20
105.1636749201967
 30
0.0
 40
0.9000000000000072
100
AcDbArc
 50
118.0724869358515
 51
180.0
  0
LINE
  5
3BA6
330
1F
100
AcDbEntity
  8
KANAMONO
100
AcDbLine
 10
234.6000568477982
 20
105.1636749201967
 30
0.0
 11
234.6000568477982
 21
102.3636749201966
 31
0.0
  0
ARC
  5
3BA7
330
1F
100
AcDbEntity
  8
KANAMONO
100
AcDbCircle
 10
234.3000568477983
 20
102.3636749201966
 30
0.0
 40
0.2999999999999829
100
AcDbArc
 50
270.0000000000054
 51
0.0000000000054281
  0
LINE
  5
3BA8
330
1F
100
AcDbEntity
  8
KANAMONO
100
AcDbLine
 10
234.3000568477983
 20
102.0636749201966
 30
0.0
 11
230.3000568477983
 21
102.0636749201966
 31
0.0
  0
ARC
  5
3BA9
330
1F
100
AcDbEntity
  8
KANAMONO
100
AcDbCircle
 10
230.3000568477983
 20
102.3636749201966
 30
0.0
 40
0.2999999999999829
100
AcDbArc
 50
179.9999999999945
 51
269.9999999999945
  0
LINE
  5
3BAA
330
1F
100
AcDbEntity
  8
KANAMONO
100
AcDbLine
 10
230.0000568477984
 20
102.3636749201966
 30
0.0
 11
230.0000568477983
 21
149.7636749201967
 31
0.0
  0
ARC
  5
3BAB
330
1F
100
AcDbEntity
  8
KANAMONO
100
AcDbCircle
 10
229.7000568477983
 20
149.7636749201967
 30
0.0
 40
0.2999999999999829
100
AcDbArc
 50
0.0000000000054281
 51
90.00000000000543
  0
LINE
  5
3BAC
330
1F
100
AcDbEntity
  8
KANAMONO
100
AcDbLine
 10
229.7000568477983
 20
150.0636749201966
 30
0.0
 11
215.3000568477982
 21
150.0636749201966
 31
0.0
  0
ARC
  5
3BAD
330
1F
100
AcDbEntity
  8
KANAMONO
100
AcDbCircle
 10
215.3000568477983
 20
150.3636749201967
 30
0.0
 40
0.3000000000000398
100
AcDbArc
 50
179.9999999999945
 51
269.9999999999945
  0
LINE
  5
3BAE
330
1F
100
AcDbEntity
  8
KANAMONO
100
AcDbLine
 10
215.0000568477982
 20
150.3636749201967
 30
0.0
 11
215.0000568477983
 21
151.7636749201967
 31
0.0
  0
ARC
  5
3BAF
330
1F
100
AcDbEntity
  8
KANAMONO
100
AcDbCircle
 10
215.3000568477982
 20
151.7636749201967
 30
0.0
 40
0.2999999999999829
100
AcDbArc
 50
89.99999999999458
 51
179.9999999999945
  0
LINE
  5
3BB0
330
1F
100
AcDbEntity
  8
KANAMONO
100
AcDbLine
 10
215.3000568477983
 20
152.0636749201966
 30
0.0
 11
304.5757927790864
 21
152.0636749201966
 31
0.0
  0
LINE
  5
3BB1
330
1F
100
AcDbEntity
  8
KANAMONO
100
AcDbLine
 10
304.5757927790864
 20
152.0636749201966
 30
0.0
 11
304.7879248134424
 21
151.8515428858407
 31
0.0
  0
ARC
  5
3BB2
330
1F
100
AcDbEntity
  8
KANAMONO
100
AcDbCircle
 10
305.0000568477983
 20
152.0636749201967
 30
0.0
 40
0.2999999999999944
100
AcDbArc
 50
225.0000000000077
 51
314.9999999999923
  0
LINE
  5
3BB3
330
1F
100
AcDbEntity
  8
KANAMONO_SCREW
100
AcDbLine
 10
307.7900568477979
 20
122.5136749201967
 30
0.0
 11
307.7900568477979
 21
151.2136749201967
 31
0.0
  0
LINE
  5
3BB4
330
1F
100
AcDbEntity
  8
KANAMONO_SCREW
100
AcDbLine
 10
302.2100568477981
 20
122.5136749201967
 30
0.0
 11
302.2100568478022
 21
151.2136749201967
 31
0.0
  0
LINE
  5
3BB5
330
1F
100
AcDbEntity
  8
KANAMONO_SCREW
100
AcDbLine
 10
305.2500568477981
 20
143.5136749201967
 30
0.0
 11
305.2500568477981
 21
151.2136749201962
 31
0.0
  0
LINE
  5
3BB6
330
1F
100
AcDbEntity
  8
KANAMONO_SCREW
100
AcDbLine
 10
308.390056847799
 20
145.4136749202002
 30
0.0
 11
307.7900568477979
 21
143.5136749201967
 31
0.0
  0
LINE
  5
3BB7
330
1F
100
AcDbEntity
  8
KANAMONO_SCREW
100
AcDbLine
 10
302.2100568477981
 20
143.5136749201967
 30
0.0
 11
301.6100568477991
 21
145.4136749201929
 31
0.0
  0
LINE
  5
3BB8
330
1F
100
AcDbEntity
  8
KANAMONO_SCREW
100
AcDbLine
 10
305.2500568477981
 20
143.5136749201967
 30
0.0
 11
305.000056847798
 21
145.4136749201929
 31
0.0
  0
LINE
  5
3BB9
330
1F
100
AcDbEntity
  8
KANAMONO_SCREW
100
AcDbLine
 10
305.0000568477967
 20
145.4136749201954
 30
0.0
 11
304.7500568478016
 21
143.5136749202007
 31
0.0
  0
LINE
  5
3BBA
330
1F
100
AcDbEntity
  8
KANAMONO_SCREW
100
AcDbLine
 10
304.7500568478016
 20
143.5136749202007
 30
0.0
 11
304.7500568478039
 21
151.2136749201849
 31
0.0
  0
LINE
  5
3BBB
330
1F
100
AcDbEntity
  8
KANAMONO_SCREW
100
AcDbLine
 10
305.0000568477967
 20
145.4136749201954
 30
0.0
 11
305.0000568477983
 21
150.7136749201849
 31
0.0
  0
LINE
  5
3BBC
330
1F
100
AcDbEntity
  8
KANAMONO_SCREW
100
AcDbLine
 10
308.390056847799
 20
145.4136749202002
 30
0.0
 11
308.3900568478006
 21
150.7136749201969
 31
0.0
  0
LINE
  5
3BBD
330
1F
100
AcDbEntity
  8
KANAMONO_SCREW
100
AcDbLine
 10
301.6100568477991
 20
145.4136749201929
 30
0.0
 11
301.6100568478008
 21
150.7136749201965
 31
0.0
  0
LINE
  5
3BBE
330
1F
100
AcDbEntity
  8
KANAMONO_SCREW
100
AcDbLine
 10
308.3900568478006
 20
150.7136749201969
 30
0.0
 11
307.7900568478008
 21
151.2136749201967
 31
0.0
  0
LINE
  5
3BBF
330
1F
100
AcDbEntity
  8
KANAMONO_SCREW
100
AcDbLine
 10
302.2100568478007
 20
151.2136749201967
 30
0.0
 11
301.6100568478008
 21
150.7136749201965
 31
0.0
  0
LINE
  5
3BC0
330
1F
100
AcDbEntity
  8
KANAMONO_SCREW
100
AcDbLine
 10
305.2500568477981
 20
151.2136749201962
 30
0.0
 11
305.0000568477983
 21
150.7136749201965
 31
0.0
  0
LINE
  5
3BC1
330
1F
100
AcDbEntity
  8
KANAMONO_SCREW
100
AcDbLine
 10
305.0000568477983
 20
150.7136749201965
 30
0.0
 11
304.7500568478039
 21
151.2136749201849
 31
0.0
  0
LINE
  5
3BC2
330
1F
100
AcDbEntity
  8
KANAMONO_SCREW
100
AcDbLine
 10
307.8900568477984
 20
151.2136749201967
 30
0.0
 11
302.1100568477983
 21
151.2136749201967
 31
0.0
  0
LINE
  5
3BC3
330
1F
100
AcDbEntity
  8
KANAMONO_SCREW
100
AcDbLine
 10
307.8900568477984
 20
151.2136749201967
 30
0.0
 11
308.6750568477983
 21
152.0636749201966
 31
0.0
  0
LINE
  5
3BC4
330
1F
100
AcDbEntity
  8
KANAMONO_SCREW
100
AcDbLine
 10
302.1100568477983
 20
151.2136749201967
 30
0.0
 11
301.3250568477982
 21
152.0636749201964
 31
0.0
  0
LINE
  5
3BC5
330
1F
100
AcDbEntity
  8
KANAMONO_SCREW
100
AcDbLine
 10
308.6750568477983
 20
152.0636749201966
 30
0.0
 11
301.3250568477982
 21
152.0636749201964
 31
0.0
  0
LINE
  5
3BC6
330
1F
100
AcDbEntity
  8
KANAMONO_SCREW
100
AcDbLine
 10
308.6750568477983
 20
152.0636749201966
 30
0.0
 11
308.6750568477983
 21
152.5136749201966
 31
0.0
  0
LINE
  5
3BC7
330
1F
100
AcDbEntity
  8
KANAMONO_SCREW
100
AcDbLine
 10
308.6750568477983
 20
152.5136749201966
 30
0.0
 11
301.3250568477982
 21
152.5136749201966
 31
0.0
  0
LINE
  5
3BC8
330
1F
100
AcDbEntity
  8
KANAMONO_SCREW
100
AcDbLine
 10
301.3250568477982
 20
152.0636749201964
 30
0.0
 11
301.3250568477982
 21
152.5136749201966
 31
0.0
  0
ARC
  5
3BC9
330
1F
100
AcDbEntity
  8
KANAMONO_SCREW
100
AcDbCircle
 10
306.250056847798
 20
123.2136749201965
 30
0.0
 40
0.5999999999999998
100
AcDbArc
 50
270.0
 51
0.0
  0
LINE
  5
3BCA
330
1F
100
AcDbEntity
  8
KANAMONO_SCREW
100
AcDbLine
 10
306.850056847798
 20
123.2136749201965
 30
0.0
 11
306.850056847798
 21
131.4136749201967
 31
0.0
  0
ARC
  5
3BCB
330
1F
100
AcDbEntity
  8
KANAMONO_SCREW
100
AcDbCircle
 10
303.750056847798
 20
123.2136749201965
 30
0.0
 40
0.5999999999999998
100
AcDbArc
 50
180.0
 51
270.0
  0
LINE
  5
3BCC
330
1F
100
AcDbEntity
  8
KANAMONO_SCREW
100
AcDbLine
 10
303.1500568477978
 20
123.2136749201965
 30
0.0
 11
303.1500568477978
 21
131.4136749201967
 31
0.0
  0
LINE
  5
3BCD
330
1F
100
AcDbEntity
  8
KANAMONO_SCREW
100
AcDbLine
 10
303.750056847798
 20
122.6136749201966
 30
0.0
 11
306.250056847798
 21
122.6136749201966
 31
0.0
  0
LINE
  5
3BCE
330
1F
100
AcDbEntity
  8
KANAMONO_SCREW
100
AcDbLine
 10
308.390056847798
 20
130.0136749201969
 30
0.0
 11
307.7900568477982
 21
130.5136749201966
 31
0.0
  0
LINE
  5
3BCF
330
1F
100
AcDbEntity
  8
KANAMONO_SCREW
100
AcDbLine
 10
308.390056847798
 20
117.5136749201967
 30
0.0
 11
308.390056847798
 21
130.0136749201969
 31
0.0
  0
LINE
  5
3BD0
330
1F
100
AcDbEntity
  8
KANAMONO_SCREW
100
AcDbLine
 10
302.2100568477982
 20
130.5136749201966
 30
0.0
 11
301.6100568477981
 21
130.0136749201964
 31
0.0
  0
LINE
  5
3BD1
330
1F
100
AcDbEntity
  8
KANAMONO_SCREW
100
AcDbLine
 10
301.6100568477981
 20
117.5136749201964
 30
0.0
 11
301.6100568477981
 21
130.0136749201964
 31
0.0
  0
ARC
  5
3BD2
330
1F
100
AcDbEntity
  8
KANAMONO_SCREW
100
AcDbCircle
 10
306.250056847798
 20
131.4136749201967
 30
0.0
 40
0.5999999999999998
100
AcDbArc
 50
0.0
 51
90.0
  0
LINE
  5
3BD3
330
1F
100
AcDbEntity
  8
KANAMONO_SCREW
100
AcDbLine
 10
306.250056847798
 20
132.0136749201967
 30
0.0
 11
303.750056847798
 21
132.0136749201967
 31
0.0
  0
ARC
  5
3BD4
330
1F
100
AcDbEntity
  8
KANAMONO_SCREW
100
AcDbCircle
 10
303.750056847798
 20
131.4136749201967
 30
0.0
 40
0.5999999999999998
100
AcDbArc
 50
90.0
 51
180.0
  0
LINE
  5
3BD5
330
1F
100
AcDbEntity
  8
KANAMONO_SCREW
100
AcDbLine
 10
307.8900568477981
 20
120.7136749201965
 30
0.0
 11
307.8900568477981
 21
122.5136749201967
 31
0.0
  0
LINE
  5
3BD6
330
1F
100
AcDbEntity
  8
KANAMONO_SCREW
100
AcDbLine
 10
307.8900568477981
 20
115.3136749201964
 30
0.0
 11
307.8900568477981
 21
117.1136749201968
 31
0.0
  0
LINE
  5
3BD7
330
1F
100
AcDbEntity
  8
KANAMONO_SCREW
100
AcDbLine
 10
302.1100568477981
 20
120.7136749201965
 30
0.0
 11
302.1100568477981
 21
122.5136749201967
 31
0.0
  0
LINE
  5
3BD8
330
1F
100
AcDbEntity
  8
KANAMONO_SCREW
100
AcDbLine
 10
302.1100568477981
 20
115.3136749201964
 30
0.0
 11
302.1100568477981
 21
117.1136749201968
 31
0.0
  0
LINE
  5
3BD9
330
1F
100
AcDbEntity
  8
KANAMONO_SCREW
100
AcDbLine
 10
307.7900568477979
 20
117.7136749201967
 30
0.0
 11
307.000056847798
 21
117.7136749201967
 31
0.0
  0
LINE
  5
3BDA
330
1F
100
AcDbEntity
  8
KANAMONO_SCREW
100
AcDbLine
 10
307.7900568477979
 20
117.1136749201968
 30
0.0
 11
307.7900568477979
 21
120.7136749201965
 31
0.0
  0
LINE
  5
3BDB
330
1F
100
AcDbEntity
  8
KANAMONO_SCREW
100
AcDbLine
 10
307.7900568477979
 20
118.2136749201967
 30
0.0
 11
307.000056847798
 21
118.2136749201967
 31
0.0
  0
LINE
  5
3BDC
330
1F
100
AcDbEntity
  8
KANAMONO_SCREW
100
AcDbLine
 10
307.7900568477979
 20
118.7136749201967
 30
0.0
 11
307.000056847798
 21
118.7136749201967
 31
0.0
  0
LINE
  5
3BDD
330
1F
100
AcDbEntity
  8
KANAMONO_SCREW
100
AcDbLine
 10
307.7900568477979
 20
119.2136749201967
 30
0.0
 11
307.000056847798
 21
119.2136749201967
 31
0.0
  0
LINE
  5
3BDE
330
1F
100
AcDbEntity
  8
KANAMONO_SCREW
100
AcDbLine
 10
307.7900568477979
 20
119.7136749201967
 30
0.0
 11
307.000056847798
 21
119.7136749201967
 31
0.0
  0
LINE
  5
3BDF
330
1F
100
AcDbEntity
  8
KANAMONO_SCREW
100
AcDbLine
 10
307.7900568477979
 20
120.2136749201967
 30
0.0
 11
307.000056847798
 21
120.2136749201967
 31
0.0
  0
LINE
  5
3BE0
330
1F
100
AcDbEntity
  8
KANAMONO_SCREW
100
AcDbLine
 10
303.000056847798
 20
117.7136749201967
 30
0.0
 11
302.2100568477982
 21
117.7136749201967
 31
0.0
  0
LINE
  5
3BE1
330
1F
100
AcDbEntity
  8
KANAMONO_SCREW
100
AcDbLine
 10
303.000056847798
 20
118.2136749201967
 30
0.0
 11
302.2100568477982
 21
118.2136749201967
 31
0.0
  0
LINE
  5
3BE2
330
1F
100
AcDbEntity
  8
KANAMONO_SCREW
100
AcDbLine
 10
302.2100568477982
 20
117.1136749201968
 30
0.0
 11
302.2100568477981
 21
120.7136749201965
 31
0.0
  0
LINE
  5
3BE3
330
1F
100
AcDbEntity
  8
KANAMONO_SCREW
100
AcDbLine
 10
303.000056847798
 20
118.7136749201967
 30
0.0
 11
302.2100568477981
 21
118.7136749201967
 31
0.0
  0
LINE
  5
3BE4
330
1F
100
AcDbEntity
  8
KANAMONO_SCREW
100
AcDbLine
 10
303.000056847798
 20
119.2136749201967
 30
0.0
 11
302.2100568477981
 21
119.2136749201967
 31
0.0
  0
LINE
  5
3BE5
330
1F
100
AcDbEntity
  8
KANAMONO_SCREW
100
AcDbLine
 10
303.000056847798
 20
119.7136749201967
 30
0.0
 11
302.2100568477981
 21
119.7136749201967
 31
0.0
  0
LINE
  5
3BE6
330
1F
100
AcDbEntity
  8
KANAMONO_SCREW
100
AcDbLine
 10
303.000056847798
 20
120.2136749201967
 30
0.0
 11
302.2100568477981
 21
120.2136749201967
 31
0.0
  0
LINE
  5
3BE7
330
1F
100
AcDbEntity
  8
KANAMONO_SCREW
100
AcDbLine
 10
307.8900568477981
 20
120.7136749201965
 30
0.0
 11
307.000056847798
 21
120.7136749201965
 31
0.0
  0
LINE
  5
3BE8
330
1F
100
AcDbEntity
  8
KANAMONO_SCREW
100
AcDbLine
 10
307.000056847798
 20
115.3136749201964
 30
0.0
 11
307.000056847798
 21
120.7136749201965
 31
0.0
  0
LINE
  5
3BE9
330
1F
100
AcDbEntity
  8
KANAMONO_SCREW
100
AcDbLine
 10
303.000056847798
 20
115.313674920198
 30
0.0
 11
303.000056847798
 21
120.7136749201965
 31
0.0
  0
LINE
  5
3BEA
330
1F
100
AcDbEntity
  8
KANAMONO_SCREW
100
AcDbLine
 10
303.000056847798
 20
120.7136749201965
 30
0.0
 11
302.1100568477981
 21
120.7136749201965
 31
0.0
  0
LINE
  5
3BEB
330
1F
100
AcDbEntity
  8
KANAMONO_SCREW
100
AcDbLine
 10
307.8900568477981
 20
122.5136749201967
 30
0.0
 11
302.1100568477981
 21
122.5136749201967
 31
0.0
  0
LINE
  5
3BEC
330
1F
100
AcDbEntity
  8
KANAMONO_SCREW
100
AcDbLine
 10
306.3500571539597
 20
121.5136749201967
 30
0.0
 11
302.1100568477981
 21
121.5136749201967
 31
0.0
  0
LINE
  5
3BED
330
1F
100
AcDbEntity
  8
KANAMONO_SCREW
100
AcDbLine
 10
307.8900568477981
 20
121.5136749201967
 30
0.0
 11
306.6500571539599
 21
121.5136749201967
 31
0.0
  0
LINE
  5
3BEE
330
1F
100
AcDbEntity
  8
KANAMONO_SCREW
100
AcDbLine
 10
306.6500571539599
 20
120.1087646277837
 30
0.0
 11
306.6500571539599
 21
121.7136749201962
 31
0.0
  0
LINE
  5
3BEF
330
1F
100
AcDbEntity
  8
KANAMONO_SCREW
100
AcDbLine
 10
306.6500571539599
 20
121.7136749201962
 30
0.0
 11
306.3500571539597
 21
121.7136749201962
 31
0.0
  0
LINE
  5
3BF0
330
1F
100
AcDbEntity
  8
KANAMONO_SCREW
100
AcDbLine
 10
306.3500571539597
 20
120.1087646277837
 30
0.0
 11
306.3500571539597
 21
121.7136749201962
 31
0.0
  0
ARC
  5
3BF1
330
1F
100
AcDbEntity
  8
KANAMONO_SCREW
100
AcDbCircle
 10
304.6500568477981
 20
116.9185853175824
 30
0.0
 40
1.3
100
AcDbArc
 50
122.858397292397
 51
180.0
  0
LINE
  5
3BF2
330
1F
100
AcDbEntity
  8
KANAMONO_SCREW
100
AcDbLine
 10
303.350056847798
 20
116.5136749201967
 30
0.0
 11
303.350056847798
 21
116.9185853175824
 31
0.0
  0
ARC
  5
3BF3
330
1F
100
AcDbEntity
  8
KANAMONO_SCREW
100
AcDbCircle
 10
304.6500568477981
 20
116.9185853175824
 30
0.0
 40
1.0
100
AcDbArc
 50
122.8583972924123
 51
180.0
  0
LINE
  5
3BF4
330
1F
100
AcDbEntity
  8
KANAMONO_SCREW
100
AcDbLine
 10
303.6500568477982
 20
116.5136749201967
 30
0.0
 11
303.6500568477982
 21
116.9185853175824
 31
0.0
  0
ARC
  5
3BF5
330
1F
100
AcDbEntity
  8
KANAMONO_SCREW
100
AcDbCircle
 10
305.3500571539597
 20
120.1087646277837
 30
0.0
 40
1.0
100
AcDbArc
 50
302.8583972924124
 51
0.0
  0
LINE
  5
3BF6
330
1F
100
AcDbEntity
  8
KANAMONO_SCREW
100
AcDbLine
 10
304.1074921925132
 20
117.7585993620102
 30
0.0
 11
306.0553912058296
 21
119.0167463700276
 31
0.0
  0
ARC
  5
3BF7
330
1F
100
AcDbEntity
  8
KANAMONO_SCREW
100
AcDbCircle
 10
305.3500571539597
 20
120.1087646277837
 30
0.0
 40
1.3
100
AcDbArc
 50
302.858397292397
 51
0.0
  0
LINE
  5
3BF8
330
1F
100
AcDbEntity
  8
KANAMONO_SCREW
100
AcDbLine
 10
303.944722795928
 20
118.0106035753385
 30
0.0
 11
305.8926218092446
 21
119.2687505833559
 31
0.0
  0
LINE
  5
3BF9
330
1F
100
AcDbEntity
  8
KANAMONO_SCREW
100
AcDbLine
 10
303.6500568477982
 20
116.5136749201967
 30
0.0
 11
303.350056847798
 21
116.5136749201967
 31
0.0
  0
LINE
  5
3BFA
330
1F
100
AcDbEntity
  8
KANAMONO_SCREW
100
AcDbLine
 10
303.350056847798
 20
115.4087645228109
 30
0.0
 11
303.350056847798
 21
115.8136749201966
 31
0.0
  0
LINE
  5
3BFB
330
1F
100
AcDbEntity
  8
KANAMONO_SCREW
100
AcDbLine
 10
303.6500568477982
 20
115.8136749201966
 30
0.0
 11
303.350056847798
 21
115.8136749201966
 31
0.0
  0
LINE
  5
3BFC
330
1F
100
AcDbEntity
  8
KANAMONO_SCREW
100
AcDbLine
 10
303.6500568477982
 20
115.4087645228109
 30
0.0
 11
303.6500568477982
 21
115.8136749201966
 31
0.0
  0
ARC
  5
3BFD
330
1F
100
AcDbEntity
  8
KANAMONO_SCREW
100
AcDbCircle
 10
305.1500571539597
 20
101.347765113561
 30
0.0
 40
1.0
100
AcDbArc
 50
0.0
 51
57.141602707603
  0
LINE
  5
3BFE
330
1F
100
AcDbEntity
  8
KANAMONO_SCREW
100
AcDbLine
 10
306.1500571539597
 20
98.77958472683296
 30
0.0
 11
306.1500571539597
 21
101.347765113561
 31
0.0
  0
LINE
  5
3BFF
330
1F
100
AcDbEntity
  8
KANAMONO_SCREW
100
AcDbLine
 10
303.944722795928
 20
103.3167462650548
 30
0.0
 11
305.6926218092443
 21
102.1877791579885
 31
0.0
  0
ARC
  5
3C00
330
1F
100
AcDbEntity
  8
KANAMONO_SCREW
100
AcDbCircle
 10
305.1500571539597
 20
98.77958472683296
 30
0.0
 40
1.0
100
AcDbArc
 50
302.858397292397
 51
0.0
  0
LINE
  5
3C01
330
1F
100
AcDbEntity
  8
KANAMONO_SCREW
100
AcDbLine
 10
305.4447227959281
 20
97.77945283247428
 30
0.0
 11
305.6926218092443
 21
97.93957068240516
 31
0.0
  0
ARC
  5
3C02
330
1F
100
AcDbEntity
  8
KANAMONO_SCREW
100
AcDbCircle
 10
305.1500571539597
 20
98.77958472683296
 30
0.0
 40
1.3
100
AcDbArc
 50
302.8583972924124
 51
0.0
  0
LINE
  5
3C03
330
1F
100
AcDbEntity
  8
KANAMONO_SCREW
100
AcDbLine
 10
305.6074921925133
 20
97.52744861914599
 30
0.0
 11
305.85539120583
 21
97.68756646907688
 31
0.0
  0
LINE
  5
3C04
330
1F
100
AcDbEntity
  8
KANAMONO_SCREW
100
AcDbLine
 10
306.4500571539596
 20
98.77958472683296
 30
0.0
 11
306.4500571539596
 21
101.347765113561
 31
0.0
  0
ARC
  5
3C05
330
1F
100
AcDbEntity
  8
KANAMONO_SCREW
100
AcDbCircle
 10
305.1500571539597
 20
101.347765113561
 30
0.0
 40
1.3
100
AcDbArc
 50
0.0
 51
57.141602707603
  0
LINE
  5
3C06
330
1F
100
AcDbEntity
  8
KANAMONO_SCREW
100
AcDbLine
 10
304.1074921925132
 20
103.5687504783829
 30
0.0
 11
305.8553912058297
 21
102.4397833713168
 31
0.0
  0
ARC
  5
3C07
330
1F
100
AcDbEntity
  8
KANAMONO_SCREW
100
AcDbCircle
 10
304.6500568477981
 20
115.4087645228109
 30
0.0
 40
1.3
100
AcDbArc
 50
180.0
 51
237.141602707603
  0
ARC
  5
3C08
330
1F
100
AcDbEntity
  8
KANAMONO_SCREW
100
AcDbCircle
 10
304.6500568477981
 20
115.4087645228109
 30
0.0
 40
1.0
100
AcDbArc
 50
180.0
 51
237.1416027075877
  0
ARC
  5
3C09
330
1F
100
AcDbEntity
  8
KANAMONO_SCREW
100
AcDbCircle
 10
305.3500571539597
 20
109.9087646277841
 30
0.0
 40
1.0
100
AcDbArc
 50
302.858397292397
 51
0.0
  0
LINE
  5
3C0A
330
1F
100
AcDbEntity
  8
KANAMONO_SCREW
100
AcDbLine
 10
303.944722795928
 20
114.3167462650548
 30
0.0
 11
305.8926218092444
 21
113.0585992570372
 31
0.0
  0
LINE
  5
3C0B
330
1F
100
AcDbEntity
  8
KANAMONO_SCREW
100
AcDbLine
 10
306.3500571539597
 20
109.9087646277841
 30
0.0
 11
306.3500571539597
 21
112.2185852126096
 31
0.0
  0
ARC
  5
3C0C
330
1F
100
AcDbEntity
  8
KANAMONO_SCREW
100
AcDbCircle
 10
305.3500571539597
 20
112.2185852126096
 30
0.0
 40
1.0
100
AcDbArc
 50
0.0
 51
57.141602707603
  0
LINE
  5
3C0D
330
1F
100
AcDbEntity
  8
KANAMONO_SCREW
100
AcDbLine
 10
304.1074921925132
 20
114.5687504783831
 30
0.0
 11
306.0553912058296
 21
113.3106034703654
 31
0.0
  0
ARC
  5
3C0E
330
1F
100
AcDbEntity
  8
KANAMONO_SCREW
100
AcDbCircle
 10
305.3500571539597
 20
112.2185852126096
 30
0.0
 40
1.3
100
AcDbArc
 50
0.0
 51
57.141602707603
  0
LINE
  5
3C0F
330
1F
100
AcDbEntity
  8
KANAMONO_SCREW
100
AcDbLine
 10
306.6500571539596
 20
109.9087646277841
 30
0.0
 11
306.6500571539596
 21
112.2185852126096
 31
0.0
  0
ARC
  5
3C10
330
1F
100
AcDbEntity
  8
KANAMONO_SCREW
100
AcDbCircle
 10
305.3500571539597
 20
109.9087646277841
 30
0.0
 40
1.3
100
AcDbArc
 50
302.858397292397
 51
0.0
  0
ARC
  5
3C11
330
1F
100
AcDbEntity
  8
KANAMONO_SCREW
100
AcDbCircle
 10
304.6500568477981
 20
104.4087645228109
 30
0.0
 40
1.3
100
AcDbArc
 50
180.0
 51
237.141602707603
  0
ARC
  5
3C12
330
1F
100
AcDbEntity
  8
KANAMONO_SCREW
100
AcDbCircle
 10
304.6500568477981
 20
104.4087645228109
 30
0.0
 40
1.0
100
AcDbArc
 50
180.0
 51
237.1416027075877
  0
LINE
  5
3C13
330
1F
100
AcDbEntity
  8
KANAMONO_SCREW
100
AcDbLine
 10
303.350056847798
 20
104.4087645228109
 30
0.0
 11
303.350056847798
 21
106.7185853175826
 31
0.0
  0
LINE
  5
3C14
330
1F
100
AcDbEntity
  8
KANAMONO_SCREW
100
AcDbLine
 10
303.944722795928
 20
107.8106035753389
 30
0.0
 11
305.8926218092444
 21
109.0687505833563
 31
0.0
  0
ARC
  5
3C15
330
1F
100
AcDbEntity
  8
KANAMONO_SCREW
100
AcDbCircle
 10
304.6500568477981
 20
106.7185853175826
 30
0.0
 40
1.3
100
AcDbArc
 50
122.858397292397
 51
180.0
  0
LINE
  5
3C16
330
1F
100
AcDbEntity
  8
KANAMONO_SCREW
100
AcDbLine
 10
303.6500568477982
 20
104.4087645228109
 30
0.0
 11
303.6500568477982
 21
106.7185853175826
 31
0.0
  0
LINE
  5
3C17
330
1F
100
AcDbEntity
  8
KANAMONO_SCREW
100
AcDbLine
 10
304.1074921925132
 20
107.5585993620106
 30
0.0
 11
306.0553912058296
 21
108.816746370028
 31
0.0
  0
ARC
  5
3C18
330
1F
100
AcDbEntity
  8
KANAMONO_SCREW
100
AcDbCircle
 10
304.6500568477981
 20
106.7185853175826
 30
0.0
 40
1.0
100
AcDbArc
 50
122.8583972924123
 51
180.0
  0
ARC
  5
3C19
330
1F
100
AcDbEntity
  8
KANAMONO_SCREW
100
AcDbCircle
 10
306.1500568477981
 20
96.68743457471819
 30
0.0
 40
1.0
100
AcDbArc
 50
122.8583972924123
 51
180.0
  0
ARC
  5
3C1A
330
1F
100
AcDbEntity
  8
KANAMONO_SCREW
100
AcDbCircle
 10
306.1500568477981
 20
96.68743457471819
 30
0.0
 40
1.3
100
AcDbArc
 50
122.858397292397
 51
180.0
  0
LINE
  5
3C1B
330
1F
100
AcDbEntity
  8
KANAMONO_SCREW
100
AcDbLine
 10
304.8500568477979
 20
96.51367492019668
 30
0.0
 11
304.8500568477979
 21
96.68743457471819
 31
0.0
  0
LINE
  5
3C1C
330
1F
100
AcDbEntity
  8
KANAMONO_SCREW
100
AcDbLine
 10
305.1500568477981
 20
96.51367492019668
 30
0.0
 11
305.1500568477981
 21
96.68743457471819
 31
0.0
  0
LINE
  5
3C1D
330
1F
100
AcDbEntity
  8
KANAMONO_SCREW
100
AcDbLine
 10
305.1500568477981
 20
96.51367492019668
 30
0.0
 11
304.8500568477979
 21
96.51367492019668
 31
0.0
  0
LINE
  5
3C1E
330
1F
100
AcDbEntity
  8
KANAMONO_SCREW
100
AcDbLine
 10
308.225056847798
 20
111.5136749201967
 30
0.0
 11
307.1410001321932
 21
111.5136749201967
 31
0.0
  0
LINE
  5
3C1F
330
1F
100
AcDbEntity
  8
KANAMONO_SCREW
100
AcDbLine
 10
302.8590042162191
 20
111.5136749201967
 30
0.0
 11
301.7750568477981
 21
111.5136749201967
 31
0.0
  0
LINE
  5
3C20
330
1F
100
AcDbEntity
  8
KANAMONO_SCREW
100
AcDbLine
 10
308.1636814096082
 20
112.1136749201968
 30
0.0
 11
307.1187459293942
 21
112.1136749201968
 31
0.0
  0
LINE
  5
3C21
330
1F
100
AcDbEntity
  8
KANAMONO_SCREW
100
AcDbLine
 10
308.1107866727661
 20
112.7136749201967
 30
0.0
 11
307.0964917265948
 21
112.7136749201967
 31
0.0
  0
LINE
  5
3C22
330
1F
100
AcDbEntity
  8
KANAMONO_SCREW
100
AcDbLine
 10
308.0578919359241
 20
113.3136749201964
 30
0.0
 11
307.0742375237955
 21
113.3136749201964
 31
0.0
  0
LINE
  5
3C23
330
1F
100
AcDbEntity
  8
KANAMONO_SCREW
100
AcDbLine
 10
308.0049971990818
 20
113.9136749201967
 30
0.0
 11
307.0519833209963
 21
113.9136749201967
 31
0.0
  0
LINE
  5
3C24
330
1F
100
AcDbEntity
  8
KANAMONO_SCREW
100
AcDbLine
 10
307.9521024622395
 20
114.5136749201967
 30
0.0
 11
307.029729118197
 21
114.5136749201967
 31
0.0
  0
LINE
  5
3C25
330
1F
100
AcDbEntity
  8
KANAMONO_SCREW
100
AcDbLine
 10
302.9926330250831
 20
115.1136749201968
 30
0.0
 11
302.1009062763602
 21
115.1136749201968
 31
0.0
  0
LINE
  5
3C26
330
1F
100
AcDbEntity
  8
KANAMONO_SCREW
100
AcDbLine
 10
302.9703615569391
 20
114.5136749201967
 30
0.0
 11
302.0480115395181
 21
114.5136749201967
 31
0.0
  0
LINE
  5
3C27
330
1F
100
AcDbEntity
  8
KANAMONO_SCREW
100
AcDbLine
 10
302.9480900887952
 20
113.9136749201967
 30
0.0
 11
301.9951168026759
 21
113.9136749201967
 31
0.0
  0
LINE
  5
3C28
330
1F
100
AcDbEntity
  8
KANAMONO_SCREW
100
AcDbLine
 10
302.9258186206511
 20
113.3136749201964
 30
0.0
 11
301.9422220658339
 21
113.3136749201964
 31
0.0
  0
LINE
  5
3C29
330
1F
100
AcDbEntity
  8
KANAMONO_SCREW
100
AcDbLine
 10
302.903547152507
 20
112.7136749201967
 30
0.0
 11
301.8893273289917
 21
112.7136749201967
 31
0.0
  0
LINE
  5
3C2A
330
1F
100
AcDbEntity
  8
KANAMONO_SCREW
100
AcDbLine
 10
302.8812756843631
 20
112.1136749201968
 30
0.0
 11
301.8364325921496
 21
112.1136749201968
 31
0.0
  0
LINE
  5
3C2B
330
1F
100
AcDbEntity
  8
KANAMONO_SCREW
100
AcDbLine
 10
307.1411271692942
 20
111.5102498475809
 30
0.0
 11
307.000056847798
 21
115.3136749201964
 31
0.0
  0
LINE
  5
3C2C
330
1F
100
AcDbEntity
  8
KANAMONO_SCREW
100
AcDbLine
 10
302.8590042162191
 20
111.5136749201967
 30
0.0
 11
303.000056847798
 21
115.3136749201964
 31
0.0
  0
LINE
  5
3C2D
330
1F
100
AcDbEntity
  8
KANAMONO_SCREW
100
AcDbLine
 10
307.1500565110174
 20
109.8136749201964
 30
0.0
 11
307.1411271692942
 21
111.5102498475809
 31
0.0
  0
LINE
  5
3C2E
330
1F
100
AcDbEntity
  8
KANAMONO_SCREW
100
AcDbLine
 10
302.850056847798
 20
109.8136749201964
 30
0.0
 11
302.8590491204919
 21
111.5222067320664
 31
0.0
  0
LINE
  5
3C2F
330
1F
100
AcDbEntity
  8
KANAMONO_SCREW
100
AcDbLine
 10
307.8992077253973
 20
115.1136749201968
 30
0.0
 11
307.001109479377
 21
115.1136749201968
 31
0.0
  0
LINE
  5
3C30
330
1F
100
AcDbEntity
  8
KANAMONO_SCREW
100
AcDbLine
 10
303.000056847798
 20
117.1136749201968
 30
0.0
 11
302.1100568477981
 21
117.1136749201968
 31
0.0
  0
LINE
  5
3C31
330
1F
100
AcDbEntity
  8
KANAMONO_SCREW
100
AcDbLine
 10
307.8900568477981
 20
117.1136749201968
 30
0.0
 11
307.000056847798
 21
117.1136749201968
 31
0.0
  0
LINE
  5
3C32
330
1F
100
AcDbEntity
  8
KANAMONO_SCREW
100
AcDbLine
 10
303.000056847798
 20
115.3136749201964
 30
0.0
 11
302.1100568477981
 21
115.3136749201964
 31
0.0
  0
LINE
  5
3C33
330
1F
100
AcDbEntity
  8
KANAMONO_SCREW
100
AcDbLine
 10
307.8900568477981
 20
115.3136749201964
 30
0.0
 11
307.000056847798
 21
115.3136749201964
 31
0.0
  0
LINE
  5
3C34
330
1F
100
AcDbEntity
  8
KANAMONO_SCREW
100
AcDbLine
 10
308.0636935175962
 20
111.5136749201969
 30
0.0
 11
307.7286935175962
 21
115.3136749201968
 31
0.0
  0
LINE
  5
3C35
330
1F
100
AcDbEntity
  8
KANAMONO_SCREW
100
AcDbLine
 10
301.9364204841616
 20
111.5136749201969
 30
0.0
 11
302.2714204841617
 21
115.3136749201968
 31
0.0
  0
LINE
  5
3C36
330
1F
100
AcDbEntity
  8
KANAMONO_SCREW
100
AcDbLine
 10
302.860056847798
 20
109.4136749201968
 30
0.0
 11
301.7935378553074
 21
109.4136749201965
 31
0.0
  0
LINE
  5
3C37
330
1F
100
AcDbEntity
  8
KANAMONO_SCREW
100
AcDbLine
 10
302.875056847798
 20
108.8136749201964
 30
0.0
 11
301.8085378553075
 21
108.8136749201964
 31
0.0
  0
LINE
  5
3C38
330
1F
100
AcDbEntity
  8
KANAMONO_SCREW
100
AcDbLine
 10
302.8900568477979
 20
108.2136749201967
 30
0.0
 11
301.8235378553076
 21
108.2136749201967
 31
0.0
  0
LINE
  5
3C39
330
1F
100
AcDbEntity
  8
KANAMONO_SCREW
100
AcDbLine
 10
302.905056847798
 20
107.6136749201968
 30
0.0
 11
301.8385378553074
 21
107.6136749201968
 31
0.0
  0
LINE
  5
3C3A
330
1F
100
AcDbEntity
  8
KANAMONO_SCREW
100
AcDbLine
 10
302.9200568477981
 20
107.0136749201967
 30
0.0
 11
301.8535378553075
 21
107.0136749201967
 31
0.0
  0
LINE
  5
3C3B
330
1F
100
AcDbEntity
  8
KANAMONO_SCREW
100
AcDbLine
 10
302.9350568477979
 20
106.4136749201965
 30
0.0
 11
301.8685378553076
 21
106.4136749201965
 31
0.0
  0
LINE
  5
3C3C
330
1F
100
AcDbEntity
  8
KANAMONO_SCREW
100
AcDbLine
 10
308.2065758096695
 20
109.4136749201968
 30
0.0
 11
307.1400565110175
 21
109.4136749201968
 31
0.0
  0
LINE
  5
3C3D
330
1F
100
AcDbEntity
  8
KANAMONO_SCREW
100
AcDbLine
 10
308.1915758096694
 20
108.8136749201964
 30
0.0
 11
307.1250565110176
 21
108.8136749201964
 31
0.0
  0
LINE
  5
3C3E
330
1F
100
AcDbEntity
  8
KANAMONO_SCREW
100
AcDbLine
 10
308.1765758096695
 20
108.2136749201967
 30
0.0
 11
307.1100565110175
 21
108.2136749201967
 31
0.0
  0
LINE
  5
3C3F
330
1F
100
AcDbEntity
  8
KANAMONO_SCREW
100
AcDbLine
 10
308.1615758096694
 20
107.6136749201968
 30
0.0
 11
307.0950565110174
 21
107.6136749201968
 31
0.0
  0
LINE
  5
3C40
330
1F
100
AcDbEntity
  8
KANAMONO_SCREW
100
AcDbLine
 10
308.1465758096696
 20
107.0136749201967
 30
0.0
 11
307.096105700944
 21
107.0136749201967
 31
0.0
  0
LINE
  5
3C41
330
1F
100
AcDbEntity
  8
KANAMONO_SCREW
100
AcDbLine
 10
308.1315758096698
 20
106.4136749201967
 30
0.0
 11
307.0650565110176
 21
106.4136749201967
 31
0.0
  0
LINE
  5
3C42
330
1F
100
AcDbEntity
  8
KANAMONO_SCREW
100
AcDbLine
 10
307.9636932114635
 20
105.8136883925769
 30
0.0
 11
308.0636932114635
 21
109.8136883925769
 31
0.0
  0
LINE
  5
3C43
330
1F
100
AcDbEntity
  8
KANAMONO_SCREW
100
AcDbLine
 10
302.0364204841617
 20
105.8136749201964
 30
0.0
 11
301.9364204841616
 21
109.8136749201964
 31
0.0
  0
LINE
  5
3C44
330
1F
100
AcDbEntity
  8
KANAMONO_SCREW
100
AcDbLine
 10
307.750056847798
 20
100.3136749201964
 30
0.0
 11
307.8364204841615
 21
104.1136749201966
 31
0.0
  0
LINE
  5
3C45
330
1F
100
AcDbEntity
  8
KANAMONO_SCREW
100
AcDbLine
 10
307.9986935175961
 20
100.9136749201967
 30
0.0
 11
306.8980831635877
 21
100.9136749201967
 31
0.0
  0
LINE
  5
3C46
330
1F
100
AcDbEntity
  8
KANAMONO_SCREW
100
AcDbLine
 10
308.0123298812325
 20
101.5136749201966
 30
0.0
 11
306.9211094793769
 21
101.5136749201966
 31
0.0
  0
LINE
  5
3C47
330
1F
100
AcDbEntity
  8
KANAMONO_SCREW
100
AcDbLine
 10
308.0259662448688
 20
102.1136749201966
 30
0.0
 11
306.9441357951664
 21
102.1136749201966
 31
0.0
  0
LINE
  5
3C48
330
1F
100
AcDbEntity
  8
KANAMONO_SCREW
100
AcDbLine
 10
308.0396026085052
 20
102.7136749201965
 30
0.0
 11
306.9671621109559
 21
102.7136749201965
 31
0.0
  0
LINE
  5
3C49
330
1F
100
AcDbEntity
  8
KANAMONO_SCREW
100
AcDbLine
 10
308.0532389721414
 20
103.3136749201964
 30
0.0
 11
307.0132147425348
 21
103.3136749201964
 31
0.0
  0
LINE
  5
3C4A
330
1F
100
AcDbEntity
  8
KANAMONO_SCREW
100
AcDbLine
 10
302.9868989530612
 20
103.3136749201964
 30
0.0
 11
301.945023875587
 21
103.3136749201964
 31
0.0
  0
LINE
  5
3C4B
330
1F
100
AcDbEntity
  8
KANAMONO_SCREW
100
AcDbLine
 10
303.03295158464
 20
102.7136749201965
 30
0.0
 11
301.9558645161904
 21
102.7136749201965
 31
0.0
  0
LINE
  5
3C4C
330
1F
100
AcDbEntity
  8
KANAMONO_SCREW
100
AcDbLine
 10
303.0559779004296
 20
102.1136749201966
 30
0.0
 11
301.966705156794
 21
102.1136749201966
 31
0.0
  0
LINE
  5
3C4D
330
1F
100
AcDbEntity
  8
KANAMONO_SCREW
100
AcDbLine
 10
303.0790042162191
 20
101.5136749201966
 30
0.0
 11
301.9775457973971
 21
101.5136749201966
 31
0.0
  0
LINE
  5
3C4E
330
1F
100
AcDbEntity
  8
KANAMONO_SCREW
100
AcDbLine
 10
303.1020305320085
 20
100.9136749201965
 30
0.0
 11
301.9883864380005
 21
100.9136749201965
 31
0.0
  0
LINE
  5
3C4F
330
1F
100
AcDbEntity
  8
KANAMONO_SCREW
100
AcDbLine
 10
302.850056847798
 20
109.8136749201964
 30
0.0
 11
301.7750568477981
 21
109.8136749201964
 31
0.0
  0
LINE
  5
3C50
330
1F
100
AcDbEntity
  8
KANAMONO_SCREW
100
AcDbLine
 10
308.225056847798
 20
109.8136749201964
 30
0.0
 11
307.1500565110174
 21
109.8136749201964
 31
0.0
  0
LINE
  5
3C51
330
1F
100
AcDbEntity
  8
KANAMONO_SCREW
100
AcDbLine
 10
307.050056847827
 20
105.8136883925769
 30
0.0
 11
307.1500568478268
 21
109.8136883925769
 31
0.0
  0
LINE
  5
3C52
330
1F
100
AcDbEntity
  8
KANAMONO_SCREW
100
AcDbLine
 10
302.950056847798
 20
105.8136749201971
 30
0.0
 11
302.850056847798
 21
109.8136749201971
 31
0.0
  0
LINE
  5
3C53
330
1F
100
AcDbEntity
  8
KANAMONO_SCREW
100
AcDbLine
 10
308.225056847798
 20
109.8136749201964
 30
0.0
 11
308.225056847798
 21
111.5136749201967
 31
0.0
  0
LINE
  5
3C54
330
1F
100
AcDbEntity
  8
KANAMONO_SCREW
100
AcDbLine
 10
301.7750568477981
 20
109.8136749201964
 30
0.0
 11
301.7750568477981
 21
111.5136749201967
 31
0.0
  0
LINE
  5
3C55
330
1F
100
AcDbEntity
  8
KANAMONO_SCREW
100
AcDbLine
 10
302.250056847798
 20
100.3136749201964
 30
0.0
 11
302.075056847798
 21
104.1136749201966
 31
0.0
  0
LINE
  5
3C56
330
1F
100
AcDbEntity
  8
KANAMONO_SCREW
100
AcDbLine
 10
307.750056847798
 20
95.91367492019676
 30
0.0
 11
307.750056847798
 21
98.51367492019669
 31
0.0
  0
LINE
  5
3C57
330
1F
100
AcDbEntity
  8
KANAMONO_SCREW
100
AcDbLine
 10
302.250056847798
 20
95.91367492019655
 30
0.0
 11
302.250056847798
 21
98.51367492019669
 31
0.0
  0
LINE
  5
3C58
330
1F
100
AcDbEntity
  8
KANAMONO_SCREW
100
AcDbLine
 10
308.0646026085051
 20
103.8136749201964
 30
0.0
 11
307.0279868268652
 21
103.8136749201964
 31
0.0
  0
LINE
  5
3C59
330
1F
100
AcDbEntity
  8
KANAMONO_SCREW
100
AcDbLine
 10
308.000056847798
 20
100.3136749201964
 30
0.0
 11
306.875056847798
 21
100.3136749201964
 31
0.0
  0
LINE
  5
3C5A
330
1F
100
AcDbEntity
  8
KANAMONO_SCREW
100
AcDbLine
 10
302.9638726372717
 20
103.8136749201964
 30
0.0
 11
301.9359900084177
 21
103.8136749201964
 31
0.0
  0
LINE
  5
3C5B
330
1F
100
AcDbEntity
  8
KANAMONO_SCREW
100
AcDbLine
 10
308.0864207903232
 20
104.1136749201966
 30
0.0
 11
308.1250571539596
 21
105.8136749201964
 31
0.0
  0
LINE
  5
3C5C
330
1F
100
AcDbEntity
  8
KANAMONO_SCREW
100
AcDbLine
 10
301.9136932114345
 20
104.1136749201966
 30
0.0
 11
301.875056847798
 21
105.8136749201964
 31
0.0
  0
LINE
  5
3C5D
330
1F
100
AcDbEntity
  8
KANAMONO_SCREW
100
AcDbLine
 10
302.950056847798
 20
104.1136749201966
 30
0.0
 11
301.9136932114345
 21
104.1136749201966
 31
0.0
  0
LINE
  5
3C5E
330
1F
100
AcDbEntity
  8
KANAMONO_SCREW
100
AcDbLine
 10
308.0864207903232
 20
104.1136749201966
 30
0.0
 11
307.0500568477982
 21
104.1136749201966
 31
0.0
  0
LINE
  5
3C5F
330
1F
100
AcDbEntity
  8
KANAMONO_SCREW
100
AcDbLine
 10
302.950056847798
 20
105.8136749201964
 30
0.0
 11
301.875056847798
 21
105.8136749201964
 31
0.0
  0
LINE
  5
3C60
330
1F
100
AcDbEntity
  8
KANAMONO_SCREW
100
AcDbLine
 10
308.125056847798
 20
105.8136749201964
 30
0.0
 11
307.0500568477979
 21
105.8136749201964
 31
0.0
  0
LINE
  5
3C61
330
1F
100
AcDbEntity
  8
KANAMONO_SCREW
100
AcDbLine
 10
306.875056847798
 20
100.3136749201964
 30
0.0
 11
307.0500568477979
 21
104.1136749201966
 31
0.0
  0
LINE
  5
3C62
330
1F
100
AcDbEntity
  8
KANAMONO_SCREW
100
AcDbLine
 10
303.125056847798
 20
100.3136749201964
 30
0.0
 11
302.950056847798
 21
104.1136749201966
 31
0.0
  0
LINE
  5
3C63
330
1F
100
AcDbEntity
  8
KANAMONO_SCREW
100
AcDbLine
 10
305.0000571539599
 20
93.01367492019668
 30
0.0
 11
303.6037448532455
 21
94.82888091112469
 31
0.0
  0
ARC
  5
3C64
330
1F
100
AcDbEntity
  8
KANAMONO_SCREW
100
AcDbCircle
 10
304.000056847798
 20
95.13373629154958
 30
0.0
 40
0.5
100
AcDbArc
 50
180.0
 51
217.5685920288021
  0
LINE
  5
3C65
330
1F
100
AcDbEntity
  8
KANAMONO_SCREW
100
AcDbLine
 10
303.5000568477981
 20
95.31666922087257
 30
0.0
 11
303.5000568477981
 21
95.13373629154935
 31
0.0
  0
LINE
  5
3C66
330
1F
100
AcDbEntity
  8
KANAMONO_SCREW
100
AcDbLine
 10
305.0000571539599
 20
93.51367492019646
 30
0.0
 11
303.5896880472533
 21
95.34715475891486
 31
0.0
  0
ARC
  5
3C67
330
1F
100
AcDbEntity
  8
KANAMONO_SCREW
100
AcDbCircle
 10
303.5500568477979
 20
95.31666922087257
 30
0.0
 40
0.05
100
AcDbArc
 50
37.56859202884636
 51
180.0
  0
LINE
  5
3C68
330
1F
100
AcDbEntity
  8
KANAMONO_SCREW
100
AcDbLine
 10
306.5000571539599
 20
95.31666922087257
 30
0.0
 11
306.5000571539599
 21
95.13373629154958
 31
0.0
  0
LINE
  5
3C69
330
1F
100
AcDbEntity
  8
KANAMONO_SCREW
100
AcDbLine
 10
305.0000568477977
 20
93.51367492019646
 30
0.0
 11
306.4104259545047
 21
95.34715475891507
 31
0.0
  0
ARC
  5
3C6A
330
1F
100
AcDbEntity
  8
KANAMONO_SCREW
100
AcDbCircle
 10
306.4500571539596
 20
95.31666922087257
 30
0.0
 40
0.05
100
AcDbArc
 50
0.0
 51
142.4314079710051
  0
LINE
  5
3C6B
330
1F
100
AcDbEntity
  8
KANAMONO_SCREW
100
AcDbLine
 10
305.000056847798
 20
93.01367492019668
 30
0.0
 11
306.396369148512
 21
94.82888091112469
 31
0.0
  0
ARC
  5
3C6C
330
1F
100
AcDbEntity
  8
KANAMONO_SCREW
100
AcDbCircle
 10
306.0000571539599
 20
95.13373629154958
 30
0.0
 40
0.5
100
AcDbArc
 50
322.4314079711771
 51
0.0
  0
LINE
  5
3C6D
330
1F
100
AcDbEntity
  8
KANAMONO_SCREW
100
AcDbLine
 10
303.5000568477981
 20
97.61666922087252
 30
0.0
 11
303.5000568477981
 21
97.43373629155
 31
0.0
  0
LINE
  5
3C6E
330
1F
100
AcDbEntity
  8
KANAMONO_SCREW
100
AcDbLine
 10
306.5000571539599
 20
97.61666922087252
 30
0.0
 11
306.5000571539599
 21
97.43373629155
 31
0.0
  0
LINE
  5
3C6F
330
1F
100
AcDbEntity
  8
KANAMONO_SCREW
100
AcDbLine
 10
305.0000571539599
 20
95.81367492019641
 30
0.0
 11
303.5896880472533
 21
97.64715475891527
 31
0.0
  0
ARC
  5
3C70
330
1F
100
AcDbEntity
  8
KANAMONO_SCREW
100
AcDbCircle
 10
303.5500568477979
 20
97.61666922087252
 30
0.0
 40
0.05
100
AcDbArc
 50
37.56859202884636
 51
180.0
  0
LINE
  5
3C71
330
1F
100
AcDbEntity
  8
KANAMONO_SCREW
100
AcDbLine
 10
305.0000571539599
 20
95.3136749201964
 30
0.0
 11
303.6037448532455
 21
97.1288809111251
 31
0.0
  0
ARC
  5
3C72
330
1F
100
AcDbEntity
  8
KANAMONO_SCREW
100
AcDbCircle
 10
304.000056847798
 20
97.43373629155
 30
0.0
 40
0.5
100
AcDbArc
 50
180.0
 51
217.5685920288229
  0
LINE
  5
3C73
330
1F
100
AcDbEntity
  8
KANAMONO_SCREW
100
AcDbLine
 10
305.000056847798
 20
95.81367492019641
 30
0.0
 11
306.4104259545047
 21
97.64715475891527
 31
0.0
  0
ARC
  5
3C74
330
1F
100
AcDbEntity
  8
KANAMONO_SCREW
100
AcDbCircle
 10
306.4500571539596
 20
97.61666922087252
 30
0.0
 40
0.05
100
AcDbArc
 50
0.0
 51
142.4314079710051
  0
LINE
  5
3C75
330
1F
100
AcDbEntity
  8
KANAMONO_SCREW
100
AcDbLine
 10
305.000056847798
 20
95.3136749201964
 30
0.0
 11
306.3963691485122
 21
97.12888091112487
 31
0.0
  0
ARC
  5
3C76
330
1F
100
AcDbEntity
  8
KANAMONO_SCREW
100
AcDbCircle
 10
306.0000571539599
 20
97.43373629155
 30
0.0
 40
0.5
100
AcDbArc
 50
322.4314079711562
 51
0.0
  0
LINE
  5
3C77
330
1F
100
AcDbEntity
  8
KANAMONO_SCREW
100
AcDbLine
 10
303.125056847798
 20
100.3136749201964
 30
0.0
 11
302.000056847798
 21
100.3136749201964
 31
0.0
  0
LINE
  5
3C78
330
1F
100
AcDbEntity
  8
KANAMONO_SCREW
100
AcDbLine
 10
303.125056847798
 20
98.51367492019669
 30
0.0
 11
302.000056847798
 21
98.51367492019669
 31
0.0
  0
LINE
  5
3C79
330
1F
100
AcDbEntity
  8
KANAMONO_SCREW
100
AcDbLine
 10
308.000056847798
 20
98.51367492019669
 30
0.0
 11
306.875056847798
 21
98.51367492019669
 31
0.0
  0
LINE
  5
3C7A
330
1F
100
AcDbEntity
  8
KANAMONO_SCREW
100
AcDbLine
 10
303.125056847798
 20
95.91367492019655
 30
0.0
 11
302.000056847798
 21
95.91367492019655
 31
0.0
  0
LINE
  5
3C7B
330
1F
100
AcDbEntity
  8
KANAMONO_SCREW
100
AcDbLine
 10
307.9992151871787
 20
95.91367492019676
 30
0.0
 11
306.875056847798
 21
95.91367492019676
 31
0.0
  0
LINE
  5
3C7C
330
1F
100
AcDbEntity
  8
KANAMONO_SCREW
100
AcDbLine
 10
303.125056847798
 20
97.46367492019651
 30
0.0
 11
302.075056847798
 21
97.46367492019651
 31
0.0
  0
LINE
  5
3C7D
330
1F
100
AcDbEntity
  8
KANAMONO_SCREW
100
AcDbLine
 10
306.875056847798
 20
95.91367492019676
 30
0.0
 11
306.875056847798
 21
98.51367492019669
 31
0.0
  0
LINE
  5
3C7E
330
1F
100
AcDbEntity
  8
KANAMONO_SCREW
100
AcDbLine
 10
303.125056847798
 20
95.91367492019655
 30
0.0
 11
303.125056847798
 21
98.51367492019669
 31
0.0
  0
LINE
  5
3C7F
330
1F
100
AcDbEntity
  8
KANAMONO_SCREW
100
AcDbLine
 10
303.125056847798
 20
96.46367492019649
 30
0.0
 11
302.075056847798
 21
96.46367492019649
 31
0.0
  0
LINE
  5
3C80
330
1F
100
AcDbEntity
  8
KANAMONO_SCREW
100
AcDbLine
 10
307.9250568477979
 20
96.46367492019649
 30
0.0
 11
306.875056847798
 21
96.46367492019649
 31
0.0
  0
LINE
  5
3C81
330
1F
100
AcDbEntity
  8
KANAMONO_SCREW
100
AcDbLine
 10
303.125056847798
 20
96.9636749201965
 30
0.0
 11
302.075056847798
 21
96.9636749201965
 31
0.0
  0
LINE
  5
3C82
330
1F
100
AcDbEntity
  8
KANAMONO_SCREW
100
AcDbLine
 10
307.9250568477979
 20
96.9636749201965
 30
0.0
 11
306.875056847798
 21
96.9636749201965
 31
0.0
  0
LINE
  5
3C83
330
1F
100
AcDbEntity
  8
KANAMONO_SCREW
100
AcDbLine
 10
307.9250568477979
 20
97.46367492019651
 30
0.0
 11
306.875056847798
 21
97.46367492019651
 31
0.0
  0
LINE
  5
3C84
330
1F
100
AcDbEntity
  8
KANAMONO_SCREW
100
AcDbLine
 10
303.125056847798
 20
97.96367492019649
 30
0.0
 11
302.075056847798
 21
97.96367492019649
 31
0.0
  0
LINE
  5
3C85
330
1F
100
AcDbEntity
  8
KANAMONO_SCREW
100
AcDbLine
 10
307.9250568477979
 20
97.96367492019649
 30
0.0
 11
306.875056847798
 21
97.96367492019649
 31
0.0
  0
LINE
  5
3C86
330
1F
100
AcDbEntity
  8
KANAMONO_SCREW
100
AcDbLine
 10
302.000056847798
 20
98.51367492019669
 30
0.0
 11
302.000056847798
 21
100.3136749201964
 31
0.0
  0
LINE
  5
3C87
330
1F
100
AcDbEntity
  8
KANAMONO_SCREW
100
AcDbLine
 10
308.000056847798
 20
98.51367492019669
 30
0.0
 11
308.000056847798
 21
100.3136749201964
 31
0.0
  0
LINE
  5
3C88
330
1F
100
AcDbEntity
  8
KANAMONO_SCREW
100
AcDbLine
 10
307.1000568477979
 20
92.51367492019667
 30
0.0
 11
308.000056847798
 21
95.91367492019676
 31
0.0
  0
LINE
  5
3C89
330
1F
100
AcDbEntity
  8
KANAMONO_SCREW
100
AcDbLine
 10
307.1000568477979
 20
92.51367492019667
 30
0.0
 11
302.9000568477981
 21
92.51367492019667
 31
0.0
  0
LINE
  5
3C8A
330
1F
100
AcDbEntity
  8
KANAMONO_SCREW
100
AcDbLine
 10
302.9000568477981
 20
92.51367492019667
 30
0.0
 11
302.000056847798
 21
95.91367492019655
 31
0.0
  0
LINE
  5
3C8B
330
1F
100
AcDbEntity
  8
KANAMONO_SCREW
100
AcDbLine
 10
308.390056847798
 20
117.5136749201967
 30
0.0
 11
307.8900568477981
 21
115.6136749201968
 31
0.0
  0
LINE
  5
3C8C
330
1F
100
AcDbEntity
  8
KANAMONO_SCREW
100
AcDbLine
 10
302.1100568477981
 20
115.6136749201968
 30
0.0
 11
301.6100568477981
 21
117.5136749201964
 31
0.0
  0
ARC
  5
3C8D
330
1F
100
AcDbEntity
  8
KANAMONO_SCREW
100
AcDbCircle
 10
312.7831863186382
 20
94.31869075029217
 30
0.0
 40
9.382689926641683
100
AcDbArc
 50
191.0915488138293
 51
213.950532353797
  0
ARC
  5
3C8E
330
1F
100
AcDbEntity
  8
KANAMONO_SCREW
100
AcDbCircle
 10
297.216927376958
 20
94.31869075029217
 30
0.0
 40
9.382689926641683
100
AcDbArc
 50
326.049467646203
 51
348.9084511861707
  0
LINE
  5
3C8F
330
1F
100
AcDbEntity
  8
KANAMONO_SCREW
100
AcDbLine
 10
309.5000568477983
 20
154.078674920196
 30
0.0
 11
300.5000568477982
 21
154.078674920196
 31
0.0
  0
LINE
  5
3C90
330
1F
100
AcDbEntity
  8
KANAMONO_SCREW
100
AcDbLine
 10
309.5000568477983
 20
153.3386749201963
 30
0.0
 11
300.5000568477982
 21
153.3386749201963
 31
0.0
  0
LINE
  5
3C91
330
1F
100
AcDbEntity
  8
KANAMONO_SCREW
100
AcDbLine
 10
309.5000568477983
 20
154.078674920196
 30
0.0
 11
309.5000568477983
 21
153.3386749201963
 31
0.0
  0
LINE
  5
3C92
330
1F
100
AcDbEntity
  8
KANAMONO_SCREW
100
AcDbLine
 10
300.5000568477982
 20
154.078674920196
 30
0.0
 11
300.5000568477982
 21
153.3386749201963
 31
0.0
  0
LINE
  5
3C93
330
1F
100
AcDbEntity
  8
KANAMONO_SCREW
100
AcDbLine
 10
308.6750568477983
 20
152.5136749201962
 30
0.0
 11
309.5000568477983
 21
153.3386749201963
 31
0.0
  0
LINE
  5
3C94
330
1F
100
AcDbEntity
  8
KANAMONO_SCREW
100
AcDbLine
 10
301.3250568477979
 20
152.5136749201966
 30
0.0
 11
300.5000568477982
 21
153.3386749201963
 31
0.0
  0
LINE
  5
3C95
330
1F
100
AcDbEntity
  8
KANAMONO_SCREW
  6
DASHED1
100
AcDbLine
 10
330.5000568477983
 20
154.0786749201963
 30
0.0
 11
339.5000568477984
 21
154.0786749201963
 31
0.0
  0
LINE
  5
3C96
330
1F
100
AcDbEntity
  8
KANAMONO_SCREW
  6
DASHED1
100
AcDbLine
 10
339.5000568477984
 20
154.0786749201963
 30
0.0
 11
339.5000568477982
 21
153.3386749201965
 31
0.0
  0
LINE
  5
3C97
330
1F
100
AcDbEntity
  8
KANAMONO_SCREW
  6
DASHED1
100
AcDbLine
 10
339.5000568477982
 20
153.3386749201965
 30
0.0
 11
338.6750568477988
 21
152.5136749201969
 31
0.0
  0
LINE
  5
3C98
330
1F
100
AcDbEntity
  8
KANAMONO_SCREW
  6
DASHED1
100
AcDbLine
 10
338.6750568477988
 20
152.5136749201969
 30
0.0
 11
338.6750568477983
 21
152.0636749201968
 31
0.0
  0
LINE
  5
3C99
330
1F
100
AcDbEntity
  8
KANAMONO_SCREW
  6
DASHED1
100
AcDbLine
 10
338.6750568477983
 20
152.0636749201968
 30
0.0
 11
337.8900568477984
 21
151.2136749201969
 31
0.0
  0
LINE
  5
3C9A
330
1F
100
AcDbEntity
  8
KANAMONO_SCREW
  6
DASHED1
100
AcDbLine
 10
337.8900568477984
 20
151.2136749201969
 30
0.0
 11
337.7900568478008
 21
151.2136749201969
 31
0.0
  0
LINE
  5
3C9B
330
1F
100
AcDbEntity
  8
KANAMONO_SCREW
  6
DASHED1
100
AcDbLine
 10
337.7900568478008
 20
151.2136749201969
 30
0.0
 11
338.3900568478006
 21
150.7136749201972
 31
0.0
  0
LINE
  5
3C9C
330
1F
100
AcDbEntity
  8
KANAMONO_SCREW
  6
DASHED1
100
AcDbLine
 10
338.3900568478006
 20
150.7136749201972
 30
0.0
 11
338.3900568477991
 21
145.4136749202004
 31
0.0
  0
LINE
  5
3C9D
330
1F
100
AcDbEntity
  8
KANAMONO_SCREW
  6
DASHED1
100
AcDbLine
 10
338.3900568477991
 20
145.4136749202004
 30
0.0
 11
337.790056847798
 21
143.5136749201969
 31
0.0
  0
LINE
  5
3C9E
330
1F
100
AcDbEntity
  8
KANAMONO_SCREW
  6
DASHED1
100
AcDbLine
 10
337.790056847798
 20
143.5136749201969
 30
0.0
 11
337.790056847798
 21
130.5136749201971
 31
0.0
  0
LINE
  5
3C9F
330
1F
100
AcDbEntity
  8
KANAMONO_SCREW
  6
DASHED1
100
AcDbLine
 10
337.790056847798
 20
130.5136749201971
 30
0.0
 11
338.3900568477981
 21
130.0136749201971
 31
0.0
  0
LINE
  5
3CA0
330
1F
100
AcDbEntity
  8
KANAMONO_SCREW
  6
DASHED1
100
AcDbLine
 10
338.3900568477981
 20
130.0136749201971
 30
0.0
 11
338.3900568477981
 21
117.5136749201969
 31
0.0
  0
LINE
  5
3CA1
330
1F
100
AcDbEntity
  8
KANAMONO_SCREW
  6
DASHED1
100
AcDbLine
 10
338.3900568477981
 20
117.5136749201969
 30
0.0
 11
337.8900568477981
 21
115.613674920197
 31
0.0
  0
LINE
  5
3CA2
330
1F
100
AcDbEntity
  8
KANAMONO_SCREW
  6
DASHED1
100
AcDbLine
 10
337.8900568477981
 20
115.613674920197
 30
0.0
 11
337.8900568477981
 21
115.3136749201966
 31
0.0
  0
LINE
  5
3CA3
330
1F
100
AcDbEntity
  8
KANAMONO_SCREW
  6
DASHED1
100
AcDbLine
 10
337.8900568477981
 20
115.3136749201966
 30
0.0
 11
337.7286935175963
 21
115.3136749201966
 31
0.0
  0
LINE
  5
3CA4
330
1F
100
AcDbEntity
  8
KANAMONO_SCREW
  6
DASHED1
100
AcDbLine
 10
337.7286935175963
 20
115.3136749201966
 30
0.0
 11
338.0636935175963
 21
111.5136749201971
 31
0.0
  0
LINE
  5
3CA5
330
1F
100
AcDbEntity
  8
KANAMONO_SCREW
  6
DASHED1
100
AcDbLine
 10
338.0636935175963
 20
111.5136749201971
 30
0.0
 11
338.2250568477981
 21
111.5136749201969
 31
0.0
  0
LINE
  5
3CA6
330
1F
100
AcDbEntity
  8
KANAMONO_SCREW
  6
DASHED1
100
AcDbLine
 10
338.2250568477981
 20
111.5136749201969
 30
0.0
 11
338.2250568477981
 21
109.8136749201966
 31
0.0
  0
LINE
  5
3CA7
330
1F
100
AcDbEntity
  8
KANAMONO_SCREW
  6
DASHED1
100
AcDbLine
 10
338.2250568477981
 20
109.8136749201966
 30
0.0
 11
338.063692874654
 21
109.8136749201966
 31
0.0
  0
LINE
  5
3CA8
330
1F
100
AcDbEntity
  8
KANAMONO_SCREW
  6
DASHED1
100
AcDbLine
 10
338.063692874654
 20
109.8136749201966
 30
0.0
 11
337.9636932114635
 21
105.8136883925771
 31
0.0
  0
LINE
  5
3CA9
330
1F
100
AcDbEntity
  8
KANAMONO_SCREW
  6
DASHED1
100
AcDbLine
 10
337.9636932114635
 20
105.8136883925771
 30
0.0
 11
338.1250571539596
 21
105.8136749201966
 31
0.0
  0
LINE
  5
3CAA
330
1F
100
AcDbEntity
  8
KANAMONO_SCREW
  6
DASHED1
100
AcDbLine
 10
338.1250571539596
 20
105.8136749201966
 30
0.0
 11
338.0864207903232
 21
104.1136749201968
 31
0.0
  0
LINE
  5
3CAB
330
1F
100
AcDbEntity
  8
KANAMONO_SCREW
  6
DASHED1
100
AcDbLine
 10
338.0864207903232
 20
104.1136749201968
 30
0.0
 11
337.8364204841616
 21
104.1136749201968
 31
0.0
  0
LINE
  5
3CAC
330
1F
100
AcDbEntity
  8
KANAMONO_SCREW
  6
DASHED1
100
AcDbLine
 10
337.8364204841616
 20
104.1136749201968
 30
0.0
 11
337.750056847798
 21
100.3136749201966
 31
0.0
  0
LINE
  5
3CAD
330
1F
100
AcDbEntity
  8
KANAMONO_SCREW
  6
DASHED1
100
AcDbLine
 10
337.750056847798
 20
100.3136749201966
 30
0.0
 11
338.000056847798
 21
100.3136749201966
 31
0.0
  0
LINE
  5
3CAE
330
1F
100
AcDbEntity
  8
KANAMONO_SCREW
  6
DASHED1
100
AcDbLine
 10
338.000056847798
 20
100.3136749201966
 30
0.0
 11
338.000056847798
 21
98.51367492019702
 31
0.0
  0
LINE
  5
3CAF
330
1F
100
AcDbEntity
  8
KANAMONO_SCREW
  6
DASHED1
100
AcDbLine
 10
338.000056847798
 20
98.51367492019702
 30
0.0
 11
337.750056847798
 21
98.51367492019702
 31
0.0
  0
LINE
  5
3CB0
330
1F
100
AcDbEntity
  8
KANAMONO_SCREW
  6
DASHED1
100
AcDbLine
 10
337.750056847798
 20
98.51367492019702
 30
0.0
 11
337.750056847798
 21
95.91367492019712
 31
0.0
  0
LINE
  5
3CB1
330
1F
100
AcDbEntity
  8
KANAMONO_SCREW
  6
DASHED1
100
AcDbLine
 10
337.750056847798
 20
95.91367492019712
 30
0.0
 11
338.000056847798
 21
95.91367492019712
 31
0.0
  0
LINE
  5
3CB2
330
1F
100
AcDbEntity
  8
KANAMONO_SCREW
  6
DASHED1
100
AcDbLine
 10
338.000056847798
 20
95.91367492019712
 30
0.0
 11
337.1000568477978
 21
92.51367492019667
 31
0.0
  0
LINE
  5
3CB3
330
1F
100
AcDbEntity
  8
KANAMONO_SCREW
  6
DASHED1
100
AcDbLine
 10
337.1000568477978
 20
92.51367492019667
 30
0.0
 11
336.4243585123294
 21
92.51367492019667
 31
0.0
  0
ARC
  5
3CB4
330
1F
100
AcDbEntity
  8
KANAMONO_SCREW
  6
DASHED1
100
AcDbCircle
 10
327.2169273769585
 20
94.31869075029387
 30
0.0
 40
9.382689926641541
100
AcDbArc
 50
326.0494676462092
 51
348.9084511861626
  0
ARC
  5
3CB5
330
1F
100
AcDbEntity
  8
KANAMONO_SCREW
  6
DASHED1
100
AcDbCircle
 10
342.7831863186368
 20
94.31869075029217
 30
0.0
 40
9.382689926640878
100
AcDbArc
 50
191.0915488138277
 51
213.950532353781
  0
LINE
  5
3CB6
330
1F
100
AcDbEntity
  8
KANAMONO_SCREW
  6
DASHED1
100
AcDbLine
 10
333.5757551832661
 20
92.51367492019667
 30
0.0
 11
332.9000568477978
 21
92.51367492019667
 31
0.0
  0
LINE
  5
3CB7
330
1F
100
AcDbEntity
  8
KANAMONO_SCREW
  6
DASHED1
100
AcDbLine
 10
332.9000568477978
 20
92.51367492019667
 30
0.0
 11
332.0000568477976
 21
95.91367492019712
 31
0.0
  0
LINE
  5
3CB8
330
1F
100
AcDbEntity
  8
KANAMONO_SCREW
  6
DASHED1
100
AcDbLine
 10
332.0000568477976
 20
95.91367492019712
 30
0.0
 11
332.2500568477976
 21
95.91367492019712
 31
0.0
  0
LINE
  5
3CB9
330
1F
100
AcDbEntity
  8
KANAMONO_SCREW
  6
DASHED1
100
AcDbLine
 10
332.2500568477976
 20
95.91367492019712
 30
0.0
 11
332.2500568477976
 21
98.51367492019702
 31
0.0
  0
LINE
  5
3CBA
330
1F
100
AcDbEntity
  8
KANAMONO_SCREW
  6
DASHED1
100
AcDbLine
 10
332.2500568477976
 20
98.51367492019702
 30
0.0
 11
332.0000568477976
 21
98.51367492019702
 31
0.0
  0
LINE
  5
3CBB
330
1F
100
AcDbEntity
  8
KANAMONO_SCREW
  6
DASHED1
100
AcDbLine
 10
332.0000568477976
 20
98.51367492019702
 30
0.0
 11
332.0000568477976
 21
100.3136749201966
 31
0.0
  0
LINE
  5
3CBC
330
1F
100
AcDbEntity
  8
KANAMONO_SCREW
  6
DASHED1
100
AcDbLine
 10
332.0000568477976
 20
100.3136749201966
 30
0.0
 11
332.2500568477976
 21
100.3136749201966
 31
0.0
  0
LINE
  5
3CBD
330
1F
100
AcDbEntity
  8
KANAMONO_SCREW
  6
DASHED1
100
AcDbLine
 10
332.2500568477976
 20
100.3136749201966
 30
0.0
 11
332.163693211434
 21
104.1136749201968
 31
0.0
  0
LINE
  5
3CBE
330
1F
100
AcDbEntity
  8
KANAMONO_SCREW
  6
DASHED1
100
AcDbLine
 10
332.163693211434
 20
104.1136749201968
 30
0.0
 11
331.9136929052724
 21
104.1136749201968
 31
0.0
  0
LINE
  5
3CBF
330
1F
100
AcDbEntity
  8
KANAMONO_SCREW
  6
DASHED1
100
AcDbLine
 10
331.9136929052724
 20
104.1136749201968
 30
0.0
 11
331.875056541636
 21
105.8136749201966
 31
0.0
  0
LINE
  5
3CC0
330
1F
100
AcDbEntity
  8
KANAMONO_SCREW
  6
DASHED1
100
AcDbLine
 10
331.875056541636
 20
105.8136749201966
 30
0.0
 11
332.0364204841321
 21
105.8136883925771
 31
0.0
  0
LINE
  5
3CC1
330
1F
100
AcDbEntity
  8
KANAMONO_SCREW
  6
DASHED1
100
AcDbLine
 10
332.0364204841321
 20
105.8136883925771
 30
0.0
 11
331.9364208209416
 21
109.8136749201966
 31
0.0
  0
LINE
  5
3CC2
330
1F
100
AcDbEntity
  8
KANAMONO_SCREW
  6
DASHED1
100
AcDbLine
 10
331.9364208209416
 20
109.8136749201966
 30
0.0
 11
331.7750568477976
 21
109.8136749201966
 31
0.0
  0
LINE
  5
3CC3
330
1F
100
AcDbEntity
  8
KANAMONO_SCREW
  6
DASHED1
100
AcDbLine
 10
331.7750568477976
 20
109.8136749201966
 30
0.0
 11
331.7750568477976
 21
111.5136749201969
 31
0.0
  0
LINE
  5
3CC4
330
1F
100
AcDbEntity
  8
KANAMONO_SCREW
  6
DASHED1
100
AcDbLine
 10
331.7750568477976
 20
111.5136749201969
 30
0.0
 11
331.9364201779993
 21
111.5136749201971
 31
0.0
  0
LINE
  5
3CC5
330
1F
100
AcDbEntity
  8
KANAMONO_SCREW
  6
DASHED1
100
AcDbLine
 10
331.9364201779993
 20
111.5136749201971
 30
0.0
 11
332.2714201779993
 21
115.3136749201966
 31
0.0
  0
LINE
  5
3CC6
330
1F
100
AcDbEntity
  8
KANAMONO_SCREW
  6
DASHED1
100
AcDbLine
 10
332.2714201779993
 20
115.3136749201966
 30
0.0
 11
332.1100568477975
 21
115.3136749201966
 31
0.0
  0
LINE
  5
3CC7
330
1F
100
AcDbEntity
  8
KANAMONO_SCREW
  6
DASHED1
100
AcDbLine
 10
332.1100568477975
 20
115.3136749201966
 30
0.0
 11
332.1100568477975
 21
115.613674920197
 31
0.0
  0
LINE
  5
3CC8
330
1F
100
AcDbEntity
  8
KANAMONO_SCREW
  6
DASHED1
100
AcDbLine
 10
332.1100568477975
 20
115.613674920197
 30
0.0
 11
331.6100568477974
 21
117.5136749201969
 31
0.0
  0
LINE
  5
3CC9
330
1F
100
AcDbEntity
  8
KANAMONO_SCREW
  6
DASHED1
100
AcDbLine
 10
331.6100568477974
 20
117.5136749201969
 30
0.0
 11
331.6100568477974
 21
130.0136749201971
 31
0.0
  0
LINE
  5
3CCA
330
1F
100
AcDbEntity
  8
KANAMONO_SCREW
  6
DASHED1
100
AcDbLine
 10
331.6100568477974
 20
130.0136749201971
 30
0.0
 11
332.2100568477976
 21
130.5136749201971
 31
0.0
  0
LINE
  5
3CCB
330
1F
100
AcDbEntity
  8
KANAMONO_SCREW
  6
DASHED1
100
AcDbLine
 10
332.2100568477976
 20
130.5136749201971
 30
0.0
 11
332.2100568477976
 21
143.5136749201969
 31
0.0
  0
LINE
  5
3CCC
330
1F
100
AcDbEntity
  8
KANAMONO_SCREW
  6
DASHED1
100
AcDbLine
 10
332.2100568477976
 20
143.5136749201969
 30
0.0
 11
331.6100568477966
 21
145.4136749202004
 31
0.0
  0
LINE
  5
3CCD
330
1F
100
AcDbEntity
  8
KANAMONO_SCREW
  6
DASHED1
100
AcDbLine
 10
331.6100568477966
 20
145.4136749202004
 30
0.0
 11
331.610056847795
 21
150.7136749201972
 31
0.0
  0
LINE
  5
3CCE
330
1F
100
AcDbEntity
  8
KANAMONO_SCREW
  6
DASHED1
100
AcDbLine
 10
331.610056847795
 20
150.7136749201972
 30
0.0
 11
332.2100568477948
 21
151.2136749201969
 31
0.0
  0
LINE
  5
3CCF
330
1F
100
AcDbEntity
  8
KANAMONO_SCREW
  6
DASHED1
100
AcDbLine
 10
332.2100568477948
 20
151.2136749201969
 30
0.0
 11
332.1100568477971
 21
151.2136749201969
 31
0.0
  0
LINE
  5
3CD0
330
1F
100
AcDbEntity
  8
KANAMONO_SCREW
  6
DASHED1
100
AcDbLine
 10
332.1100568477971
 20
151.2136749201969
 30
0.0
 11
331.3250568477973
 21
152.0636749201968
 31
0.0
  0
LINE
  5
3CD1
330
1F
100
AcDbEntity
  8
KANAMONO_SCREW
  6
DASHED1
100
AcDbLine
 10
331.3250568477973
 20
152.0636749201968
 30
0.0
 11
331.3250568477968
 21
152.5136749201969
 31
0.0
  0
LINE
  5
3CD2
330
1F
100
AcDbEntity
  8
KANAMONO_SCREW
  6
DASHED1
100
AcDbLine
 10
331.3250568477968
 20
152.5136749201969
 30
0.0
 11
330.5000568477973
 21
153.3386749201965
 31
0.0
  0
LINE
  5
3CD3
330
1F
100
AcDbEntity
  8
KANAMONO_SCREW
  6
DASHED1
100
AcDbLine
 10
330.5000568477973
 20
153.3386749201965
 30
0.0
 11
330.5000568477983
 21
154.0786749201963
 31
0.0
  0
ENDSEC
  0
SECTION
  2
OBJECTS
  0
DICTIONARY
  5
C
330
0
100
AcDbDictionary
281
     1
  3
ACAD_CIP_PREVIOUS_PRODUCT_INFO
350
2EFC
  3
ACAD_COLOR
350
2D8B
  3
ACAD_DETAILVIEWSTYLE
350
2EF7
  3
ACAD_GROUP
350
D
  3
ACAD_LAYOUT
350
1A
  3
ACAD_MATERIAL
350
2D5E
  3
ACAD_MLEADERSTYLE
350
2DA0
  3
ACAD_MLINESTYLE
350
17
  3
ACAD_PLOTSETTINGS
350
19
  3
ACAD_PLOTSTYLENAME
350
E
  3
ACAD_SCALELIST
350
2D8E
  3
ACAD_SECTIONVIEWSTYLE
350
2EF5
  3
ACAD_TABLESTYLE
350
2D8C
  3
ACAD_VISUALSTYLE
350
2D77
  3
ACDB_RECOMPOSE_DATA
350
3CD6
  3
AcDbVariableDictionary
350
1835
  3
AEC_PROPERTY_SET_DEFS
350
2DD2
  3
DWGPROPS
350
3CD7
  0
DICTIONARY
  5
2E0C
330
8
100
AcDbDictionary
280
     1
281
     1
  0
DICTIONARY
  5
2D
330
2
100
AcDbDictionary
280
     1
281
     1
  3
ACAD_LAYERFILTERS
360
2E
  3
ACAD_LAYERSTATES
360
918
  0
DICTIONARY
  5
2DFE
330
10
100
AcDbDictionary
280
     1
281
     1
  3
ADSK_XREC_LAYER_RECONCILED
360
2DFF
  0
DICTIONARY
  5
2E00
330
2388
100
AcDbDictionary
280
     1
281
     1
  3
ADSK_XREC_LAYER_RECONCILED
360
2E01
  0
DICTIONARY
  5
2E02
330
238A
100
AcDbDictionary
280
     1
281
     1
  3
ADSK_XREC_LAYER_RECONCILED
360
2E03
  0
DICTIONARY
  5
2E04
330
2757
100
AcDbDictionary
280
     1
281
     1
  3
ADSK_XREC_LAYER_RECONCILED
360
2E05
  0
DICTIONARY
  5
2E06
330
2758
100
AcDbDictionary
280
     1
281
     1
  3
ADSK_XREC_LAYER_RECONCILED
360
2E07
  0
DICTIONARY
  5
2EFE
330
2EFD
100
AcDbDictionary
280
     1
281
     1
  0
DICTIONARY
  5
3AC4
330
3AC3
100
AcDbDictionary
280
     1
281
     1
  0
DICTIONARY
  5
1C62
330
1F
100
AcDbDictionary
280
     1
281
     1
  3
ACAD_SORTENTS
360
1C63
  0
XRECORD
  5
2EFC
102
{ACAD_REACTORS
330
C
102
}
330
C
100
AcDbXrecord
280
     1
300
ACD
300
2022
300

  0
DICTIONARY
  5
2D8B
102
{ACAD_REACTORS
330
C
102
}
330
C
100
AcDbDictionary
281
     1
  0
DICTIONARY
  5
2EF7
102
{ACAD_REACTORS
330
C
102
}
330
C
100
AcDbDictionary
281
     1
  3
Imperial24
350
34F6
  3
Metric50
350
2EF8
  0
DICTIONARY
  5
D
102
{ACAD_REACTORS
330
C
102
}
330
C
100
AcDbDictionary
281
     1
  0
DICTIONARY
  5
1A
102
{ACAD_REACTORS
330
C
102
}
330
C
100
AcDbDictionary
281
     1
  3
Model
350
22
  3
\U+FF9A\U+FF72\U+FF71\U+FF73\U+FF841
350
1CD1
  0
DICTIONARY
  5
2D5E
102
{ACAD_REACTORS
330
C
102
}
330
C
100
AcDbDictionary
281
     1
  3
ByBlock
350
2D67
  3
ByLayer
350
2D5F
  3
Global
350
2D6F
  0
DICTIONARY
  5
2DA0
102
{ACAD_REACTORS
330
C
102
}
330
C
100
AcDbDictionary
281
     1
  3
Standard
350
2DA1
  0
DICTIONARY
  5
17
102
{ACAD_REACTORS
330
C
102
}
330
C
100
AcDbDictionary
281
     1
  3
Standard
350
18
  0
DICTIONARY
  5
19
102
{ACAD_REACTORS
330
C
102
}
330
C
100
AcDbDictionary
281
     1
  0
ACDBDICTIONARYWDFLT
  5
E
102
{ACAD_REACTORS
330
C
102
}
330
C
100
AcDbDictionary
281
     1
  3
Normal
350
F
  3
通常
350
29
100
AcDbDictionaryWithDefault
340
F
  0
DICTIONARY
  5
2D8E
102
{ACAD_REACTORS
330
C
102
}
330
C
100
AcDbDictionary
281
     1
  3
A0
350
2D8F
  3
A1
350
2D90
  3
A2
350
2D91
  3
A3
350
2D92
  3
A4
350
2D93
  3
A5
350
2D94
  3
A6
350
2D95
  3
A7
350
2D96
  3
A8
350
2D97
  3
A9
350
2D98
  3
B0
350
2D99
  3
B1
350
2D9A
  3
B2
350
2D9B
  3
B3
350
2D9C
  3
B4
350
2D9D
  3
B5
350
2D9E
  3
B6
350
2D9F
  0
DICTIONARY
  5
2EF5
102
{ACAD_REACTORS
330
C
102
}
330
C
100
AcDbDictionary
281
     1
  3
Imperial24
350
34F5
  3
Metric50
350
2EF6
  0
DICTIONARY
  5
2D8C
102
{ACAD_REACTORS
330
C
102
}
330
C
100
AcDbDictionary
281
     1
  3
Standard
350
2D8D
  0
DICTIONARY
  5
2D77
102
{ACAD_REACTORS
330
C
102
}
330
C
100
AcDbDictionary
281
     1
  3
2dWireframe
350
2D7D
  3
3D Hidden
350
2D7F
  3
3dWireframe
350
2D7E
  3
Basic
350
2D7C
  3
Brighten
350
2D83
  3
ColorChange
350
2D87
  3
Conceptual
350
2D80
  3
Dim
350
2D82
  3
EdgeColorOff
350
2D8A
  3
Facepattern
350
2D86
  3
Flat
350
2D78
  3
FlatWithEdges
350
2D79
  3
Gouraud
350
2D7A
  3
GouraudWithEdges
350
2D7B
  3
Hidden
350
2EEF
  3
JitterOff
350
2D88
  3
Linepattern
350
2D85
  3
OverhangOff
350
2D89
  3
Realistic
350
2D81
  3
Shaded
350
2EF4
  3
Shaded with edges
350
2EF3
  3
Shades of Gray
350
2EF0
  3
Sketchy
350
2EF1
  3
Thicken
350
2D84
  3
Wireframe
350
2EEE
  3
X-Ray
350
2EF2
  0
XRECORD
  5
3CD6
102
{ACAD_REACTORS
330
C
102
}
330
C
100
AcDbXrecord
280
     1
 90
        1
330
2D8D
  0
DICTIONARY
  5
1835
102
{ACAD_REACTORS
330
C
102
}
330
C
100
AcDbDictionary
281
     1
  3
CANNOSCALE
350
2E3F
  3
CMLEADERSTYLE
350
2E3E
  3
CTABLESTYLE
350
2E3D
  3
CVIEWDETAILSTYLE
350
3020
  3
CVIEWSECTIONSTYLE
350
3021
  3
DIMASSOC
350
2E41
  3
INDEXCTL
350
2E40
  3
LAYEREVAL
350
3297
  3
LAYERNOTIFY
350
3298
  3
LIGHTINGUNITS
350
3296
  3
MSLTSCALE
350
3295
  3
SORTENTS
350
1836
  3
XCLIPFRAME
350
3CD4
  0
DICTIONARY
  5
2DD2
102
{ACAD_REACTORS
330
C
102
}
330
C
100
AcDbDictionary
281
     1
  0
XRECORD
  5
3CD7
102
{ACAD_REACTORS
330
C
102
}
330
C
100
AcDbXrecord
280
     1
  1
DWGPROPS COOKIE
  2

  3

  4

  6

  7

  8
2020009
  9

300
=
301
=
302
=
303
=
304
=
305
=
306
=
307
=
308
=
309
=
 40
0.2855702777777778
 41
2453276.413761574
 42
2459989.485983796
  1

 90
        0
  0
DICTIONARY
  5
2E
102
{ACAD_REACTORS
330
2D
102
}
330
2D
100
AcDbDictionary
280
     1
281
     1
  0
DICTIONARY
  5
918
102
{ACAD_REACTORS
330
2D
102
}
330
2D
100
AcDbDictionary
281
     1
  0
XRECORD
  5
2DFF
102
{ACAD_REACTORS
330
2DFE
102
}
330
2DFE
100
AcDbXrecord
280
     1
290
     1
  0
XRECORD
  5
2E01
102
{ACAD_REACTORS
330
2E00
102
}
330
2E00
100
AcDbXrecord
280
     1
290
     1
  0
XRECORD
  5
2E03
102
{ACAD_REACTORS
330
2E02
102
}
330
2E02
100
AcDbXrecord
280
     1
290
     1
  0
XRECORD
  5
2E05
102
{ACAD_REACTORS
330
2E04
102
}
330
2E04
100
AcDbXrecord
280
     1
290
     1
  0
XRECORD
  5
2E07
102
{ACAD_REACTORS
330
2E06
102
}
330
2E06
100
AcDbXrecord
280
     1
290
     1
  0
SORTENTSTABLE
  5
1C63
102
{ACAD_REACTORS
330
1C62
102
}
330
1C62
100
AcDbSortentsTable
330
1F
331
2B92
  5
2B97
331
2B93
  5
2B99
331
2B94
  5
2B9A
331
2B95
  5
2B9B
331
2B97
  5
2B9C
331
2B99
  5
2B9D
331
2B9A
  5
2B9F
331
2B9B
  5
2BA0
331
2B9C
  5
2BA1
331
2B9D
  5
2BA2
331
2B9F
  5
2BA3
331
2BA0
  5
2BA4
331
2BA1
  5
2BA5
331
2BA2
  5
2BA6
331
2BA3
  5
2BA7
331
2BA4
  5
2BA8
331
2BA5
  5
2BA9
331
2BA6
  5
2BAA
331
2BA7
  5
2BAB
331
2BA8
  5
2BAC
331
2BA9
  5
2BAD
331
2BAA
  5
2BAE
331
2BAB
  5
2BAF
331
2BAC
  5
2BB0
331
2BAD
  5
2BB1
331
2BAE
  5
2BB2
331
2BAF
  5
2BB3
331
2BB0
  5
2BB4
331
2BB1
  5
2BB5
331
2BB2
  5
2DFB
331
2BB3
  5
2DFC
331
2BB4
  5
2DFD
331
2BB5
  5
2F14
331
2DFB
  5
3B82
331
2DFC
  5
3B83
331
2DFD
  5
3B84
331
2F14
  5
3B8D
331
2F15
  5
3B8E
331
2F17
  5
3B8F
331
2F18
  5
3B90
331
2F19
  5
3B91
331
3B6E
  5
2B92
331
3B6F
  5
2B93
331
3B70
  5
2B94
331
3B71
  5
2B95
331
3B72
  5
2F15
331
3B73
  5
2F17
331
3B74
  5
2F18
331
3B75
  5
2F19
331
3B76
  5
3B6E
331
3B77
  5
3B6F
331
3B78
  5
3B70
331
3B79
  5
3B71
331
3B7A
  5
3B72
331
3B7B
  5
3B73
331
3B7C
  5
3B74
331
3B7D
  5
3B75
331
3B7E
  5
3B76
331
3B7F
  5
3B77
331
3B80
  5
3B78
331
3B81
  5
3B79
331
3B82
  5
3B7A
331
3B83
  5
3B7B
331
3B84
  5
3B7C
331
3B85
  5
3B7D
331
3B86
  5
3B7E
331
3B87
  5
3B7F
331
3B88
  5
3B80
331
3B89
  5
3B81
331
3B8A
  5
3B85
331
3B8B
  5
3B86
331
3B8C
  5
3B87
331
3B8D
  5
3B88
331
3B8E
  5
3B89
331
3B8F
  5
3B8A
331
3B90
  5
3B8B
331
3B91
  5
3B8C
  0
ACDBDETAILVIEWSTYLE
  5
34F6
102
{ACAD_XDICTIONARY
360
3D1A
102
}
102
{ACAD_REACTORS
330
2EF7
102
}
330
2EF7
100
AcDbModelDocViewStyle
 70
     0
  3
Imperial24
290
     0
100
AcDbDetailViewStyle
 70
     0
 71
     0
 90
        3
 71
     1
340
11
 40
0.24
340
0
 40
0.24
300

 40
0.36
280
     3
 71
     2
340
16
 90
       25
 71
     3
340
11
 40
0.24
 90
        1
 40
0.75
 90
        1
300
%<\AcVar ViewType \f "%tc1">% %<\AcVar ViewDetailId>%\PSCALE %<\AcVar ViewScale \f "%sn">%
 71
     4
340
16
 90
       25
340
16
 90
       25
280
     0
  0
ACDBDETAILVIEWSTYLE
  5
2EF8
102
{ACAD_XDICTIONARY
360
3D16
102
}
102
{ACAD_REACTORS
330
2EF7
102
}
330
2EF7
100
AcDbModelDocViewStyle
 70
     0
  3
Metric50
290
     0
100
AcDbDetailViewStyle
 70
     0
 71
     0
 90
        3
 71
     1
340
11
 40
5.0
340
0
 40
5.0
300

 40
0.0
280
     1
 71
     2
340
16
 90
       25
 71
     3
340
11
 40
5.0
 90
        0
 40
15.0
 90
        1
300
%<\AcVar ViewDetailId>% (%<\AcVar ViewScale \f "%sn">%)
 71
     4
340
16
 90
       25
340
16
 90
       25
280
     0
1001
ACAD
1000
AcRTDxfName
1000
ACDBDETAILVIEWSTYLE
  0
LAYOUT
  5
22
102
{ACAD_XDICTIONARY
360
3CD8
102
}
102
{ACAD_REACTORS
330
1A
102
}
330
1A
100
AcDbPlotSettings
  1

  2
Canon LBP3800 LIPSLX
  4
A4
  6

 40
5.873749732971191
 41
5.873747825622558
 42
5.873748779296875
 43
5.873748779296875
 44
209.9733276367187
 45
296.9259948730469
 46
0.61
 47
0.59
 48
444.9983463649091
 49
-1090.000000918417
140
2395.001653364909
141
1659.999999081583
142
1.0
143
10.0
 70
 11940
 72
     1
 73
     1
 74
     2
  7
monochrome.ctb
 75
     0
147
0.1
148
0.0
149
0.0
100
AcDbLayout
  1
Model
 70
     1
 71
     0
 10
0.0
 20
0.0
 11
12.0
 21
9.0
 12
0.0
 22
0.0
 32
0.0
 14
0.0
 24
0.0
 34
0.0
 15
0.0
 25
0.0
 35
0.0
146
0.0
 13
0.0
 23
0.0
 33
0.0
 16
1.0
 26
0.0
 36
0.0
 17
0.0
 27
1.0
 37
0.0
 76
     0
330
1F
331
2D5C
  0
LAYOUT
  5
1CD1
102
{ACAD_XDICTIONARY
360
3CDA
102
}
102
{ACAD_REACTORS
330
1A
102
}
330
1A
100
AcDbPlotSettings
  1

  2
\\ek_srv\Canon LBP-880 LIPS4
  4

  6

 40
0.0
 41
0.0
 42
0.0
 43
0.0
 44
0.0
 45
0.0
 46
0.0
 47
0.0
 48
0.0
 49
0.0
140
0.0
141
0.0
142
1.0
143
1.0
 70
   688
 72
     0
 73
     0
 74
     5
  7
monochrome.ctb
 75
    16
147
1.0
148
0.0
149
0.0
100
AcDbLayout
  1
\U+FF9A\U+FF72\U+FF71\U+FF73\U+FF841
 70
     1
 71
     1
 10
0.0
 20
0.0
 11
12.0
 21
9.0
 12
0.0
 22
0.0
 32
0.0
 14
0.0
 24
0.0
 34
0.0
 15
0.0
 25
0.0
 35
0.0
146
0.0
 13
0.0
 23
0.0
 33
0.0
 16
1.0
 26
0.0
 36
0.0
 17
0.0
 27
1.0
 37
0.0
 76
     0
330
1CD0
  0
MATERIAL
  5
2D67
102
{ACAD_XDICTIONARY
360
2D68
102
}
102
{ACAD_REACTORS
330
2D5E
102
}
330
2D5E
100
AcDbMaterial
  1
ByBlock
 72
     0
 43
0.0008202099737533
 43
0.0
 43
0.0
 43
0.0
 43
0.0
 43
0.0008202099737533
 43
0.0
 43
0.0
 43
0.0
 43
0.0
 43
1.0
 43
0.0
 43
0.0
 43
0.0
 43
0.0
 43
1.0
 77
     0
 47
0.0008202099737533
 47
0.0
 47
0.0
 47
0.0
 47
0.0
 47
0.0008202099737533
 47
0.0
 47
0.0
 47
0.0
 47
0.0
 47
1.0
 47
0.0
 47
0.0
 47
0.0
 47
0.0
 47
1.0
171
     0
 49
0.0008202099737533
 49
0.0
 49
0.0
 49
0.0
 49
0.0
 49
0.0008202099737533
 49
0.0
 49
0.0
 49
0.0
 49
0.0
 49
1.0
 49
0.0
 49
0.0
 49
0.0
 49
0.0
 49
1.0
175
     0
142
0.0008202099737533
142
0.0
142
0.0
142
0.0
142
0.0
142
0.0008202099737533
142
0.0
142
0.0
142
0.0
142
0.0
142
1.0
142
0.0
142
0.0
142
0.0
142
0.0
142
1.0
179
     0
144
0.0008202099737533
144
0.0
144
0.0
144
0.0
144
0.0
144
0.0008202099737533
144
0.0
144
0.0
144
0.0
144
0.0
144
1.0
144
0.0
144
0.0
144
0.0
144
0.0
144
1.0
147
0.0008202099737533
147
0.0
147
0.0
147
0.0
147
0.0
147
0.0008202099737533
147
0.0
147
0.0
147
0.0
147
0.0
147
1.0
147
0.0
147
0.0
147
0.0
147
0.0
147
1.0
  0
MATERIAL
  5
2D5F
102
{ACAD_XDICTIONARY
360
2D60
102
}
102
{ACAD_REACTORS
330
2D5E
102
}
330
2D5E
100
AcDbMaterial
  1
ByLayer
 72
     0
 43
0.0008202099737533
 43
0.0
 43
0.0
 43
0.0
 43
0.0
 43
0.0008202099737533
 43
0.0
 43
0.0
 43
0.0
 43
0.0
 43
1.0
 43
0.0
 43
0.0
 43
0.0
 43
0.0
 43
1.0
 77
     0
 47
0.0008202099737533
 47
0.0
 47
0.0
 47
0.0
 47
0.0
 47
0.0008202099737533
 47
0.0
 47
0.0
 47
0.0
 47
0.0
 47
1.0
 47
0.0
 47
0.0
 47
0.0
 47
0.0
 47
1.0
171
     0
 49
0.0008202099737533
 49
0.0
 49
0.0
 49
0.0
 49
0.0
 49
0.0008202099737533
 49
0.0
 49
0.0
 49
0.0
 49
0.0
 49
1.0
 49
0.0
 49
0.0
 49
0.0
 49
0.0
 49
1.0
175
     0
142
0.0008202099737533
142
0.0
142
0.0
142
0.0
142
0.0
142
0.0008202099737533
142
0.0
142
0.0
142
0.0
142
0.0
142
1.0
142
0.0
142
0.0
142
0.0
142
0.0
142
1.0
179
     0
144
0.0008202099737533
144
0.0
144
0.0
144
0.0
144
0.0
144
0.0008202099737533
144
0.0
144
0.0
144
0.0
144
0.0
144
1.0
144
0.0
144
0.0
144
0.0
144
0.0
144
1.0
147
0.0008202099737533
147
0.0
147
0.0
147
0.0
147
0.0
147
0.0008202099737533
147
0.0
147
0.0
147
0.0
147
0.0
147
1.0
147
0.0
147
0.0
147
0.0
147
0.0
147
1.0
  0
MATERIAL
  5
2D6F
102
{ACAD_XDICTIONARY
360
2D70
102
}
102
{ACAD_REACTORS
330
2D5E
102
}
330
2D5E
100
AcDbMaterial
  1
Global
 72
     0
 43
0.0008202099737533
 43
0.0
 43
0.0
 43
0.0
 43
0.0
 43
0.0008202099737533
 43
0.0
 43
0.0
 43
0.0
 43
0.0
 43
1.0
 43
0.0
 43
0.0
 43
0.0
 43
0.0
 43
1.0
 77
     0
 47
0.0008202099737533
 47
0.0
 47
0.0
 47
0.0
 47
0.0
 47
0.0008202099737533
 47
0.0
 47
0.0
 47
0.0
 47
0.0
 47
1.0
 47
0.0
 47
0.0
 47
0.0
 47
0.0
 47
1.0
171
     0
 49
0.0008202099737533
 49
0.0
 49
0.0
 49
0.0
 49
0.0
 49
0.0008202099737533
 49
0.0
 49
0.0
 49
0.0
 49
0.0
 49
1.0
 49
0.0
 49
0.0
 49
0.0
 49
0.0
 49
1.0
175
     0
142
0.0008202099737533
142
0.0
142
0.0
142
0.0
142
0.0
142
0.0008202099737533
142
0.0
142
0.0
142
0.0
142
0.0
142
1.0
142
0.0
142
0.0
142
0.0
142
0.0
142
1.0
179
     0
144
0.0008202099737533
144
0.0
144
0.0
144
0.0
144
0.0
144
0.0008202099737533
144
0.0
144
0.0
144
0.0
144
0.0
144
1.0
144
0.0
144
0.0
144
0.0
144
0.0
144
1.0
147
0.0008202099737533
147
0.0
147
0.0
147
0.0
147
0.0
147
0.0008202099737533
147
0.0
147
0.0
147
0.0
147
0.0
147
1.0
147
0.0
147
0.0
147
0.0
147
0.0
147
1.0
  0
MLEADERSTYLE
  5
2DA1
102
{ACAD_REACTORS
330
2DA0
102
}
330
2DA0
100
AcDbMLeaderStyle
170
     2
171
     1
172
     0
 90
        2
 40
0.0
 41
0.0
173
     1
 91
-1056964608
340
14
 92
       -2
290
     1
 42
2.0
291
     1
 43
0.36
  3
Standard
 44
4.0
300

342
11
174
     1
178
     6
175
     1
176
     0
 93
-1056964608
 45
4.0
292
     0
297
     0
 46
4.0
 94
-1056964608
 47
1.0
 49
1.0
140
1.0
293
     1
141
0.0
294
     1
177
     0
142
1.0
295
     0
296
     0
143
0.125
1001
ACAD_MLEADERVER
1070
     2
  0
MLINESTYLE
  5
18
102
{ACAD_REACTORS
330
17
102
}
330
17
100
AcDbMlineStyle
  2
STANDARD
 70
     0
  3

 62
   256
 51
90.0
 52
90.0
 71
     2
 49
0.5
 62
   256
  6
BYLAYER
 49
-0.5
 62
   256
  6
BYLAYER
  0
ACDBPLACEHOLDER
  5
F
102
{ACAD_REACTORS
330
E
102
}
330
E
  0
ACDBPLACEHOLDER
  5
29
102
{ACAD_REACTORS
330
E
102
}
330
E
  0
SCALE
  5
2D8F
102
{ACAD_REACTORS
330
2D8E
102
}
330
2D8E
100
AcDbScale
 70
     0
300
1:1
140
1.0
141
1.0
290
     1
  0
SCALE
  5
2D90
102
{ACAD_REACTORS
330
2D8E
102
}
330
2D8E
100
AcDbScale
 70
     0
300
1:2
140
1.0
141
2.0
290
     0
  0
SCALE
  5
2D91
102
{ACAD_REACTORS
330
2D8E
102
}
330
2D8E
100
AcDbScale
 70
     0
300
1:4
140
1.0
141
4.0
290
     0
  0
SCALE
  5
2D92
102
{ACAD_REACTORS
330
2D8E
102
}
330
2D8E
100
AcDbScale
 70
     0
300
1:5
140
1.0
141
5.0
290
     0
  0
SCALE
  5
2D93
102
{ACAD_REACTORS
330
2D8E
102
}
330
2D8E
100
AcDbScale
 70
     0
300
1:8
140
1.0
141
8.0
290
     0
  0
SCALE
  5
2D94
102
{ACAD_REACTORS
330
2D8E
102
}
330
2D8E
100
AcDbScale
 70
     0
300
1:10
140
1.0
141
10.0
290
     0
  0
SCALE
  5
2D95
102
{ACAD_REACTORS
330
2D8E
102
}
330
2D8E
100
AcDbScale
 70
     0
300
1:16
140
1.0
141
16.0
290
     0
  0
SCALE
  5
2D96
102
{ACAD_REACTORS
330
2D8E
102
}
330
2D8E
100
AcDbScale
 70
     0
300
1:20
140
1.0
141
20.0
290
     0
  0
SCALE
  5
2D97
102
{ACAD_REACTORS
330
2D8E
102
}
330
2D8E
100
AcDbScale
 70
     0
300
1:30
140
1.0
141
30.0
290
     0
  0
SCALE
  5
2D98
102
{ACAD_REACTORS
330
2D8E
102
}
330
2D8E
100
AcDbScale
 70
     0
300
1:40
140
1.0
141
40.0
290
     0
  0
SCALE
  5
2D99
102
{ACAD_REACTORS
330
2D8E
102
}
330
2D8E
100
AcDbScale
 70
     0
300
1:50
140
1.0
141
50.0
290
     0
  0
SCALE
  5
2D9A
102
{ACAD_REACTORS
330
2D8E
102
}
330
2D8E
100
AcDbScale
 70
     0
300
1:100
140
1.0
141
100.0
290
     0
  0
SCALE
  5
2D9B
102
{ACAD_REACTORS
330
2D8E
102
}
330
2D8E
100
AcDbScale
 70
     0
300
2:1
140
2.0
141
1.0
290
     0
  0
SCALE
  5
2D9C
102
{ACAD_REACTORS
330
2D8E
102
}
330
2D8E
100
AcDbScale
 70
     0
300
4:1
140
4.0
141
1.0
290
     0
  0
SCALE
  5
2D9D
102
{ACAD_REACTORS
330
2D8E
102
}
330
2D8E
100
AcDbScale
 70
     0
300
8:1
140
8.0
141
1.0
290
     0
  0
SCALE
  5
2D9E
102
{ACAD_REACTORS
330
2D8E
102
}
330
2D8E
100
AcDbScale
 70
     0
300
10:1
140
10.0
141
1.0
290
     0
  0
SCALE
  5
2D9F
102
{ACAD_REACTORS
330
2D8E
102
}
330
2D8E
100
AcDbScale
 70
     0
300
100:1
140
100.0
141
1.0
290
     0
  0
ACDBSECTIONVIEWSTYLE
  5
34F5
102
{ACAD_XDICTIONARY
360
3D18
102
}
102
{ACAD_REACTORS
330
2EF5
102
}
330
2EF5
100
AcDbModelDocViewStyle
 70
     0
  3
Imperial24
290
     0
100
AcDbSectionViewStyle
 70
     0
 71
     0
 90
       78
 71
     1
340
11
 40
0.24
340
0
340
0
 40
0.24
300
I, O, Q, S, X, Z
 40
0.48
 90
        3
 40
0.18
 90
        1
 71
     2
340
16
 90
       25
340
16
 90
       50
 40
0.24
 40
0.0
 40
0.24
 71
     3
340
11
 40
0.24
 90
        1
 40
0.75
 90
        1
300
%<\AcVar ViewType \f "%tc1">% %<\AcVar ViewSectionStartId>%-%<\AcVar ViewSectionEndId>%\PSCALE %<\AcVar ViewScale \f "%sn">%
 71
     4
300
ANSI31
 40
1.0
 90
        0
290
     0
290
     0
 90
        6
 40
0.0
 40
1.570796326794896
 40
0.2617993877991494
 40
1.308996938995747
 40
-0.2617993877991494
 40
1.832595714594046
  0
ACDBSECTIONVIEWSTYLE
  5
2EF6
102
{ACAD_XDICTIONARY
360
3D14
102
}
102
{ACAD_REACTORS
330
2EF5
102
}
330
2EF5
100
AcDbModelDocViewStyle
 70
     0
  3
Metric50
290
     0
100
AcDbSectionViewStyle
 70
     0
 71
     0
 90
      102
 71
     1
340
11
 40
5.0
340
0
340
0
 40
5.0
300
I, O, Q, S, X, Z
 40
10.0
 90
        0
 40
2.5
 90
        0
 71
     2
340
16
 90
       25
340
16
 90
       50
 40
5.0
 40
2.5
 40
5.0
 71
     3
340
11
 40
5.0
 90
        0
 40
15.0
 90
        1
300
%<\AcVar ViewSectionStartId>%-%<\AcVar ViewSectionEndId>% (%<\AcVar ViewScale \f "%sn">%)
 71
     4
300
ANSI31
 40
1.0
 90
        0
290
     0
290
     0
 90
        6
 40
0.0
 40
1.570796326794896
 40
0.2617993877991494
 40
1.308996938995747
 40
-0.2617993877991494
 40
1.832595714594046
1001
ACAD
1000
AcRTDxfName
1000
ACDBSECTIONVIEWSTYLE
  0
TABLESTYLE
  5
2D8D
102
{ACAD_XDICTIONARY
360
2E08
102
}
102
{ACAD_REACTORS
330
2D8C
102
}
330
2D8C
100
AcDbTableStyle
  3
Standard
 70
     0
 71
     0
 40
1.5
 41
1.5
280
     0
281
     0
  7
Standard
140
4.5
170
     2
 62
     0
 63
     7
283
     0
274
    -2
284
     1
 64
     0
275
    -2
285
     1
 65
     0
276
    -2
286
     1
 66
     0
277
    -2
287
     1
 67
     0
278
    -2
288
     1
 68
     0
279
    -2
289
     1
 69
     0
  7
Standard
140
6.0
170
     5
 62
     0
 63
     7
283
     0
274
    -2
284
     1
 64
     0
275
    -2
285
     1
 65
     0
276
    -2
286
     1
 66
     0
277
    -2
287
     1
 67
     0
278
    -2
288
     1
 68
     0
279
    -2
289
     1
 69
     0
  7
Standard
140
4.5
170
     5
 62
     0
 63
     7
283
     0
274
    -2
284
     1
 64
     0
275
    -2
285
     1
 65
     0
276
    -2
286
     1
 66
     0
277
    -2
287
     1
 67
     0
278
    -2
288
     1
 68
     0
279
    -2
289
     1
 69
     0
  0
VISUALSTYLE
  5
2D7D
102
{ACAD_XDICTIONARY
360
3CE9
102
}
102
{ACAD_REACTORS
330
2D77
102
}
330
2D77
100
AcDbVisualStyle
  2
2dWireframe
 70
     4
 71
     0
 72
     2
 73
     0
 90
        0
 40
-0.6
 41
-30.0
 62
     5
 63
     7
 74
     1
 91
        4
 64
     7
 65
   257
 75
     1
175
     1
 42
1.0
 92
        0
 66
   257
 43
1.0
 76
     1
 77
     6
 78
     2
 67
     7
 79
     5
170
     0
171
     0
290
     0
174
     0
 93
        1
 44
0.0
173
     0
291
     0
 45
0.0
1001
ACAD
1000
AcDbSavedByObjectVersion
1070
     0
  0
VISUALSTYLE
  5
2D7F
102
{ACAD_XDICTIONARY
360
3CED
102
}
102
{ACAD_REACTORS
330
2D77
102
}
330
2D77
100
AcDbVisualStyle
  2
3D Hidden
 70
     6
 71
     1
 72
     2
 73
     2
 90
        0
 40
-0.6
 41
-30.0
 62
     5
 63
     7
 74
     2
 91
        2
 64
     7
 65
   257
 75
     2
175
     1
 42
179.0
 92
        0
 66
   257
 43
1.0
 76
     1
 77
     6
 78
     2
 67
     7
 79
     3
170
     0
171
     0
290
     0
174
     0
 93
        1
 44
0.0
173
     0
291
     0
 45
0.0
1001
ACAD
1000
AcDbSavedByObjectVersion
1070
     0
  0
VISUALSTYLE
  5
2D7E
102
{ACAD_XDICTIONARY
360
3CEB
102
}
102
{ACAD_REACTORS
330
2D77
102
}
330
2D77
100
AcDbVisualStyle
  2
3dWireframe
 70
     5
 71
     0
 72
     2
 73
     0
 90
        0
 40
-0.6
 41
-30.0
 62
     5
 63
     7
 74
     1
 91
        4
 64
     7
 65
   257
 75
     1
175
     1
 42
1.0
 92
        0
 66
   257
 43
1.0
 76
     1
 77
     6
 78
     2
 67
     7
 79
     5
170
     0
171
     0
290
     0
174
     0
 93
        1
 44
0.0
173
     0
291
     0
 45
0.0
1001
ACAD
1000
AcDbSavedByObjectVersion
1070
     0
  0
VISUALSTYLE
  5
2D7C
102
{ACAD_XDICTIONARY
360
3CE7
102
}
102
{ACAD_REACTORS
330
2D77
102
}
330
2D77
100
AcDbVisualStyle
  2
Basic
 70
     7
 71
     1
 72
     0
 73
     1
 90
        0
 40
-0.6
 41
-30.0
 62
     5
 63
     7
 74
     0
 91
        4
 64
     7
 65
   257
 75
     1
175
     1
 42
1.0
 92
        8
 66
     7
 43
1.0
 76
     1
 77
     6
 78
     2
 67
     7
 79
     5
170
     0
171
     0
290
     0
174
     0
 93
        1
 44
0.0
173
     0
291
     1
 45
0.0
1001
ACAD
1000
AcDbSavedByObjectVersion
1070
     0
  0
VISUALSTYLE
  5
2D83
102
{ACAD_XDICTIONARY
360
3CF5
102
}
102
{ACAD_REACTORS
330
2D77
102
}
330
2D77
100
AcDbVisualStyle
  2
Brighten
 70
    12
 71
     2
 72
     2
 73
     0
 90
        0
 40
-0.6
 41
-30.0
 62
     5
 63
     7
 74
     1
 91
        4
 64
     7
 65
   257
 75
     1
175
     1
 42
1.0
 92
        8
 66
     7
 43
1.0
 76
     1
 77
     6
 78
     2
 67
     7
 79
     5
170
     0
171
     0
290
     0
174
     0
 93
        1
 44
50.0
173
     0
291
     1
 45
0.0
1001
ACAD
1000
AcDbSavedByObjectVersion
1070
     0
  0
VISUALSTYLE
  5
2D87
102
{ACAD_XDICTIONARY
360
3CFD
102
}
102
{ACAD_REACTORS
330
2D77
102
}
330
2D77
100
AcDbVisualStyle
  2
ColorChange
 70
    16
 71
     2
 72
     2
 73
     3
 90
        0
 40
-0.6
 41
-30.0
 62
     5
 63
     8
 74
     1
 91
        4
 64
     7
 65
   257
 75
     1
175
     1
 42
1.0
 92
        8
 66
     8
 43
1.0
 76
     1
 77
     6
 78
     2
 67
     7
 79
     5
170
     0
171
     0
290
     0
174
     0
 93
        1
 44
0.0
173
     0
291
     1
 45
0.0
1001
ACAD
1000
AcDbSavedByObjectVersion
1070
     0
  0
VISUALSTYLE
  5
2D80
102
{ACAD_XDICTIONARY
360
3CEF
102
}
102
{ACAD_REACTORS
330
2D77
102
}
330
2D77
100
AcDbVisualStyle
  2
Conceptual
 70
     9
 71
     3
 72
     2
 73
     0
 90
        0
 40
-0.6
 41
-30.0
 62
     5
 63
     7
 74
     2
 91
        2
 64
     7
 65
   257
 75
     1
175
     1
 42
179.0
 92
        8
 66
     7
 43
1.0
 76
     1
 77
     6
 78
     2
 67
     7
 79
     3
170
     0
171
     0
290
     0
174
     0
 93
        1
 44
0.0
173
     0
291
     0
 45
0.0
1001
ACAD
1000
AcDbSavedByObjectVersion
1070
     0
  0
VISUALSTYLE
  5
2D82
102
{ACAD_XDICTIONARY
360
3CF3
102
}
102
{ACAD_REACTORS
330
2D77
102
}
330
2D77
100
AcDbVisualStyle
  2
Dim
 70
    11
 71
     2
 72
     2
 73
     0
 90
        0
 40
-0.6
 41
-30.0
 62
     5
 63
     7
 74
     1
 91
        4
 64
     7
 65
   257
 75
     1
175
     1
 42
1.0
 92
        8
 66
     7
 43
1.0
 76
     1
 77
     6
 78
     2
 67
     7
 79
     5
170
     0
171
     0
290
     0
174
     0
 93
        1
 44
-50.0
173
     0
291
     1
 45
0.0
1001
ACAD
1000
AcDbSavedByObjectVersion
1070
     0
  0
VISUALSTYLE
  5
2D8A
102
{ACAD_XDICTIONARY
360
3D03
102
}
102
{ACAD_REACTORS
330
2D77
102
}
330
2D77
100
AcDbVisualStyle
  2
EdgeColorOff
 70
    22
 71
     2
 72
     2
 73
     0
 90
        0
 40
-0.6
 41
-30.0
 62
     5
 63
     7
 74
     1
 91
        4
 64
     7
 65
   257
 75
     1
175
     1
 42
1.0
 92
        8
 66
     7
 43
1.0
 76
     1
 77
     6
 78
     2
 67
     7
 79
     5
170
     0
171
     0
290
     0
174
     0
 93
        1
 44
0.0
173
     0
291
     1
 45
0.0
1001
ACAD
1000
AcDbSavedByObjectVersion
1070
     0
  0
VISUALSTYLE
  5
2D86
102
{ACAD_XDICTIONARY
360
3CFB
102
}
102
{ACAD_REACTORS
330
2D77
102
}
330
2D77
100
AcDbVisualStyle
  2
Facepattern
 70
    15
 71
     2
 72
     2
 73
     0
 90
        0
 40
-0.6
 41
-30.0
 62
     5
 63
     7
 74
     1
 91
        4
 64
     7
 65
   257
 75
     1
175
     1
 42
1.0
 92
        8
 66
     7
 43
1.0
 76
     1
 77
     6
 78
     2
 67
     7
 79
     5
170
     0
171
     0
290
     0
174
     0
 93
        1
 44
0.0
173
     0
291
     1
 45
0.0
1001
ACAD
1000
AcDbSavedByObjectVersion
1070
     0
  0
VISUALSTYLE
  5
2D78
102
{ACAD_XDICTIONARY
360
3CDF
102
}
102
{ACAD_REACTORS
330
2D77
102
}
330
2D77
100
AcDbVisualStyle
  2
Flat
 70
     0
 71
     2
 72
     1
 73
     1
 90
        2
 40
-0.6
 41
30.0
 62
     5
 63
     7
 74
     0
 91
        4
 64
     7
 65
   257
 75
     1
175
     1
 42
1.0
 92
        8
 66
     7
 43
1.0
 76
     1
 77
     6
 78
     2
 67
     7
 79
     5
170
     0
171
     0
290
     0
174
     0
 93
       13
 44
0.0
173
     0
291
     1
 45
0.0
1001
ACAD
1000
AcDbSavedByObjectVersion
1070
     0
  0
VISUALSTYLE
  5
2D79
102
{ACAD_XDICTIONARY
360
3CE1
102
}
102
{ACAD_REACTORS
330
2D77
102
}
330
2D77
100
AcDbVisualStyle
  2
FlatWithEdges
 70
     1
 71
     2
 72
     1
 73
     1
 90
        2
 40
-0.6
 41
30.0
 62
     5
 63
     7
 74
     1
 91
        4
 64
     7
 65
   257
 75
     1
175
     1
 42
1.0
 92
        0
 66
   257
 43
1.0
 76
     1
 77
     6
 78
     2
 67
     7
 79
     5
170
     0
171
     0
290
     0
174
     0
 93
       13
 44
0.0
173
     0
291
     1
 45
0.0
1001
ACAD
1000
AcDbSavedByObjectVersion
1070
     0
  0
VISUALSTYLE
  5
2D7A
102
{ACAD_XDICTIONARY
360
3CE3
102
}
102
{ACAD_REACTORS
330
2D77
102
}
330
2D77
100
AcDbVisualStyle
  2
Gouraud
 70
     2
 71
     2
 72
     2
 73
     1
 90
        2
 40
-0.6
 41
30.0
 62
     5
 63
     7
 74
     0
 91
        4
 64
     7
 65
   257
 75
     1
175
     1
 42
1.0
 92
        0
 66
     7
 43
1.0
 76
     1
 77
     6
 78
     2
 67
     7
 79
     5
170
     0
171
     0
290
     0
174
     0
 93
       13
 44
0.0
173
     0
291
     1
 45
0.0
1001
ACAD
1000
AcDbSavedByObjectVersion
1070
     0
  0
VISUALSTYLE
  5
2D7B
102
{ACAD_XDICTIONARY
360
3CE5
102
}
102
{ACAD_REACTORS
330
2D77
102
}
330
2D77
100
AcDbVisualStyle
  2
GouraudWithEdges
 70
     3
 71
     2
 72
     2
 73
     1
 90
        2
 40
-0.6
 41
30.0
 62
     5
 63
     7
 74
     1
 91
        4
 64
     7
 65
   257
 75
     1
175
     1
 42
1.0
 92
        0
 66
   257
 43
1.0
 76
     1
 77
     6
 78
     2
 67
     7
 79
     5
170
     0
171
     0
290
     0
174
     0
 93
       13
 44
0.0
173
     0
291
     1
 45
0.0
1001
ACAD
1000
AcDbSavedByObjectVersion
1070
     0
  0
VISUALSTYLE
  5
2EEF
102
{ACAD_XDICTIONARY
360
3D08
102
}
102
{ACAD_REACTORS
330
2D77
102
}
330
2D77
100
AcDbVisualStyle
  2
Hidden
 70
     6
 71
     1
 72
     2
 73
     2
 90
        0
 40
-0.6
 41
-30.0
 62
     5
 63
     7
 74
     2
 91
        2
 64
     7
 65
   257
 75
     2
175
     1
 42
40.0
 92
        0
 66
   257
 43
1.0
 76
     1
 77
     6
 78
     2
 67
     7
 79
     3
170
     0
171
     0
290
     0
174
     0
 93
        1
 44
0.0
173
     0
291
     0
 45
0.0
1001
ACAD
1000
AcDbSavedByObjectVersion
1070
     0
  0
VISUALSTYLE
  5
2D88
102
{ACAD_XDICTIONARY
360
3CFF
102
}
102
{ACAD_REACTORS
330
2D77
102
}
330
2D77
100
AcDbVisualStyle
  2
JitterOff
 70
    20
 71
     2
 72
     2
 73
     0
 90
        0
 40
-0.6
 41
-30.0
 62
     5
 63
     7
 74
     1
 91
        4
 64
     7
 65
   257
 75
     1
175
     1
 42
1.0
 92
       10
 66
     7
 43
1.0
 76
     1
 77
     6
 78
     2
 67
     7
 79
     5
170
     0
171
     0
290
     0
174
     0
 93
        1
 44
0.0
173
     0
291
     1
 45
0.0
1001
ACAD
1000
AcDbSavedByObjectVersion
1070
     0
  0
VISUALSTYLE
  5
2D85
102
{ACAD_XDICTIONARY
360
3CF9
102
}
102
{ACAD_REACTORS
330
2D77
102
}
330
2D77
100
AcDbVisualStyle
  2
Linepattern
 70
    14
 71
     2
 72
     2
 73
     0
 90
        0
 40
-0.6
 41
-30.0
 62
     5
 63
     7
 74
     1
 91
        4
 64
     7
 65
   257
 75
     7
175
     7
 42
1.0
 92
        8
 66
     7
 43
1.0
 76
     1
 77
     6
 78
     2
 67
     7
 79
     5
170
     0
171
     0
290
     0
174
     0
 93
        1
 44
0.0
173
     0
291
     1
 45
0.0
1001
ACAD
1000
AcDbSavedByObjectVersion
1070
     0
  0
VISUALSTYLE
  5
2D89
102
{ACAD_XDICTIONARY
360
3D01
102
}
102
{ACAD_REACTORS
330
2D77
102
}
330
2D77
100
AcDbVisualStyle
  2
OverhangOff
 70
    21
 71
     2
 72
     2
 73
     0
 90
        0
 40
-0.6
 41
-30.0
 62
     5
 63
     7
 74
     1
 91
        4
 64
     7
 65
   257
 75
     1
175
     1
 42
1.0
 92
        9
 66
     7
 43
1.0
 76
     1
 77
     6
 78
     2
 67
     7
 79
     5
170
     0
171
     0
290
     0
174
     0
 93
        1
 44
0.0
173
     0
291
     1
 45
0.0
1001
ACAD
1000
AcDbSavedByObjectVersion
1070
     0
  0
VISUALSTYLE
  5
2D81
102
{ACAD_XDICTIONARY
360
3CF1
102
}
102
{ACAD_REACTORS
330
2D77
102
}
330
2D77
100
AcDbVisualStyle
  2
Realistic
 70
     8
 71
     2
 72
     2
 73
     0
 90
        0
 40
-0.6
 41
-30.0
 62
     5
 63
     7
 74
     1
 91
        0
 64
     7
 65
   257
 75
     1
175
     1
 42
1.0
 92
        8
 66
     8
 43
1.0
 76
     1
 77
     6
 78
     2
 67
     7
 79
     5
170
     0
171
     0
290
     0
174
     0
 93
       13
 44
0.0
173
     0
291
     0
 45
0.0
1001
ACAD
1000
AcDbSavedByObjectVersion
1070
     0
  0
VISUALSTYLE
  5
2EF4
102
{ACAD_XDICTIONARY
360
3D12
102
}
102
{ACAD_REACTORS
330
2D77
102
}
330
2D77
100
AcDbVisualStyle
  2
Shaded
 70
    27
 71
     2
 72
     2
 73
     1
 90
        2
 40
-0.6
 41
30.0
 62
     5
 63
     7
 74
     0
 91
        4
 64
     7
 65
   257
 75
     1
175
     1
 42
1.0
 92
        8
 66
   257
 43
1.0
 76
     1
 77
     6
 78
     2
 67
     8
 79
     3
170
     0
171
     0
290
     0
174
     0
 93
        5
 44
0.0
173
     0
291
     0
 45
0.0
1001
ACAD
1000
AcDbSavedByObjectVersion
1070
     0
  0
VISUALSTYLE
  5
2EF3
102
{ACAD_XDICTIONARY
360
3D10
102
}
102
{ACAD_REACTORS
330
2D77
102
}
330
2D77
100
AcDbVisualStyle
  2
Shaded with edges
 70
    26
 71
     2
 72
     2
 73
     1
 90
        2
 40
-0.6
 41
30.0
 62
     5
 63
     7
 74
     1
 91
        2
 64
     7
 65
   257
 75
     2
175
     1
 42
1.0
 92
        8
 66
   257
 43
1.0
 76
     1
 77
     6
 78
     2
 67
     7
 79
     3
170
     0
171
     0
290
     0
174
     0
 93
        5
 44
0.0
173
     0
291
     0
 45
0.0
1001
ACAD
1000
AcDbSavedByObjectVersion
1070
     0
  0
VISUALSTYLE
  5
2EF0
102
{ACAD_XDICTIONARY
360
3D0A
102
}
102
{ACAD_REACTORS
330
2D77
102
}
330
2D77
100
AcDbVisualStyle
  2
Shades of Gray
 70
    23
 71
     2
 72
     2
 73
     3
 90
        0
 40
-0.6
 41
-30.0
 62
     5
 63
     7
 74
     2
 91
        2
 64
     7
 65
     7
 75
     1
175
     1
 42
40.0
 92
        8
 66
     7
 43
1.0
 76
     1
 77
     6
 78
     2
 67
     7
 79
     3
170
     0
171
     0
290
     0
174
     0
 93
        1
 44
0.0
173
     0
291
     0
 45
0.0
1001
ACAD
1000
AcDbSavedByObjectVersion
1070
     0
  0
VISUALSTYLE
  5
2EF1
102
{ACAD_XDICTIONARY
360
3D0C
102
}
102
{ACAD_REACTORS
330
2D77
102
}
330
2D77
100
AcDbVisualStyle
  2
Sketchy
 70
    24
 71
     1
 72
     2
 73
     2
 90
        0
 40
-0.6
 41
-30.0
 62
     5
 63
     7
 74
     2
 91
        2
 64
     7
 65
     7
 75
     1
175
     1
 42
40.0
 92
       11
 66
     7
 43
1.0
 76
     1
 77
     6
 78
     2
 67
     7
 79
     6
170
     0
171
     0
290
     0
174
     0
 93
        1
 44
0.0
173
     0
291
     0
 45
0.0
1001
ACAD
1000
AcDbSavedByObjectVersion
1070
     0
  0
VISUALSTYLE
  5
2D84
102
{ACAD_XDICTIONARY
360
3CF7
102
}
102
{ACAD_REACTORS
330
2D77
102
}
330
2D77
100
AcDbVisualStyle
  2
Thicken
 70
    13
 71
     2
 72
     2
 73
     0
 90
        0
 40
-0.6
 41
-30.0
 62
     5
 63
     7
 74
     1
 91
        4
 64
     7
 65
   257
 75
     1
175
     1
 42
1.0
 92
       12
 66
     7
 43
1.0
 76
     1
 77
     6
 78
     2
 67
     7
 79
     5
170
     0
171
     0
290
     0
174
     0
 93
        1
 44
0.0
173
     0
291
     1
 45
0.0
1001
ACAD
1000
AcDbSavedByObjectVersion
1070
     0
  0
VISUALSTYLE
  5
2EEE
102
{ACAD_XDICTIONARY
360
3D06
102
}
102
{ACAD_REACTORS
330
2D77
102
}
330
2D77
100
AcDbVisualStyle
  2
Wireframe
 70
     5
 71
     0
 72
     2
 73
     0
 90
        0
 40
-0.6
 41
-30.0
 62
     5
 63
     7
 74
     1
 91
        4
 64
     7
 65
   257
 75
     1
175
     1
 42
1.0
 92
        0
 66
   257
 43
1.0
 76
     1
 77
     6
 78
     2
 67
     7
 79
     3
170
     0
171
     0
290
     0
174
     0
 93
        1
 44
0.0
173
     0
291
     0
 45
0.0
1001
ACAD
1000
AcDbSavedByObjectVersion
1070
     0
  0
VISUALSTYLE
  5
2EF2
102
{ACAD_XDICTIONARY
360
3D0E
102
}
102
{ACAD_REACTORS
330
2D77
102
}
330
2D77
100
AcDbVisualStyle
  2
X-Ray
 70
    25
 71
     2
 72
     2
 73
     1
 90
        1
 40
0.5
 41
-30.0
 62
     5
 63
     7
 74
     1
 91
        0
 64
     7
 65
   257
 75
     1
175
     1
 42
1.0
 92
        8
 66
     7
 43
1.0
 76
     1
 77
     6
 78
     2
 67
     7
 79
     3
170
     0
171
     0
290
     0
174
     0
 93
       13
 44
0.0
173
     0
291
     0
 45
0.0
1001
ACAD
1000
AcDbSavedByObjectVersion
1070
     0
  0
DICTIONARYVAR
  5
2E3F
102
{ACAD_REACTORS
330
1835
102
}
330
1835
100
DictionaryVariables
280
     0
  1
1:1
  0
DICTIONARYVAR
  5
2E3E
102
{ACAD_REACTORS
330
1835
102
}
330
1835
100
DictionaryVariables
280
     0
  1
STANDARD
  0
DICTIONARYVAR
  5
2E3D
102
{ACAD_REACTORS
330
1835
102
}
330
1835
100
DictionaryVariables
280
     0
  1
STANDARD
  0
DICTIONARYVAR
  5
3020
102
{ACAD_REACTORS
330
1835
102
}
330
1835
100
DictionaryVariables
280
     0
  1
Metric50
  0
DICTIONARYVAR
  5
3021
102
{ACAD_REACTORS
330
1835
102
}
330
1835
100
DictionaryVariables
280
     0
  1
Metric50
  0
DICTIONARYVAR
  5
2E41
102
{ACAD_REACTORS
330
1835
102
}
330
1835
100
DictionaryVariables
280
     0
  1
1
  0
DICTIONARYVAR
  5
2E40
102
{ACAD_REACTORS
330
1835
102
}
330
1835
100
DictionaryVariables
280
     0
  1
0
  0
DICTIONARYVAR
  5
3297
102
{ACAD_REACTORS
330
1835
102
}
330
1835
100
DictionaryVariables
280
     0
  1
1
  0
DICTIONARYVAR
  5
3298
102
{ACAD_REACTORS
330
1835
102
}
330
1835
100
DictionaryVariables
280
     0
  1
15
  0
DICTIONARYVAR
  5
3296
102
{ACAD_REACTORS
330
1835
102
}
330
1835
100
DictionaryVariables
280
     0
  1
0
  0
DICTIONARYVAR
  5
3295
102
{ACAD_REACTORS
330
1835
102
}
330
1835
100
DictionaryVariables
280
     0
  1
0
  0
DICTIONARYVAR
  5
1836
102
{ACAD_REACTORS
330
1835
102
}
330
1835
100
DictionaryVariables
280
     0
  1
127
  0
DICTIONARYVAR
  5
3CD4
102
{ACAD_REACTORS
330
1835
102
}
330
1835
100
DictionaryVariables
280
     0
  1
2
  0
DICTIONARY
  5
3D1A
330
34F6
100
AcDbDictionary
280
     1
281
     1
  3
ACAD_XREC_ROUNDTRIP
360
3D1B
  0
DICTIONARY
  5
3D16
330
2EF8
100
AcDbDictionary
280
     1
281
     1
  3
ACAD_XREC_ROUNDTRIP
360
3D17
  0
DICTIONARY
  5
3CD8
330
22
100
AcDbDictionary
280
     1
281
     1
  3
ACAD_XREC_ROUNDTRIP
360
3CD9
  0
DICTIONARY
  5
3CDA
330
1CD1
100
AcDbDictionary
280
     1
281
     1
  3
ACAD_XREC_ROUNDTRIP
360
3CDB
  0
DICTIONARY
  5
2D68
330
2D67
100
AcDbDictionary
280
     1
281
     1
  3
ACAD_XREC_ROUNDTRIP
360
3CDD
  3
BUMPTILE
360
2D6A
  3
DIFFUSETILE
360
2D69
  3
OPACITYTILE
360
2D6D
  3
REFLECTIONTILE
360
2D6C
  3
REFRACTIONTILE
360
2D6E
  3
SPECULARTILE
360
2D6B
  0
DICTIONARY
  5
2D60
330
2D5F
100
AcDbDictionary
280
     1
281
     1
  3
ACAD_XREC_ROUNDTRIP
360
3CDC
  3
BUMPTILE
360
2D62
  3
DIFFUSETILE
360
2D61
  3
OPACITYTILE
360
2D65
  3
REFLECTIONTILE
360
2D64
  3
REFRACTIONTILE
360
2D66
  3
SPECULARTILE
360
2D63
  0
DICTIONARY
  5
2D70
330
2D6F
100
AcDbDictionary
280
     1
281
     1
  3
ACAD_XREC_ROUNDTRIP
360
3CDE
  3
BUMPTILE
360
2D72
  3
DIFFUSETILE
360
2D71
  3
OPACITYTILE
360
2D75
  3
REFLECTIONTILE
360
2D74
  3
REFRACTIONTILE
360
2D76
  3
SPECULARTILE
360
2D73
  0
DICTIONARY
  5
3D18
330
34F5
100
AcDbDictionary
280
     1
281
     1
  3
ACAD_XREC_ROUNDTRIP
360
3D19
  0
DICTIONARY
  5
3D14
330
2EF6
100
AcDbDictionary
280
     1
281
     1
  3
ACAD_XREC_ROUNDTRIP
360
3D15
  0
DICTIONARY
  5
2E08
330
2D8D
100
AcDbDictionary
280
     1
281
     1
  3
ACAD_ROUNDTRIP_2008_TABLESTYLE_CELLSTYLEMAP
360
3CD5
  3
ACAD_XREC_ROUNDTRIP
360
3D05
  0
DICTIONARY
  5
3CE9
330
2D7D
100
AcDbDictionary
280
     1
281
     1
  3
ACAD_XREC_ROUNDTRIP
360
3CEA
  0
DICTIONARY
  5
3CED
330
2D7F
100
AcDbDictionary
280
     1
281
     1
  3
ACAD_XREC_ROUNDTRIP
360
3CEE
  0
DICTIONARY
  5
3CEB
330
2D7E
100
AcDbDictionary
280
     1
281
     1
  3
ACAD_XREC_ROUNDTRIP
360
3CEC
  0
DICTIONARY
  5
3CE7
330
2D7C
100
AcDbDictionary
280
     1
281
     1
  3
ACAD_XREC_ROUNDTRIP
360
3CE8
  0
DICTIONARY
  5
3CF5
330
2D83
100
AcDbDictionary
280
     1
281
     1
  3
ACAD_XREC_ROUNDTRIP
360
3CF6
  0
DICTIONARY
  5
3CFD
330
2D87
100
AcDbDictionary
280
     1
281
     1
  3
ACAD_XREC_ROUNDTRIP
360
3CFE
  0
DICTIONARY
  5
3CEF
330
2D80
100
AcDbDictionary
280
     1
281
     1
  3
ACAD_XREC_ROUNDTRIP
360
3CF0
  0
DICTIONARY
  5
3CF3
330
2D82
100
AcDbDictionary
280
     1
281
     1
  3
ACAD_XREC_ROUNDTRIP
360
3CF4
  0
DICTIONARY
  5
3D03
330
2D8A
100
AcDbDictionary
280
     1
281
     1
  3
ACAD_XREC_ROUNDTRIP
360
3D04
  0
DICTIONARY
  5
3CFB
330
2D86
100
AcDbDictionary
280
     1
281
     1
  3
ACAD_XREC_ROUNDTRIP
360
3CFC
  0
DICTIONARY
  5
3CDF
330
2D78
100
AcDbDictionary
280
     1
281
     1
  3
ACAD_XREC_ROUNDTRIP
360
3CE0
  0
DICTIONARY
  5
3CE1
330
2D79
100
AcDbDictionary
280
     1
281
     1
  3
ACAD_XREC_ROUNDTRIP
360
3CE2
  0
DICTIONARY
  5
3CE3
330
2D7A
100
AcDbDictionary
280
     1
281
     1
  3
ACAD_XREC_ROUNDTRIP
360
3CE4
  0
DICTIONARY
  5
3CE5
330
2D7B
100
AcDbDictionary
280
     1
281
     1
  3
ACAD_XREC_ROUNDTRIP
360
3CE6
  0
DICTIONARY
  5
3D08
330
2EEF
100
AcDbDictionary
280
     1
281
     1
  3
ACAD_XREC_ROUNDTRIP
360
3D09
  0
DICTIONARY
  5
3CFF
330
2D88
100
AcDbDictionary
280
     1
281
     1
  3
ACAD_XREC_ROUNDTRIP
360
3D00
  0
DICTIONARY
  5
3CF9
330
2D85
100
AcDbDictionary
280
     1
281
     1
  3
ACAD_XREC_ROUNDTRIP
360
3CFA
  0
DICTIONARY
  5
3D01
330
2D89
100
AcDbDictionary
280
     1
281
     1
  3
ACAD_XREC_ROUNDTRIP
360
3D02
  0
DICTIONARY
  5
3CF1
330
2D81
100
AcDbDictionary
280
     1
281
     1
  3
ACAD_XREC_ROUNDTRIP
360
3CF2
  0
DICTIONARY
  5
3D12
330
2EF4
100
AcDbDictionary
280
     1
281
     1
  3
ACAD_XREC_ROUNDTRIP
360
3D13
  0
DICTIONARY
  5
3D10
330
2EF3
100
AcDbDictionary
280
     1
281
     1
  3
ACAD_XREC_ROUNDTRIP
360
3D11
  0
DICTIONARY
  5
3D0A
330
2EF0
100
AcDbDictionary
280
     1
281
     1
  3
ACAD_XREC_ROUNDTRIP
360
3D0B
  0
DICTIONARY
  5
3D0C
330
2EF1
100
AcDbDictionary
280
     1
281
     1
  3
ACAD_XREC_ROUNDTRIP
360
3D0D
  0
DICTIONARY
  5
3CF7
330
2D84
100
AcDbDictionary
280
     1
281
     1
  3
ACAD_XREC_ROUNDTRIP
360
3CF8
  0
DICTIONARY
  5
3D06
330
2EEE
100
AcDbDictionary
280
     1
281
     1
  3
ACAD_XREC_ROUNDTRIP
360
3D07
  0
DICTIONARY
  5
3D0E
330
2EF2
100
AcDbDictionary
280
     1
281
     1
  3
ACAD_XREC_ROUNDTRIP
360
3D0F
  0
XRECORD
  5
3D1B
102
{ACAD_REACTORS
330
3D1A
102
}
330
3D1A
100
AcDbXrecord
280
     1
102
DISPLAYNAME
  1
Imperial24
102
FLAGS
 90
        0
  0
XRECORD
  5
3D17
102
{ACAD_REACTORS
330
3D16
102
}
330
3D16
100
AcDbXrecord
280
     1
102
DISPLAYNAME
  1
Metric50
102
FLAGS
 90
        0
  0
XRECORD
  5
3CD9
102
{ACAD_REACTORS
330
3CD8
102
}
330
3CD8
100
AcDbXrecord
280
     1
102
SHADEPLOT
 70
     0
102
SHADEPLOTRESLEVEL
 70
     2
102
SHADEPLOTCUSTOMDPI
 70
   300
  0
XRECORD
  5
3CDB
102
{ACAD_REACTORS
330
3CDA
102
}
330
3CDA
100
AcDbXrecord
280
     1
102
SHADEPLOT
 70
     0
102
SHADEPLOTRESLEVEL
 70
     2
102
SHADEPLOTCUSTOMDPI
 70
   300
  0
XRECORD
  5
3CDD
102
{ACAD_REACTORS
330
2D68
102
}
330
2D68
100
AcDbXrecord
280
     1
102
MATERIAL
148
0.0
149
0.0
149
0.0
 93
        0
 94
      127
282
     0
 72
     0
 77
     0
171
     0
175
     0
179
     0
273
     0
  0
XRECORD
  5
2D6A
102
{ACAD_REACTORS
330
2D68
102
}
330
2D68
100
AcDbXrecord
280
     1
270
     1
271
     1
  0
XRECORD
  5
2D69
102
{ACAD_REACTORS
330
2D68
102
}
330
2D68
100
AcDbXrecord
280
     1
270
     1
271
     1
  0
XRECORD
  5
2D6D
102
{ACAD_REACTORS
330
2D68
102
}
330
2D68
100
AcDbXrecord
280
     1
270
     1
271
     1
  0
XRECORD
  5
2D6C
102
{ACAD_REACTORS
330
2D68
102
}
330
2D68
100
AcDbXrecord
280
     1
270
     1
271
     1
  0
XRECORD
  5
2D6E
102
{ACAD_REACTORS
330
2D68
102
}
330
2D68
100
AcDbXrecord
280
     1
270
     1
271
     1
  0
XRECORD
  5
2D6B
102
{ACAD_REACTORS
330
2D68
102
}
330
2D68
100
AcDbXrecord
280
     1
270
     1
271
     1
  0
XRECORD
  5
3CDC
102
{ACAD_REACTORS
330
2D60
102
}
330
2D60
100
AcDbXrecord
280
     1
102
MATERIAL
148
0.0
149
0.0
149
0.0
 93
        0
 94
      127
282
     0
 72
     0
 77
     0
171
     0
175
     0
179
     0
273
     0
  0
XRECORD
  5
2D62
102
{ACAD_REACTORS
330
2D60
102
}
330
2D60
100
AcDbXrecord
280
     1
270
     1
271
     1
  0
XRECORD
  5
2D61
102
{ACAD_REACTORS
330
2D60
102
}
330
2D60
100
AcDbXrecord
280
     1
270
     1
271
     1
  0
XRECORD
  5
2D65
102
{ACAD_REACTORS
330
2D60
102
}
330
2D60
100
AcDbXrecord
280
     1
270
     1
271
     1
  0
XRECORD
  5
2D64
102
{ACAD_REACTORS
330
2D60
102
}
330
2D60
100
AcDbXrecord
280
     1
270
     1
271
     1
  0
XRECORD
  5
2D66
102
{ACAD_REACTORS
330
2D60
102
}
330
2D60
100
AcDbXrecord
280
     1
270
     1
271
     1
  0
XRECORD
  5
2D63
102
{ACAD_REACTORS
330
2D60
102
}
330
2D60
100
AcDbXrecord
280
     1
270
     1
271
     1
  0
XRECORD
  5
3CDE
102
{ACAD_REACTORS
330
2D70
102
}
330
2D70
100
AcDbXrecord
280
     1
102
MATERIAL
148
0.0
149
0.0
149
0.0
 93
        0
 94
      127
282
     0
 72
     0
 77
     0
171
     0
175
     0
179
     0
273
     0
  0
XRECORD
  5
2D72
102
{ACAD_REACTORS
330
2D70
102
}
330
2D70
100
AcDbXrecord
280
     1
270
     1
271
     1
  0
XRECORD
  5
2D71
102
{ACAD_REACTORS
330
2D70
102
}
330
2D70
100
AcDbXrecord
280
     1
270
     1
271
     1
  0
XRECORD
  5
2D75
102
{ACAD_REACTORS
330
2D70
102
}
330
2D70
100
AcDbXrecord
280
     1
270
     1
271
     1
  0
XRECORD
  5
2D74
102
{ACAD_REACTORS
330
2D70
102
}
330
2D70
100
AcDbXrecord
280
     1
270
     1
271
     1
  0
XRECORD
  5
2D76
102
{ACAD_REACTORS
330
2D70
102
}
330
2D70
100
AcDbXrecord
280
     1
270
     1
271
     1
  0
XRECORD
  5
2D73
102
{ACAD_REACTORS
330
2D70
102
}
330
2D70
100
AcDbXrecord
280
     1
270
     1
271
     1
  0
XRECORD
  5
3D19
102
{ACAD_REACTORS
330
3D18
102
}
330
3D18
100
AcDbXrecord
280
     1
102
DISPLAYNAME
  1
Imperial24
102
FLAGS
 90
        0
  0
XRECORD
  5
3D15
102
{ACAD_REACTORS
330
3D14
102
}
330
3D14
100
AcDbXrecord
280
     1
102
DISPLAYNAME
  1
Metric50
102
FLAGS
 90
        0
  0
CELLSTYLEMAP
  5
3CD5
102
{ACAD_REACTORS
330
2E08
102
}
330
2E08
100
AcDbCellStyleMap
 90
        3
300
CELLSTYLE
  1
TABLEFORMAT_BEGIN
 90
        5
170
     1
 91
        0
 92
    32768
 62
   257
 93
        1
300
CONTENTFORMAT
  1
CONTENTFORMAT_BEGIN
 90
        0
 91
        0
 92
      512
 93
        0
300

 40
0.0
140
1.0
 94
        5
 62
     0
340
11
144
6.0
309
CONTENTFORMAT_END
171
     1
301
MARGIN
  1
CELLMARGIN_BEGIN
 40
1.5
 40
1.5
 40
1.5
 40
1.5
 40
4.5
 40
4.5
309
CELLMARGIN_END
 94
        6
 95
        1
302
GRIDFORMAT
  1
GRIDFORMAT_BEGIN
 90
        0
 91
        1
 62
     0
 92
       -2
340
0
 93
        0
 40
1.125
309
GRIDFORMAT_END
 95
        2
302
GRIDFORMAT
  1
GRIDFORMAT_BEGIN
 90
        0
 91
        1
 62
     0
 92
       -2
340
0
 93
        0
 40
1.125
309
GRIDFORMAT_END
 95
        4
302
GRIDFORMAT
  1
GRIDFORMAT_BEGIN
 90
        0
 91
        1
 62
     0
 92
       -2
340
0
 93
        0
 40
1.125
309
GRIDFORMAT_END
 95
        8
302
GRIDFORMAT
  1
GRIDFORMAT_BEGIN
 90
        0
 91
        1
 62
     0
 92
       -2
340
0
 93
        0
 40
1.125
309
GRIDFORMAT_END
 95
       16
302
GRIDFORMAT
  1
GRIDFORMAT_BEGIN
 90
        0
 91
        1
 62
     0
 92
       -2
340
0
 93
        0
 40
1.125
309
GRIDFORMAT_END
 95
       32
302
GRIDFORMAT
  1
GRIDFORMAT_BEGIN
 90
        0
 91
        1
 62
     0
 92
       -2
340
0
 93
        0
 40
1.125
309
GRIDFORMAT_END
309
TABLEFORMAT_END
  1
CELLSTYLE_BEGIN
 90
        1
 91
        1
300
_TITLE
309
CELLSTYLE_END
300
CELLSTYLE
  1
TABLEFORMAT_BEGIN
 90
        5
170
     1
 91
        0
 92
        0
 62
   257
 93
        1
300
CONTENTFORMAT
  1
CONTENTFORMAT_BEGIN
 90
        0
 91
        0
 92
      512
 93
        0
300

 40
0.0
140
1.0
 94
        5
 62
     0
340
11
144
4.5
309
CONTENTFORMAT_END
171
     1
301
MARGIN
  1
CELLMARGIN_BEGIN
 40
1.5
 40
1.5
 40
1.5
 40
1.5
 40
4.5
 40
4.5
309
CELLMARGIN_END
 94
        6
 95
        1
302
GRIDFORMAT
  1
GRIDFORMAT_BEGIN
 90
        0
 91
        1
 62
     0
 92
       -2
340
0
 93
        0
 40
1.125
309
GRIDFORMAT_END
 95
        2
302
GRIDFORMAT
  1
GRIDFORMAT_BEGIN
 90
        0
 91
        1
 62
     0
 92
       -2
340
0
 93
        0
 40
1.125
309
GRIDFORMAT_END
 95
        4
302
GRIDFORMAT
  1
GRIDFORMAT_BEGIN
 90
        0
 91
        1
 62
     0
 92
       -2
340
0
 93
        0
 40
1.125
309
GRIDFORMAT_END
 95
        8
302
GRIDFORMAT
  1
GRIDFORMAT_BEGIN
 90
        0
 91
        1
 62
     0
 92
       -2
340
0
 93
        0
 40
1.125
309
GRIDFORMAT_END
 95
       16
302
GRIDFORMAT
  1
GRIDFORMAT_BEGIN
 90
        0
 91
        1
 62
     0
 92
       -2
340
0
 93
        0
 40
1.125
309
GRIDFORMAT_END
 95
       32
302
GRIDFORMAT
  1
GRIDFORMAT_BEGIN
 90
        0
 91
        1
 62
     0
 92
       -2
340
0
 93
        0
 40
1.125
309
GRIDFORMAT_END
309
TABLEFORMAT_END
  1
CELLSTYLE_BEGIN
 90
        2
 91
        1
300
_HEADER
309
CELLSTYLE_END
300
CELLSTYLE
  1
TABLEFORMAT_BEGIN
 90
        5
170
     1
 91
        0
 92
        0
 62
   257
 93
        1
300
CONTENTFORMAT
  1
CONTENTFORMAT_BEGIN
 90
        0
 91
        0
 92
      512
 93
        0
300

 40
0.0
140
1.0
 94
        2
 62
     0
340
11
144
4.5
309
CONTENTFORMAT_END
171
     1
301
MARGIN
  1
CELLMARGIN_BEGIN
 40
1.5
 40
1.5
 40
1.5
 40
1.5
 40
4.5
 40
4.5
309
CELLMARGIN_END
 94
        6
 95
        1
302
GRIDFORMAT
  1
GRIDFORMAT_BEGIN
 90
        0
 91
        1
 62
     0
 92
       -2
340
0
 93
        0
 40
1.125
309
GRIDFORMAT_END
 95
        2
302
GRIDFORMAT
  1
GRIDFORMAT_BEGIN
 90
        0
 91
        1
 62
     0
 92
       -2
340
0
 93
        0
 40
1.125
309
GRIDFORMAT_END
 95
        4
302
GRIDFORMAT
  1
GRIDFORMAT_BEGIN
 90
        0
 91
        1
 62
     0
 92
       -2
340
0
 93
        0
 40
1.125
309
GRIDFORMAT_END
 95
        8
302
GRIDFORMAT
  1
GRIDFORMAT_BEGIN
 90
        0
 91
        1
 62
     0
 92
       -2
340
0
 93
        0
 40
1.125
309
GRIDFORMAT_END
 95
       16
302
GRIDFORMAT
  1
GRIDFORMAT_BEGIN
 90
        0
 91
        1
 62
     0
 92
       -2
340
0
 93
        0
 40
1.125
309
GRIDFORMAT_END
 95
       32
302
GRIDFORMAT
  1
GRIDFORMAT_BEGIN
 90
        0
 91
        1
 62
     0
 92
       -2
340
0
 93
        0
 40
1.125
309
GRIDFORMAT_END
309
TABLEFORMAT_END
  1
CELLSTYLE_BEGIN
 90
        3
 91
        2
300
_DATA
309
CELLSTYLE_END
  0
XRECORD
  5
3D05
102
{ACAD_REACTORS
330
2E08
102
}
330
2E08
100
AcDbXrecord
280
     1
102
ACAD_ROUNDTRIP_PRE2007_TABLESTYLE
 90
      512
 91
        0
  1

 92
      512
 93
        0
  2

 94
      512
 95
        0
  3

  0
XRECORD
  5
3CEA
102
{ACAD_REACTORS
330
3CE9
102
}
330
3CE9
100
AcDbXrecord
280
     1
102
RTVSPost2010Prop28
280
     1
102
RTVSPost2010PropOp28
 70
     1
102
RTVSPost2010Prop29
280
     1
102
RTVSPost2010PropOp29
 70
     1
102
RTVSPost2010Prop30
280
     0
102
RTVSPost2010PropOp30
 70
     1
102
RTVSPost2010Prop31
280
     0
102
RTVSPost2010PropOp31
 70
     1
102
RTVSPost2010Prop32
280
     0
102
RTVSPost2010PropOp32
 70
     1
102
RTVSPost2010Prop33
280
     0
102
RTVSPost2010PropOp33
 70
     1
102
RTVSPost2010Prop34
280
     0
102
RTVSPost2010PropOp34
 70
     1
102
RTVSPost2010Prop35
280
     0
102
RTVSPost2010PropOp35
 70
     1
102
RTVSPost2010Prop36
280
     0
102
RTVSPost2010PropOp36
 70
     1
102
RTVSPost2010Prop37
 90
       50
102
RTVSPost2010PropOp37
 70
     1
102
RTVSPost2010Prop38
140
0.0
102
RTVSPost2010PropOp38
 70
     1
102
RTVSPost2010Prop39
140
1.0
102
RTVSPost2010PropOp39
 70
     1
102
RTVSPost2010Prop40
 90
        0
102
RTVSPost2010PropOp40
 70
     1
102
RTVSPost2010Prop41ColorIndex
 90
       18
102
RTVSPost2010Prop41ColorRGB
 90
        0
102
RTVSPost2010PropOp41
 70
     1
102
RTVSPost2010Prop42
 90
       50
102
RTVSPost2010PropOp42
 70
     1
102
RTVSPost2010Prop43
 90
        3
102
RTVSPost2010PropOp43
 70
     1
102
RTVSPost2010Prop44ColorIndex
 90
        5
102
RTVSPost2010Prop44ColorRGB
 90
      255
102
RTVSPost2010PropOp44
 70
     1
102
RTVSPost2010Prop45
280
     0
102
RTVSPost2010PropOp45
 70
     1
102
RTVSPost2010Prop46
 90
       50
102
RTVSPost2010PropOp46
 70
     1
102
RTVSPost2010Prop47
 90
       50
102
RTVSPost2010PropOp47
 70
     1
102
RTVSPost2010Prop48
 90
       50
102
RTVSPost2010PropOp48
 70
     1
102
RTVSPost2010Prop49
280
     0
102
RTVSPost2010PropOp49
 70
     1
102
RTVSPost2010Prop50
 90
       50
102
RTVSPost2010PropOp50
 70
     1
102
RTVSPost2010Prop51ColorIndex
 90
      256
102
RTVSPost2010Prop51ColorRGB
 90
-16777216
102
RTVSPost2010PropOp51
 70
     0
102
RTVSPost2010Prop52
140
1.0
102
RTVSPost2010PropOp52
 70
     0
102
RTVSPost2010Prop53
 90
        2
102
RTVSPost2010PropOp53
 70
     1
102
RTVSPost2010Prop54
  1
strokes_ogs.tif
102
RTVSPost2010PropOp54
 70
     1
102
RTVSPost2010Prop55
280
     0
102
RTVSPost2010PropOp55
 70
     1
102
RTVSPost2010Prop56
140
1.0
102
RTVSPost2010PropOp56
 70
     1
102
RTVSPost2010Prop57
140
1.0
102
RTVSPost2010PropOp57
 70
     1
102
RTVSPropertyOp0
 70
     1
102
RTVSPropertyOp1
 70
     1
102
RTVSPropertyOp2
 70
     1
102
RTVSPropertyOp3
 70
     1
102
RTVSPropertyOp4
 70
     1
102
RTVSPropertyOp5
 70
     1
102
RTVSPropertyOp6
 70
     1
102
RTVSPropertyOp7
 70
     1
102
RTVSPropertyOp8
 70
     1
102
RTVSPropertyOp9
 70
     1
102
RTVSPropertyOp10
 70
     1
102
RTVSPropertyOp11
 70
     1
102
RTVSPropertyOp12
 70
     1
102
RTVSPropertyOp13
 70
     1
102
RTVSPropertyOp14
 70
     1
102
RTVSPropertyOp15
 70
     1
102
RTVSPropertyOp16
 70
     1
102
RTVSPropertyOp17
 70
     1
102
RTVSPropertyOp18
 70
     1
102
RTVSPropertyOp19
 70
     1
102
RTVSPropertyOp20
 70
     1
102
RTVSPropertyOp21
 70
     1
102
RTVSPropertyOp22
 70
     1
102
RTVSPropertyOp23
 70
     1
102
RTVSPropertyOp24
 70
     1
102
RTVSPropertyOp25
 70
     1
102
RTVSPropertyOp26
 70
     1
102
RTVSPropertyOp27
 70
     1
102
RTVSPropertyOp28
 70
     1
102
RTVSPropertyOp29
 70
     1
102
RTVSPropertyOp30
 70
     1
102
RTVSPropertyOp31
 70
     1
102
RTVSPropertyOp32
 70
     1
102
RTVSPropertyOp33
 70
     1
102
RTVSPropertyOp34
 70
     1
102
RTVSPropertyOp35
 70
     1
102
RTVSPropertyOp36
 70
     1
102
RTVSPropertyOp37
 70
     1
102
RTVSPropertyOp38
 70
     1
102
RTVSPropertyOp39
 70
     1
102
RTVSPropertyOp40
 70
     1
102
RTVSPropertyOp41
 70
     1
102
RTVSPropertyOp42
 70
     1
102
RTVSPropertyOp43
 70
     1
102
RTVSPropertyOp44
 70
     1
102
RTVSPropertyOp45
 70
     1
102
RTVSPropertyOp46
 70
     1
102
RTVSPropertyOp47
 70
     1
102
RTVSPropertyOp48
 70
     1
102
RTVSPropertyOp49
 70
     1
102
RTVSPropertyOp50
 70
     1
102
RTVSPropertyOp51
 70
     0
102
RTVSPropertyOp52
 70
     0
102
RTVSPropertyOp53
 70
     1
102
RTVSPropertyOp54
 70
     1
102
RTVSPropertyOp55
 70
     1
102
RTVSPropertyOp56
 70
     1
102
RTVSPropertyOp57
 70
     1
102
RTVSPropertyOp58
 70
     1
102
RTVSPropertyOp59
 70
     1
102
RTVSPropertyOp60
 70
     1
102
RTVSPropertyOp61
 70
     1
102
RTVSPropertyOp62
 70
     1
  0
XRECORD
  5
3CEE
102
{ACAD_REACTORS
330
3CED
102
}
330
3CED
100
AcDbXrecord
280
     1
102
RTVSPost2010Prop28
280
     0
102
RTVSPost2010PropOp28
 70
     1
102
RTVSPost2010Prop29
280
     1
102
RTVSPost2010PropOp29
 70
     1
102
RTVSPost2010Prop30
280
     1
102
RTVSPost2010PropOp30
 70
     1
102
RTVSPost2010Prop31
280
     0
102
RTVSPost2010PropOp31
 70
     1
102
RTVSPost2010Prop32
280
     0
102
RTVSPost2010PropOp32
 70
     1
102
RTVSPost2010Prop33
280
     0
102
RTVSPost2010PropOp33
 70
     1
102
RTVSPost2010Prop34
280
     0
102
RTVSPost2010PropOp34
 70
     1
102
RTVSPost2010Prop35
280
     0
102
RTVSPost2010PropOp35
 70
     1
102
RTVSPost2010Prop36
280
     0
102
RTVSPost2010PropOp36
 70
     1
102
RTVSPost2010Prop37
 90
       50
102
RTVSPost2010PropOp37
 70
     1
102
RTVSPost2010Prop38
140
0.0
102
RTVSPost2010PropOp38
 70
     1
102
RTVSPost2010Prop39
140
1.0
102
RTVSPost2010PropOp39
 70
     1
102
RTVSPost2010Prop40
 90
        0
102
RTVSPost2010PropOp40
 70
     1
102
RTVSPost2010Prop41ColorIndex
 90
       18
102
RTVSPost2010Prop41ColorRGB
 90
        0
102
RTVSPost2010PropOp41
 70
     1
102
RTVSPost2010Prop42
 90
       50
102
RTVSPost2010PropOp42
 70
     1
102
RTVSPost2010Prop43
 90
        3
102
RTVSPost2010PropOp43
 70
     1
102
RTVSPost2010Prop44ColorIndex
 90
        5
102
RTVSPost2010Prop44ColorRGB
 90
      255
102
RTVSPost2010PropOp44
 70
     1
102
RTVSPost2010Prop45
280
     0
102
RTVSPost2010PropOp45
 70
     1
102
RTVSPost2010Prop46
 90
       50
102
RTVSPost2010PropOp46
 70
     1
102
RTVSPost2010Prop47
 90
       50
102
RTVSPost2010PropOp47
 70
     1
102
RTVSPost2010Prop48
 90
       50
102
RTVSPost2010PropOp48
 70
     1
102
RTVSPost2010Prop49
280
     0
102
RTVSPost2010PropOp49
 70
     1
102
RTVSPost2010Prop50
 90
       50
102
RTVSPost2010PropOp50
 70
     1
102
RTVSPost2010Prop51ColorIndex
 90
      256
102
RTVSPost2010Prop51ColorRGB
 90
-16777216
102
RTVSPost2010PropOp51
 70
     0
102
RTVSPost2010Prop52
140
1.0
102
RTVSPost2010PropOp52
 70
     0
102
RTVSPost2010Prop53
 90
        2
102
RTVSPost2010PropOp53
 70
     1
102
RTVSPost2010Prop54
  1
strokes_ogs.tif
102
RTVSPost2010PropOp54
 70
     1
102
RTVSPost2010Prop55
280
     0
102
RTVSPost2010PropOp55
 70
     1
102
RTVSPost2010Prop56
140
1.0
102
RTVSPost2010PropOp56
 70
     1
102
RTVSPost2010Prop57
140
1.0
102
RTVSPost2010PropOp57
 70
     1
102
RTVSPropertyOp0
 70
     1
102
RTVSPropertyOp1
 70
     1
102
RTVSPropertyOp2
 70
     1
102
RTVSPropertyOp3
 70
     1
102
RTVSPropertyOp4
 70
     1
102
RTVSPropertyOp5
 70
     1
102
RTVSPropertyOp6
 70
     1
102
RTVSPropertyOp7
 70
     1
102
RTVSPropertyOp8
 70
     1
102
RTVSPropertyOp9
 70
     1
102
RTVSPropertyOp10
 70
     1
102
RTVSPropertyOp11
 70
     1
102
RTVSPropertyOp12
 70
     1
102
RTVSPropertyOp13
 70
     1
102
RTVSPropertyOp14
 70
     1
102
RTVSPropertyOp15
 70
     1
102
RTVSPropertyOp16
 70
     1
102
RTVSPropertyOp17
 70
     1
102
RTVSPropertyOp18
 70
     1
102
RTVSPropertyOp19
 70
     1
102
RTVSPropertyOp20
 70
     1
102
RTVSPropertyOp21
 70
     1
102
RTVSPropertyOp22
 70
     1
102
RTVSPropertyOp23
 70
     1
102
RTVSPropertyOp24
 70
     1
102
RTVSPropertyOp25
 70
     1
102
RTVSPropertyOp26
 70
     1
102
RTVSPropertyOp27
 70
     1
102
RTVSPropertyOp28
 70
     1
102
RTVSPropertyOp29
 70
     1
102
RTVSPropertyOp30
 70
     1
102
RTVSPropertyOp31
 70
     1
102
RTVSPropertyOp32
 70
     1
102
RTVSPropertyOp33
 70
     1
102
RTVSPropertyOp34
 70
     1
102
RTVSPropertyOp35
 70
     1
102
RTVSPropertyOp36
 70
     1
102
RTVSPropertyOp37
 70
     1
102
RTVSPropertyOp38
 70
     1
102
RTVSPropertyOp39
 70
     1
102
RTVSPropertyOp40
 70
     1
102
RTVSPropertyOp41
 70
     1
102
RTVSPropertyOp42
 70
     1
102
RTVSPropertyOp43
 70
     1
102
RTVSPropertyOp44
 70
     1
102
RTVSPropertyOp45
 70
     1
102
RTVSPropertyOp46
 70
     1
102
RTVSPropertyOp47
 70
     1
102
RTVSPropertyOp48
 70
     1
102
RTVSPropertyOp49
 70
     1
102
RTVSPropertyOp50
 70
     1
102
RTVSPropertyOp51
 70
     0
102
RTVSPropertyOp52
 70
     0
102
RTVSPropertyOp53
 70
     1
102
RTVSPropertyOp54
 70
     1
102
RTVSPropertyOp55
 70
     1
102
RTVSPropertyOp56
 70
     1
102
RTVSPropertyOp57
 70
     1
102
RTVSPropertyOp58
 70
     1
102
RTVSPropertyOp59
 70
     1
102
RTVSPropertyOp60
 70
     1
102
RTVSPropertyOp61
 70
     1
102
RTVSPropertyOp62
 70
     1
  0
XRECORD
  5
3CEC
102
{ACAD_REACTORS
330
3CEB
102
}
330
3CEB
100
AcDbXrecord
280
     1
102
RTVSPost2010Prop28
280
     0
102
RTVSPost2010PropOp28
 70
     1
102
RTVSPost2010Prop29
280
     1
102
RTVSPost2010PropOp29
 70
     1
102
RTVSPost2010Prop30
280
     1
102
RTVSPost2010PropOp30
 70
     1
102
RTVSPost2010Prop31
280
     0
102
RTVSPost2010PropOp31
 70
     1
102
RTVSPost2010Prop32
280
     0
102
RTVSPost2010PropOp32
 70
     1
102
RTVSPost2010Prop33
280
     0
102
RTVSPost2010PropOp33
 70
     1
102
RTVSPost2010Prop34
280
     0
102
RTVSPost2010PropOp34
 70
     1
102
RTVSPost2010Prop35
280
     0
102
RTVSPost2010PropOp35
 70
     1
102
RTVSPost2010Prop36
280
     0
102
RTVSPost2010PropOp36
 70
     1
102
RTVSPost2010Prop37
 90
       50
102
RTVSPost2010PropOp37
 70
     1
102
RTVSPost2010Prop38
140
0.0
102
RTVSPost2010PropOp38
 70
     1
102
RTVSPost2010Prop39
140
1.0
102
RTVSPost2010PropOp39
 70
     1
102
RTVSPost2010Prop40
 90
        0
102
RTVSPost2010PropOp40
 70
     1
102
RTVSPost2010Prop41ColorIndex
 90
       18
102
RTVSPost2010Prop41ColorRGB
 90
        0
102
RTVSPost2010PropOp41
 70
     1
102
RTVSPost2010Prop42
 90
       50
102
RTVSPost2010PropOp42
 70
     1
102
RTVSPost2010Prop43
 90
        3
102
RTVSPost2010PropOp43
 70
     1
102
RTVSPost2010Prop44ColorIndex
 90
        5
102
RTVSPost2010Prop44ColorRGB
 90
      255
102
RTVSPost2010PropOp44
 70
     1
102
RTVSPost2010Prop45
280
     0
102
RTVSPost2010PropOp45
 70
     1
102
RTVSPost2010Prop46
 90
       50
102
RTVSPost2010PropOp46
 70
     1
102
RTVSPost2010Prop47
 90
       50
102
RTVSPost2010PropOp47
 70
     1
102
RTVSPost2010Prop48
 90
       50
102
RTVSPost2010PropOp48
 70
     1
102
RTVSPost2010Prop49
280
     0
102
RTVSPost2010PropOp49
 70
     1
102
RTVSPost2010Prop50
 90
       50
102
RTVSPost2010PropOp50
 70
     1
102
RTVSPost2010Prop51ColorIndex
 90
      256
102
RTVSPost2010Prop51ColorRGB
 90
-16777216
102
RTVSPost2010PropOp51
 70
     0
102
RTVSPost2010Prop52
140
1.0
102
RTVSPost2010PropOp52
 70
     0
102
RTVSPost2010Prop53
 90
        2
102
RTVSPost2010PropOp53
 70
     1
102
RTVSPost2010Prop54
  1
strokes_ogs.tif
102
RTVSPost2010PropOp54
 70
     1
102
RTVSPost2010Prop55
280
     0
102
RTVSPost2010PropOp55
 70
     1
102
RTVSPost2010Prop56
140
1.0
102
RTVSPost2010PropOp56
 70
     1
102
RTVSPost2010Prop57
140
1.0
102
RTVSPost2010PropOp57
 70
     1
102
RTVSPropertyOp0
 70
     1
102
RTVSPropertyOp1
 70
     1
102
RTVSPropertyOp2
 70
     1
102
RTVSPropertyOp3
 70
     1
102
RTVSPropertyOp4
 70
     1
102
RTVSPropertyOp5
 70
     1
102
RTVSPropertyOp6
 70
     1
102
RTVSPropertyOp7
 70
     1
102
RTVSPropertyOp8
 70
     1
102
RTVSPropertyOp9
 70
     1
102
RTVSPropertyOp10
 70
     1
102
RTVSPropertyOp11
 70
     1
102
RTVSPropertyOp12
 70
     1
102
RTVSPropertyOp13
 70
     1
102
RTVSPropertyOp14
 70
     1
102
RTVSPropertyOp15
 70
     1
102
RTVSPropertyOp16
 70
     1
102
RTVSPropertyOp17
 70
     1
102
RTVSPropertyOp18
 70
     1
102
RTVSPropertyOp19
 70
     1
102
RTVSPropertyOp20
 70
     1
102
RTVSPropertyOp21
 70
     1
102
RTVSPropertyOp22
 70
     1
102
RTVSPropertyOp23
 70
     1
102
RTVSPropertyOp24
 70
     1
102
RTVSPropertyOp25
 70
     1
102
RTVSPropertyOp26
 70
     1
102
RTVSPropertyOp27
 70
     1
102
RTVSPropertyOp28
 70
     1
102
RTVSPropertyOp29
 70
     1
102
RTVSPropertyOp30
 70
     1
102
RTVSPropertyOp31
 70
     1
102
RTVSPropertyOp32
 70
     1
102
RTVSPropertyOp33
 70
     1
102
RTVSPropertyOp34
 70
     1
102
RTVSPropertyOp35
 70
     1
102
RTVSPropertyOp36
 70
     1
102
RTVSPropertyOp37
 70
     1
102
RTVSPropertyOp38
 70
     1
102
RTVSPropertyOp39
 70
     1
102
RTVSPropertyOp40
 70
     1
102
RTVSPropertyOp41
 70
     1
102
RTVSPropertyOp42
 70
     1
102
RTVSPropertyOp43
 70
     1
102
RTVSPropertyOp44
 70
     1
102
RTVSPropertyOp45
 70
     1
102
RTVSPropertyOp46
 70
     1
102
RTVSPropertyOp47
 70
     1
102
RTVSPropertyOp48
 70
     1
102
RTVSPropertyOp49
 70
     1
102
RTVSPropertyOp50
 70
     1
102
RTVSPropertyOp51
 70
     0
102
RTVSPropertyOp52
 70
     0
102
RTVSPropertyOp53
 70
     1
102
RTVSPropertyOp54
 70
     1
102
RTVSPropertyOp55
 70
     1
102
RTVSPropertyOp56
 70
     1
102
RTVSPropertyOp57
 70
     1
102
RTVSPropertyOp58
 70
     1
102
RTVSPropertyOp59
 70
     1
102
RTVSPropertyOp60
 70
     1
102
RTVSPropertyOp61
 70
     1
102
RTVSPropertyOp62
 70
     1
  0
XRECORD
  5
3CE8
102
{ACAD_REACTORS
330
3CE7
102
}
330
3CE7
100
AcDbXrecord
280
     1
102
RTVSPost2010Prop28
280
     0
102
RTVSPost2010PropOp28
 70
     1
102
RTVSPost2010Prop29
280
     1
102
RTVSPost2010PropOp29
 70
     1
102
RTVSPost2010Prop30
280
     1
102
RTVSPost2010PropOp30
 70
     1
102
RTVSPost2010Prop31
280
     0
102
RTVSPost2010PropOp31
 70
     1
102
RTVSPost2010Prop32
280
     0
102
RTVSPost2010PropOp32
 70
     1
102
RTVSPost2010Prop33
280
     0
102
RTVSPost2010PropOp33
 70
     1
102
RTVSPost2010Prop34
280
     0
102
RTVSPost2010PropOp34
 70
     1
102
RTVSPost2010Prop35
280
     0
102
RTVSPost2010PropOp35
 70
     1
102
RTVSPost2010Prop36
280
     0
102
RTVSPost2010PropOp36
 70
     1
102
RTVSPost2010Prop37
 90
       50
102
RTVSPost2010PropOp37
 70
     1
102
RTVSPost2010Prop38
140
0.0
102
RTVSPost2010PropOp38
 70
     1
102
RTVSPost2010Prop39
140
1.0
102
RTVSPost2010PropOp39
 70
     1
102
RTVSPost2010Prop40
 90
        0
102
RTVSPost2010PropOp40
 70
     1
102
RTVSPost2010Prop41ColorIndex
 90
       18
102
RTVSPost2010Prop41ColorRGB
 90
        0
102
RTVSPost2010PropOp41
 70
     1
102
RTVSPost2010Prop42
 90
       50
102
RTVSPost2010PropOp42
 70
     1
102
RTVSPost2010Prop43
 90
        3
102
RTVSPost2010PropOp43
 70
     1
102
RTVSPost2010Prop44ColorIndex
 90
        5
102
RTVSPost2010Prop44ColorRGB
 90
      255
102
RTVSPost2010PropOp44
 70
     1
102
RTVSPost2010Prop45
280
     0
102
RTVSPost2010PropOp45
 70
     1
102
RTVSPost2010Prop46
 90
       50
102
RTVSPost2010PropOp46
 70
     1
102
RTVSPost2010Prop47
 90
       50
102
RTVSPost2010PropOp47
 70
     1
102
RTVSPost2010Prop48
 90
       50
102
RTVSPost2010PropOp48
 70
     1
102
RTVSPost2010Prop49
280
     0
102
RTVSPost2010PropOp49
 70
     1
102
RTVSPost2010Prop50
 90
       50
102
RTVSPost2010PropOp50
 70
     1
102
RTVSPost2010Prop51ColorIndex
 90
      256
102
RTVSPost2010Prop51ColorRGB
 90
-16777216
102
RTVSPost2010PropOp51
 70
     0
102
RTVSPost2010Prop52
140
1.0
102
RTVSPost2010PropOp52
 70
     0
102
RTVSPost2010Prop53
 90
        2
102
RTVSPost2010PropOp53
 70
     1
102
RTVSPost2010Prop54
  1
strokes_ogs.tif
102
RTVSPost2010PropOp54
 70
     1
102
RTVSPost2010Prop55
280
     0
102
RTVSPost2010PropOp55
 70
     1
102
RTVSPost2010Prop56
140
1.0
102
RTVSPost2010PropOp56
 70
     1
102
RTVSPost2010Prop57
140
1.0
102
RTVSPost2010PropOp57
 70
     1
102
RTVSPropertyOp0
 70
     1
102
RTVSPropertyOp1
 70
     1
102
RTVSPropertyOp2
 70
     1
102
RTVSPropertyOp3
 70
     1
102
RTVSPropertyOp4
 70
     1
102
RTVSPropertyOp5
 70
     1
102
RTVSPropertyOp6
 70
     1
102
RTVSPropertyOp7
 70
     1
102
RTVSPropertyOp8
 70
     1
102
RTVSPropertyOp9
 70
     1
102
RTVSPropertyOp10
 70
     1
102
RTVSPropertyOp11
 70
     1
102
RTVSPropertyOp12
 70
     1
102
RTVSPropertyOp13
 70
     1
102
RTVSPropertyOp14
 70
     1
102
RTVSPropertyOp15
 70
     1
102
RTVSPropertyOp16
 70
     1
102
RTVSPropertyOp17
 70
     1
102
RTVSPropertyOp18
 70
     1
102
RTVSPropertyOp19
 70
     1
102
RTVSPropertyOp20
 70
     1
102
RTVSPropertyOp21
 70
     1
102
RTVSPropertyOp22
 70
     1
102
RTVSPropertyOp23
 70
     1
102
RTVSPropertyOp24
 70
     1
102
RTVSPropertyOp25
 70
     1
102
RTVSPropertyOp26
 70
     1
102
RTVSPropertyOp27
 70
     1
102
RTVSPropertyOp28
 70
     1
102
RTVSPropertyOp29
 70
     1
102
RTVSPropertyOp30
 70
     1
102
RTVSPropertyOp31
 70
     1
102
RTVSPropertyOp32
 70
     1
102
RTVSPropertyOp33
 70
     1
102
RTVSPropertyOp34
 70
     1
102
RTVSPropertyOp35
 70
     1
102
RTVSPropertyOp36
 70
     1
102
RTVSPropertyOp37
 70
     1
102
RTVSPropertyOp38
 70
     1
102
RTVSPropertyOp39
 70
     1
102
RTVSPropertyOp40
 70
     1
102
RTVSPropertyOp41
 70
     1
102
RTVSPropertyOp42
 70
     1
102
RTVSPropertyOp43
 70
     1
102
RTVSPropertyOp44
 70
     1
102
RTVSPropertyOp45
 70
     1
102
RTVSPropertyOp46
 70
     1
102
RTVSPropertyOp47
 70
     1
102
RTVSPropertyOp48
 70
     1
102
RTVSPropertyOp49
 70
     1
102
RTVSPropertyOp50
 70
     1
102
RTVSPropertyOp51
 70
     0
102
RTVSPropertyOp52
 70
     0
102
RTVSPropertyOp53
 70
     1
102
RTVSPropertyOp54
 70
     1
102
RTVSPropertyOp55
 70
     1
102
RTVSPropertyOp56
 70
     1
102
RTVSPropertyOp57
 70
     1
102
RTVSPropertyOp58
 70
     1
102
RTVSPropertyOp59
 70
     1
102
RTVSPropertyOp60
 70
     1
102
RTVSPropertyOp61
 70
     1
102
RTVSPropertyOp62
 70
     1
  0
XRECORD
  5
3CF6
102
{ACAD_REACTORS
330
3CF5
102
}
330
3CF5
100
AcDbXrecord
280
     1
102
RTVSPost2010Prop28
280
     0
102
RTVSPost2010PropOp28
 70
     1
102
RTVSPost2010Prop29
280
     1
102
RTVSPost2010PropOp29
 70
     1
102
RTVSPost2010Prop30
280
     1
102
RTVSPost2010PropOp30
 70
     1
102
RTVSPost2010Prop31
280
     0
102
RTVSPost2010PropOp31
 70
     1
102
RTVSPost2010Prop32
280
     0
102
RTVSPost2010PropOp32
 70
     1
102
RTVSPost2010Prop33
280
     0
102
RTVSPost2010PropOp33
 70
     1
102
RTVSPost2010Prop34
280
     0
102
RTVSPost2010PropOp34
 70
     1
102
RTVSPost2010Prop35
280
     0
102
RTVSPost2010PropOp35
 70
     1
102
RTVSPost2010Prop36
280
     0
102
RTVSPost2010PropOp36
 70
     1
102
RTVSPost2010Prop37
 90
       50
102
RTVSPost2010PropOp37
 70
     1
102
RTVSPost2010Prop38
140
0.0
102
RTVSPost2010PropOp38
 70
     1
102
RTVSPost2010Prop39
140
1.0
102
RTVSPost2010PropOp39
 70
     1
102
RTVSPost2010Prop40
 90
        0
102
RTVSPost2010PropOp40
 70
     1
102
RTVSPost2010Prop41ColorIndex
 90
       18
102
RTVSPost2010Prop41ColorRGB
 90
        0
102
RTVSPost2010PropOp41
 70
     1
102
RTVSPost2010Prop42
 90
       50
102
RTVSPost2010PropOp42
 70
     1
102
RTVSPost2010Prop43
 90
        3
102
RTVSPost2010PropOp43
 70
     1
102
RTVSPost2010Prop44ColorIndex
 90
        5
102
RTVSPost2010Prop44ColorRGB
 90
      255
102
RTVSPost2010PropOp44
 70
     1
102
RTVSPost2010Prop45
280
     0
102
RTVSPost2010PropOp45
 70
     1
102
RTVSPost2010Prop46
 90
       50
102
RTVSPost2010PropOp46
 70
     1
102
RTVSPost2010Prop47
 90
       50
102
RTVSPost2010PropOp47
 70
     1
102
RTVSPost2010Prop48
 90
       50
102
RTVSPost2010PropOp48
 70
     1
102
RTVSPost2010Prop49
280
     0
102
RTVSPost2010PropOp49
 70
     1
102
RTVSPost2010Prop50
 90
       50
102
RTVSPost2010PropOp50
 70
     1
102
RTVSPost2010Prop51ColorIndex
 90
      256
102
RTVSPost2010Prop51ColorRGB
 90
-16777216
102
RTVSPost2010PropOp51
 70
     0
102
RTVSPost2010Prop52
140
1.0
102
RTVSPost2010PropOp52
 70
     0
102
RTVSPost2010Prop53
 90
        2
102
RTVSPost2010PropOp53
 70
     1
102
RTVSPost2010Prop54
  1
strokes_ogs.tif
102
RTVSPost2010PropOp54
 70
     1
102
RTVSPost2010Prop55
280
     0
102
RTVSPost2010PropOp55
 70
     1
102
RTVSPost2010Prop56
140
1.0
102
RTVSPost2010PropOp56
 70
     1
102
RTVSPost2010Prop57
140
1.0
102
RTVSPost2010PropOp57
 70
     1
102
RTVSPropertyOp0
 70
     1
102
RTVSPropertyOp1
 70
     1
102
RTVSPropertyOp2
 70
     1
102
RTVSPropertyOp3
 70
     1
102
RTVSPropertyOp4
 70
     1
102
RTVSPropertyOp5
 70
     1
102
RTVSPropertyOp6
 70
     1
102
RTVSPropertyOp7
 70
     1
102
RTVSPropertyOp8
 70
     1
102
RTVSPropertyOp9
 70
     1
102
RTVSPropertyOp10
 70
     1
102
RTVSPropertyOp11
 70
     1
102
RTVSPropertyOp12
 70
     1
102
RTVSPropertyOp13
 70
     1
102
RTVSPropertyOp14
 70
     1
102
RTVSPropertyOp15
 70
     1
102
RTVSPropertyOp16
 70
     1
102
RTVSPropertyOp17
 70
     1
102
RTVSPropertyOp18
 70
     1
102
RTVSPropertyOp19
 70
     1
102
RTVSPropertyOp20
 70
     1
102
RTVSPropertyOp21
 70
     1
102
RTVSPropertyOp22
 70
     1
102
RTVSPropertyOp23
 70
     1
102
RTVSPropertyOp24
 70
     1
102
RTVSPropertyOp25
 70
     1
102
RTVSPropertyOp26
 70
     1
102
RTVSPropertyOp27
 70
     1
102
RTVSPropertyOp28
 70
     1
102
RTVSPropertyOp29
 70
     1
102
RTVSPropertyOp30
 70
     1
102
RTVSPropertyOp31
 70
     1
102
RTVSPropertyOp32
 70
     1
102
RTVSPropertyOp33
 70
     1
102
RTVSPropertyOp34
 70
     1
102
RTVSPropertyOp35
 70
     1
102
RTVSPropertyOp36
 70
     1
102
RTVSPropertyOp37
 70
     1
102
RTVSPropertyOp38
 70
     1
102
RTVSPropertyOp39
 70
     1
102
RTVSPropertyOp40
 70
     1
102
RTVSPropertyOp41
 70
     1
102
RTVSPropertyOp42
 70
     1
102
RTVSPropertyOp43
 70
     1
102
RTVSPropertyOp44
 70
     1
102
RTVSPropertyOp45
 70
     1
102
RTVSPropertyOp46
 70
     1
102
RTVSPropertyOp47
 70
     1
102
RTVSPropertyOp48
 70
     1
102
RTVSPropertyOp49
 70
     1
102
RTVSPropertyOp50
 70
     1
102
RTVSPropertyOp51
 70
     0
102
RTVSPropertyOp52
 70
     0
102
RTVSPropertyOp53
 70
     1
102
RTVSPropertyOp54
 70
     1
102
RTVSPropertyOp55
 70
     1
102
RTVSPropertyOp56
 70
     1
102
RTVSPropertyOp57
 70
     1
102
RTVSPropertyOp58
 70
     1
102
RTVSPropertyOp59
 70
     1
102
RTVSPropertyOp60
 70
     1
102
RTVSPropertyOp61
 70
     1
102
RTVSPropertyOp62
 70
     1
  0
XRECORD
  5
3CFE
102
{ACAD_REACTORS
330
3CFD
102
}
330
3CFD
100
AcDbXrecord
280
     1
102
RTVSPost2010Prop28
280
     0
102
RTVSPost2010PropOp28
 70
     1
102
RTVSPost2010Prop29
280
     1
102
RTVSPost2010PropOp29
 70
     1
102
RTVSPost2010Prop30
280
     1
102
RTVSPost2010PropOp30
 70
     1
102
RTVSPost2010Prop31
280
     0
102
RTVSPost2010PropOp31
 70
     1
102
RTVSPost2010Prop32
280
     0
102
RTVSPost2010PropOp32
 70
     1
102
RTVSPost2010Prop33
280
     0
102
RTVSPost2010PropOp33
 70
     1
102
RTVSPost2010Prop34
280
     0
102
RTVSPost2010PropOp34
 70
     1
102
RTVSPost2010Prop35
280
     0
102
RTVSPost2010PropOp35
 70
     1
102
RTVSPost2010Prop36
280
     0
102
RTVSPost2010PropOp36
 70
     1
102
RTVSPost2010Prop37
 90
       50
102
RTVSPost2010PropOp37
 70
     1
102
RTVSPost2010Prop38
140
0.0
102
RTVSPost2010PropOp38
 70
     1
102
RTVSPost2010Prop39
140
1.0
102
RTVSPost2010PropOp39
 70
     1
102
RTVSPost2010Prop40
 90
        0
102
RTVSPost2010PropOp40
 70
     1
102
RTVSPost2010Prop41ColorIndex
 90
       18
102
RTVSPost2010Prop41ColorRGB
 90
        0
102
RTVSPost2010PropOp41
 70
     1
102
RTVSPost2010Prop42
 90
       50
102
RTVSPost2010PropOp42
 70
     1
102
RTVSPost2010Prop43
 90
        3
102
RTVSPost2010PropOp43
 70
     1
102
RTVSPost2010Prop44ColorIndex
 90
        5
102
RTVSPost2010Prop44ColorRGB
 90
      255
102
RTVSPost2010PropOp44
 70
     1
102
RTVSPost2010Prop45
280
     0
102
RTVSPost2010PropOp45
 70
     1
102
RTVSPost2010Prop46
 90
       50
102
RTVSPost2010PropOp46
 70
     1
102
RTVSPost2010Prop47
 90
       50
102
RTVSPost2010PropOp47
 70
     1
102
RTVSPost2010Prop48
 90
       50
102
RTVSPost2010PropOp48
 70
     1
102
RTVSPost2010Prop49
280
     0
102
RTVSPost2010PropOp49
 70
     1
102
RTVSPost2010Prop50
 90
       50
102
RTVSPost2010PropOp50
 70
     1
102
RTVSPost2010Prop51ColorIndex
 90
      256
102
RTVSPost2010Prop51ColorRGB
 90
-16777216
102
RTVSPost2010PropOp51
 70
     0
102
RTVSPost2010Prop52
140
1.0
102
RTVSPost2010PropOp52
 70
     0
102
RTVSPost2010Prop53
 90
        2
102
RTVSPost2010PropOp53
 70
     1
102
RTVSPost2010Prop54
  1
strokes_ogs.tif
102
RTVSPost2010PropOp54
 70
     1
102
RTVSPost2010Prop55
280
     0
102
RTVSPost2010PropOp55
 70
     1
102
RTVSPost2010Prop56
140
1.0
102
RTVSPost2010PropOp56
 70
     1
102
RTVSPost2010Prop57
140
1.0
102
RTVSPost2010PropOp57
 70
     1
102
RTVSPropertyOp0
 70
     1
102
RTVSPropertyOp1
 70
     1
102
RTVSPropertyOp2
 70
     1
102
RTVSPropertyOp3
 70
     1
102
RTVSPropertyOp4
 70
     1
102
RTVSPropertyOp5
 70
     1
102
RTVSPropertyOp6
 70
     1
102
RTVSPropertyOp7
 70
     1
102
RTVSPropertyOp8
 70
     1
102
RTVSPropertyOp9
 70
     1
102
RTVSPropertyOp10
 70
     1
102
RTVSPropertyOp11
 70
     1
102
RTVSPropertyOp12
 70
     1
102
RTVSPropertyOp13
 70
     1
102
RTVSPropertyOp14
 70
     1
102
RTVSPropertyOp15
 70
     1
102
RTVSPropertyOp16
 70
     1
102
RTVSPropertyOp17
 70
     1
102
RTVSPropertyOp18
 70
     1
102
RTVSPropertyOp19
 70
     1
102
RTVSPropertyOp20
 70
     1
102
RTVSPropertyOp21
 70
     1
102
RTVSPropertyOp22
 70
     1
102
RTVSPropertyOp23
 70
     1
102
RTVSPropertyOp24
 70
     1
102
RTVSPropertyOp25
 70
     1
102
RTVSPropertyOp26
 70
     1
102
RTVSPropertyOp27
 70
     1
102
RTVSPropertyOp28
 70
     1
102
RTVSPropertyOp29
 70
     1
102
RTVSPropertyOp30
 70
     1
102
RTVSPropertyOp31
 70
     1
102
RTVSPropertyOp32
 70
     1
102
RTVSPropertyOp33
 70
     1
102
RTVSPropertyOp34
 70
     1
102
RTVSPropertyOp35
 70
     1
102
RTVSPropertyOp36
 70
     1
102
RTVSPropertyOp37
 70
     1
102
RTVSPropertyOp38
 70
     1
102
RTVSPropertyOp39
 70
     1
102
RTVSPropertyOp40
 70
     1
102
RTVSPropertyOp41
 70
     1
102
RTVSPropertyOp42
 70
     1
102
RTVSPropertyOp43
 70
     1
102
RTVSPropertyOp44
 70
     1
102
RTVSPropertyOp45
 70
     1
102
RTVSPropertyOp46
 70
     1
102
RTVSPropertyOp47
 70
     1
102
RTVSPropertyOp48
 70
     1
102
RTVSPropertyOp49
 70
     1
102
RTVSPropertyOp50
 70
     1
102
RTVSPropertyOp51
 70
     0
102
RTVSPropertyOp52
 70
     0
102
RTVSPropertyOp53
 70
     1
102
RTVSPropertyOp54
 70
     1
102
RTVSPropertyOp55
 70
     1
102
RTVSPropertyOp56
 70
     1
102
RTVSPropertyOp57
 70
     1
102
RTVSPropertyOp58
 70
     1
102
RTVSPropertyOp59
 70
     1
102
RTVSPropertyOp60
 70
     1
102
RTVSPropertyOp61
 70
     1
102
RTVSPropertyOp62
 70
     1
  0
XRECORD
  5
3CF0
102
{ACAD_REACTORS
330
3CEF
102
}
330
3CEF
100
AcDbXrecord
280
     1
102
RTVSPost2010Prop28
280
     0
102
RTVSPost2010PropOp28
 70
     1
102
RTVSPost2010Prop29
280
     1
102
RTVSPost2010PropOp29
 70
     1
102
RTVSPost2010Prop30
280
     1
102
RTVSPost2010PropOp30
 70
     1
102
RTVSPost2010Prop31
280
     0
102
RTVSPost2010PropOp31
 70
     1
102
RTVSPost2010Prop32
280
     0
102
RTVSPost2010PropOp32
 70
     1
102
RTVSPost2010Prop33
280
     0
102
RTVSPost2010PropOp33
 70
     1
102
RTVSPost2010Prop34
280
     0
102
RTVSPost2010PropOp34
 70
     1
102
RTVSPost2010Prop35
280
     0
102
RTVSPost2010PropOp35
 70
     1
102
RTVSPost2010Prop36
280
     0
102
RTVSPost2010PropOp36
 70
     1
102
RTVSPost2010Prop37
 90
       50
102
RTVSPost2010PropOp37
 70
     1
102
RTVSPost2010Prop38
140
0.0
102
RTVSPost2010PropOp38
 70
     1
102
RTVSPost2010Prop39
140
1.0
102
RTVSPost2010PropOp39
 70
     1
102
RTVSPost2010Prop40
 90
        0
102
RTVSPost2010PropOp40
 70
     1
102
RTVSPost2010Prop41ColorIndex
 90
       18
102
RTVSPost2010Prop41ColorRGB
 90
        0
102
RTVSPost2010PropOp41
 70
     1
102
RTVSPost2010Prop42
 90
       50
102
RTVSPost2010PropOp42
 70
     1
102
RTVSPost2010Prop43
 90
        3
102
RTVSPost2010PropOp43
 70
     1
102
RTVSPost2010Prop44ColorIndex
 90
        5
102
RTVSPost2010Prop44ColorRGB
 90
      255
102
RTVSPost2010PropOp44
 70
     1
102
RTVSPost2010Prop45
280
     0
102
RTVSPost2010PropOp45
 70
     1
102
RTVSPost2010Prop46
 90
       50
102
RTVSPost2010PropOp46
 70
     1
102
RTVSPost2010Prop47
 90
       50
102
RTVSPost2010PropOp47
 70
     1
102
RTVSPost2010Prop48
 90
       50
102
RTVSPost2010PropOp48
 70
     1
102
RTVSPost2010Prop49
280
     0
102
RTVSPost2010PropOp49
 70
     1
102
RTVSPost2010Prop50
 90
       50
102
RTVSPost2010PropOp50
 70
     1
102
RTVSPost2010Prop51ColorIndex
 90
      256
102
RTVSPost2010Prop51ColorRGB
 90
-16777216
102
RTVSPost2010PropOp51
 70
     0
102
RTVSPost2010Prop52
140
1.0
102
RTVSPost2010PropOp52
 70
     0
102
RTVSPost2010Prop53
 90
        2
102
RTVSPost2010PropOp53
 70
     1
102
RTVSPost2010Prop54
  1
strokes_ogs.tif
102
RTVSPost2010PropOp54
 70
     1
102
RTVSPost2010Prop55
280
     0
102
RTVSPost2010PropOp55
 70
     1
102
RTVSPost2010Prop56
140
1.0
102
RTVSPost2010PropOp56
 70
     1
102
RTVSPost2010Prop57
140
1.0
102
RTVSPost2010PropOp57
 70
     1
102
RTVSPropertyOp0
 70
     1
102
RTVSPropertyOp1
 70
     1
102
RTVSPropertyOp2
 70
     1
102
RTVSPropertyOp3
 70
     1
102
RTVSPropertyOp4
 70
     1
102
RTVSPropertyOp5
 70
     1
102
RTVSPropertyOp6
 70
     1
102
RTVSPropertyOp7
 70
     1
102
RTVSPropertyOp8
 70
     1
102
RTVSPropertyOp9
 70
     1
102
RTVSPropertyOp10
 70
     1
102
RTVSPropertyOp11
 70
     1
102
RTVSPropertyOp12
 70
     1
102
RTVSPropertyOp13
 70
     1
102
RTVSPropertyOp14
 70
     1
102
RTVSPropertyOp15
 70
     1
102
RTVSPropertyOp16
 70
     1
102
RTVSPropertyOp17
 70
     1
102
RTVSPropertyOp18
 70
     1
102
RTVSPropertyOp19
 70
     1
102
RTVSPropertyOp20
 70
     1
102
RTVSPropertyOp21
 70
     1
102
RTVSPropertyOp22
 70
     1
102
RTVSPropertyOp23
 70
     1
102
RTVSPropertyOp24
 70
     1
102
RTVSPropertyOp25
 70
     1
102
RTVSPropertyOp26
 70
     1
102
RTVSPropertyOp27
 70
     1
102
RTVSPropertyOp28
 70
     1
102
RTVSPropertyOp29
 70
     1
102
RTVSPropertyOp30
 70
     1
102
RTVSPropertyOp31
 70
     1
102
RTVSPropertyOp32
 70
     1
102
RTVSPropertyOp33
 70
     1
102
RTVSPropertyOp34
 70
     1
102
RTVSPropertyOp35
 70
     1
102
RTVSPropertyOp36
 70
     1
102
RTVSPropertyOp37
 70
     1
102
RTVSPropertyOp38
 70
     1
102
RTVSPropertyOp39
 70
     1
102
RTVSPropertyOp40
 70
     1
102
RTVSPropertyOp41
 70
     1
102
RTVSPropertyOp42
 70
     1
102
RTVSPropertyOp43
 70
     1
102
RTVSPropertyOp44
 70
     1
102
RTVSPropertyOp45
 70
     1
102
RTVSPropertyOp46
 70
     1
102
RTVSPropertyOp47
 70
     1
102
RTVSPropertyOp48
 70
     1
102
RTVSPropertyOp49
 70
     1
102
RTVSPropertyOp50
 70
     1
102
RTVSPropertyOp51
 70
     0
102
RTVSPropertyOp52
 70
     0
102
RTVSPropertyOp53
 70
     1
102
RTVSPropertyOp54
 70
     1
102
RTVSPropertyOp55
 70
     1
102
RTVSPropertyOp56
 70
     1
102
RTVSPropertyOp57
 70
     1
102
RTVSPropertyOp58
 70
     1
102
RTVSPropertyOp59
 70
     1
102
RTVSPropertyOp60
 70
     1
102
RTVSPropertyOp61
 70
     1
102
RTVSPropertyOp62
 70
     1
  0
XRECORD
  5
3CF4
102
{ACAD_REACTORS
330
3CF3
102
}
330
3CF3
100
AcDbXrecord
280
     1
102
RTVSPost2010Prop28
280
     0
102
RTVSPost2010PropOp28
 70
     1
102
RTVSPost2010Prop29
280
     1
102
RTVSPost2010PropOp29
 70
     1
102
RTVSPost2010Prop30
280
     1
102
RTVSPost2010PropOp30
 70
     1
102
RTVSPost2010Prop31
280
     0
102
RTVSPost2010PropOp31
 70
     1
102
RTVSPost2010Prop32
280
     0
102
RTVSPost2010PropOp32
 70
     1
102
RTVSPost2010Prop33
280
     0
102
RTVSPost2010PropOp33
 70
     1
102
RTVSPost2010Prop34
280
     0
102
RTVSPost2010PropOp34
 70
     1
102
RTVSPost2010Prop35
280
     0
102
RTVSPost2010PropOp35
 70
     1
102
RTVSPost2010Prop36
280
     0
102
RTVSPost2010PropOp36
 70
     1
102
RTVSPost2010Prop37
 90
       50
102
RTVSPost2010PropOp37
 70
     1
102
RTVSPost2010Prop38
140
0.0
102
RTVSPost2010PropOp38
 70
     1
102
RTVSPost2010Prop39
140
1.0
102
RTVSPost2010PropOp39
 70
     1
102
RTVSPost2010Prop40
 90
        0
102
RTVSPost2010PropOp40
 70
     1
102
RTVSPost2010Prop41ColorIndex
 90
       18
102
RTVSPost2010Prop41ColorRGB
 90
        0
102
RTVSPost2010PropOp41
 70
     1
102
RTVSPost2010Prop42
 90
       50
102
RTVSPost2010PropOp42
 70
     1
102
RTVSPost2010Prop43
 90
        3
102
RTVSPost2010PropOp43
 70
     1
102
RTVSPost2010Prop44ColorIndex
 90
        5
102
RTVSPost2010Prop44ColorRGB
 90
      255
102
RTVSPost2010PropOp44
 70
     1
102
RTVSPost2010Prop45
280
     0
102
RTVSPost2010PropOp45
 70
     1
102
RTVSPost2010Prop46
 90
       50
102
RTVSPost2010PropOp46
 70
     1
102
RTVSPost2010Prop47
 90
       50
102
RTVSPost2010PropOp47
 70
     1
102
RTVSPost2010Prop48
 90
       50
102
RTVSPost2010PropOp48
 70
     1
102
RTVSPost2010Prop49
280
     0
102
RTVSPost2010PropOp49
 70
     1
102
RTVSPost2010Prop50
 90
       50
102
RTVSPost2010PropOp50
 70
     1
102
RTVSPost2010Prop51ColorIndex
 90
      256
102
RTVSPost2010Prop51ColorRGB
 90
-16777216
102
RTVSPost2010PropOp51
 70
     0
102
RTVSPost2010Prop52
140
1.0
102
RTVSPost2010PropOp52
 70
     0
102
RTVSPost2010Prop53
 90
        2
102
RTVSPost2010PropOp53
 70
     1
102
RTVSPost2010Prop54
  1
strokes_ogs.tif
102
RTVSPost2010PropOp54
 70
     1
102
RTVSPost2010Prop55
280
     0
102
RTVSPost2010PropOp55
 70
     1
102
RTVSPost2010Prop56
140
1.0
102
RTVSPost2010PropOp56
 70
     1
102
RTVSPost2010Prop57
140
1.0
102
RTVSPost2010PropOp57
 70
     1
102
RTVSPropertyOp0
 70
     1
102
RTVSPropertyOp1
 70
     1
102
RTVSPropertyOp2
 70
     1
102
RTVSPropertyOp3
 70
     1
102
RTVSPropertyOp4
 70
     1
102
RTVSPropertyOp5
 70
     1
102
RTVSPropertyOp6
 70
     1
102
RTVSPropertyOp7
 70
     1
102
RTVSPropertyOp8
 70
     1
102
RTVSPropertyOp9
 70
     1
102
RTVSPropertyOp10
 70
     1
102
RTVSPropertyOp11
 70
     1
102
RTVSPropertyOp12
 70
     1
102
RTVSPropertyOp13
 70
     1
102
RTVSPropertyOp14
 70
     1
102
RTVSPropertyOp15
 70
     1
102
RTVSPropertyOp16
 70
     1
102
RTVSPropertyOp17
 70
     1
102
RTVSPropertyOp18
 70
     1
102
RTVSPropertyOp19
 70
     1
102
RTVSPropertyOp20
 70
     1
102
RTVSPropertyOp21
 70
     1
102
RTVSPropertyOp22
 70
     1
102
RTVSPropertyOp23
 70
     1
102
RTVSPropertyOp24
 70
     1
102
RTVSPropertyOp25
 70
     1
102
RTVSPropertyOp26
 70
     1
102
RTVSPropertyOp27
 70
     1
102
RTVSPropertyOp28
 70
     1
102
RTVSPropertyOp29
 70
     1
102
RTVSPropertyOp30
 70
     1
102
RTVSPropertyOp31
 70
     1
102
RTVSPropertyOp32
 70
     1
102
RTVSPropertyOp33
 70
     1
102
RTVSPropertyOp34
 70
     1
102
RTVSPropertyOp35
 70
     1
102
RTVSPropertyOp36
 70
     1
102
RTVSPropertyOp37
 70
     1
102
RTVSPropertyOp38
 70
     1
102
RTVSPropertyOp39
 70
     1
102
RTVSPropertyOp40
 70
     1
102
RTVSPropertyOp41
 70
     1
102
RTVSPropertyOp42
 70
     1
102
RTVSPropertyOp43
 70
     1
102
RTVSPropertyOp44
 70
     1
102
RTVSPropertyOp45
 70
     1
102
RTVSPropertyOp46
 70
     1
102
RTVSPropertyOp47
 70
     1
102
RTVSPropertyOp48
 70
     1
102
RTVSPropertyOp49
 70
     1
102
RTVSPropertyOp50
 70
     1
102
RTVSPropertyOp51
 70
     0
102
RTVSPropertyOp52
 70
     0
102
RTVSPropertyOp53
 70
     1
102
RTVSPropertyOp54
 70
     1
102
RTVSPropertyOp55
 70
     1
102
RTVSPropertyOp56
 70
     1
102
RTVSPropertyOp57
 70
     1
102
RTVSPropertyOp58
 70
     1
102
RTVSPropertyOp59
 70
     1
102
RTVSPropertyOp60
 70
     1
102
RTVSPropertyOp61
 70
     1
102
RTVSPropertyOp62
 70
     1
  0
XRECORD
  5
3D04
102
{ACAD_REACTORS
330
3D03
102
}
330
3D03
100
AcDbXrecord
280
     1
102
RTVSPost2010Prop28
280
     0
102
RTVSPost2010PropOp28
 70
     1
102
RTVSPost2010Prop29
280
     1
102
RTVSPost2010PropOp29
 70
     1
102
RTVSPost2010Prop30
280
     1
102
RTVSPost2010PropOp30
 70
     1
102
RTVSPost2010Prop31
280
     0
102
RTVSPost2010PropOp31
 70
     1
102
RTVSPost2010Prop32
280
     0
102
RTVSPost2010PropOp32
 70
     1
102
RTVSPost2010Prop33
280
     0
102
RTVSPost2010PropOp33
 70
     1
102
RTVSPost2010Prop34
280
     0
102
RTVSPost2010PropOp34
 70
     1
102
RTVSPost2010Prop35
280
     0
102
RTVSPost2010PropOp35
 70
     1
102
RTVSPost2010Prop36
280
     0
102
RTVSPost2010PropOp36
 70
     1
102
RTVSPost2010Prop37
 90
       50
102
RTVSPost2010PropOp37
 70
     1
102
RTVSPost2010Prop38
140
0.0
102
RTVSPost2010PropOp38
 70
     1
102
RTVSPost2010Prop39
140
1.0
102
RTVSPost2010PropOp39
 70
     1
102
RTVSPost2010Prop40
 90
        0
102
RTVSPost2010PropOp40
 70
     1
102
RTVSPost2010Prop41ColorIndex
 90
       18
102
RTVSPost2010Prop41ColorRGB
 90
        0
102
RTVSPost2010PropOp41
 70
     1
102
RTVSPost2010Prop42
 90
       50
102
RTVSPost2010PropOp42
 70
     1
102
RTVSPost2010Prop43
 90
        3
102
RTVSPost2010PropOp43
 70
     1
102
RTVSPost2010Prop44ColorIndex
 90
        5
102
RTVSPost2010Prop44ColorRGB
 90
      255
102
RTVSPost2010PropOp44
 70
     1
102
RTVSPost2010Prop45
280
     0
102
RTVSPost2010PropOp45
 70
     1
102
RTVSPost2010Prop46
 90
       50
102
RTVSPost2010PropOp46
 70
     1
102
RTVSPost2010Prop47
 90
       50
102
RTVSPost2010PropOp47
 70
     1
102
RTVSPost2010Prop48
 90
       50
102
RTVSPost2010PropOp48
 70
     1
102
RTVSPost2010Prop49
280
     0
102
RTVSPost2010PropOp49
 70
     1
102
RTVSPost2010Prop50
 90
       50
102
RTVSPost2010PropOp50
 70
     1
102
RTVSPost2010Prop51ColorIndex
 90
      256
102
RTVSPost2010Prop51ColorRGB
 90
-16777216
102
RTVSPost2010PropOp51
 70
     0
102
RTVSPost2010Prop52
140
1.0
102
RTVSPost2010PropOp52
 70
     0
102
RTVSPost2010Prop53
 90
        2
102
RTVSPost2010PropOp53
 70
     1
102
RTVSPost2010Prop54
  1
strokes_ogs.tif
102
RTVSPost2010PropOp54
 70
     1
102
RTVSPost2010Prop55
280
     0
102
RTVSPost2010PropOp55
 70
     1
102
RTVSPost2010Prop56
140
1.0
102
RTVSPost2010PropOp56
 70
     1
102
RTVSPost2010Prop57
140
1.0
102
RTVSPost2010PropOp57
 70
     1
102
RTVSPropertyOp0
 70
     0
102
RTVSPropertyOp1
 70
     0
102
RTVSPropertyOp2
 70
     0
102
RTVSPropertyOp3
 70
     0
102
RTVSPropertyOp4
 70
     0
102
RTVSPropertyOp5
 70
     0
102
RTVSPropertyOp6
 70
     0
102
RTVSPropertyOp7
 70
     0
102
RTVSPropertyOp8
 70
     0
102
RTVSPropertyOp9
 70
     0
102
RTVSPropertyOp10
 70
     0
102
RTVSPropertyOp11
 70
     0
102
RTVSPropertyOp12
 70
     0
102
RTVSPropertyOp13
 70
     0
102
RTVSPropertyOp14
 70
     2
102
RTVSPropertyOp15
 70
     0
102
RTVSPropertyOp16
 70
     0
102
RTVSPropertyOp17
 70
     0
102
RTVSPropertyOp18
 70
     0
102
RTVSPropertyOp19
 70
     0
102
RTVSPropertyOp20
 70
     0
102
RTVSPropertyOp21
 70
     0
102
RTVSPropertyOp22
 70
     0
102
RTVSPropertyOp23
 70
     0
102
RTVSPropertyOp24
 70
     0
102
RTVSPropertyOp25
 70
     0
102
RTVSPropertyOp26
 70
     0
102
RTVSPropertyOp27
 70
     0
102
RTVSPropertyOp28
 70
     1
102
RTVSPropertyOp29
 70
     1
102
RTVSPropertyOp30
 70
     1
102
RTVSPropertyOp31
 70
     1
102
RTVSPropertyOp32
 70
     1
102
RTVSPropertyOp33
 70
     1
102
RTVSPropertyOp34
 70
     1
102
RTVSPropertyOp35
 70
     1
102
RTVSPropertyOp36
 70
     1
102
RTVSPropertyOp37
 70
     1
102
RTVSPropertyOp38
 70
     1
102
RTVSPropertyOp39
 70
     1
102
RTVSPropertyOp40
 70
     1
102
RTVSPropertyOp41
 70
     1
102
RTVSPropertyOp42
 70
     1
102
RTVSPropertyOp43
 70
     1
102
RTVSPropertyOp44
 70
     1
102
RTVSPropertyOp45
 70
     1
102
RTVSPropertyOp46
 70
     1
102
RTVSPropertyOp47
 70
     1
102
RTVSPropertyOp48
 70
     1
102
RTVSPropertyOp49
 70
     1
102
RTVSPropertyOp50
 70
     1
102
RTVSPropertyOp51
 70
     0
102
RTVSPropertyOp52
 70
     0
102
RTVSPropertyOp53
 70
     1
102
RTVSPropertyOp54
 70
     1
102
RTVSPropertyOp55
 70
     1
102
RTVSPropertyOp56
 70
     1
102
RTVSPropertyOp57
 70
     1
102
RTVSPropertyOp58
 70
     1
102
RTVSPropertyOp59
 70
     1
102
RTVSPropertyOp60
 70
     1
102
RTVSPropertyOp61
 70
     1
102
RTVSPropertyOp62
 70
     1
  0
XRECORD
  5
3CFC
102
{ACAD_REACTORS
330
3CFB
102
}
330
3CFB
100
AcDbXrecord
280
     1
102
RTVSPost2010Prop28
280
     0
102
RTVSPost2010PropOp28
 70
     1
102
RTVSPost2010Prop29
280
     1
102
RTVSPost2010PropOp29
 70
     1
102
RTVSPost2010Prop30
280
     1
102
RTVSPost2010PropOp30
 70
     1
102
RTVSPost2010Prop31
280
     0
102
RTVSPost2010PropOp31
 70
     1
102
RTVSPost2010Prop32
280
     0
102
RTVSPost2010PropOp32
 70
     1
102
RTVSPost2010Prop33
280
     0
102
RTVSPost2010PropOp33
 70
     1
102
RTVSPost2010Prop34
280
     0
102
RTVSPost2010PropOp34
 70
     1
102
RTVSPost2010Prop35
280
     0
102
RTVSPost2010PropOp35
 70
     1
102
RTVSPost2010Prop36
280
     0
102
RTVSPost2010PropOp36
 70
     1
102
RTVSPost2010Prop37
 90
       50
102
RTVSPost2010PropOp37
 70
     1
102
RTVSPost2010Prop38
140
0.0
102
RTVSPost2010PropOp38
 70
     1
102
RTVSPost2010Prop39
140
1.0
102
RTVSPost2010PropOp39
 70
     1
102
RTVSPost2010Prop40
 90
        0
102
RTVSPost2010PropOp40
 70
     1
102
RTVSPost2010Prop41ColorIndex
 90
       18
102
RTVSPost2010Prop41ColorRGB
 90
        0
102
RTVSPost2010PropOp41
 70
     1
102
RTVSPost2010Prop42
 90
       50
102
RTVSPost2010PropOp42
 70
     1
102
RTVSPost2010Prop43
 90
        3
102
RTVSPost2010PropOp43
 70
     1
102
RTVSPost2010Prop44ColorIndex
 90
        5
102
RTVSPost2010Prop44ColorRGB
 90
      255
102
RTVSPost2010PropOp44
 70
     1
102
RTVSPost2010Prop45
280
     0
102
RTVSPost2010PropOp45
 70
     1
102
RTVSPost2010Prop46
 90
       50
102
RTVSPost2010PropOp46
 70
     1
102
RTVSPost2010Prop47
 90
       50
102
RTVSPost2010PropOp47
 70
     1
102
RTVSPost2010Prop48
 90
       50
102
RTVSPost2010PropOp48
 70
     1
102
RTVSPost2010Prop49
280
     0
102
RTVSPost2010PropOp49
 70
     1
102
RTVSPost2010Prop50
 90
       50
102
RTVSPost2010PropOp50
 70
     1
102
RTVSPost2010Prop51ColorIndex
 90
      256
102
RTVSPost2010Prop51ColorRGB
 90
-16777216
102
RTVSPost2010PropOp51
 70
     0
102
RTVSPost2010Prop52
140
1.0
102
RTVSPost2010PropOp52
 70
     0
102
RTVSPost2010Prop53
 90
        2
102
RTVSPost2010PropOp53
 70
     1
102
RTVSPost2010Prop54
  1
strokes_ogs.tif
102
RTVSPost2010PropOp54
 70
     1
102
RTVSPost2010Prop55
280
     0
102
RTVSPost2010PropOp55
 70
     1
102
RTVSPost2010Prop56
140
1.0
102
RTVSPost2010PropOp56
 70
     1
102
RTVSPost2010Prop57
140
1.0
102
RTVSPost2010PropOp57
 70
     1
102
RTVSPropertyOp0
 70
     1
102
RTVSPropertyOp1
 70
     1
102
RTVSPropertyOp2
 70
     1
102
RTVSPropertyOp3
 70
     1
102
RTVSPropertyOp4
 70
     1
102
RTVSPropertyOp5
 70
     1
102
RTVSPropertyOp6
 70
     1
102
RTVSPropertyOp7
 70
     1
102
RTVSPropertyOp8
 70
     1
102
RTVSPropertyOp9
 70
     1
102
RTVSPropertyOp10
 70
     1
102
RTVSPropertyOp11
 70
     1
102
RTVSPropertyOp12
 70
     1
102
RTVSPropertyOp13
 70
     1
102
RTVSPropertyOp14
 70
     1
102
RTVSPropertyOp15
 70
     1
102
RTVSPropertyOp16
 70
     1
102
RTVSPropertyOp17
 70
     1
102
RTVSPropertyOp18
 70
     1
102
RTVSPropertyOp19
 70
     1
102
RTVSPropertyOp20
 70
     1
102
RTVSPropertyOp21
 70
     1
102
RTVSPropertyOp22
 70
     1
102
RTVSPropertyOp23
 70
     1
102
RTVSPropertyOp24
 70
     1
102
RTVSPropertyOp25
 70
     1
102
RTVSPropertyOp26
 70
     1
102
RTVSPropertyOp27
 70
     1
102
RTVSPropertyOp28
 70
     1
102
RTVSPropertyOp29
 70
     1
102
RTVSPropertyOp30
 70
     1
102
RTVSPropertyOp31
 70
     1
102
RTVSPropertyOp32
 70
     1
102
RTVSPropertyOp33
 70
     1
102
RTVSPropertyOp34
 70
     1
102
RTVSPropertyOp35
 70
     1
102
RTVSPropertyOp36
 70
     1
102
RTVSPropertyOp37
 70
     1
102
RTVSPropertyOp38
 70
     1
102
RTVSPropertyOp39
 70
     1
102
RTVSPropertyOp40
 70
     1
102
RTVSPropertyOp41
 70
     1
102
RTVSPropertyOp42
 70
     1
102
RTVSPropertyOp43
 70
     1
102
RTVSPropertyOp44
 70
     1
102
RTVSPropertyOp45
 70
     1
102
RTVSPropertyOp46
 70
     1
102
RTVSPropertyOp47
 70
     1
102
RTVSPropertyOp48
 70
     1
102
RTVSPropertyOp49
 70
     1
102
RTVSPropertyOp50
 70
     1
102
RTVSPropertyOp51
 70
     0
102
RTVSPropertyOp52
 70
     0
102
RTVSPropertyOp53
 70
     1
102
RTVSPropertyOp54
 70
     1
102
RTVSPropertyOp55
 70
     1
102
RTVSPropertyOp56
 70
     1
102
RTVSPropertyOp57
 70
     1
102
RTVSPropertyOp58
 70
     1
102
RTVSPropertyOp59
 70
     1
102
RTVSPropertyOp60
 70
     1
102
RTVSPropertyOp61
 70
     1
102
RTVSPropertyOp62
 70
     1
  0
XRECORD
  5
3CE0
102
{ACAD_REACTORS
330
3CDF
102
}
330
3CDF
100
AcDbXrecord
280
     1
102
RTVSPost2010Prop28
280
     0
102
RTVSPost2010PropOp28
 70
     1
102
RTVSPost2010Prop29
280
     1
102
RTVSPost2010PropOp29
 70
     1
102
RTVSPost2010Prop30
280
     1
102
RTVSPost2010PropOp30
 70
     1
102
RTVSPost2010Prop31
280
     0
102
RTVSPost2010PropOp31
 70
     1
102
RTVSPost2010Prop32
280
     0
102
RTVSPost2010PropOp32
 70
     1
102
RTVSPost2010Prop33
280
     0
102
RTVSPost2010PropOp33
 70
     1
102
RTVSPost2010Prop34
280
     0
102
RTVSPost2010PropOp34
 70
     1
102
RTVSPost2010Prop35
280
     0
102
RTVSPost2010PropOp35
 70
     1
102
RTVSPost2010Prop36
280
     0
102
RTVSPost2010PropOp36
 70
     1
102
RTVSPost2010Prop37
 90
       50
102
RTVSPost2010PropOp37
 70
     1
102
RTVSPost2010Prop38
140
0.0
102
RTVSPost2010PropOp38
 70
     1
102
RTVSPost2010Prop39
140
1.0
102
RTVSPost2010PropOp39
 70
     1
102
RTVSPost2010Prop40
 90
        0
102
RTVSPost2010PropOp40
 70
     1
102
RTVSPost2010Prop41ColorIndex
 90
       18
102
RTVSPost2010Prop41ColorRGB
 90
        0
102
RTVSPost2010PropOp41
 70
     1
102
RTVSPost2010Prop42
 90
       50
102
RTVSPost2010PropOp42
 70
     1
102
RTVSPost2010Prop43
 90
        3
102
RTVSPost2010PropOp43
 70
     1
102
RTVSPost2010Prop44ColorIndex
 90
        5
102
RTVSPost2010Prop44ColorRGB
 90
      255
102
RTVSPost2010PropOp44
 70
     1
102
RTVSPost2010Prop45
280
     0
102
RTVSPost2010PropOp45
 70
     1
102
RTVSPost2010Prop46
 90
       50
102
RTVSPost2010PropOp46
 70
     1
102
RTVSPost2010Prop47
 90
       50
102
RTVSPost2010PropOp47
 70
     1
102
RTVSPost2010Prop48
 90
       50
102
RTVSPost2010PropOp48
 70
     1
102
RTVSPost2010Prop49
280
     0
102
RTVSPost2010PropOp49
 70
     1
102
RTVSPost2010Prop50
 90
       50
102
RTVSPost2010PropOp50
 70
     1
102
RTVSPost2010Prop51ColorIndex
 90
      256
102
RTVSPost2010Prop51ColorRGB
 90
-16777216
102
RTVSPost2010PropOp51
 70
     0
102
RTVSPost2010Prop52
140
1.0
102
RTVSPost2010PropOp52
 70
     0
102
RTVSPost2010Prop53
 90
        2
102
RTVSPost2010PropOp53
 70
     1
102
RTVSPost2010Prop54
  1
strokes_ogs.tif
102
RTVSPost2010PropOp54
 70
     1
102
RTVSPost2010Prop55
280
     0
102
RTVSPost2010PropOp55
 70
     1
102
RTVSPost2010Prop56
140
1.0
102
RTVSPost2010PropOp56
 70
     1
102
RTVSPost2010Prop57
140
1.0
102
RTVSPost2010PropOp57
 70
     1
102
RTVSPropertyOp0
 70
     1
102
RTVSPropertyOp1
 70
     1
102
RTVSPropertyOp2
 70
     1
102
RTVSPropertyOp3
 70
     1
102
RTVSPropertyOp4
 70
     1
102
RTVSPropertyOp5
 70
     1
102
RTVSPropertyOp6
 70
     1
102
RTVSPropertyOp7
 70
     1
102
RTVSPropertyOp8
 70
     1
102
RTVSPropertyOp9
 70
     1
102
RTVSPropertyOp10
 70
     1
102
RTVSPropertyOp11
 70
     1
102
RTVSPropertyOp12
 70
     1
102
RTVSPropertyOp13
 70
     1
102
RTVSPropertyOp14
 70
     1
102
RTVSPropertyOp15
 70
     1
102
RTVSPropertyOp16
 70
     1
102
RTVSPropertyOp17
 70
     1
102
RTVSPropertyOp18
 70
     1
102
RTVSPropertyOp19
 70
     1
102
RTVSPropertyOp20
 70
     1
102
RTVSPropertyOp21
 70
     1
102
RTVSPropertyOp22
 70
     1
102
RTVSPropertyOp23
 70
     1
102
RTVSPropertyOp24
 70
     1
102
RTVSPropertyOp25
 70
     1
102
RTVSPropertyOp26
 70
     1
102
RTVSPropertyOp27
 70
     1
102
RTVSPropertyOp28
 70
     1
102
RTVSPropertyOp29
 70
     1
102
RTVSPropertyOp30
 70
     1
102
RTVSPropertyOp31
 70
     1
102
RTVSPropertyOp32
 70
     1
102
RTVSPropertyOp33
 70
     1
102
RTVSPropertyOp34
 70
     1
102
RTVSPropertyOp35
 70
     1
102
RTVSPropertyOp36
 70
     1
102
RTVSPropertyOp37
 70
     1
102
RTVSPropertyOp38
 70
     1
102
RTVSPropertyOp39
 70
     1
102
RTVSPropertyOp40
 70
     1
102
RTVSPropertyOp41
 70
     1
102
RTVSPropertyOp42
 70
     1
102
RTVSPropertyOp43
 70
     1
102
RTVSPropertyOp44
 70
     1
102
RTVSPropertyOp45
 70
     1
102
RTVSPropertyOp46
 70
     1
102
RTVSPropertyOp47
 70
     1
102
RTVSPropertyOp48
 70
     1
102
RTVSPropertyOp49
 70
     1
102
RTVSPropertyOp50
 70
     1
102
RTVSPropertyOp51
 70
     0
102
RTVSPropertyOp52
 70
     0
102
RTVSPropertyOp53
 70
     1
102
RTVSPropertyOp54
 70
     1
102
RTVSPropertyOp55
 70
     1
102
RTVSPropertyOp56
 70
     1
102
RTVSPropertyOp57
 70
     1
102
RTVSPropertyOp58
 70
     1
102
RTVSPropertyOp59
 70
     1
102
RTVSPropertyOp60
 70
     1
102
RTVSPropertyOp61
 70
     1
102
RTVSPropertyOp62
 70
     1
  0
XRECORD
  5
3CE2
102
{ACAD_REACTORS
330
3CE1
102
}
330
3CE1
100
AcDbXrecord
280
     1
102
RTVSPost2010Prop28
280
     0
102
RTVSPost2010PropOp28
 70
     1
102
RTVSPost2010Prop29
280
     1
102
RTVSPost2010PropOp29
 70
     1
102
RTVSPost2010Prop30
280
     1
102
RTVSPost2010PropOp30
 70
     1
102
RTVSPost2010Prop31
280
     0
102
RTVSPost2010PropOp31
 70
     1
102
RTVSPost2010Prop32
280
     0
102
RTVSPost2010PropOp32
 70
     1
102
RTVSPost2010Prop33
280
     0
102
RTVSPost2010PropOp33
 70
     1
102
RTVSPost2010Prop34
280
     0
102
RTVSPost2010PropOp34
 70
     1
102
RTVSPost2010Prop35
280
     0
102
RTVSPost2010PropOp35
 70
     1
102
RTVSPost2010Prop36
280
     0
102
RTVSPost2010PropOp36
 70
     1
102
RTVSPost2010Prop37
 90
       50
102
RTVSPost2010PropOp37
 70
     1
102
RTVSPost2010Prop38
140
0.0
102
RTVSPost2010PropOp38
 70
     1
102
RTVSPost2010Prop39
140
1.0
102
RTVSPost2010PropOp39
 70
     1
102
RTVSPost2010Prop40
 90
        0
102
RTVSPost2010PropOp40
 70
     1
102
RTVSPost2010Prop41ColorIndex
 90
       18
102
RTVSPost2010Prop41ColorRGB
 90
        0
102
RTVSPost2010PropOp41
 70
     1
102
RTVSPost2010Prop42
 90
       50
102
RTVSPost2010PropOp42
 70
     1
102
RTVSPost2010Prop43
 90
        3
102
RTVSPost2010PropOp43
 70
     1
102
RTVSPost2010Prop44ColorIndex
 90
        5
102
RTVSPost2010Prop44ColorRGB
 90
      255
102
RTVSPost2010PropOp44
 70
     1
102
RTVSPost2010Prop45
280
     0
102
RTVSPost2010PropOp45
 70
     1
102
RTVSPost2010Prop46
 90
       50
102
RTVSPost2010PropOp46
 70
     1
102
RTVSPost2010Prop47
 90
       50
102
RTVSPost2010PropOp47
 70
     1
102
RTVSPost2010Prop48
 90
       50
102
RTVSPost2010PropOp48
 70
     1
102
RTVSPost2010Prop49
280
     0
102
RTVSPost2010PropOp49
 70
     1
102
RTVSPost2010Prop50
 90
       50
102
RTVSPost2010PropOp50
 70
     1
102
RTVSPost2010Prop51ColorIndex
 90
      256
102
RTVSPost2010Prop51ColorRGB
 90
-16777216
102
RTVSPost2010PropOp51
 70
     0
102
RTVSPost2010Prop52
140
1.0
102
RTVSPost2010PropOp52
 70
     0
102
RTVSPost2010Prop53
 90
        2
102
RTVSPost2010PropOp53
 70
     1
102
RTVSPost2010Prop54
  1
strokes_ogs.tif
102
RTVSPost2010PropOp54
 70
     1
102
RTVSPost2010Prop55
280
     0
102
RTVSPost2010PropOp55
 70
     1
102
RTVSPost2010Prop56
140
1.0
102
RTVSPost2010PropOp56
 70
     1
102
RTVSPost2010Prop57
140
1.0
102
RTVSPost2010PropOp57
 70
     1
102
RTVSPropertyOp0
 70
     1
102
RTVSPropertyOp1
 70
     1
102
RTVSPropertyOp2
 70
     1
102
RTVSPropertyOp3
 70
     1
102
RTVSPropertyOp4
 70
     1
102
RTVSPropertyOp5
 70
     1
102
RTVSPropertyOp6
 70
     1
102
RTVSPropertyOp7
 70
     1
102
RTVSPropertyOp8
 70
     1
102
RTVSPropertyOp9
 70
     1
102
RTVSPropertyOp10
 70
     1
102
RTVSPropertyOp11
 70
     1
102
RTVSPropertyOp12
 70
     1
102
RTVSPropertyOp13
 70
     1
102
RTVSPropertyOp14
 70
     1
102
RTVSPropertyOp15
 70
     1
102
RTVSPropertyOp16
 70
     1
102
RTVSPropertyOp17
 70
     1
102
RTVSPropertyOp18
 70
     1
102
RTVSPropertyOp19
 70
     1
102
RTVSPropertyOp20
 70
     1
102
RTVSPropertyOp21
 70
     1
102
RTVSPropertyOp22
 70
     1
102
RTVSPropertyOp23
 70
     1
102
RTVSPropertyOp24
 70
     1
102
RTVSPropertyOp25
 70
     1
102
RTVSPropertyOp26
 70
     1
102
RTVSPropertyOp27
 70
     1
102
RTVSPropertyOp28
 70
     1
102
RTVSPropertyOp29
 70
     1
102
RTVSPropertyOp30
 70
     1
102
RTVSPropertyOp31
 70
     1
102
RTVSPropertyOp32
 70
     1
102
RTVSPropertyOp33
 70
     1
102
RTVSPropertyOp34
 70
     1
102
RTVSPropertyOp35
 70
     1
102
RTVSPropertyOp36
 70
     1
102
RTVSPropertyOp37
 70
     1
102
RTVSPropertyOp38
 70
     1
102
RTVSPropertyOp39
 70
     1
102
RTVSPropertyOp40
 70
     1
102
RTVSPropertyOp41
 70
     1
102
RTVSPropertyOp42
 70
     1
102
RTVSPropertyOp43
 70
     1
102
RTVSPropertyOp44
 70
     1
102
RTVSPropertyOp45
 70
     1
102
RTVSPropertyOp46
 70
     1
102
RTVSPropertyOp47
 70
     1
102
RTVSPropertyOp48
 70
     1
102
RTVSPropertyOp49
 70
     1
102
RTVSPropertyOp50
 70
     1
102
RTVSPropertyOp51
 70
     0
102
RTVSPropertyOp52
 70
     0
102
RTVSPropertyOp53
 70
     1
102
RTVSPropertyOp54
 70
     1
102
RTVSPropertyOp55
 70
     1
102
RTVSPropertyOp56
 70
     1
102
RTVSPropertyOp57
 70
     1
102
RTVSPropertyOp58
 70
     1
102
RTVSPropertyOp59
 70
     1
102
RTVSPropertyOp60
 70
     1
102
RTVSPropertyOp61
 70
     1
102
RTVSPropertyOp62
 70
     1
  0
XRECORD
  5
3CE4
102
{ACAD_REACTORS
330
3CE3
102
}
330
3CE3
100
AcDbXrecord
280
     1
102
RTVSPost2010Prop28
280
     0
102
RTVSPost2010PropOp28
 70
     1
102
RTVSPost2010Prop29
280
     1
102
RTVSPost2010PropOp29
 70
     1
102
RTVSPost2010Prop30
280
     1
102
RTVSPost2010PropOp30
 70
     1
102
RTVSPost2010Prop31
280
     0
102
RTVSPost2010PropOp31
 70
     1
102
RTVSPost2010Prop32
280
     0
102
RTVSPost2010PropOp32
 70
     1
102
RTVSPost2010Prop33
280
     0
102
RTVSPost2010PropOp33
 70
     1
102
RTVSPost2010Prop34
280
     0
102
RTVSPost2010PropOp34
 70
     1
102
RTVSPost2010Prop35
280
     0
102
RTVSPost2010PropOp35
 70
     1
102
RTVSPost2010Prop36
280
     0
102
RTVSPost2010PropOp36
 70
     1
102
RTVSPost2010Prop37
 90
       50
102
RTVSPost2010PropOp37
 70
     1
102
RTVSPost2010Prop38
140
0.0
102
RTVSPost2010PropOp38
 70
     1
102
RTVSPost2010Prop39
140
1.0
102
RTVSPost2010PropOp39
 70
     1
102
RTVSPost2010Prop40
 90
        0
102
RTVSPost2010PropOp40
 70
     1
102
RTVSPost2010Prop41ColorIndex
 90
       18
102
RTVSPost2010Prop41ColorRGB
 90
        0
102
RTVSPost2010PropOp41
 70
     1
102
RTVSPost2010Prop42
 90
       50
102
RTVSPost2010PropOp42
 70
     1
102
RTVSPost2010Prop43
 90
        3
102
RTVSPost2010PropOp43
 70
     1
102
RTVSPost2010Prop44ColorIndex
 90
        5
102
RTVSPost2010Prop44ColorRGB
 90
      255
102
RTVSPost2010PropOp44
 70
     1
102
RTVSPost2010Prop45
280
     0
102
RTVSPost2010PropOp45
 70
     1
102
RTVSPost2010Prop46
 90
       50
102
RTVSPost2010PropOp46
 70
     1
102
RTVSPost2010Prop47
 90
       50
102
RTVSPost2010PropOp47
 70
     1
102
RTVSPost2010Prop48
 90
       50
102
RTVSPost2010PropOp48
 70
     1
102
RTVSPost2010Prop49
280
     0
102
RTVSPost2010PropOp49
 70
     1
102
RTVSPost2010Prop50
 90
       50
102
RTVSPost2010PropOp50
 70
     1
102
RTVSPost2010Prop51ColorIndex
 90
      256
102
RTVSPost2010Prop51ColorRGB
 90
-16777216
102
RTVSPost2010PropOp51
 70
     0
102
RTVSPost2010Prop52
140
1.0
102
RTVSPost2010PropOp52
 70
     0
102
RTVSPost2010Prop53
 90
        2
102
RTVSPost2010PropOp53
 70
     1
102
RTVSPost2010Prop54
  1
strokes_ogs.tif
102
RTVSPost2010PropOp54
 70
     1
102
RTVSPost2010Prop55
280
     0
102
RTVSPost2010PropOp55
 70
     1
102
RTVSPost2010Prop56
140
1.0
102
RTVSPost2010PropOp56
 70
     1
102
RTVSPost2010Prop57
140
1.0
102
RTVSPost2010PropOp57
 70
     1
102
RTVSPropertyOp0
 70
     1
102
RTVSPropertyOp1
 70
     1
102
RTVSPropertyOp2
 70
     1
102
RTVSPropertyOp3
 70
     1
102
RTVSPropertyOp4
 70
     1
102
RTVSPropertyOp5
 70
     1
102
RTVSPropertyOp6
 70
     1
102
RTVSPropertyOp7
 70
     1
102
RTVSPropertyOp8
 70
     1
102
RTVSPropertyOp9
 70
     1
102
RTVSPropertyOp10
 70
     1
102
RTVSPropertyOp11
 70
     1
102
RTVSPropertyOp12
 70
     1
102
RTVSPropertyOp13
 70
     1
102
RTVSPropertyOp14
 70
     1
102
RTVSPropertyOp15
 70
     1
102
RTVSPropertyOp16
 70
     1
102
RTVSPropertyOp17
 70
     1
102
RTVSPropertyOp18
 70
     1
102
RTVSPropertyOp19
 70
     1
102
RTVSPropertyOp20
 70
     1
102
RTVSPropertyOp21
 70
     1
102
RTVSPropertyOp22
 70
     1
102
RTVSPropertyOp23
 70
     1
102
RTVSPropertyOp24
 70
     1
102
RTVSPropertyOp25
 70
     1
102
RTVSPropertyOp26
 70
     1
102
RTVSPropertyOp27
 70
     1
102
RTVSPropertyOp28
 70
     1
102
RTVSPropertyOp29
 70
     1
102
RTVSPropertyOp30
 70
     1
102
RTVSPropertyOp31
 70
     1
102
RTVSPropertyOp32
 70
     1
102
RTVSPropertyOp33
 70
     1
102
RTVSPropertyOp34
 70
     1
102
RTVSPropertyOp35
 70
     1
102
RTVSPropertyOp36
 70
     1
102
RTVSPropertyOp37
 70
     1
102
RTVSPropertyOp38
 70
     1
102
RTVSPropertyOp39
 70
     1
102
RTVSPropertyOp40
 70
     1
102
RTVSPropertyOp41
 70
     1
102
RTVSPropertyOp42
 70
     1
102
RTVSPropertyOp43
 70
     1
102
RTVSPropertyOp44
 70
     1
102
RTVSPropertyOp45
 70
     1
102
RTVSPropertyOp46
 70
     1
102
RTVSPropertyOp47
 70
     1
102
RTVSPropertyOp48
 70
     1
102
RTVSPropertyOp49
 70
     1
102
RTVSPropertyOp50
 70
     1
102
RTVSPropertyOp51
 70
     0
102
RTVSPropertyOp52
 70
     0
102
RTVSPropertyOp53
 70
     1
102
RTVSPropertyOp54
 70
     1
102
RTVSPropertyOp55
 70
     1
102
RTVSPropertyOp56
 70
     1
102
RTVSPropertyOp57
 70
     1
102
RTVSPropertyOp58
 70
     1
102
RTVSPropertyOp59
 70
     1
102
RTVSPropertyOp60
 70
     1
102
RTVSPropertyOp61
 70
     1
102
RTVSPropertyOp62
 70
     1
  0
XRECORD
  5
3CE6
102
{ACAD_REACTORS
330
3CE5
102
}
330
3CE5
100
AcDbXrecord
280
     1
102
RTVSPost2010Prop28
280
     0
102
RTVSPost2010PropOp28
 70
     1
102
RTVSPost2010Prop29
280
     1
102
RTVSPost2010PropOp29
 70
     1
102
RTVSPost2010Prop30
280
     1
102
RTVSPost2010PropOp30
 70
     1
102
RTVSPost2010Prop31
280
     0
102
RTVSPost2010PropOp31
 70
     1
102
RTVSPost2010Prop32
280
     0
102
RTVSPost2010PropOp32
 70
     1
102
RTVSPost2010Prop33
280
     0
102
RTVSPost2010PropOp33
 70
     1
102
RTVSPost2010Prop34
280
     0
102
RTVSPost2010PropOp34
 70
     1
102
RTVSPost2010Prop35
280
     0
102
RTVSPost2010PropOp35
 70
     1
102
RTVSPost2010Prop36
280
     0
102
RTVSPost2010PropOp36
 70
     1
102
RTVSPost2010Prop37
 90
       50
102
RTVSPost2010PropOp37
 70
     1
102
RTVSPost2010Prop38
140
0.0
102
RTVSPost2010PropOp38
 70
     1
102
RTVSPost2010Prop39
140
1.0
102
RTVSPost2010PropOp39
 70
     1
102
RTVSPost2010Prop40
 90
        0
102
RTVSPost2010PropOp40
 70
     1
102
RTVSPost2010Prop41ColorIndex
 90
       18
102
RTVSPost2010Prop41ColorRGB
 90
        0
102
RTVSPost2010PropOp41
 70
     1
102
RTVSPost2010Prop42
 90
       50
102
RTVSPost2010PropOp42
 70
     1
102
RTVSPost2010Prop43
 90
        3
102
RTVSPost2010PropOp43
 70
     1
102
RTVSPost2010Prop44ColorIndex
 90
        5
102
RTVSPost2010Prop44ColorRGB
 90
      255
102
RTVSPost2010PropOp44
 70
     1
102
RTVSPost2010Prop45
280
     0
102
RTVSPost2010PropOp45
 70
     1
102
RTVSPost2010Prop46
 90
       50
102
RTVSPost2010PropOp46
 70
     1
102
RTVSPost2010Prop47
 90
       50
102
RTVSPost2010PropOp47
 70
     1
102
RTVSPost2010Prop48
 90
       50
102
RTVSPost2010PropOp48
 70
     1
102
RTVSPost2010Prop49
280
     0
102
RTVSPost2010PropOp49
 70
     1
102
RTVSPost2010Prop50
 90
       50
102
RTVSPost2010PropOp50
 70
     1
102
RTVSPost2010Prop51ColorIndex
 90
      256
102
RTVSPost2010Prop51ColorRGB
 90
-16777216
102
RTVSPost2010PropOp51
 70
     0
102
RTVSPost2010Prop52
140
1.0
102
RTVSPost2010PropOp52
 70
     0
102
RTVSPost2010Prop53
 90
        2
102
RTVSPost2010PropOp53
 70
     1
102
RTVSPost2010Prop54
  1
strokes_ogs.tif
102
RTVSPost2010PropOp54
 70
     1
102
RTVSPost2010Prop55
280
     0
102
RTVSPost2010PropOp55
 70
     1
102
RTVSPost2010Prop56
140
1.0
102
RTVSPost2010PropOp56
 70
     1
102
RTVSPost2010Prop57
140
1.0
102
RTVSPost2010PropOp57
 70
     1
102
RTVSPropertyOp0
 70
     1
102
RTVSPropertyOp1
 70
     1
102
RTVSPropertyOp2
 70
     1
102
RTVSPropertyOp3
 70
     1
102
RTVSPropertyOp4
 70
     1
102
RTVSPropertyOp5
 70
     1
102
RTVSPropertyOp6
 70
     1
102
RTVSPropertyOp7
 70
     1
102
RTVSPropertyOp8
 70
     1
102
RTVSPropertyOp9
 70
     1
102
RTVSPropertyOp10
 70
     1
102
RTVSPropertyOp11
 70
     1
102
RTVSPropertyOp12
 70
     1
102
RTVSPropertyOp13
 70
     1
102
RTVSPropertyOp14
 70
     1
102
RTVSPropertyOp15
 70
     1
102
RTVSPropertyOp16
 70
     1
102
RTVSPropertyOp17
 70
     1
102
RTVSPropertyOp18
 70
     1
102
RTVSPropertyOp19
 70
     1
102
RTVSPropertyOp20
 70
     1
102
RTVSPropertyOp21
 70
     1
102
RTVSPropertyOp22
 70
     1
102
RTVSPropertyOp23
 70
     1
102
RTVSPropertyOp24
 70
     1
102
RTVSPropertyOp25
 70
     1
102
RTVSPropertyOp26
 70
     1
102
RTVSPropertyOp27
 70
     1
102
RTVSPropertyOp28
 70
     1
102
RTVSPropertyOp29
 70
     1
102
RTVSPropertyOp30
 70
     1
102
RTVSPropertyOp31
 70
     1
102
RTVSPropertyOp32
 70
     1
102
RTVSPropertyOp33
 70
     1
102
RTVSPropertyOp34
 70
     1
102
RTVSPropertyOp35
 70
     1
102
RTVSPropertyOp36
 70
     1
102
RTVSPropertyOp37
 70
     1
102
RTVSPropertyOp38
 70
     1
102
RTVSPropertyOp39
 70
     1
102
RTVSPropertyOp40
 70
     1
102
RTVSPropertyOp41
 70
     1
102
RTVSPropertyOp42
 70
     1
102
RTVSPropertyOp43
 70
     1
102
RTVSPropertyOp44
 70
     1
102
RTVSPropertyOp45
 70
     1
102
RTVSPropertyOp46
 70
     1
102
RTVSPropertyOp47
 70
     1
102
RTVSPropertyOp48
 70
     1
102
RTVSPropertyOp49
 70
     1
102
RTVSPropertyOp50
 70
     1
102
RTVSPropertyOp51
 70
     0
102
RTVSPropertyOp52
 70
     0
102
RTVSPropertyOp53
 70
     1
102
RTVSPropertyOp54
 70
     1
102
RTVSPropertyOp55
 70
     1
102
RTVSPropertyOp56
 70
     1
102
RTVSPropertyOp57
 70
     1
102
RTVSPropertyOp58
 70
     1
102
RTVSPropertyOp59
 70
     1
102
RTVSPropertyOp60
 70
     1
102
RTVSPropertyOp61
 70
     1
102
RTVSPropertyOp62
 70
     1
  0
XRECORD
  5
3D09
102
{ACAD_REACTORS
330
3D08
102
}
330
3D08
100
AcDbXrecord
280
     1
102
RTVSPost2010Prop28
280
     0
102
RTVSPost2010PropOp28
 70
     1
102
RTVSPost2010Prop29
280
     1
102
RTVSPost2010PropOp29
 70
     1
102
RTVSPost2010Prop30
280
     1
102
RTVSPost2010PropOp30
 70
     1
102
RTVSPost2010Prop31
280
     0
102
RTVSPost2010PropOp31
 70
     1
102
RTVSPost2010Prop32
280
     0
102
RTVSPost2010PropOp32
 70
     1
102
RTVSPost2010Prop33
280
     0
102
RTVSPost2010PropOp33
 70
     1
102
RTVSPost2010Prop34
280
     0
102
RTVSPost2010PropOp34
 70
     1
102
RTVSPost2010Prop35
280
     0
102
RTVSPost2010PropOp35
 70
     1
102
RTVSPost2010Prop36
280
     0
102
RTVSPost2010PropOp36
 70
     1
102
RTVSPost2010Prop37
 90
       50
102
RTVSPost2010PropOp37
 70
     1
102
RTVSPost2010Prop38
140
0.0
102
RTVSPost2010PropOp38
 70
     1
102
RTVSPost2010Prop39
140
1.0
102
RTVSPost2010PropOp39
 70
     1
102
RTVSPost2010Prop40
 90
        0
102
RTVSPost2010PropOp40
 70
     1
102
RTVSPost2010Prop41ColorIndex
 90
       18
102
RTVSPost2010Prop41ColorRGB
 90
        0
102
RTVSPost2010PropOp41
 70
     1
102
RTVSPost2010Prop42
 90
       50
102
RTVSPost2010PropOp42
 70
     1
102
RTVSPost2010Prop43
 90
        3
102
RTVSPost2010PropOp43
 70
     1
102
RTVSPost2010Prop44ColorIndex
 90
        5
102
RTVSPost2010Prop44ColorRGB
 90
      255
102
RTVSPost2010PropOp44
 70
     1
102
RTVSPost2010Prop45
280
     0
102
RTVSPost2010PropOp45
 70
     1
102
RTVSPost2010Prop46
 90
       50
102
RTVSPost2010PropOp46
 70
     1
102
RTVSPost2010Prop47
 90
       50
102
RTVSPost2010PropOp47
 70
     1
102
RTVSPost2010Prop48
 90
       50
102
RTVSPost2010PropOp48
 70
     1
102
RTVSPost2010Prop49
280
     0
102
RTVSPost2010PropOp49
 70
     1
102
RTVSPost2010Prop50
 90
       50
102
RTVSPost2010PropOp50
 70
     1
102
RTVSPost2010Prop51ColorIndex
 90
      256
102
RTVSPost2010Prop51ColorRGB
 90
-16777216
102
RTVSPost2010PropOp51
 70
     0
102
RTVSPost2010Prop52
140
1.0
102
RTVSPost2010PropOp52
 70
     0
102
RTVSPost2010Prop53
 90
        2
102
RTVSPost2010PropOp53
 70
     1
102
RTVSPost2010Prop54
  1
strokes_ogs.tif
102
RTVSPost2010PropOp54
 70
     1
102
RTVSPost2010Prop55
280
     0
102
RTVSPost2010PropOp55
 70
     1
102
RTVSPost2010Prop56
140
1.0
102
RTVSPost2010PropOp56
 70
     1
102
RTVSPost2010Prop57
140
1.0
102
RTVSPost2010PropOp57
 70
     1
102
RTVSPropertyOp0
 70
     1
102
RTVSPropertyOp1
 70
     1
102
RTVSPropertyOp2
 70
     1
102
RTVSPropertyOp3
 70
     1
102
RTVSPropertyOp4
 70
     1
102
RTVSPropertyOp5
 70
     1
102
RTVSPropertyOp6
 70
     1
102
RTVSPropertyOp7
 70
     1
102
RTVSPropertyOp8
 70
     1
102
RTVSPropertyOp9
 70
     1
102
RTVSPropertyOp10
 70
     1
102
RTVSPropertyOp11
 70
     1
102
RTVSPropertyOp12
 70
     1
102
RTVSPropertyOp13
 70
     1
102
RTVSPropertyOp14
 70
     1
102
RTVSPropertyOp15
 70
     1
102
RTVSPropertyOp16
 70
     1
102
RTVSPropertyOp17
 70
     1
102
RTVSPropertyOp18
 70
     1
102
RTVSPropertyOp19
 70
     1
102
RTVSPropertyOp20
 70
     1
102
RTVSPropertyOp21
 70
     1
102
RTVSPropertyOp22
 70
     1
102
RTVSPropertyOp23
 70
     1
102
RTVSPropertyOp24
 70
     1
102
RTVSPropertyOp25
 70
     1
102
RTVSPropertyOp26
 70
     1
102
RTVSPropertyOp27
 70
     1
102
RTVSPropertyOp28
 70
     1
102
RTVSPropertyOp29
 70
     1
102
RTVSPropertyOp30
 70
     1
102
RTVSPropertyOp31
 70
     1
102
RTVSPropertyOp32
 70
     1
102
RTVSPropertyOp33
 70
     1
102
RTVSPropertyOp34
 70
     1
102
RTVSPropertyOp35
 70
     1
102
RTVSPropertyOp36
 70
     1
102
RTVSPropertyOp37
 70
     1
102
RTVSPropertyOp38
 70
     1
102
RTVSPropertyOp39
 70
     1
102
RTVSPropertyOp40
 70
     1
102
RTVSPropertyOp41
 70
     1
102
RTVSPropertyOp42
 70
     1
102
RTVSPropertyOp43
 70
     1
102
RTVSPropertyOp44
 70
     1
102
RTVSPropertyOp45
 70
     1
102
RTVSPropertyOp46
 70
     1
102
RTVSPropertyOp47
 70
     1
102
RTVSPropertyOp48
 70
     1
102
RTVSPropertyOp49
 70
     1
102
RTVSPropertyOp50
 70
     1
102
RTVSPropertyOp51
 70
     0
102
RTVSPropertyOp52
 70
     0
102
RTVSPropertyOp53
 70
     1
102
RTVSPropertyOp54
 70
     1
102
RTVSPropertyOp55
 70
     1
102
RTVSPropertyOp56
 70
     1
102
RTVSPropertyOp57
 70
     1
102
RTVSPropertyOp58
 70
     1
102
RTVSPropertyOp59
 70
     1
102
RTVSPropertyOp60
 70
     1
102
RTVSPropertyOp61
 70
     1
102
RTVSPropertyOp62
 70
     1
  0
XRECORD
  5
3D00
102
{ACAD_REACTORS
330
3CFF
102
}
330
3CFF
100
AcDbXrecord
280
     1
102
RTVSPost2010Prop28
280
     0
102
RTVSPost2010PropOp28
 70
     1
102
RTVSPost2010Prop29
280
     1
102
RTVSPost2010PropOp29
 70
     1
102
RTVSPost2010Prop30
280
     1
102
RTVSPost2010PropOp30
 70
     1
102
RTVSPost2010Prop31
280
     0
102
RTVSPost2010PropOp31
 70
     1
102
RTVSPost2010Prop32
280
     0
102
RTVSPost2010PropOp32
 70
     1
102
RTVSPost2010Prop33
280
     0
102
RTVSPost2010PropOp33
 70
     1
102
RTVSPost2010Prop34
280
     0
102
RTVSPost2010PropOp34
 70
     1
102
RTVSPost2010Prop35
280
     0
102
RTVSPost2010PropOp35
 70
     1
102
RTVSPost2010Prop36
280
     0
102
RTVSPost2010PropOp36
 70
     1
102
RTVSPost2010Prop37
 90
       50
102
RTVSPost2010PropOp37
 70
     1
102
RTVSPost2010Prop38
140
0.0
102
RTVSPost2010PropOp38
 70
     1
102
RTVSPost2010Prop39
140
1.0
102
RTVSPost2010PropOp39
 70
     1
102
RTVSPost2010Prop40
 90
        0
102
RTVSPost2010PropOp40
 70
     1
102
RTVSPost2010Prop41ColorIndex
 90
       18
102
RTVSPost2010Prop41ColorRGB
 90
        0
102
RTVSPost2010PropOp41
 70
     1
102
RTVSPost2010Prop42
 90
       50
102
RTVSPost2010PropOp42
 70
     1
102
RTVSPost2010Prop43
 90
        3
102
RTVSPost2010PropOp43
 70
     1
102
RTVSPost2010Prop44ColorIndex
 90
        5
102
RTVSPost2010Prop44ColorRGB
 90
      255
102
RTVSPost2010PropOp44
 70
     1
102
RTVSPost2010Prop45
280
     0
102
RTVSPost2010PropOp45
 70
     1
102
RTVSPost2010Prop46
 90
       50
102
RTVSPost2010PropOp46
 70
     1
102
RTVSPost2010Prop47
 90
       50
102
RTVSPost2010PropOp47
 70
     1
102
RTVSPost2010Prop48
 90
       50
102
RTVSPost2010PropOp48
 70
     1
102
RTVSPost2010Prop49
280
     0
102
RTVSPost2010PropOp49
 70
     1
102
RTVSPost2010Prop50
 90
       50
102
RTVSPost2010PropOp50
 70
     1
102
RTVSPost2010Prop51ColorIndex
 90
      256
102
RTVSPost2010Prop51ColorRGB
 90
-16777216
102
RTVSPost2010PropOp51
 70
     0
102
RTVSPost2010Prop52
140
1.0
102
RTVSPost2010PropOp52
 70
     0
102
RTVSPost2010Prop53
 90
        2
102
RTVSPost2010PropOp53
 70
     1
102
RTVSPost2010Prop54
  1
strokes_ogs.tif
102
RTVSPost2010PropOp54
 70
     1
102
RTVSPost2010Prop55
280
     0
102
RTVSPost2010PropOp55
 70
     1
102
RTVSPost2010Prop56
140
1.0
102
RTVSPost2010PropOp56
 70
     1
102
RTVSPost2010Prop57
140
1.0
102
RTVSPost2010PropOp57
 70
     1
102
RTVSPropertyOp0
 70
     0
102
RTVSPropertyOp1
 70
     0
102
RTVSPropertyOp2
 70
     0
102
RTVSPropertyOp3
 70
     0
102
RTVSPropertyOp4
 70
     0
102
RTVSPropertyOp5
 70
     0
102
RTVSPropertyOp6
 70
     0
102
RTVSPropertyOp7
 70
     0
102
RTVSPropertyOp8
 70
     0
102
RTVSPropertyOp9
 70
     0
102
RTVSPropertyOp10
 70
     0
102
RTVSPropertyOp11
 70
     0
102
RTVSPropertyOp12
 70
     0
102
RTVSPropertyOp13
 70
     0
102
RTVSPropertyOp14
 70
     2
102
RTVSPropertyOp15
 70
     0
102
RTVSPropertyOp16
 70
     0
102
RTVSPropertyOp17
 70
     0
102
RTVSPropertyOp18
 70
     0
102
RTVSPropertyOp19
 70
     0
102
RTVSPropertyOp20
 70
     0
102
RTVSPropertyOp21
 70
     0
102
RTVSPropertyOp22
 70
     0
102
RTVSPropertyOp23
 70
     0
102
RTVSPropertyOp24
 70
     0
102
RTVSPropertyOp25
 70
     0
102
RTVSPropertyOp26
 70
     0
102
RTVSPropertyOp27
 70
     0
102
RTVSPropertyOp28
 70
     1
102
RTVSPropertyOp29
 70
     1
102
RTVSPropertyOp30
 70
     1
102
RTVSPropertyOp31
 70
     1
102
RTVSPropertyOp32
 70
     1
102
RTVSPropertyOp33
 70
     1
102
RTVSPropertyOp34
 70
     1
102
RTVSPropertyOp35
 70
     1
102
RTVSPropertyOp36
 70
     1
102
RTVSPropertyOp37
 70
     1
102
RTVSPropertyOp38
 70
     1
102
RTVSPropertyOp39
 70
     1
102
RTVSPropertyOp40
 70
     1
102
RTVSPropertyOp41
 70
     1
102
RTVSPropertyOp42
 70
     1
102
RTVSPropertyOp43
 70
     1
102
RTVSPropertyOp44
 70
     1
102
RTVSPropertyOp45
 70
     1
102
RTVSPropertyOp46
 70
     1
102
RTVSPropertyOp47
 70
     1
102
RTVSPropertyOp48
 70
     1
102
RTVSPropertyOp49
 70
     1
102
RTVSPropertyOp50
 70
     1
102
RTVSPropertyOp51
 70
     0
102
RTVSPropertyOp52
 70
     0
102
RTVSPropertyOp53
 70
     1
102
RTVSPropertyOp54
 70
     1
102
RTVSPropertyOp55
 70
     1
102
RTVSPropertyOp56
 70
     1
102
RTVSPropertyOp57
 70
     1
102
RTVSPropertyOp58
 70
     1
102
RTVSPropertyOp59
 70
     1
102
RTVSPropertyOp60
 70
     1
102
RTVSPropertyOp61
 70
     1
102
RTVSPropertyOp62
 70
     1
  0
XRECORD
  5
3CFA
102
{ACAD_REACTORS
330
3CF9
102
}
330
3CF9
100
AcDbXrecord
280
     1
102
RTVSPost2010Prop28
280
     0
102
RTVSPost2010PropOp28
 70
     1
102
RTVSPost2010Prop29
280
     1
102
RTVSPost2010PropOp29
 70
     1
102
RTVSPost2010Prop30
280
     1
102
RTVSPost2010PropOp30
 70
     1
102
RTVSPost2010Prop31
280
     0
102
RTVSPost2010PropOp31
 70
     1
102
RTVSPost2010Prop32
280
     0
102
RTVSPost2010PropOp32
 70
     1
102
RTVSPost2010Prop33
280
     0
102
RTVSPost2010PropOp33
 70
     1
102
RTVSPost2010Prop34
280
     0
102
RTVSPost2010PropOp34
 70
     1
102
RTVSPost2010Prop35
280
     0
102
RTVSPost2010PropOp35
 70
     1
102
RTVSPost2010Prop36
280
     0
102
RTVSPost2010PropOp36
 70
     1
102
RTVSPost2010Prop37
 90
       50
102
RTVSPost2010PropOp37
 70
     1
102
RTVSPost2010Prop38
140
0.0
102
RTVSPost2010PropOp38
 70
     1
102
RTVSPost2010Prop39
140
1.0
102
RTVSPost2010PropOp39
 70
     1
102
RTVSPost2010Prop40
 90
        0
102
RTVSPost2010PropOp40
 70
     1
102
RTVSPost2010Prop41ColorIndex
 90
       18
102
RTVSPost2010Prop41ColorRGB
 90
        0
102
RTVSPost2010PropOp41
 70
     1
102
RTVSPost2010Prop42
 90
       50
102
RTVSPost2010PropOp42
 70
     1
102
RTVSPost2010Prop43
 90
        3
102
RTVSPost2010PropOp43
 70
     1
102
RTVSPost2010Prop44ColorIndex
 90
        5
102
RTVSPost2010Prop44ColorRGB
 90
      255
102
RTVSPost2010PropOp44
 70
     1
102
RTVSPost2010Prop45
280
     0
102
RTVSPost2010PropOp45
 70
     1
102
RTVSPost2010Prop46
 90
       50
102
RTVSPost2010PropOp46
 70
     1
102
RTVSPost2010Prop47
 90
       50
102
RTVSPost2010PropOp47
 70
     1
102
RTVSPost2010Prop48
 90
       50
102
RTVSPost2010PropOp48
 70
     1
102
RTVSPost2010Prop49
280
     0
102
RTVSPost2010PropOp49
 70
     1
102
RTVSPost2010Prop50
 90
       50
102
RTVSPost2010PropOp50
 70
     1
102
RTVSPost2010Prop51ColorIndex
 90
      256
102
RTVSPost2010Prop51ColorRGB
 90
-16777216
102
RTVSPost2010PropOp51
 70
     0
102
RTVSPost2010Prop52
140
1.0
102
RTVSPost2010PropOp52
 70
     0
102
RTVSPost2010Prop53
 90
        2
102
RTVSPost2010PropOp53
 70
     1
102
RTVSPost2010Prop54
  1
strokes_ogs.tif
102
RTVSPost2010PropOp54
 70
     1
102
RTVSPost2010Prop55
280
     0
102
RTVSPost2010PropOp55
 70
     1
102
RTVSPost2010Prop56
140
1.0
102
RTVSPost2010PropOp56
 70
     1
102
RTVSPost2010Prop57
140
1.0
102
RTVSPost2010PropOp57
 70
     1
102
RTVSPropertyOp0
 70
     1
102
RTVSPropertyOp1
 70
     1
102
RTVSPropertyOp2
 70
     1
102
RTVSPropertyOp3
 70
     1
102
RTVSPropertyOp4
 70
     1
102
RTVSPropertyOp5
 70
     1
102
RTVSPropertyOp6
 70
     1
102
RTVSPropertyOp7
 70
     1
102
RTVSPropertyOp8
 70
     1
102
RTVSPropertyOp9
 70
     1
102
RTVSPropertyOp10
 70
     1
102
RTVSPropertyOp11
 70
     1
102
RTVSPropertyOp12
 70
     1
102
RTVSPropertyOp13
 70
     1
102
RTVSPropertyOp14
 70
     1
102
RTVSPropertyOp15
 70
     1
102
RTVSPropertyOp16
 70
     1
102
RTVSPropertyOp17
 70
     1
102
RTVSPropertyOp18
 70
     1
102
RTVSPropertyOp19
 70
     1
102
RTVSPropertyOp20
 70
     1
102
RTVSPropertyOp21
 70
     1
102
RTVSPropertyOp22
 70
     1
102
RTVSPropertyOp23
 70
     1
102
RTVSPropertyOp24
 70
     1
102
RTVSPropertyOp25
 70
     1
102
RTVSPropertyOp26
 70
     1
102
RTVSPropertyOp27
 70
     1
102
RTVSPropertyOp28
 70
     1
102
RTVSPropertyOp29
 70
     1
102
RTVSPropertyOp30
 70
     1
102
RTVSPropertyOp31
 70
     1
102
RTVSPropertyOp32
 70
     1
102
RTVSPropertyOp33
 70
     1
102
RTVSPropertyOp34
 70
     1
102
RTVSPropertyOp35
 70
     1
102
RTVSPropertyOp36
 70
     1
102
RTVSPropertyOp37
 70
     1
102
RTVSPropertyOp38
 70
     1
102
RTVSPropertyOp39
 70
     1
102
RTVSPropertyOp40
 70
     1
102
RTVSPropertyOp41
 70
     1
102
RTVSPropertyOp42
 70
     1
102
RTVSPropertyOp43
 70
     1
102
RTVSPropertyOp44
 70
     1
102
RTVSPropertyOp45
 70
     1
102
RTVSPropertyOp46
 70
     1
102
RTVSPropertyOp47
 70
     1
102
RTVSPropertyOp48
 70
     1
102
RTVSPropertyOp49
 70
     1
102
RTVSPropertyOp50
 70
     1
102
RTVSPropertyOp51
 70
     0
102
RTVSPropertyOp52
 70
     0
102
RTVSPropertyOp53
 70
     1
102
RTVSPropertyOp54
 70
     1
102
RTVSPropertyOp55
 70
     1
102
RTVSPropertyOp56
 70
     1
102
RTVSPropertyOp57
 70
     1
102
RTVSPropertyOp58
 70
     1
102
RTVSPropertyOp59
 70
     1
102
RTVSPropertyOp60
 70
     1
102
RTVSPropertyOp61
 70
     1
102
RTVSPropertyOp62
 70
     1
  0
XRECORD
  5
3D02
102
{ACAD_REACTORS
330
3D01
102
}
330
3D01
100
AcDbXrecord
280
     1
102
RTVSPost2010Prop28
280
     0
102
RTVSPost2010PropOp28
 70
     1
102
RTVSPost2010Prop29
280
     1
102
RTVSPost2010PropOp29
 70
     1
102
RTVSPost2010Prop30
280
     1
102
RTVSPost2010PropOp30
 70
     1
102
RTVSPost2010Prop31
280
     0
102
RTVSPost2010PropOp31
 70
     1
102
RTVSPost2010Prop32
280
     0
102
RTVSPost2010PropOp32
 70
     1
102
RTVSPost2010Prop33
280
     0
102
RTVSPost2010PropOp33
 70
     1
102
RTVSPost2010Prop34
280
     0
102
RTVSPost2010PropOp34
 70
     1
102
RTVSPost2010Prop35
280
     0
102
RTVSPost2010PropOp35
 70
     1
102
RTVSPost2010Prop36
280
     0
102
RTVSPost2010PropOp36
 70
     1
102
RTVSPost2010Prop37
 90
       50
102
RTVSPost2010PropOp37
 70
     1
102
RTVSPost2010Prop38
140
0.0
102
RTVSPost2010PropOp38
 70
     1
102
RTVSPost2010Prop39
140
1.0
102
RTVSPost2010PropOp39
 70
     1
102
RTVSPost2010Prop40
 90
        0
102
RTVSPost2010PropOp40
 70
     1
102
RTVSPost2010Prop41ColorIndex
 90
       18
102
RTVSPost2010Prop41ColorRGB
 90
        0
102
RTVSPost2010PropOp41
 70
     1
102
RTVSPost2010Prop42
 90
       50
102
RTVSPost2010PropOp42
 70
     1
102
RTVSPost2010Prop43
 90
        3
102
RTVSPost2010PropOp43
 70
     1
102
RTVSPost2010Prop44ColorIndex
 90
        5
102
RTVSPost2010Prop44ColorRGB
 90
      255
102
RTVSPost2010PropOp44
 70
     1
102
RTVSPost2010Prop45
280
     0
102
RTVSPost2010PropOp45
 70
     1
102
RTVSPost2010Prop46
 90
       50
102
RTVSPost2010PropOp46
 70
     1
102
RTVSPost2010Prop47
 90
       50
102
RTVSPost2010PropOp47
 70
     1
102
RTVSPost2010Prop48
 90
       50
102
RTVSPost2010PropOp48
 70
     1
102
RTVSPost2010Prop49
280
     0
102
RTVSPost2010PropOp49
 70
     1
102
RTVSPost2010Prop50
 90
       50
102
RTVSPost2010PropOp50
 70
     1
102
RTVSPost2010Prop51ColorIndex
 90
      256
102
RTVSPost2010Prop51ColorRGB
 90
-16777216
102
RTVSPost2010PropOp51
 70
     0
102
RTVSPost2010Prop52
140
1.0
102
RTVSPost2010PropOp52
 70
     0
102
RTVSPost2010Prop53
 90
        2
102
RTVSPost2010PropOp53
 70
     1
102
RTVSPost2010Prop54
  1
strokes_ogs.tif
102
RTVSPost2010PropOp54
 70
     1
102
RTVSPost2010Prop55
280
     0
102
RTVSPost2010PropOp55
 70
     1
102
RTVSPost2010Prop56
140
1.0
102
RTVSPost2010PropOp56
 70
     1
102
RTVSPost2010Prop57
140
1.0
102
RTVSPost2010PropOp57
 70
     1
102
RTVSPropertyOp0
 70
     0
102
RTVSPropertyOp1
 70
     0
102
RTVSPropertyOp2
 70
     0
102
RTVSPropertyOp3
 70
     0
102
RTVSPropertyOp4
 70
     0
102
RTVSPropertyOp5
 70
     0
102
RTVSPropertyOp6
 70
     0
102
RTVSPropertyOp7
 70
     0
102
RTVSPropertyOp8
 70
     0
102
RTVSPropertyOp9
 70
     0
102
RTVSPropertyOp10
 70
     0
102
RTVSPropertyOp11
 70
     0
102
RTVSPropertyOp12
 70
     0
102
RTVSPropertyOp13
 70
     0
102
RTVSPropertyOp14
 70
     2
102
RTVSPropertyOp15
 70
     0
102
RTVSPropertyOp16
 70
     0
102
RTVSPropertyOp17
 70
     0
102
RTVSPropertyOp18
 70
     0
102
RTVSPropertyOp19
 70
     0
102
RTVSPropertyOp20
 70
     0
102
RTVSPropertyOp21
 70
     0
102
RTVSPropertyOp22
 70
     0
102
RTVSPropertyOp23
 70
     0
102
RTVSPropertyOp24
 70
     0
102
RTVSPropertyOp25
 70
     0
102
RTVSPropertyOp26
 70
     0
102
RTVSPropertyOp27
 70
     0
102
RTVSPropertyOp28
 70
     1
102
RTVSPropertyOp29
 70
     1
102
RTVSPropertyOp30
 70
     1
102
RTVSPropertyOp31
 70
     1
102
RTVSPropertyOp32
 70
     1
102
RTVSPropertyOp33
 70
     1
102
RTVSPropertyOp34
 70
     1
102
RTVSPropertyOp35
 70
     1
102
RTVSPropertyOp36
 70
     1
102
RTVSPropertyOp37
 70
     1
102
RTVSPropertyOp38
 70
     1
102
RTVSPropertyOp39
 70
     1
102
RTVSPropertyOp40
 70
     1
102
RTVSPropertyOp41
 70
     1
102
RTVSPropertyOp42
 70
     1
102
RTVSPropertyOp43
 70
     1
102
RTVSPropertyOp44
 70
     1
102
RTVSPropertyOp45
 70
     1
102
RTVSPropertyOp46
 70
     1
102
RTVSPropertyOp47
 70
     1
102
RTVSPropertyOp48
 70
     1
102
RTVSPropertyOp49
 70
     1
102
RTVSPropertyOp50
 70
     1
102
RTVSPropertyOp51
 70
     0
102
RTVSPropertyOp52
 70
     0
102
RTVSPropertyOp53
 70
     1
102
RTVSPropertyOp54
 70
     1
102
RTVSPropertyOp55
 70
     1
102
RTVSPropertyOp56
 70
     1
102
RTVSPropertyOp57
 70
     1
102
RTVSPropertyOp58
 70
     1
102
RTVSPropertyOp59
 70
     1
102
RTVSPropertyOp60
 70
     1
102
RTVSPropertyOp61
 70
     1
102
RTVSPropertyOp62
 70
     1
  0
XRECORD
  5
3CF2
102
{ACAD_REACTORS
330
3CF1
102
}
330
3CF1
100
AcDbXrecord
280
     1
102
RTVSPost2010Prop28
280
     0
102
RTVSPost2010PropOp28
 70
     1
102
RTVSPost2010Prop29
280
     1
102
RTVSPost2010PropOp29
 70
     1
102
RTVSPost2010Prop30
280
     1
102
RTVSPost2010PropOp30
 70
     1
102
RTVSPost2010Prop31
280
     0
102
RTVSPost2010PropOp31
 70
     1
102
RTVSPost2010Prop32
280
     0
102
RTVSPost2010PropOp32
 70
     1
102
RTVSPost2010Prop33
280
     0
102
RTVSPost2010PropOp33
 70
     1
102
RTVSPost2010Prop34
280
     0
102
RTVSPost2010PropOp34
 70
     1
102
RTVSPost2010Prop35
280
     0
102
RTVSPost2010PropOp35
 70
     1
102
RTVSPost2010Prop36
280
     0
102
RTVSPost2010PropOp36
 70
     1
102
RTVSPost2010Prop37
 90
       50
102
RTVSPost2010PropOp37
 70
     1
102
RTVSPost2010Prop38
140
0.0
102
RTVSPost2010PropOp38
 70
     1
102
RTVSPost2010Prop39
140
1.0
102
RTVSPost2010PropOp39
 70
     1
102
RTVSPost2010Prop40
 90
        0
102
RTVSPost2010PropOp40
 70
     1
102
RTVSPost2010Prop41ColorIndex
 90
       18
102
RTVSPost2010Prop41ColorRGB
 90
        0
102
RTVSPost2010PropOp41
 70
     1
102
RTVSPost2010Prop42
 90
       50
102
RTVSPost2010PropOp42
 70
     1
102
RTVSPost2010Prop43
 90
        3
102
RTVSPost2010PropOp43
 70
     1
102
RTVSPost2010Prop44ColorIndex
 90
        5
102
RTVSPost2010Prop44ColorRGB
 90
      255
102
RTVSPost2010PropOp44
 70
     1
102
RTVSPost2010Prop45
280
     0
102
RTVSPost2010PropOp45
 70
     1
102
RTVSPost2010Prop46
 90
       50
102
RTVSPost2010PropOp46
 70
     1
102
RTVSPost2010Prop47
 90
       50
102
RTVSPost2010PropOp47
 70
     1
102
RTVSPost2010Prop48
 90
       50
102
RTVSPost2010PropOp48
 70
     1
102
RTVSPost2010Prop49
280
     0
102
RTVSPost2010PropOp49
 70
     1
102
RTVSPost2010Prop50
 90
       50
102
RTVSPost2010PropOp50
 70
     1
102
RTVSPost2010Prop51ColorIndex
 90
      256
102
RTVSPost2010Prop51ColorRGB
 90
-16777216
102
RTVSPost2010PropOp51
 70
     0
102
RTVSPost2010Prop52
140
1.0
102
RTVSPost2010PropOp52
 70
     0
102
RTVSPost2010Prop53
 90
        2
102
RTVSPost2010PropOp53
 70
     1
102
RTVSPost2010Prop54
  1
strokes_ogs.tif
102
RTVSPost2010PropOp54
 70
     1
102
RTVSPost2010Prop55
280
     0
102
RTVSPost2010PropOp55
 70
     1
102
RTVSPost2010Prop56
140
1.0
102
RTVSPost2010PropOp56
 70
     1
102
RTVSPost2010Prop57
140
1.0
102
RTVSPost2010PropOp57
 70
     1
102
RTVSPropertyOp0
 70
     1
102
RTVSPropertyOp1
 70
     1
102
RTVSPropertyOp2
 70
     1
102
RTVSPropertyOp3
 70
     1
102
RTVSPropertyOp4
 70
     1
102
RTVSPropertyOp5
 70
     1
102
RTVSPropertyOp6
 70
     1
102
RTVSPropertyOp7
 70
     1
102
RTVSPropertyOp8
 70
     1
102
RTVSPropertyOp9
 70
     1
102
RTVSPropertyOp10
 70
     1
102
RTVSPropertyOp11
 70
     1
102
RTVSPropertyOp12
 70
     1
102
RTVSPropertyOp13
 70
     1
102
RTVSPropertyOp14
 70
     1
102
RTVSPropertyOp15
 70
     1
102
RTVSPropertyOp16
 70
     1
102
RTVSPropertyOp17
 70
     1
102
RTVSPropertyOp18
 70
     1
102
RTVSPropertyOp19
 70
     1
102
RTVSPropertyOp20
 70
     1
102
RTVSPropertyOp21
 70
     1
102
RTVSPropertyOp22
 70
     1
102
RTVSPropertyOp23
 70
     1
102
RTVSPropertyOp24
 70
     1
102
RTVSPropertyOp25
 70
     1
102
RTVSPropertyOp26
 70
     1
102
RTVSPropertyOp27
 70
     1
102
RTVSPropertyOp28
 70
     1
102
RTVSPropertyOp29
 70
     1
102
RTVSPropertyOp30
 70
     1
102
RTVSPropertyOp31
 70
     1
102
RTVSPropertyOp32
 70
     1
102
RTVSPropertyOp33
 70
     1
102
RTVSPropertyOp34
 70
     1
102
RTVSPropertyOp35
 70
     1
102
RTVSPropertyOp36
 70
     1
102
RTVSPropertyOp37
 70
     1
102
RTVSPropertyOp38
 70
     1
102
RTVSPropertyOp39
 70
     1
102
RTVSPropertyOp40
 70
     1
102
RTVSPropertyOp41
 70
     1
102
RTVSPropertyOp42
 70
     1
102
RTVSPropertyOp43
 70
     1
102
RTVSPropertyOp44
 70
     1
102
RTVSPropertyOp45
 70
     1
102
RTVSPropertyOp46
 70
     1
102
RTVSPropertyOp47
 70
     1
102
RTVSPropertyOp48
 70
     1
102
RTVSPropertyOp49
 70
     1
102
RTVSPropertyOp50
 70
     1
102
RTVSPropertyOp51
 70
     0
102
RTVSPropertyOp52
 70
     0
102
RTVSPropertyOp53
 70
     1
102
RTVSPropertyOp54
 70
     1
102
RTVSPropertyOp55
 70
     1
102
RTVSPropertyOp56
 70
     1
102
RTVSPropertyOp57
 70
     1
102
RTVSPropertyOp58
 70
     1
102
RTVSPropertyOp59
 70
     1
102
RTVSPropertyOp60
 70
     1
102
RTVSPropertyOp61
 70
     1
102
RTVSPropertyOp62
 70
     1
  0
XRECORD
  5
3D13
102
{ACAD_REACTORS
330
3D12
102
}
330
3D12
100
AcDbXrecord
280
     1
102
RTVSPost2010Prop28
280
     0
102
RTVSPost2010PropOp28
 70
     1
102
RTVSPost2010Prop29
280
     1
102
RTVSPost2010PropOp29
 70
     1
102
RTVSPost2010Prop30
280
     1
102
RTVSPost2010PropOp30
 70
     1
102
RTVSPost2010Prop31
280
     0
102
RTVSPost2010PropOp31
 70
     1
102
RTVSPost2010Prop32
280
     0
102
RTVSPost2010PropOp32
 70
     1
102
RTVSPost2010Prop33
280
     0
102
RTVSPost2010PropOp33
 70
     1
102
RTVSPost2010Prop34
280
     0
102
RTVSPost2010PropOp34
 70
     1
102
RTVSPost2010Prop35
280
     0
102
RTVSPost2010PropOp35
 70
     1
102
RTVSPost2010Prop36
280
     0
102
RTVSPost2010PropOp36
 70
     1
102
RTVSPost2010Prop37
 90
       50
102
RTVSPost2010PropOp37
 70
     1
102
RTVSPost2010Prop38
140
0.0
102
RTVSPost2010PropOp38
 70
     1
102
RTVSPost2010Prop39
140
1.0
102
RTVSPost2010PropOp39
 70
     1
102
RTVSPost2010Prop40
 90
        0
102
RTVSPost2010PropOp40
 70
     1
102
RTVSPost2010Prop41ColorIndex
 90
       18
102
RTVSPost2010Prop41ColorRGB
 90
        0
102
RTVSPost2010PropOp41
 70
     1
102
RTVSPost2010Prop42
 90
       50
102
RTVSPost2010PropOp42
 70
     1
102
RTVSPost2010Prop43
 90
        3
102
RTVSPost2010PropOp43
 70
     1
102
RTVSPost2010Prop44ColorIndex
 90
        5
102
RTVSPost2010Prop44ColorRGB
 90
      255
102
RTVSPost2010PropOp44
 70
     1
102
RTVSPost2010Prop45
280
     0
102
RTVSPost2010PropOp45
 70
     1
102
RTVSPost2010Prop46
 90
       50
102
RTVSPost2010PropOp46
 70
     1
102
RTVSPost2010Prop47
 90
       50
102
RTVSPost2010PropOp47
 70
     1
102
RTVSPost2010Prop48
 90
       50
102
RTVSPost2010PropOp48
 70
     1
102
RTVSPost2010Prop49
280
     0
102
RTVSPost2010PropOp49
 70
     1
102
RTVSPost2010Prop50
 90
       50
102
RTVSPost2010PropOp50
 70
     1
102
RTVSPost2010Prop51ColorIndex
 90
      256
102
RTVSPost2010Prop51ColorRGB
 90
-16777216
102
RTVSPost2010PropOp51
 70
     0
102
RTVSPost2010Prop52
140
1.0
102
RTVSPost2010PropOp52
 70
     0
102
RTVSPost2010Prop53
 90
        2
102
RTVSPost2010PropOp53
 70
     1
102
RTVSPost2010Prop54
  1
strokes_ogs.tif
102
RTVSPost2010PropOp54
 70
     1
102
RTVSPost2010Prop55
280
     0
102
RTVSPost2010PropOp55
 70
     1
102
RTVSPost2010Prop56
140
1.0
102
RTVSPost2010PropOp56
 70
     1
102
RTVSPost2010Prop57
140
1.0
102
RTVSPost2010PropOp57
 70
     1
102
RTVSPropertyOp0
 70
     1
102
RTVSPropertyOp1
 70
     1
102
RTVSPropertyOp2
 70
     1
102
RTVSPropertyOp3
 70
     1
102
RTVSPropertyOp4
 70
     1
102
RTVSPropertyOp5
 70
     1
102
RTVSPropertyOp6
 70
     1
102
RTVSPropertyOp7
 70
     1
102
RTVSPropertyOp8
 70
     1
102
RTVSPropertyOp9
 70
     1
102
RTVSPropertyOp10
 70
     1
102
RTVSPropertyOp11
 70
     1
102
RTVSPropertyOp12
 70
     1
102
RTVSPropertyOp13
 70
     1
102
RTVSPropertyOp14
 70
     1
102
RTVSPropertyOp15
 70
     1
102
RTVSPropertyOp16
 70
     1
102
RTVSPropertyOp17
 70
     1
102
RTVSPropertyOp18
 70
     1
102
RTVSPropertyOp19
 70
     1
102
RTVSPropertyOp20
 70
     1
102
RTVSPropertyOp21
 70
     1
102
RTVSPropertyOp22
 70
     1
102
RTVSPropertyOp23
 70
     1
102
RTVSPropertyOp24
 70
     1
102
RTVSPropertyOp25
 70
     1
102
RTVSPropertyOp26
 70
     1
102
RTVSPropertyOp27
 70
     1
102
RTVSPropertyOp28
 70
     1
102
RTVSPropertyOp29
 70
     1
102
RTVSPropertyOp30
 70
     1
102
RTVSPropertyOp31
 70
     1
102
RTVSPropertyOp32
 70
     1
102
RTVSPropertyOp33
 70
     1
102
RTVSPropertyOp34
 70
     1
102
RTVSPropertyOp35
 70
     1
102
RTVSPropertyOp36
 70
     1
102
RTVSPropertyOp37
 70
     1
102
RTVSPropertyOp38
 70
     1
102
RTVSPropertyOp39
 70
     1
102
RTVSPropertyOp40
 70
     1
102
RTVSPropertyOp41
 70
     1
102
RTVSPropertyOp42
 70
     1
102
RTVSPropertyOp43
 70
     1
102
RTVSPropertyOp44
 70
     1
102
RTVSPropertyOp45
 70
     1
102
RTVSPropertyOp46
 70
     1
102
RTVSPropertyOp47
 70
     1
102
RTVSPropertyOp48
 70
     1
102
RTVSPropertyOp49
 70
     1
102
RTVSPropertyOp50
 70
     1
102
RTVSPropertyOp51
 70
     0
102
RTVSPropertyOp52
 70
     0
102
RTVSPropertyOp53
 70
     1
102
RTVSPropertyOp54
 70
     1
102
RTVSPropertyOp55
 70
     1
102
RTVSPropertyOp56
 70
     1
102
RTVSPropertyOp57
 70
     1
102
RTVSPropertyOp58
 70
     1
102
RTVSPropertyOp59
 70
     1
102
RTVSPropertyOp60
 70
     1
102
RTVSPropertyOp61
 70
     1
102
RTVSPropertyOp62
 70
     1
  0
XRECORD
  5
3D11
102
{ACAD_REACTORS
330
3D10
102
}
330
3D10
100
AcDbXrecord
280
     1
102
RTVSPost2010Prop28
280
     0
102
RTVSPost2010PropOp28
 70
     1
102
RTVSPost2010Prop29
280
     1
102
RTVSPost2010PropOp29
 70
     1
102
RTVSPost2010Prop30
280
     1
102
RTVSPost2010PropOp30
 70
     1
102
RTVSPost2010Prop31
280
     0
102
RTVSPost2010PropOp31
 70
     1
102
RTVSPost2010Prop32
280
     0
102
RTVSPost2010PropOp32
 70
     1
102
RTVSPost2010Prop33
280
     0
102
RTVSPost2010PropOp33
 70
     1
102
RTVSPost2010Prop34
280
     0
102
RTVSPost2010PropOp34
 70
     1
102
RTVSPost2010Prop35
280
     0
102
RTVSPost2010PropOp35
 70
     1
102
RTVSPost2010Prop36
280
     0
102
RTVSPost2010PropOp36
 70
     1
102
RTVSPost2010Prop37
 90
       50
102
RTVSPost2010PropOp37
 70
     1
102
RTVSPost2010Prop38
140
0.0
102
RTVSPost2010PropOp38
 70
     1
102
RTVSPost2010Prop39
140
1.0
102
RTVSPost2010PropOp39
 70
     1
102
RTVSPost2010Prop40
 90
        0
102
RTVSPost2010PropOp40
 70
     1
102
RTVSPost2010Prop41ColorIndex
 90
       18
102
RTVSPost2010Prop41ColorRGB
 90
        0
102
RTVSPost2010PropOp41
 70
     1
102
RTVSPost2010Prop42
 90
       50
102
RTVSPost2010PropOp42
 70
     1
102
RTVSPost2010Prop43
 90
        3
102
RTVSPost2010PropOp43
 70
     1
102
RTVSPost2010Prop44ColorIndex
 90
        5
102
RTVSPost2010Prop44ColorRGB
 90
      255
102
RTVSPost2010PropOp44
 70
     1
102
RTVSPost2010Prop45
280
     0
102
RTVSPost2010PropOp45
 70
     1
102
RTVSPost2010Prop46
 90
       50
102
RTVSPost2010PropOp46
 70
     1
102
RTVSPost2010Prop47
 90
       50
102
RTVSPost2010PropOp47
 70
     1
102
RTVSPost2010Prop48
 90
       50
102
RTVSPost2010PropOp48
 70
     1
102
RTVSPost2010Prop49
280
     0
102
RTVSPost2010PropOp49
 70
     1
102
RTVSPost2010Prop50
 90
       50
102
RTVSPost2010PropOp50
 70
     1
102
RTVSPost2010Prop51ColorIndex
 90
      256
102
RTVSPost2010Prop51ColorRGB
 90
-16777216
102
RTVSPost2010PropOp51
 70
     0
102
RTVSPost2010Prop52
140
1.0
102
RTVSPost2010PropOp52
 70
     0
102
RTVSPost2010Prop53
 90
        2
102
RTVSPost2010PropOp53
 70
     1
102
RTVSPost2010Prop54
  1
strokes_ogs.tif
102
RTVSPost2010PropOp54
 70
     1
102
RTVSPost2010Prop55
280
     0
102
RTVSPost2010PropOp55
 70
     1
102
RTVSPost2010Prop56
140
1.0
102
RTVSPost2010PropOp56
 70
     1
102
RTVSPost2010Prop57
140
1.0
102
RTVSPost2010PropOp57
 70
     1
102
RTVSPropertyOp0
 70
     1
102
RTVSPropertyOp1
 70
     1
102
RTVSPropertyOp2
 70
     1
102
RTVSPropertyOp3
 70
     1
102
RTVSPropertyOp4
 70
     1
102
RTVSPropertyOp5
 70
     1
102
RTVSPropertyOp6
 70
     1
102
RTVSPropertyOp7
 70
     1
102
RTVSPropertyOp8
 70
     1
102
RTVSPropertyOp9
 70
     1
102
RTVSPropertyOp10
 70
     1
102
RTVSPropertyOp11
 70
     1
102
RTVSPropertyOp12
 70
     1
102
RTVSPropertyOp13
 70
     1
102
RTVSPropertyOp14
 70
     1
102
RTVSPropertyOp15
 70
     1
102
RTVSPropertyOp16
 70
     1
102
RTVSPropertyOp17
 70
     1
102
RTVSPropertyOp18
 70
     1
102
RTVSPropertyOp19
 70
     1
102
RTVSPropertyOp20
 70
     1
102
RTVSPropertyOp21
 70
     1
102
RTVSPropertyOp22
 70
     1
102
RTVSPropertyOp23
 70
     1
102
RTVSPropertyOp24
 70
     1
102
RTVSPropertyOp25
 70
     1
102
RTVSPropertyOp26
 70
     1
102
RTVSPropertyOp27
 70
     1
102
RTVSPropertyOp28
 70
     1
102
RTVSPropertyOp29
 70
     1
102
RTVSPropertyOp30
 70
     1
102
RTVSPropertyOp31
 70
     1
102
RTVSPropertyOp32
 70
     1
102
RTVSPropertyOp33
 70
     1
102
RTVSPropertyOp34
 70
     1
102
RTVSPropertyOp35
 70
     1
102
RTVSPropertyOp36
 70
     1
102
RTVSPropertyOp37
 70
     1
102
RTVSPropertyOp38
 70
     1
102
RTVSPropertyOp39
 70
     1
102
RTVSPropertyOp40
 70
     1
102
RTVSPropertyOp41
 70
     1
102
RTVSPropertyOp42
 70
     1
102
RTVSPropertyOp43
 70
     1
102
RTVSPropertyOp44
 70
     1
102
RTVSPropertyOp45
 70
     1
102
RTVSPropertyOp46
 70
     1
102
RTVSPropertyOp47
 70
     1
102
RTVSPropertyOp48
 70
     1
102
RTVSPropertyOp49
 70
     1
102
RTVSPropertyOp50
 70
     1
102
RTVSPropertyOp51
 70
     0
102
RTVSPropertyOp52
 70
     0
102
RTVSPropertyOp53
 70
     1
102
RTVSPropertyOp54
 70
     1
102
RTVSPropertyOp55
 70
     1
102
RTVSPropertyOp56
 70
     1
102
RTVSPropertyOp57
 70
     1
102
RTVSPropertyOp58
 70
     1
102
RTVSPropertyOp59
 70
     1
102
RTVSPropertyOp60
 70
     1
102
RTVSPropertyOp61
 70
     1
102
RTVSPropertyOp62
 70
     1
  0
XRECORD
  5
3D0B
102
{ACAD_REACTORS
330
3D0A
102
}
330
3D0A
100
AcDbXrecord
280
     1
102
RTVSPost2010Prop28
280
     0
102
RTVSPost2010PropOp28
 70
     1
102
RTVSPost2010Prop29
280
     1
102
RTVSPost2010PropOp29
 70
     1
102
RTVSPost2010Prop30
280
     1
102
RTVSPost2010PropOp30
 70
     1
102
RTVSPost2010Prop31
280
     0
102
RTVSPost2010PropOp31
 70
     1
102
RTVSPost2010Prop32
280
     0
102
RTVSPost2010PropOp32
 70
     1
102
RTVSPost2010Prop33
280
     0
102
RTVSPost2010PropOp33
 70
     1
102
RTVSPost2010Prop34
280
     0
102
RTVSPost2010PropOp34
 70
     1
102
RTVSPost2010Prop35
280
     0
102
RTVSPost2010PropOp35
 70
     1
102
RTVSPost2010Prop36
280
     0
102
RTVSPost2010PropOp36
 70
     1
102
RTVSPost2010Prop37
 90
       50
102
RTVSPost2010PropOp37
 70
     1
102
RTVSPost2010Prop38
140
0.0
102
RTVSPost2010PropOp38
 70
     1
102
RTVSPost2010Prop39
140
1.0
102
RTVSPost2010PropOp39
 70
     1
102
RTVSPost2010Prop40
 90
        0
102
RTVSPost2010PropOp40
 70
     1
102
RTVSPost2010Prop41ColorIndex
 90
       18
102
RTVSPost2010Prop41ColorRGB
 90
        0
102
RTVSPost2010PropOp41
 70
     1
102
RTVSPost2010Prop42
 90
       50
102
RTVSPost2010PropOp42
 70
     1
102
RTVSPost2010Prop43
 90
        3
102
RTVSPost2010PropOp43
 70
     1
102
RTVSPost2010Prop44ColorIndex
 90
        5
102
RTVSPost2010Prop44ColorRGB
 90
      255
102
RTVSPost2010PropOp44
 70
     1
102
RTVSPost2010Prop45
280
     0
102
RTVSPost2010PropOp45
 70
     1
102
RTVSPost2010Prop46
 90
       50
102
RTVSPost2010PropOp46
 70
     1
102
RTVSPost2010Prop47
 90
       50
102
RTVSPost2010PropOp47
 70
     1
102
RTVSPost2010Prop48
 90
       50
102
RTVSPost2010PropOp48
 70
     1
102
RTVSPost2010Prop49
280
     0
102
RTVSPost2010PropOp49
 70
     1
102
RTVSPost2010Prop50
 90
       50
102
RTVSPost2010PropOp50
 70
     1
102
RTVSPost2010Prop51ColorIndex
 90
      256
102
RTVSPost2010Prop51ColorRGB
 90
-16777216
102
RTVSPost2010PropOp51
 70
     0
102
RTVSPost2010Prop52
140
1.0
102
RTVSPost2010PropOp52
 70
     0
102
RTVSPost2010Prop53
 90
        2
102
RTVSPost2010PropOp53
 70
     1
102
RTVSPost2010Prop54
  1
strokes_ogs.tif
102
RTVSPost2010PropOp54
 70
     1
102
RTVSPost2010Prop55
280
     0
102
RTVSPost2010PropOp55
 70
     1
102
RTVSPost2010Prop56
140
1.0
102
RTVSPost2010PropOp56
 70
     1
102
RTVSPost2010Prop57
140
1.0
102
RTVSPost2010PropOp57
 70
     1
102
RTVSPropertyOp0
 70
     1
102
RTVSPropertyOp1
 70
     1
102
RTVSPropertyOp2
 70
     1
102
RTVSPropertyOp3
 70
     1
102
RTVSPropertyOp4
 70
     1
102
RTVSPropertyOp5
 70
     1
102
RTVSPropertyOp6
 70
     1
102
RTVSPropertyOp7
 70
     1
102
RTVSPropertyOp8
 70
     1
102
RTVSPropertyOp9
 70
     1
102
RTVSPropertyOp10
 70
     1
102
RTVSPropertyOp11
 70
     1
102
RTVSPropertyOp12
 70
     1
102
RTVSPropertyOp13
 70
     1
102
RTVSPropertyOp14
 70
     1
102
RTVSPropertyOp15
 70
     1
102
RTVSPropertyOp16
 70
     1
102
RTVSPropertyOp17
 70
     1
102
RTVSPropertyOp18
 70
     1
102
RTVSPropertyOp19
 70
     1
102
RTVSPropertyOp20
 70
     1
102
RTVSPropertyOp21
 70
     1
102
RTVSPropertyOp22
 70
     1
102
RTVSPropertyOp23
 70
     1
102
RTVSPropertyOp24
 70
     1
102
RTVSPropertyOp25
 70
     1
102
RTVSPropertyOp26
 70
     1
102
RTVSPropertyOp27
 70
     1
102
RTVSPropertyOp28
 70
     1
102
RTVSPropertyOp29
 70
     1
102
RTVSPropertyOp30
 70
     1
102
RTVSPropertyOp31
 70
     1
102
RTVSPropertyOp32
 70
     1
102
RTVSPropertyOp33
 70
     1
102
RTVSPropertyOp34
 70
     1
102
RTVSPropertyOp35
 70
     1
102
RTVSPropertyOp36
 70
     1
102
RTVSPropertyOp37
 70
     1
102
RTVSPropertyOp38
 70
     1
102
RTVSPropertyOp39
 70
     1
102
RTVSPropertyOp40
 70
     1
102
RTVSPropertyOp41
 70
     1
102
RTVSPropertyOp42
 70
     1
102
RTVSPropertyOp43
 70
     1
102
RTVSPropertyOp44
 70
     1
102
RTVSPropertyOp45
 70
     1
102
RTVSPropertyOp46
 70
     1
102
RTVSPropertyOp47
 70
     1
102
RTVSPropertyOp48
 70
     1
102
RTVSPropertyOp49
 70
     1
102
RTVSPropertyOp50
 70
     1
102
RTVSPropertyOp51
 70
     0
102
RTVSPropertyOp52
 70
     0
102
RTVSPropertyOp53
 70
     1
102
RTVSPropertyOp54
 70
     1
102
RTVSPropertyOp55
 70
     1
102
RTVSPropertyOp56
 70
     1
102
RTVSPropertyOp57
 70
     1
102
RTVSPropertyOp58
 70
     1
102
RTVSPropertyOp59
 70
     1
102
RTVSPropertyOp60
 70
     1
102
RTVSPropertyOp61
 70
     1
102
RTVSPropertyOp62
 70
     1
  0
XRECORD
  5
3D0D
102
{ACAD_REACTORS
330
3D0C
102
}
330
3D0C
100
AcDbXrecord
280
     1
102
RTVSPost2010Prop28
280
     0
102
RTVSPost2010PropOp28
 70
     1
102
RTVSPost2010Prop29
280
     1
102
RTVSPost2010PropOp29
 70
     1
102
RTVSPost2010Prop30
280
     1
102
RTVSPost2010PropOp30
 70
     1
102
RTVSPost2010Prop31
280
     0
102
RTVSPost2010PropOp31
 70
     1
102
RTVSPost2010Prop32
280
     0
102
RTVSPost2010PropOp32
 70
     1
102
RTVSPost2010Prop33
280
     0
102
RTVSPost2010PropOp33
 70
     1
102
RTVSPost2010Prop34
280
     0
102
RTVSPost2010PropOp34
 70
     1
102
RTVSPost2010Prop35
280
     0
102
RTVSPost2010PropOp35
 70
     1
102
RTVSPost2010Prop36
280
     0
102
RTVSPost2010PropOp36
 70
     1
102
RTVSPost2010Prop37
 90
       50
102
RTVSPost2010PropOp37
 70
     1
102
RTVSPost2010Prop38
140
0.0
102
RTVSPost2010PropOp38
 70
     1
102
RTVSPost2010Prop39
140
1.0
102
RTVSPost2010PropOp39
 70
     1
102
RTVSPost2010Prop40
 90
        0
102
RTVSPost2010PropOp40
 70
     1
102
RTVSPost2010Prop41ColorIndex
 90
       18
102
RTVSPost2010Prop41ColorRGB
 90
        0
102
RTVSPost2010PropOp41
 70
     1
102
RTVSPost2010Prop42
 90
       50
102
RTVSPost2010PropOp42
 70
     1
102
RTVSPost2010Prop43
 90
        3
102
RTVSPost2010PropOp43
 70
     1
102
RTVSPost2010Prop44ColorIndex
 90
        5
102
RTVSPost2010Prop44ColorRGB
 90
      255
102
RTVSPost2010PropOp44
 70
     1
102
RTVSPost2010Prop45
280
     0
102
RTVSPost2010PropOp45
 70
     1
102
RTVSPost2010Prop46
 90
       50
102
RTVSPost2010PropOp46
 70
     1
102
RTVSPost2010Prop47
 90
       50
102
RTVSPost2010PropOp47
 70
     1
102
RTVSPost2010Prop48
 90
       50
102
RTVSPost2010PropOp48
 70
     1
102
RTVSPost2010Prop49
280
     0
102
RTVSPost2010PropOp49
 70
     1
102
RTVSPost2010Prop50
 90
       50
102
RTVSPost2010PropOp50
 70
     1
102
RTVSPost2010Prop51ColorIndex
 90
      256
102
RTVSPost2010Prop51ColorRGB
 90
-16777216
102
RTVSPost2010PropOp51
 70
     0
102
RTVSPost2010Prop52
140
1.0
102
RTVSPost2010PropOp52
 70
     0
102
RTVSPost2010Prop53
 90
        2
102
RTVSPost2010PropOp53
 70
     1
102
RTVSPost2010Prop54
  1
strokes_ogs.tif
102
RTVSPost2010PropOp54
 70
     1
102
RTVSPost2010Prop55
280
     0
102
RTVSPost2010PropOp55
 70
     1
102
RTVSPost2010Prop56
140
1.0
102
RTVSPost2010PropOp56
 70
     1
102
RTVSPost2010Prop57
140
1.0
102
RTVSPost2010PropOp57
 70
     1
102
RTVSPropertyOp0
 70
     1
102
RTVSPropertyOp1
 70
     1
102
RTVSPropertyOp2
 70
     1
102
RTVSPropertyOp3
 70
     1
102
RTVSPropertyOp4
 70
     1
102
RTVSPropertyOp5
 70
     1
102
RTVSPropertyOp6
 70
     1
102
RTVSPropertyOp7
 70
     1
102
RTVSPropertyOp8
 70
     1
102
RTVSPropertyOp9
 70
     1
102
RTVSPropertyOp10
 70
     1
102
RTVSPropertyOp11
 70
     1
102
RTVSPropertyOp12
 70
     1
102
RTVSPropertyOp13
 70
     1
102
RTVSPropertyOp14
 70
     1
102
RTVSPropertyOp15
 70
     1
102
RTVSPropertyOp16
 70
     1
102
RTVSPropertyOp17
 70
     1
102
RTVSPropertyOp18
 70
     1
102
RTVSPropertyOp19
 70
     1
102
RTVSPropertyOp20
 70
     1
102
RTVSPropertyOp21
 70
     1
102
RTVSPropertyOp22
 70
     1
102
RTVSPropertyOp23
 70
     1
102
RTVSPropertyOp24
 70
     1
102
RTVSPropertyOp25
 70
     1
102
RTVSPropertyOp26
 70
     1
102
RTVSPropertyOp27
 70
     1
102
RTVSPropertyOp28
 70
     1
102
RTVSPropertyOp29
 70
     1
102
RTVSPropertyOp30
 70
     1
102
RTVSPropertyOp31
 70
     1
102
RTVSPropertyOp32
 70
     1
102
RTVSPropertyOp33
 70
     1
102
RTVSPropertyOp34
 70
     1
102
RTVSPropertyOp35
 70
     1
102
RTVSPropertyOp36
 70
     1
102
RTVSPropertyOp37
 70
     1
102
RTVSPropertyOp38
 70
     1
102
RTVSPropertyOp39
 70
     1
102
RTVSPropertyOp40
 70
     1
102
RTVSPropertyOp41
 70
     1
102
RTVSPropertyOp42
 70
     1
102
RTVSPropertyOp43
 70
     1
102
RTVSPropertyOp44
 70
     1
102
RTVSPropertyOp45
 70
     1
102
RTVSPropertyOp46
 70
     1
102
RTVSPropertyOp47
 70
     1
102
RTVSPropertyOp48
 70
     1
102
RTVSPropertyOp49
 70
     1
102
RTVSPropertyOp50
 70
     1
102
RTVSPropertyOp51
 70
     0
102
RTVSPropertyOp52
 70
     0
102
RTVSPropertyOp53
 70
     1
102
RTVSPropertyOp54
 70
     1
102
RTVSPropertyOp55
 70
     1
102
RTVSPropertyOp56
 70
     1
102
RTVSPropertyOp57
 70
     1
102
RTVSPropertyOp58
 70
     1
102
RTVSPropertyOp59
 70
     1
102
RTVSPropertyOp60
 70
     1
102
RTVSPropertyOp61
 70
     1
102
RTVSPropertyOp62
 70
     1
  0
XRECORD
  5
3CF8
102
{ACAD_REACTORS
330
3CF7
102
}
330
3CF7
100
AcDbXrecord
280
     1
102
RTVSPost2010Prop28
280
     0
102
RTVSPost2010PropOp28
 70
     1
102
RTVSPost2010Prop29
280
     1
102
RTVSPost2010PropOp29
 70
     1
102
RTVSPost2010Prop30
280
     1
102
RTVSPost2010PropOp30
 70
     1
102
RTVSPost2010Prop31
280
     0
102
RTVSPost2010PropOp31
 70
     1
102
RTVSPost2010Prop32
280
     0
102
RTVSPost2010PropOp32
 70
     1
102
RTVSPost2010Prop33
280
     0
102
RTVSPost2010PropOp33
 70
     1
102
RTVSPost2010Prop34
280
     0
102
RTVSPost2010PropOp34
 70
     1
102
RTVSPost2010Prop35
280
     0
102
RTVSPost2010PropOp35
 70
     1
102
RTVSPost2010Prop36
280
     0
102
RTVSPost2010PropOp36
 70
     1
102
RTVSPost2010Prop37
 90
       50
102
RTVSPost2010PropOp37
 70
     1
102
RTVSPost2010Prop38
140
0.0
102
RTVSPost2010PropOp38
 70
     1
102
RTVSPost2010Prop39
140
1.0
102
RTVSPost2010PropOp39
 70
     1
102
RTVSPost2010Prop40
 90
        0
102
RTVSPost2010PropOp40
 70
     1
102
RTVSPost2010Prop41ColorIndex
 90
       18
102
RTVSPost2010Prop41ColorRGB
 90
        0
102
RTVSPost2010PropOp41
 70
     1
102
RTVSPost2010Prop42
 90
       50
102
RTVSPost2010PropOp42
 70
     1
102
RTVSPost2010Prop43
 90
        3
102
RTVSPost2010PropOp43
 70
     1
102
RTVSPost2010Prop44ColorIndex
 90
        5
102
RTVSPost2010Prop44ColorRGB
 90
      255
102
RTVSPost2010PropOp44
 70
     1
102
RTVSPost2010Prop45
280
     0
102
RTVSPost2010PropOp45
 70
     1
102
RTVSPost2010Prop46
 90
       50
102
RTVSPost2010PropOp46
 70
     1
102
RTVSPost2010Prop47
 90
       50
102
RTVSPost2010PropOp47
 70
     1
102
RTVSPost2010Prop48
 90
       50
102
RTVSPost2010PropOp48
 70
     1
102
RTVSPost2010Prop49
280
     0
102
RTVSPost2010PropOp49
 70
     1
102
RTVSPost2010Prop50
 90
       50
102
RTVSPost2010PropOp50
 70
     1
102
RTVSPost2010Prop51ColorIndex
 90
      256
102
RTVSPost2010Prop51ColorRGB
 90
-16777216
102
RTVSPost2010PropOp51
 70
     0
102
RTVSPost2010Prop52
140
1.0
102
RTVSPost2010PropOp52
 70
     0
102
RTVSPost2010Prop53
 90
        2
102
RTVSPost2010PropOp53
 70
     1
102
RTVSPost2010Prop54
  1
strokes_ogs.tif
102
RTVSPost2010PropOp54
 70
     1
102
RTVSPost2010Prop55
280
     0
102
RTVSPost2010PropOp55
 70
     1
102
RTVSPost2010Prop56
140
1.0
102
RTVSPost2010PropOp56
 70
     1
102
RTVSPost2010Prop57
140
1.0
102
RTVSPost2010PropOp57
 70
     1
102
RTVSPropertyOp0
 70
     1
102
RTVSPropertyOp1
 70
     1
102
RTVSPropertyOp2
 70
     1
102
RTVSPropertyOp3
 70
     1
102
RTVSPropertyOp4
 70
     1
102
RTVSPropertyOp5
 70
     1
102
RTVSPropertyOp6
 70
     1
102
RTVSPropertyOp7
 70
     1
102
RTVSPropertyOp8
 70
     1
102
RTVSPropertyOp9
 70
     1
102
RTVSPropertyOp10
 70
     1
102
RTVSPropertyOp11
 70
     1
102
RTVSPropertyOp12
 70
     1
102
RTVSPropertyOp13
 70
     1
102
RTVSPropertyOp14
 70
     1
102
RTVSPropertyOp15
 70
     1
102
RTVSPropertyOp16
 70
     1
102
RTVSPropertyOp17
 70
     1
102
RTVSPropertyOp18
 70
     1
102
RTVSPropertyOp19
 70
     1
102
RTVSPropertyOp20
 70
     1
102
RTVSPropertyOp21
 70
     1
102
RTVSPropertyOp22
 70
     1
102
RTVSPropertyOp23
 70
     1
102
RTVSPropertyOp24
 70
     1
102
RTVSPropertyOp25
 70
     1
102
RTVSPropertyOp26
 70
     1
102
RTVSPropertyOp27
 70
     1
102
RTVSPropertyOp28
 70
     1
102
RTVSPropertyOp29
 70
     1
102
RTVSPropertyOp30
 70
     1
102
RTVSPropertyOp31
 70
     1
102
RTVSPropertyOp32
 70
     1
102
RTVSPropertyOp33
 70
     1
102
RTVSPropertyOp34
 70
     1
102
RTVSPropertyOp35
 70
     1
102
RTVSPropertyOp36
 70
     1
102
RTVSPropertyOp37
 70
     1
102
RTVSPropertyOp38
 70
     1
102
RTVSPropertyOp39
 70
     1
102
RTVSPropertyOp40
 70
     1
102
RTVSPropertyOp41
 70
     1
102
RTVSPropertyOp42
 70
     1
102
RTVSPropertyOp43
 70
     1
102
RTVSPropertyOp44
 70
     1
102
RTVSPropertyOp45
 70
     1
102
RTVSPropertyOp46
 70
     1
102
RTVSPropertyOp47
 70
     1
102
RTVSPropertyOp48
 70
     1
102
RTVSPropertyOp49
 70
     1
102
RTVSPropertyOp50
 70
     1
102
RTVSPropertyOp51
 70
     0
102
RTVSPropertyOp52
 70
     0
102
RTVSPropertyOp53
 70
     1
102
RTVSPropertyOp54
 70
     1
102
RTVSPropertyOp55
 70
     1
102
RTVSPropertyOp56
 70
     1
102
RTVSPropertyOp57
 70
     1
102
RTVSPropertyOp58
 70
     1
102
RTVSPropertyOp59
 70
     1
102
RTVSPropertyOp60
 70
     1
102
RTVSPropertyOp61
 70
     1
102
RTVSPropertyOp62
 70
     1
  0
XRECORD
  5
3D07
102
{ACAD_REACTORS
330
3D06
102
}
330
3D06
100
AcDbXrecord
280
     1
102
RTVSPost2010Prop28
280
     0
102
RTVSPost2010PropOp28
 70
     1
102
RTVSPost2010Prop29
280
     1
102
RTVSPost2010PropOp29
 70
     1
102
RTVSPost2010Prop30
280
     1
102
RTVSPost2010PropOp30
 70
     1
102
RTVSPost2010Prop31
280
     0
102
RTVSPost2010PropOp31
 70
     1
102
RTVSPost2010Prop32
280
     0
102
RTVSPost2010PropOp32
 70
     1
102
RTVSPost2010Prop33
280
     0
102
RTVSPost2010PropOp33
 70
     1
102
RTVSPost2010Prop34
280
     0
102
RTVSPost2010PropOp34
 70
     1
102
RTVSPost2010Prop35
280
     0
102
RTVSPost2010PropOp35
 70
     1
102
RTVSPost2010Prop36
280
     0
102
RTVSPost2010PropOp36
 70
     1
102
RTVSPost2010Prop37
 90
       50
102
RTVSPost2010PropOp37
 70
     1
102
RTVSPost2010Prop38
140
0.0
102
RTVSPost2010PropOp38
 70
     1
102
RTVSPost2010Prop39
140
1.0
102
RTVSPost2010PropOp39
 70
     1
102
RTVSPost2010Prop40
 90
        0
102
RTVSPost2010PropOp40
 70
     1
102
RTVSPost2010Prop41ColorIndex
 90
       18
102
RTVSPost2010Prop41ColorRGB
 90
        0
102
RTVSPost2010PropOp41
 70
     1
102
RTVSPost2010Prop42
 90
       50
102
RTVSPost2010PropOp42
 70
     1
102
RTVSPost2010Prop43
 90
        3
102
RTVSPost2010PropOp43
 70
     1
102
RTVSPost2010Prop44ColorIndex
 90
        5
102
RTVSPost2010Prop44ColorRGB
 90
      255
102
RTVSPost2010PropOp44
 70
     1
102
RTVSPost2010Prop45
280
     0
102
RTVSPost2010PropOp45
 70
     1
102
RTVSPost2010Prop46
 90
       50
102
RTVSPost2010PropOp46
 70
     1
102
RTVSPost2010Prop47
 90
       50
102
RTVSPost2010PropOp47
 70
     1
102
RTVSPost2010Prop48
 90
       50
102
RTVSPost2010PropOp48
 70
     1
102
RTVSPost2010Prop49
280
     0
102
RTVSPost2010PropOp49
 70
     1
102
RTVSPost2010Prop50
 90
       50
102
RTVSPost2010PropOp50
 70
     1
102
RTVSPost2010Prop51ColorIndex
 90
      256
102
RTVSPost2010Prop51ColorRGB
 90
-16777216
102
RTVSPost2010PropOp51
 70
     0
102
RTVSPost2010Prop52
140
1.0
102
RTVSPost2010PropOp52
 70
     0
102
RTVSPost2010Prop53
 90
        2
102
RTVSPost2010PropOp53
 70
     1
102
RTVSPost2010Prop54
  1
strokes_ogs.tif
102
RTVSPost2010PropOp54
 70
     1
102
RTVSPost2010Prop55
280
     0
102
RTVSPost2010PropOp55
 70
     1
102
RTVSPost2010Prop56
140
1.0
102
RTVSPost2010PropOp56
 70
     1
102
RTVSPost2010Prop57
140
1.0
102
RTVSPost2010PropOp57
 70
     1
102
RTVSPropertyOp0
 70
     1
102
RTVSPropertyOp1
 70
     1
102
RTVSPropertyOp2
 70
     1
102
RTVSPropertyOp3
 70
     1
102
RTVSPropertyOp4
 70
     1
102
RTVSPropertyOp5
 70
     1
102
RTVSPropertyOp6
 70
     1
102
RTVSPropertyOp7
 70
     1
102
RTVSPropertyOp8
 70
     1
102
RTVSPropertyOp9
 70
     1
102
RTVSPropertyOp10
 70
     1
102
RTVSPropertyOp11
 70
     1
102
RTVSPropertyOp12
 70
     1
102
RTVSPropertyOp13
 70
     1
102
RTVSPropertyOp14
 70
     1
102
RTVSPropertyOp15
 70
     1
102
RTVSPropertyOp16
 70
     1
102
RTVSPropertyOp17
 70
     1
102
RTVSPropertyOp18
 70
     1
102
RTVSPropertyOp19
 70
     1
102
RTVSPropertyOp20
 70
     1
102
RTVSPropertyOp21
 70
     1
102
RTVSPropertyOp22
 70
     1
102
RTVSPropertyOp23
 70
     1
102
RTVSPropertyOp24
 70
     1
102
RTVSPropertyOp25
 70
     1
102
RTVSPropertyOp26
 70
     1
102
RTVSPropertyOp27
 70
     1
102
RTVSPropertyOp28
 70
     1
102
RTVSPropertyOp29
 70
     1
102
RTVSPropertyOp30
 70
     1
102
RTVSPropertyOp31
 70
     1
102
RTVSPropertyOp32
 70
     1
102
RTVSPropertyOp33
 70
     1
102
RTVSPropertyOp34
 70
     1
102
RTVSPropertyOp35
 70
     1
102
RTVSPropertyOp36
 70
     1
102
RTVSPropertyOp37
 70
     1
102
RTVSPropertyOp38
 70
     1
102
RTVSPropertyOp39
 70
     1
102
RTVSPropertyOp40
 70
     1
102
RTVSPropertyOp41
 70
     1
102
RTVSPropertyOp42
 70
     1
102
RTVSPropertyOp43
 70
     1
102
RTVSPropertyOp44
 70
     1
102
RTVSPropertyOp45
 70
     1
102
RTVSPropertyOp46
 70
     1
102
RTVSPropertyOp47
 70
     1
102
RTVSPropertyOp48
 70
     1
102
RTVSPropertyOp49
 70
     1
102
RTVSPropertyOp50
 70
     1
102
RTVSPropertyOp51
 70
     0
102
RTVSPropertyOp52
 70
     0
102
RTVSPropertyOp53
 70
     1
102
RTVSPropertyOp54
 70
     1
102
RTVSPropertyOp55
 70
     1
102
RTVSPropertyOp56
 70
     1
102
RTVSPropertyOp57
 70
     1
102
RTVSPropertyOp58
 70
     1
102
RTVSPropertyOp59
 70
     1
102
RTVSPropertyOp60
 70
     1
102
RTVSPropertyOp61
 70
     1
102
RTVSPropertyOp62
 70
     1
  0
XRECORD
  5
3D0F
102
{ACAD_REACTORS
330
3D0E
102
}
330
3D0E
100
AcDbXrecord
280
     1
102
RTVSPost2010Prop28
280
     0
102
RTVSPost2010PropOp28
 70
     1
102
RTVSPost2010Prop29
280
     1
102
RTVSPost2010PropOp29
 70
     1
102
RTVSPost2010Prop30
280
     1
102
RTVSPost2010PropOp30
 70
     1
102
RTVSPost2010Prop31
280
     0
102
RTVSPost2010PropOp31
 70
     1
102
RTVSPost2010Prop32
280
     0
102
RTVSPost2010PropOp32
 70
     1
102
RTVSPost2010Prop33
280
     0
102
RTVSPost2010PropOp33
 70
     1
102
RTVSPost2010Prop34
280
     0
102
RTVSPost2010PropOp34
 70
     1
102
RTVSPost2010Prop35
280
     0
102
RTVSPost2010PropOp35
 70
     1
102
RTVSPost2010Prop36
280
     0
102
RTVSPost2010PropOp36
 70
     1
102
RTVSPost2010Prop37
 90
       50
102
RTVSPost2010PropOp37
 70
     1
102
RTVSPost2010Prop38
140
0.0
102
RTVSPost2010PropOp38
 70
     1
102
RTVSPost2010Prop39
140
1.0
102
RTVSPost2010PropOp39
 70
     1
102
RTVSPost2010Prop40
 90
        0
102
RTVSPost2010PropOp40
 70
     1
102
RTVSPost2010Prop41ColorIndex
 90
       18
102
RTVSPost2010Prop41ColorRGB
 90
        0
102
RTVSPost2010PropOp41
 70
     1
102
RTVSPost2010Prop42
 90
       50
102
RTVSPost2010PropOp42
 70
     1
102
RTVSPost2010Prop43
 90
        3
102
RTVSPost2010PropOp43
 70
     1
102
RTVSPost2010Prop44ColorIndex
 90
        5
102
RTVSPost2010Prop44ColorRGB
 90
      255
102
RTVSPost2010PropOp44
 70
     1
102
RTVSPost2010Prop45
280
     0
102
RTVSPost2010PropOp45
 70
     1
102
RTVSPost2010Prop46
 90
       50
102
RTVSPost2010PropOp46
 70
     1
102
RTVSPost2010Prop47
 90
       50
102
RTVSPost2010PropOp47
 70
     1
102
RTVSPost2010Prop48
 90
       50
102
RTVSPost2010PropOp48
 70
     1
102
RTVSPost2010Prop49
280
     0
102
RTVSPost2010PropOp49
 70
     1
102
RTVSPost2010Prop50
 90
       50
102
RTVSPost2010PropOp50
 70
     1
102
RTVSPost2010Prop51ColorIndex
 90
      256
102
RTVSPost2010Prop51ColorRGB
 90
-16777216
102
RTVSPost2010PropOp51
 70
     0
102
RTVSPost2010Prop52
140
1.0
102
RTVSPost2010PropOp52
 70
     0
102
RTVSPost2010Prop53
 90
        2
102
RTVSPost2010PropOp53
 70
     1
102
RTVSPost2010Prop54
  1
strokes_ogs.tif
102
RTVSPost2010PropOp54
 70
     1
102
RTVSPost2010Prop55
280
     0
102
RTVSPost2010PropOp55
 70
     1
102
RTVSPost2010Prop56
140
1.0
102
RTVSPost2010PropOp56
 70
     1
102
RTVSPost2010Prop57
140
1.0
102
RTVSPost2010PropOp57
 70
     1
102
RTVSPropertyOp0
 70
     1
102
RTVSPropertyOp1
 70
     1
102
RTVSPropertyOp2
 70
     1
102
RTVSPropertyOp3
 70
     1
102
RTVSPropertyOp4
 70
     1
102
RTVSPropertyOp5
 70
     1
102
RTVSPropertyOp6
 70
     1
102
RTVSPropertyOp7
 70
     1
102
RTVSPropertyOp8
 70
     1
102
RTVSPropertyOp9
 70
     1
102
RTVSPropertyOp10
 70
     1
102
RTVSPropertyOp11
 70
     1
102
RTVSPropertyOp12
 70
     1
102
RTVSPropertyOp13
 70
     1
102
RTVSPropertyOp14
 70
     1
102
RTVSPropertyOp15
 70
     1
102
RTVSPropertyOp16
 70
     1
102
RTVSPropertyOp17
 70
     1
102
RTVSPropertyOp18
 70
     1
102
RTVSPropertyOp19
 70
     1
102
RTVSPropertyOp20
 70
     1
102
RTVSPropertyOp21
 70
     1
102
RTVSPropertyOp22
 70
     1
102
RTVSPropertyOp23
 70
     1
102
RTVSPropertyOp24
 70
     1
102
RTVSPropertyOp25
 70
     1
102
RTVSPropertyOp26
 70
     1
102
RTVSPropertyOp27
 70
     1
102
RTVSPropertyOp28
 70
     1
102
RTVSPropertyOp29
 70
     1
102
RTVSPropertyOp30
 70
     1
102
RTVSPropertyOp31
 70
     1
102
RTVSPropertyOp32
 70
     1
102
RTVSPropertyOp33
 70
     1
102
RTVSPropertyOp34
 70
     1
102
RTVSPropertyOp35
 70
     1
102
RTVSPropertyOp36
 70
     1
102
RTVSPropertyOp37
 70
     1
102
RTVSPropertyOp38
 70
     1
102
RTVSPropertyOp39
 70
     1
102
RTVSPropertyOp40
 70
     1
102
RTVSPropertyOp41
 70
     1
102
RTVSPropertyOp42
 70
     1
102
RTVSPropertyOp43
 70
     1
102
RTVSPropertyOp44
 70
     1
102
RTVSPropertyOp45
 70
     1
102
RTVSPropertyOp46
 70
     1
102
RTVSPropertyOp47
 70
     1
102
RTVSPropertyOp48
 70
     1
102
RTVSPropertyOp49
 70
     1
102
RTVSPropertyOp50
 70
     1
102
RTVSPropertyOp51
 70
     0
102
RTVSPropertyOp52
 70
     0
102
RTVSPropertyOp53
 70
     1
102
RTVSPropertyOp54
 70
     1
102
RTVSPropertyOp55
 70
     1
102
RTVSPropertyOp56
 70
     1
102
RTVSPropertyOp57
 70
     1
102
RTVSPropertyOp58
 70
     1
102
RTVSPropertyOp59
 70
     1
102
RTVSPropertyOp60
 70
     1
102
RTVSPropertyOp61
 70
     1
102
RTVSPropertyOp62
 70
     1
  0
ENDSEC
  0
EOF
