  0
SECTION
  2
HEADER
  9
$ACADVER
  1
AC1015
  9
$ACADMAINTVER
 70
    20
  9
$DWGCODEPAGE
  3
ANSI_932
  9
$INSBASE
 10
0.0
 20
0.0
 30
0.0
  9
$EXTMIN
 10
-0.0865720543251882
 20
-0.0600517419075004
 30
-0.0015258207003583
  9
$EXTMAX
 10
2760.127582481884
 20
1910.086225318122
 30
0.0000000349246037
  9
$LIMMIN
 10
0.0
 20
0.0
  9
$LIMMAX
 10
2840.0
 20
1970.0
  9
$ORTHOMODE
 70
     0
  9
$REGENMODE
 70
     1
  9
$FILLMODE
 70
     1
  9
$QTEXTMODE
 70
     0
  9
$MIRRTEXT
 70
     1
  9
$LTSCALE
 40
1.0
  9
$ATTMODE
 70
     1
  9
$TEXTSIZE
 40
2.5
  9
$TRACEWID
 40
1.0
  9
$TEXTSTYLE
  7
Standard
  9
$CLAYER
  8
single
  9
$CELTYPE
  6
ByLayer
  9
$CECOLOR
 62
   256
  9
$CELTSCALE
 40
1.0
  9
$DISPSILH
 70
     0
  9
$DIMSCALE
 40
10.0
  9
$DIMASZ
 40
0.8
  9
$DIMEXO
 40
1.0
  9
$DIMDLI
 40
0.0
  9
$DIMRND
 40
0.0
  9
$DIMDLE
 40
0.0
  9
$DIMEXE
 40
0.0
  9
$DIMTP
 40
0.0
  9
$DIMTM
 40
0.0
  9
$DIMTXT
 40
2.0
  9
$DIMCEN
 40
2.5
  9
$DIMTSZ
 40
0.0
  9
$DIMTOL
 70
     0
  9
$DIMLIM
 70
     0
  9
$DIMTIH
 70
     0
  9
$DIMTOH
 70
     0
  9
$DIMSE1
 70
     0
  9
$DIMSE2
 70
     0
  9
$DIMTAD
 70
     2
  9
$DIMZIN
 70
     8
  9
$DIMBLK
  1

  9
$DIMASO
 70
     1
  9
$DIMSHO
 70
     1
  9
$DIMPOST
  1

  9
$DIMAPOST
  1

  9
$DIMALT
 70
     0
  9
$DIMALTD
 70
     4
  9
$DIMALTF
 40
0.0394
  9
$DIMLFAC
 40
1.0
  9
$DIMTOFL
 70
     1
  9
$DIMTVP
 40
0.0
  9
$DIMTIX
 70
     0
  9
$DIMSOXD
 70
     0
  9
$DIMSAH
 70
     1
  9
$DIMBLK1
  1
DOT
  9
$DIMBLK2
  1
DOT
  9
$DIMSTYLE
  2
STANDARD
  9
$DIMCLRD
 70
     0
  9
$DIMCLRE
 70
     0
  9
$DIMCLRT
 70
     0
  9
$DIMTFAC
 40
1.0
  9
$DIMGAP
 40
0.1
  9
$DIMJUST
 70
     0
  9
$DIMSD1
 70
     0
  9
$DIMSD2
 70
     0
  9
$DIMTOLJ
 70
     1
  9
$DIMTZIN
 70
     0
  9
$DIMALTZ
 70
     0
  9
$DIMALTTZ
 70
     0
  9
$DIMUPT
 70
     0
  9
$DIMDEC
 70
     8
  9
$DIMTDEC
 70
     8
  9
$DIMALTU
 70
     8
  9
$DIMALTTD
 70
     4
  9
$DIMTXSTY
  7
Standard
  9
$DIMAUNIT
 70
     0
  9
$DIMADEC
 70
     0
  9
$DIMALTRND
 40
0.0
  9
$DIMAZIN
 70
     0
  9
$DIMDSEP
 70
    46
  9
$DIMATFIT
 70
     3
  9
$DIMFRAC
 70
     0
  9
$DIMLDRBLK
  1
DOT
  9
$DIMLUNIT
 70
     2
  9
$DIMLWD
 70
    -2
  9
$DIMLWE
 70
    -2
  9
$DIMTMOVE
 70
     1
  9
$LUNITS
 70
     2
  9
$LUPREC
 70
     8
  9
$SKETCHINC
 40
1.0
  9
$FILLETRAD
 40
10.0
  9
$AUNITS
 70
     0
  9
$AUPREC
 70
     8
  9
$MENU
  1
.
  9
$ELEVATION
 40
0.0
  9
$PELEVATION
 40
0.0
  9
$THICKNESS
 40
0.0
  9
$LIMCHECK
 70
     0
  9
$CHAMFERA
 40
20.0
  9
$CHAMFERB
 40
20.0
  9
$CHAMFERC
 40
20.0
  9
$CHAMFERD
 40
0.0
  9
$SKPOLY
 70
     0
  9
$TDCREATE
 40
2453276.413761574
  9
$TDUCREATE
 40
2453276.038766620
  9
$TDUPDATE
 40
2459978.553148148
  9
$TDUUPDATE
 40
2459978.178148148
  9
$TDINDWG
 40
0.3588157292
  9
$TDUSRTIMER
 40
0.3588157292
  9
$USRTIMER
 70
     1
  9
$ANGBASE
 50
0.0
  9
$ANGDIR
 70
     0
  9
$PDMODE
 70
     0
  9
$PDSIZE
 40
0.0
  9
$PLINEWID
 40
0.0
  9
$SPLFRAME
 70
     0
  9
$SPLINETYPE
 70
     6
  9
$SPLINESEGS
 70
     8
  9
$HANDSEED
  5
4B61
  9
$SURFTAB1
 70
     6
  9
$SURFTAB2
 70
     6
  9
$SURFTYPE
 70
     6
  9
$SURFU
 70
     6
  9
$SURFV
 70
     6
  9
$UCSBASE
  2

  9
$UCSNAME
  2

  9
$UCSORG
 10
0.0
 20
0.0
 30
0.0
  9
$UCSXDIR
 10
1.0
 20
0.0
 30
0.0
  9
$UCSYDIR
 10
0.0
 20
1.0
 30
0.0
  9
$UCSORTHOREF
  2

  9
$UCSORTHOVIEW
 70
     0
  9
$UCSORGTOP
 10
0.0
 20
0.0
 30
0.0
  9
$UCSORGBOTTOM
 10
0.0
 20
0.0
 30
0.0
  9
$UCSORGLEFT
 10
0.0
 20
0.0
 30
0.0
  9
$UCSORGRIGHT
 10
0.0
 20
0.0
 30
0.0
  9
$UCSORGFRONT
 10
0.0
 20
0.0
 30
0.0
  9
$UCSORGBACK
 10
0.0
 20
0.0
 30
0.0
  9
$PUCSBASE
  2

  9
$PUCSNAME
  2

  9
$PUCSORG
 10
0.0
 20
0.0
 30
0.0
  9
$PUCSXDIR
 10
1.0
 20
0.0
 30
0.0
  9
$PUCSYDIR
 10
0.0
 20
1.0
 30
0.0
  9
$PUCSORTHOREF
  2

  9
$PUCSORTHOVIEW
 70
     0
  9
$PUCSORGTOP
 10
0.0
 20
0.0
 30
0.0
  9
$PUCSORGBOTTOM
 10
0.0
 20
0.0
 30
0.0
  9
$PUCSORGLEFT
 10
0.0
 20
0.0
 30
0.0
  9
$PUCSORGRIGHT
 10
0.0
 20
0.0
 30
0.0
  9
$PUCSORGFRONT
 10
0.0
 20
0.0
 30
0.0
  9
$PUCSORGBACK
 10
0.0
 20
0.0
 30
0.0
  9
$USERI1
 70
     0
  9
$USERI2
 70
     0
  9
$USERI3
 70
     0
  9
$USERI4
 70
     0
  9
$USERI5
 70
     0
  9
$USERR1
 40
0.0
  9
$USERR2
 40
0.0
  9
$USERR3
 40
0.0
  9
$USERR4
 40
0.0
  9
$USERR5
 40
0.0
  9
$WORLDVIEW
 70
     1
  9
$SHADEDGE
 70
     2
  9
$SHADEDIF
 70
    70
  9
$TILEMODE
 70
     1
  9
$MAXACTVP
 70
    64
  9
$PINSBASE
 10
0.0
 20
0.0
 30
0.0
  9
$PLIMCHECK
 70
     0
  9
$PEXTMIN
 10
0.0
 20
0.0
 30
0.0
  9
$PEXTMAX
 10
0.0
 20
0.0
 30
0.0
  9
$PLIMMIN
 10
0.0
 20
0.0
  9
$PLIMMAX
 10
12.0
 20
9.0
  9
$UNITMODE
 70
     0
  9
$VISRETAIN
 70
     1
  9
$PLINEGEN
 70
     0
  9
$PSLTSCALE
 70
     1
  9
$TREEDEPTH
 70
  3020
  9
$CMLSTYLE
  2
Standard
  9
$CMLJUST
 70
     0
  9
$CMLSCALE
 40
20.0
  9
$PROXYGRAPHICS
 70
     1
  9
$MEASUREMENT
 70
     1
  9
$CELWEIGHT
370
    -1
  9
$ENDCAPS
280
     0
  9
$JOINSTYLE
280
     0
  9
$LWDISPLAY
290
     0
  9
$INSUNITS
 70
     4
  9
$HYPERLINKBASE
  1

  9
$STYLESHEET
  1
monochrome.stb
  9
$XEDIT
290
     1
  9
$CEPSNTYPE
380
     0
  9
$PSTYLEMODE
290
     1
  9
$FINGERPRINTGUID
  2
{B4E61C12-08AD-407D-A83C-7C7812CA1D8B}
  9
$VERSIONGUID
  2
{3385B969-E80E-734C-81DC-96D22AC0A416}
  9
$EXTNAMES
290
     1
  9
$PSVPSCALE
 40
0.0
  9
$OLESTARTUP
290
     0
  0
ENDSEC
  0
SECTION
  2
CLASSES
  0
CLASS
  1
ACDBDICTIONARYWDFLT
  2
AcDbDictionaryWithDefault
  3
ObjectDBX Classes
 90
        0
280
     0
281
     0
  0
CLASS
  1
ACDBPLACEHOLDER
  2
AcDbPlaceHolder
  3
ObjectDBX Classes
 90
        0
280
     0
281
     0
  0
CLASS
  1
LAYOUT
  2
AcDbLayout
  3
ObjectDBX Classes
 90
        0
280
     0
281
     0
  0
CLASS
  1
DICTIONARYVAR
  2
AcDbDictionaryVar
  3
ObjectDBX Classes
 90
        0
280
     0
281
     0
  0
CLASS
  1
SORTENTSTABLE
  2
AcDbSortentsTable
  3
ObjectDBX Classes
 90
        0
280
     0
281
     0
  0
CLASS
  1
MATERIAL
  2
AcDbMaterial
  3
ObjectDBX Classes
 90
     1153
280
     0
281
     0
  0
CLASS
  1
VISUALSTYLE
  2
AcDbVisualStyle
  3
ObjectDBX Classes
 90
     4095
280
     0
281
     0
  0
CLASS
  1
TABLESTYLE
  2
AcDbTableStyle
  3
ObjectDBX Classes
 90
     4095
280
     0
281
     0
  0
CLASS
  1
SCALE
  2
AcDbScale
  3
ObjectDBX Classes
 90
     1153
280
     0
281
     0
  0
CLASS
  1
MLEADERSTYLE
  2
AcDbMLeaderStyle
  3
ACDB_MLEADERSTYLE_CLASS
 90
     4095
280
     0
281
     0
  0
CLASS
  1
CELLSTYLEMAP
  2
AcDbCellStyleMap
  3
ObjectDBX Classes
 90
     1152
280
     0
281
     0
  0
CLASS
  1
ACDBSECTIONVIEWSTYLE
  2
AcDbSectionViewStyle
  3
ObjectDBX Classes
 90
     1025
280
     0
281
     0
  0
CLASS
  1
ACDBDETAILVIEWSTYLE
  2
AcDbDetailViewStyle
  3
ObjectDBX Classes
 90
     1025
280
     0
281
     0
  0
ENDSEC
  0
SECTION
  2
TABLES
  0
TABLE
  2
VPORT
  5
8
102
{ACAD_XDICTIONARY
360
43D8
102
}
330
0
100
AcDbSymbolTable
 70
     1
  0
VPORT
  5
4373
330
8
100
AcDbSymbolTableRecord
100
AcDbViewportTableRecord
  2
*Active
 70
     0
 10
0.0
 20
0.0
 11
1.0
 21
1.0
 12
1380.020505213779
 22
955.0130867881074
 13
0.0
 23
0.0
 14
10.0
 24
10.0
 15
10.0
 25
10.0
 16
0.0
 26
0.0
 36
1.0
 17
0.0
 27
0.0
 37
0.0
 40
1980.892435469661
 41
2.590062111801242
 42
50.0
 43
0.0
 44
0.0
 50
0.0
 51
0.0
 71
     0
 72
   100
 73
     1
 74
     3
 75
     0
 76
     0
 77
     0
 78
     0
281
     0
 65
     1
110
0.0
120
0.0
130
0.0
111
1.0
121
0.0
131
0.0
112
0.0
122
1.0
132
0.0
 79
     0
146
0.0
1001
ACAD_NAV_VCDISPLAY
1070
     3
  0
ENDTAB
  0
TABLE
  2
LTYPE
  5
5
330
0
100
AcDbSymbolTable
 70
     1
  0
LTYPE
  5
14
330
5
100
AcDbSymbolTableRecord
100
AcDbLinetypeTableRecord
  2
ByBlock
 70
     0
  3

 72
    65
 73
     0
 40
0.0
  0
LTYPE
  5
15
330
5
100
AcDbSymbolTableRecord
100
AcDbLinetypeTableRecord
  2
ByLayer
 70
     0
  3

 72
    65
 73
     0
 40
0.0
  0
LTYPE
  5
16
330
5
100
AcDbSymbolTableRecord
100
AcDbLinetypeTableRecord
  2
Continuous
 70
     0
  3
Solid line
 72
    65
 73
     0
 40
0.0
  0
ENDTAB
  0
TABLE
  2
LAYER
  5
2
102
{ACAD_XDICTIONARY
360
2D
102
}
330
0
100
AcDbSymbolTable
 70
     7
  0
LAYER
  5
10
102
{ACAD_XDICTIONARY
360
43C8
102
}
330
2
100
AcDbSymbolTableRecord
100
AcDbLayerTableRecord
  2
0
 70
     0
 62
     7
  6
Continuous
370
    -3
390
29
  0
LAYER
  5
235F
102
{ACAD_XDICTIONARY
360
43CA
102
}
330
2
100
AcDbSymbolTableRecord
100
AcDbLayerTableRecord
  2
KUTAI
 70
     0
 62
     3
  6
Continuous
370
    -3
390
29
  0
LAYER
  5
2361
102
{ACAD_XDICTIONARY
360
43CC
102
}
330
2
100
AcDbSymbolTableRecord
100
AcDbLayerTableRecord
  2
MOJI
 70
     0
 62
     7
  6
Continuous
370
    -3
390
29
  0
LAYER
  5
275B
102
{ACAD_XDICTIONARY
360
43CE
102
}
330
2
100
AcDbSymbolTableRecord
100
AcDbLayerTableRecord
  2
single
 70
     0
 62
     6
  6
Continuous
370
    -3
390
F
  0
LAYER
  5
35D9
102
{ACAD_XDICTIONARY
360
43D0
102
}
330
2
100
AcDbSymbolTableRecord
100
AcDbLayerTableRecord
  2
BOUSUI
 70
     0
 62
     1
  6
Continuous
370
    -3
390
F
  0
LAYER
  5
35DA
102
{ACAD_XDICTIONARY
360
43D2
102
}
330
2
100
AcDbSymbolTableRecord
100
AcDbLayerTableRecord
  2
HATCH
 70
     0
 62
     9
  6
Continuous
370
    -3
390
F
  0
LAYER
  5
459C
102
{ACAD_XDICTIONARY
360
459D
102
}
330
2
100
AcDbSymbolTableRecord
100
AcDbLayerTableRecord
  2
WAKU
 70
     0
 62
     7
  6
Continuous
370
    -3
390
29
  0
ENDTAB
  0
TABLE
  2
STYLE
  5
3
330
0
100
AcDbSymbolTable
 70
     2
  0
STYLE
  5
11
330
3
100
AcDbSymbolTableRecord
100
AcDbTextStyleTableRecord
  2
Standard
 70
     0
 40
0.0
 41
1.0
 50
0.0
 71
     0
 42
2.5
  3

  4

1001
ACAD
1000
MS Gothic
1071
    32817
  0
STYLE
  5
459E
330
3
100
AcDbSymbolTableRecord
100
AcDbTextStyleTableRecord
  2
MSゴシック
 70
     0
 40
0.0
 41
1.0
 50
0.0
 71
     0
 42
2.5
  3

  4

1001
ACAD
1000
MS Gothic
1071
    32817
  0
ENDTAB
  0
TABLE
  2
VIEW
  5
6
330
0
100
AcDbSymbolTable
 70
     0
  0
ENDTAB
  0
TABLE
  2
UCS
  5
7
330
0
100
AcDbSymbolTable
 70
     0
  0
ENDTAB
  0
TABLE
  2
APPID
  5
9
330
0
100
AcDbSymbolTable
 70
     7
  0
APPID
  5
12
330
9
100
AcDbSymbolTableRecord
100
AcDbRegAppTableRecord
  2
ACAD
 70
     0
  0
APPID
  5
43C6
330
9
100
AcDbSymbolTableRecord
100
AcDbRegAppTableRecord
  2
ACAD_EXEMPT_FROM_CAD_STANDARDS
 70
     0
  0
APPID
  5
4408
330
9
100
AcDbSymbolTableRecord
100
AcDbRegAppTableRecord
  2
ACAD_MLEADERVER
 70
     0
  0
APPID
  5
44B6
330
9
100
AcDbSymbolTableRecord
100
AcDbRegAppTableRecord
  2
AcLayerTools
 70
     0
  0
APPID
  5
4554
330
9
100
AcDbSymbolTableRecord
100
AcDbRegAppTableRecord
  2
ACAD_NAV_VCDISPLAY
 70
     0
  0
APPID
  5
459F
330
9
100
AcDbSymbolTableRecord
100
AcDbRegAppTableRecord
  2
ACAD_PSEXT
 70
     0
  0
APPID
  5
47BF
330
9
100
AcDbSymbolTableRecord
100
AcDbRegAppTableRecord
  2
AcadAnnoPO
 70
     0
  0
ENDTAB
  0
TABLE
  2
DIMSTYLE
  5
A
330
0
100
AcDbSymbolTable
 70
     1
100
AcDbDimStyleTable
 71
     1
340
22E4
  0
DIMSTYLE
105
22E4
330
A
100
AcDbSymbolTableRecord
100
AcDbDimStyleTableRecord
  2
STANDARD
 70
     0
 40
10.0
 41
0.8
 42
1.0
 43
0.0
 44
0.0
 73
     0
 74
     0
 77
     2
 78
     8
140
2.0
141
2.5
143
0.0394
147
0.1
171
     4
172
     1
173
     1
271
     8
272
     8
273
     8
274
     4
279
     1
340
11
341
903
343
903
344
903
  0
ENDTAB
  0
TABLE
  2
BLOCK_RECORD
  5
1
330
0
100
AcDbSymbolTable
 70
     1
  0
BLOCK_RECORD
  5
1F
102
{ACAD_XDICTIONARY
360
1C62
102
}
330
1
100
AcDbSymbolTableRecord
100
AcDbBlockTableRecord
  2
*Model_Space
340
22
  0
BLOCK_RECORD
  5
1CD0
330
1
100
AcDbSymbolTableRecord
100
AcDbBlockTableRecord
  2
*Paper_Space
340
1CD1
  0
BLOCK_RECORD
  5
903
330
1
100
AcDbSymbolTableRecord
100
AcDbBlockTableRecord
  2
_DOT
340
0
  0
ENDTAB
  0
ENDSEC
  0
SECTION
  2
BLOCKS
  0
BLOCK
  5
20
330
1F
100
AcDbEntity
  8
0
100
AcDbBlockBegin
  2
*Model_Space
 70
     0
 10
0.0
 20
0.0
 30
0.0
  3
*Model_Space
  1

  0
ENDBLK
  5
21
330
1F
100
AcDbEntity
  8
0
100
AcDbBlockEnd
  0
BLOCK
  5
1CD2
330
1CD0
100
AcDbEntity
 67
     1
  8
0
100
AcDbBlockBegin
  2
*Paper_Space
 70
     0
 10
0.0
 20
0.0
 30
0.0
  3
*Paper_Space
  1

  0
ENDBLK
  5
1CD3
330
1CD0
100
AcDbEntity
 67
     1
  8
0
100
AcDbBlockEnd
  0
BLOCK
  5
906
330
903
100
AcDbEntity
  8
0
100
AcDbBlockBegin
  2
_DOT
 70
     0
 10
0.0
 20
0.0
 30
0.0
  3
_DOT
  1

  0
LWPOLYLINE
  5
904
330
903
100
AcDbEntity
  8
0
  6
ByBlock
 62
     0
100
AcDbPolyline
 90
        2
 70
     1
 43
0.5
 10
-0.25
 20
0.0
 42
1.0
 10
0.25
 20
0.0
 42
1.0
  0
LINE
  5
905
330
903
100
AcDbEntity
  8
0
  6
ByBlock
 62
     0
100
AcDbLine
 10
-0.5
 20
0.0
 30
0.0
 11
-1.0
 21
0.0
 31
0.0
  0
ENDBLK
  5
907
330
903
100
AcDbEntity
  8
0
100
AcDbBlockEnd
  0
ENDSEC
  0
SECTION
  2
ENTITIES
  0
LINE
  5
3EA0
330
1F
100
AcDbEntity
  8
KUTAI
100
AcDbLine
 10
1580.0
 20
632.3197658814815
 30
0.0
 11
1180.0
 21
632.3197658814815
 31
0.0
  0
LINE
  5
3EA1
330
1F
100
AcDbEntity
  8
KUTAI
100
AcDbLine
 10
1580.0
 20
452.3197658814815
 30
0.0
 11
1030.0
 21
452.3197658814815
 31
0.0
  0
LINE
  5
3EA2
330
1F
100
AcDbEntity
  8
MOJI
100
AcDbLine
 10
1306.04924715581
 20
373.6907285290357
 30
0.0
 11
1263.248990318315
 21
373.6907285290357
 31
0.0
210
0.0
220
0.0
230
-1.0
1001
ACAD
1000
DSTYLE
1002
{
1070
   147
1040
1.0
1070
    77
1070
     0
1070
    42
1040
0.5
1070
   140
1040
2.0
1070
   279
1070
     2
1002
}
  0
LINE
  5
3EA3
330
1F
100
AcDbEntity
  8
MOJI
100
AcDbLine
 10
1459.351361383313
 20
639.2177792787988
 30
0.0
 11
1306.04924715581
 21
373.6907285290357
 31
0.0
210
0.0
220
0.0
230
-1.0
1001
ACAD
1000
DSTYLE
1002
{
1070
   147
1040
1.0
1070
    77
1070
     0
1070
    42
1040
0.5
1070
   140
1040
2.0
1070
   279
1070
     2
1002
}
  0
LINE
  5
3EAD
330
1F
100
AcDbEntity
  8
KUTAI
100
AcDbLine
 10
479.9999999999998
 20
632.3197658814815
 30
0.0
 11
1180.0
 21
842.3197658814816
 31
0.0
  0
LINE
  5
3EB2
330
1F
100
AcDbEntity
  8
KUTAI
100
AcDbLine
 10
479.9999999999998
 20
475.7151682478234
 30
0.0
 11
1030.0
 21
640.7151682478233
 31
0.0
  0
LINE
  5
3EB5
330
1F
100
AcDbEntity
  8
HATCH
  6
Continuous
100
AcDbLine
 10
765.0613517066763
 20
561.2335737598259
 30
0.0
 11
988.7822054690451
 21
784.9544275221951
 31
0.0
  0
LINE
  5
3EB6
330
1F
100
AcDbEntity
  8
HATCH
  6
Continuous
100
AcDbLine
 10
750.9192160829439
 20
556.9909330727064
 30
0.0
 11
974.6400698453113
 21
780.7117868350752
 31
0.0
  0
LINE
  5
3EB7
330
1F
100
AcDbEntity
  8
HATCH
  6
Continuous
100
AcDbLine
 10
736.7770804592132
 20
552.7482923855873
 30
0.0
 11
960.4979342215811
 21
776.469146147956
 31
0.0
  0
LINE
  5
3EBB
330
1F
100
AcDbEntity
  8
HATCH
  6
Continuous
100
AcDbLine
 10
1076.263220582441
 20
452.3197658814815
 30
0.0
 11
1226.26322058244
 21
602.3197658814815
 31
0.0
  0
LINE
  5
3EBC
330
1F
100
AcDbEntity
  8
HATCH
  6
Continuous
100
AcDbLine
 10
1086.162715519052
 20
452.3197658814815
 30
0.0
 11
1236.162715519052
 21
602.3197658814815
 31
0.0
  0
LINE
  5
3EBD
330
1F
100
AcDbEntity
  8
HATCH
  6
Continuous
100
AcDbLine
 10
1066.363725645829
 20
452.3197658814815
 30
0.0
 11
1216.363725645829
 21
602.3197658814815
 31
0.0
  0
LINE
  5
3EBE
330
1F
100
AcDbEntity
  8
KUTAI
100
AcDbLine
 10
1030.0
 20
640.7151682478233
 30
0.0
 11
1030.0
 21
452.3197658814815
 31
0.0
  0
CIRCLE
  5
3EC6
102
{ACAD_REACTORS
330
3EC7
102
}
330
1F
100
AcDbEntity
  8
MOJI
100
AcDbCircle
 10
1459.351361383313
 20
639.2177792787988
 30
0.0
 40
4.0
  0
HATCH
  5
3EC7
330
1F
100
AcDbEntity
  8
MOJI
100
AcDbHatch
 10
0.0
 20
0.0
 30
0.0
210
0.0
220
0.0
230
1.0
  2
SOLID
 70
     1
 71
     1
 91
        1
 92
        1
 93
        1
 72
     2
 10
1459.351361383313
 20
639.2177792787988
 40
4.0
 50
0.0
 51
360.0
 73
     1
 97
        1
330
3EC6
 75
     0
 76
     1
 98
        1
 10
-250.878924076502
 20
-287.9585944475882
  0
LINE
  5
3ECA
330
1F
100
AcDbEntity
  8
MOJI
100
AcDbLine
 10
1177.179177253341
 20
1137.978932472187
 30
0.0
 11
1177.179177253342
 21
1176.492582163502
 31
0.0
  0
TEXT
  5
3ECB
330
1F
100
AcDbEntity
  8
MOJI
100
AcDbText
 10
1185.622412398005
 20
1149.431955253851
 30
0.0
 40
20.0
  1
3
  7
MSゴシック
100
AcDbText
  0
LINE
  5
3ECC
330
1F
100
AcDbEntity
  8
MOJI
100
AcDbLine
 10
1048.800344948959
 20
1137.978932472187
 30
0.0
 11
1177.179177253342
 21
1176.492582163502
 31
0.0
  0
LINE
  5
3ED2
330
1F
100
AcDbEntity
  8
MOJI
100
AcDbLine
 10
1177.179177253341
 20
1137.978932472187
 30
0.0
 11
1048.800344948959
 21
1137.978932472187
 31
0.0
  0
TEXT
  5
3ED3
330
1F
100
AcDbEntity
  8
MOJI
100
AcDbText
 10
1103.644637438249
 20
1114.909976237598
 30
0.0
 40
20.0
  1
10
  7
MSゴシック
100
AcDbText
  0
LINE
  5
3ED7
330
1F
100
AcDbEntity
  8
HATCH
  6
Continuous
100
AcDbLine
 10
1496.37889733655
 20
452.3197658814815
 30
0.0
 11
1960.0
 21
915.9408685449315
 31
0.0
  0
LINE
  5
3ED8
330
1F
100
AcDbEntity
  8
HATCH
  6
Continuous
100
AcDbLine
 10
1516.177887209773
 20
452.3197658814815
 30
0.0
 11
1960.0
 21
896.1418786717104
 31
0.0
  0
LINE
  5
3ED9
330
1F
100
AcDbEntity
  8
HATCH
  6
Continuous
100
AcDbLine
 10
1506.278392273161
 20
452.3197658814815
 30
0.0
 11
1960.0
 21
906.0413736083201
 31
0.0
  0
LINE
  5
3EDA
330
1F
100
AcDbEntity
  8
KUTAI
100
AcDbLine
 10
1960.0
 20
919.7151682478233
 30
0.0
 11
1960.0
 21
295.0
 31
0.0
  0
LINE
  5
3EDC
330
1F
100
AcDbEntity
  8
HATCH
  6
Continuous
100
AcDbLine
 10
1769.07430314579
 20
295.0000000000004
 30
0.0
 11
1960.0
 21
485.9256968542108
 31
0.0
  0
LINE
  5
3EDD
330
1F
100
AcDbEntity
  8
HATCH
  6
Continuous
100
AcDbLine
 10
1788.873293019014
 20
295.0000000000004
 30
0.0
 11
1960.0
 21
466.1267069809873
 31
0.0
  0
LINE
  5
3EDE
330
1F
100
AcDbEntity
  8
HATCH
  6
Continuous
100
AcDbLine
 10
1778.973798082401
 20
295.0000000000004
 30
0.0
 11
1960.0
 21
476.0262019175988
 31
0.0
  0
LINE
  5
3EDF
330
1F
100
AcDbEntity
  8
KUTAI
100
AcDbLine
 10
1580.0
 20
452.3197658814815
 30
0.0
 11
1580.0
 21
295.0000000000004
 31
0.0
  0
LINE
  5
3EE5
330
1F
100
AcDbEntity
  8
KUTAI
100
AcDbLine
 10
1580.0
 20
962.3197658814815
 30
0.0
 11
2280.0
 21
1172.319765881481
 31
0.0
  0
LINE
  5
3F00
330
1F
100
AcDbEntity
  8
HATCH
  6
Continuous
100
AcDbLine
 10
1993.676127965875
 20
929.8180066375861
 30
0.0
 11
2217.396981728242
 21
1153.538860399953
 31
0.0
  0
LINE
  5
3F01
330
1F
100
AcDbEntity
  8
HATCH
  6
Continuous
100
AcDbLine
 10
1979.533992342148
 20
925.575365950468
 30
0.0
 11
2203.254846104516
 21
1149.296219712836
 31
0.0
  0
LINE
  5
3F02
330
1F
100
AcDbEntity
  8
HATCH
  6
Continuous
100
AcDbLine
 10
1965.391856718417
 20
921.3327252633479
 30
0.0
 11
2189.112710480786
 21
1145.053579025717
 31
0.0
  0
LINE
  5
3F03
330
1F
100
AcDbEntity
  8
KUTAI
100
AcDbLine
 10
1960.0
 20
919.7151682478233
 30
0.0
 11
2280.0
 21
1015.715168247823
 31
0.0
  0
LINE
  5
4293
330
1F
100
AcDbEntity
  8
MOJI
  6
Continuous
100
AcDbLine
 10
1919.788825863231
 20
1271.897377518196
 30
0.0
 11
1885.212770652947
 21
1271.897377518196
 31
0.0
  0
LINE
  5
4294
330
1F
100
AcDbEntity
  8
MOJI
  6
Continuous
100
AcDbLine
 10
1919.788825863231
 20
1311.897377518196
 30
0.0
 11
1885.212770652947
 21
1311.897377518196
 31
0.0
  0
TEXT
  5
4297
330
1F
100
AcDbEntity
  8
MOJI
100
AcDbText
 10
1921.788825863229
 20
1261.897377518196
 30
0.0
 40
20.0
  1
ガムクールＭ2
  7
MSゴシック
 11
1921.788825863229
 21
1271.897377518196
 31
0.0
100
AcDbText
 73
     2
  0
TEXT
  5
4299
330
1F
100
AcDbEntity
  8
MOJI
100
AcDbText
 10
1921.788825863231
 20
1301.897377518196
 30
0.0
 40
20.0
  1
シングル・ロフティー
  7
MSゴシック
 11
1921.788825863231
 21
1311.897377518196
 31
0.0
100
AcDbText
 73
     2
  0
LINE
  5
429F
330
1F
100
AcDbEntity
  8
MOJI
  6
Continuous
100
AcDbLine
 10
1885.212770652947
 20
1085.50665138955
 30
0.0
 11
1885.212770652946
 21
1311.897377518196
 31
0.0
  0
HATCH
  5
42A0
330
1F
100
AcDbEntity
  8
MOJI
100
AcDbHatch
 10
0.0
 20
0.0
 30
0.0
210
0.0
220
0.0
230
1.0
  2
SOLID
 70
     1
 71
     1
 91
        1
 92
        1
 93
        1
 72
     2
 10
1885.212770652947
 20
1085.50665138955
 40
4.0
 50
0.0
 51
360.0
 73
     1
 97
        1
330
42A1
 75
     0
 76
     1
 98
        1
 10
174.9824851931316
 20
158.3302776631626
  0
CIRCLE
  5
42A1
102
{ACAD_REACTORS
330
42A0
102
}
330
1F
100
AcDbEntity
  8
MOJI
100
AcDbCircle
 10
1885.212770652947
 20
1085.50665138955
 30
0.0
 40
4.0
  0
HATCH
  5
42A2
330
1F
100
AcDbEntity
  8
MOJI
100
AcDbHatch
 10
0.0
 20
0.0
 30
0.0
210
0.0
220
0.0
230
1.0
  2
SOLID
 70
     1
 71
     1
 91
        1
 92
        1
 93
        1
 72
     2
 10
1885.212770652947
 20
1092.55625699927
 40
4.0
 50
0.0
 51
360.0
 73
     1
 97
        1
330
42A3
 75
     0
 76
     1
 98
        1
 10
174.9824851931316
 20
165.3798832728825
  0
CIRCLE
  5
42A3
102
{ACAD_REACTORS
330
42A2
102
}
330
1F
100
AcDbEntity
  8
MOJI
100
AcDbCircle
 10
1885.212770652947
 20
1092.55625699927
 30
0.0
 40
4.0
  0
LINE
  5
42C7
330
1F
100
AcDbEntity
  8
KUTAI
100
AcDbLine
 10
479.9999999999998
 20
663.6406854082133
 30
0.0
 11
1180.0
 21
873.6406854082128
 31
0.0
  0
LINE
  5
42C9
330
1F
100
AcDbEntity
  8
KUTAI
100
AcDbLine
 10
1180.0
 20
873.6406854082128
 30
0.0
 11
1180.0
 21
602.3197658814815
 31
0.0
  0
LINE
  5
42CA
330
1F
100
AcDbEntity
  8
KUTAI
100
AcDbLine
 10
1180.0
 20
602.3197658814815
 30
0.0
 11
1580.0
 21
602.3197658814815
 31
0.0
  0
LINE
  5
42CB
330
1F
100
AcDbEntity
  8
KUTAI
100
AcDbLine
 10
1580.0
 20
602.3197658814815
 30
0.0
 11
1579.999999999999
 21
993.6406854082129
 31
0.0
  0
LINE
  5
42CD
330
1F
100
AcDbEntity
  8
KUTAI
100
AcDbLine
 10
1579.999999999999
 20
993.6406854082129
 30
0.0
 11
2280.0
 21
1203.640685408213
 31
0.0
  0
LINE
  5
42D1
330
1F
100
AcDbEntity
  8
BOUSUI
100
AcDbLine
 10
1722.23720335534
 20
1041.53199966927
 30
0.0
 11
1723.673942783172
 21
1036.742868243164
 31
0.0
  0
LINE
  5
42D4
330
1F
100
AcDbEntity
  8
BOUSUI
100
AcDbLine
 10
479.5689781716502
 20
665.0774248360451
 30
0.0
 11
1180.0
 21
875.2067313845492
 31
0.0
  0
LINE
  5
42D5
330
1F
100
AcDbEntity
  8
BOUSUI
100
AcDbLine
 10
1180.0
 20
873.6406854082128
 30
0.0
 11
1180.0
 21
875.2067313845492
 31
0.0
  0
LINE
  5
42DA
330
1F
100
AcDbEntity
  8
BOUSUI
100
AcDbLine
 10
1034.889317788995
 20
836.8936799757033
 30
0.0
 11
1036.326057216827
 21
832.1045485495977
 31
0.0
  0
LINE
  5
42DD
330
1F
100
AcDbEntity
  8
BOUSUI
100
AcDbLine
 10
1574.56897817165
 20
998.7975780905001
 30
0.0
 11
1575.0
 21
997.3608386626683
 31
0.0
  0
TEXT
  5
436B
330
1F
100
AcDbEntity
  8
MOJI
  6
Continuous
100
AcDbText
 10
1078.320056308163
 20
338.6907285290358
 30
0.0
 40
20.0
  1
又は各種防水材
  7
MSゴシック
 72
     2
 11
1260.248990318315
 21
348.6907285290358
 31
0.0
100
AcDbText
 73
     2
  0
TEXT
  5
436C
330
1F
100
AcDbEntity
  8
MOJI
  6
Continuous
100
AcDbText
 10
974.3606654452184
 20
363.6907285290358
 30
0.0
 40
20.0
  1
内樋防水仕様ＧＶ－２０
  7
MSゴシック
 72
     2
 11
1260.248990318315
 21
373.6907285290358
 31
0.0
100
AcDbText
 73
     2
  0
LINE
  5
45B1
330
1F
100
AcDbEntity
  8
0
100
AcDbLine
 10
0.0
 20
1849.999999999998
 30
0.0
 11
2760.0
 21
1849.999999999995
 31
0.0
  0
TEXT
  5
45B2
330
1F
100
AcDbEntity
  8
WAKU
100
AcDbText
 10
2628.045685279188
 20
1860.0
 30
0.0
 40
30.0
  1
s-to-7
  7
MSゴシック
 72
     2
 11
2745.0
 21
1860.0
 31
0.0
100
AcDbText
  0
TEXT
  5
45B3
330
1F
100
AcDbEntity
  8
WAKU
100
AcDbText
 10
15.0
 20
1860.0
 30
0.0
 40
40.0
  1
勾配屋根／シングル
  7
MSゴシック
100
AcDbText
  0
TEXT
  5
45B4
330
1F
100
AcDbEntity
  8
WAKU
100
AcDbText
 10
15.0
 20
1800.000000000004
 30
0.0
 40
30.0
  1
特殊部位／内樋(金物無し)
  7
MSゴシック
100
AcDbText
  0
TEXT
  5
45B5
330
1F
100
AcDbEntity
  8
WAKU
100
AcDbText
 10
2589.060913705584
 20
1800.000000000005
 30
0.0
 40
30.0
  1
1/10(A4)
  7
MSゴシック
 72
     2
 11
2745.0
 21
1800.000000000005
 31
0.0
100
AcDbText
  0
LINE
  5
484F
330
1F
100
AcDbEntity
  8
WAKU
100
AcDbLine
 10
479.9999999999998
 20
295.0
 30
0.0
 11
2280.0
 21
295.0
 31
0.0
  0
LINE
  5
4850
330
1F
100
AcDbEntity
  8
WAKU
100
AcDbLine
 10
2280.0
 20
295.0
 30
0.0
 11
2280.0
 21
1495.0
 31
0.0
  0
LINE
  5
4851
330
1F
100
AcDbEntity
  8
WAKU
100
AcDbLine
 10
2280.0
 20
1495.0
 30
0.0
 11
479.9999999999998
 21
1495.0
 31
0.0
  0
LINE
  5
4852
330
1F
100
AcDbEntity
  8
WAKU
100
AcDbLine
 10
479.9999999999998
 20
1495.0
 30
0.0
 11
479.9999999999998
 21
295.0
 31
0.0
  0
LINE
  5
4853
330
1F
100
AcDbEntity
  8
HATCH
  6
Continuous
100
AcDbLine
 10
1189.602189092304
 20
623.3453426206235
 30
0.0
 11
1189.602189092304
 21
623.3453426206235
 31
0.0
  0
LINE
  5
4854
330
1F
100
AcDbEntity
  8
HATCH
  6
Continuous
100
AcDbLine
 10
1207.530703357184
 20
612.0178400064547
 30
0.0
 11
1207.530703357184
 21
612.0178400064547
 31
0.0
  0
LINE
  5
4855
330
1F
100
AcDbEntity
  8
HATCH
  6
Continuous
100
AcDbLine
 10
1223.903532917444
 20
624.5811539976222
 30
0.0
 11
1223.903532917444
 21
624.5811539976222
 31
0.0
  0
LINE
  5
4856
330
1F
100
AcDbEntity
  8
HATCH
  6
Continuous
100
AcDbLine
 10
1240.018441446418
 20
611.8620227567394
 30
0.0
 11
1240.018441446418
 21
611.8620227567394
 31
0.0
  0
LINE
  5
4857
330
1F
100
AcDbEntity
  8
HATCH
  6
Continuous
100
AcDbLine
 10
1257.146940063306
 20
625.0051820090376
 30
0.0
 11
1257.146940063306
 21
625.0051820090376
 31
0.0
  0
LINE
  5
4858
330
1F
100
AcDbEntity
  8
HATCH
  6
Continuous
100
AcDbLine
 10
1274.319785271558
 20
613.0978341337379
 30
0.0
 11
1274.319785271558
 21
613.0978341337379
 31
0.0
  0
LINE
  5
4859
330
1F
100
AcDbEntity
  8
HATCH
  6
Continuous
100
AcDbLine
 10
1289.63467815254
 20
624.8493647593222
 30
0.0
 11
1289.63467815254
 21
624.8493647593222
 31
0.0
  0
LINE
  5
485A
330
1F
100
AcDbEntity
  8
HATCH
  6
Continuous
100
AcDbLine
 10
1307.56319241742
 20
613.5218621451537
 30
0.0
 11
1307.56319241742
 21
613.5218621451537
 31
0.0
  0
LINE
  5
485B
330
1F
100
AcDbEntity
  8
HATCH
  6
Continuous
100
AcDbLine
 10
1323.936021977681
 20
626.0851761363211
 30
0.0
 11
1323.936021977681
 21
626.0851761363211
 31
0.0
  0
LINE
  5
485C
330
1F
100
AcDbEntity
  8
HATCH
  6
Continuous
100
AcDbLine
 10
1340.050930506655
 20
613.3660448954384
 30
0.0
 11
1340.050930506655
 21
613.3660448954384
 31
0.0
  0
LINE
  5
485D
330
1F
100
AcDbEntity
  8
HATCH
  6
Continuous
100
AcDbLine
 10
1357.179429123542
 20
626.5092041477366
 30
0.0
 11
1357.179429123542
 21
626.5092041477366
 31
0.0
  0
LINE
  5
485E
330
1F
100
AcDbEntity
  8
HATCH
  6
Continuous
100
AcDbLine
 10
1374.352274331795
 20
614.6018562724367
 30
0.0
 11
1374.352274331795
 21
614.6018562724367
 31
0.0
  0
LINE
  5
485F
330
1F
100
AcDbEntity
  8
HATCH
  6
Continuous
100
AcDbLine
 10
1389.667167212777
 20
626.3533868980211
 30
0.0
 11
1389.667167212777
 21
626.3533868980211
 31
0.0
  0
LINE
  5
4860
330
1F
100
AcDbEntity
  8
HATCH
  6
Continuous
100
AcDbLine
 10
1407.595681477657
 20
615.0258842838524
 30
0.0
 11
1407.595681477657
 21
615.0258842838524
 31
0.0
  0
LINE
  5
4861
330
1F
100
AcDbEntity
  8
HATCH
  6
Continuous
100
AcDbLine
 10
1423.968511037917
 20
627.5891982750198
 30
0.0
 11
1423.968511037917
 21
627.5891982750198
 31
0.0
  0
LINE
  5
4862
330
1F
100
AcDbEntity
  8
HATCH
  6
Continuous
100
AcDbLine
 10
1424.768526685909
 20
603.1185364085528
 30
0.0
 11
1424.768526685909
 21
603.1185364085528
 31
0.0
  0
LINE
  5
4863
330
1F
100
AcDbEntity
  8
HATCH
  6
Continuous
100
AcDbLine
 10
1440.083419566891
 20
614.8700670341371
 30
0.0
 11
1440.083419566891
 21
614.8700670341371
 31
0.0
  0
LINE
  5
4864
330
1F
100
AcDbEntity
  8
HATCH
  6
Continuous
100
AcDbLine
 10
1457.211918183778
 20
628.0132262864354
 30
0.0
 11
1457.211918183778
 21
628.0132262864354
 31
0.0
  0
LINE
  5
4865
330
1F
100
AcDbEntity
  8
HATCH
  6
Continuous
100
AcDbLine
 10
1458.011933831771
 20
603.5425644199683
 30
0.0
 11
1458.011933831771
 21
603.5425644199683
 31
0.0
  0
LINE
  5
4866
330
1F
100
AcDbEntity
  8
HATCH
  6
Continuous
100
AcDbLine
 10
1474.384763392031
 20
616.1058784111357
 30
0.0
 11
1474.384763392031
 21
616.1058784111357
 31
0.0
  0
LINE
  5
4867
330
1F
100
AcDbEntity
  8
HATCH
  6
Continuous
100
AcDbLine
 10
1489.699656273013
 20
627.8574090367201
 30
0.0
 11
1489.699656273013
 21
627.8574090367201
 31
0.0
  0
LINE
  5
4868
330
1F
100
AcDbEntity
  8
HATCH
  6
Continuous
100
AcDbLine
 10
1490.499671921005
 20
603.3867471702531
 30
0.0
 11
1490.499671921005
 21
603.3867471702531
 31
0.0
  0
LINE
  5
4869
330
1F
100
AcDbEntity
  8
HATCH
  6
Continuous
100
AcDbLine
 10
1507.628170537893
 20
616.5299064225513
 30
0.0
 11
1507.628170537893
 21
616.5299064225513
 31
0.0
  0
LINE
  5
486A
330
1F
100
AcDbEntity
  8
HATCH
  6
Continuous
100
AcDbLine
 10
1524.001000098153
 20
629.0932204137187
 30
0.0
 11
1524.001000098153
 21
629.0932204137187
 31
0.0
  0
LINE
  5
486B
330
1F
100
AcDbEntity
  8
HATCH
  6
Continuous
100
AcDbLine
 10
1524.801015746145
 20
604.6225585472513
 30
0.0
 11
1524.801015746145
 21
604.6225585472513
 31
0.0
  0
LINE
  5
486C
330
1F
100
AcDbEntity
  8
HATCH
  6
Continuous
100
AcDbLine
 10
1540.115908627127
 20
616.3740891728357
 30
0.0
 11
1540.115908627127
 21
616.3740891728357
 31
0.0
  0
LINE
  5
486D
330
1F
100
AcDbEntity
  8
HATCH
  6
Continuous
100
AcDbLine
 10
1557.244407244015
 20
629.5172484251339
 30
0.0
 11
1557.244407244015
 21
629.5172484251339
 31
0.0
  0
LINE
  5
486E
330
1F
100
AcDbEntity
  8
HATCH
  6
Continuous
100
AcDbLine
 10
1558.044422892007
 20
605.0465865586673
 30
0.0
 11
1558.044422892007
 21
605.0465865586673
 31
0.0
  0
LINE
  5
486F
330
1F
100
AcDbEntity
  8
HATCH
  6
Continuous
100
AcDbLine
 10
1574.417252452268
 20
617.6099005498347
 30
0.0
 11
1574.417252452268
 21
617.6099005498347
 31
0.0
  0
LINE
  5
4870
330
1F
100
AcDbEntity
  8
HATCH
  6
Continuous
100
AcDbLine
 10
1212.227453733765
 20
603.2114892299288
 30
0.0
 11
1212.227453733765
 21
603.2114892299288
 31
0.0
  0
LINE
  5
4871
330
1F
100
AcDbEntity
  8
HATCH
  6
Continuous
100
AcDbLine
 10
1229.477602876808
 20
605.4825144483654
 30
0.0
 11
1229.477602876808
 21
605.4825144483654
 31
0.0
  0
LINE
  5
4872
330
1F
100
AcDbEntity
  8
HATCH
  6
Continuous
100
AcDbLine
 10
1236.088061490018
 20
606.3527978349926
 30
0.0
 11
1236.088061490018
 21
606.3527978349926
 31
0.0
  0
LINE
  5
4873
330
1F
100
AcDbEntity
  8
HATCH
  6
Continuous
100
AcDbLine
 10
1246.412968276365
 20
607.7120976007722
 30
0.0
 11
1246.412968276365
 21
607.7120976007722
 31
0.0
  0
LINE
  5
4874
330
1F
100
AcDbEntity
  8
HATCH
  6
Continuous
100
AcDbLine
 10
1263.663117419408
 20
609.9831228192089
 30
0.0
 11
1263.663117419408
 21
609.9831228192089
 31
0.0
  0
LINE
  5
4875
330
1F
100
AcDbEntity
  8
HATCH
  6
Continuous
100
AcDbLine
 10
1270.273576032618
 20
610.853406205836
 30
0.0
 11
1270.273576032618
 21
610.853406205836
 31
0.0
  0
LINE
  5
4876
330
1F
100
AcDbEntity
  8
HATCH
  6
Continuous
100
AcDbLine
 10
1280.598482818964
 20
612.2127059716157
 30
0.0
 11
1280.598482818964
 21
612.2127059716157
 31
0.0
  0
LINE
  5
4877
330
1F
100
AcDbEntity
  8
HATCH
  6
Continuous
100
AcDbLine
 10
1297.848631962007
 20
614.4837311900523
 30
0.0
 11
1297.848631962007
 21
614.4837311900523
 31
0.0
  0
LINE
  5
4878
330
1F
100
AcDbEntity
  8
HATCH
  6
Continuous
100
AcDbLine
 10
1304.459090575217
 20
615.3540145766795
 30
0.0
 11
1304.459090575217
 21
615.3540145766795
 31
0.0
  0
LINE
  5
4879
330
1F
100
AcDbEntity
  8
HATCH
  6
Continuous
100
AcDbLine
 10
1314.783997361564
 20
616.7133143424591
 30
0.0
 11
1314.783997361564
 21
616.7133143424591
 31
0.0
  0
LINE
  5
487A
330
1F
100
AcDbEntity
  8
HATCH
  6
Continuous
100
AcDbLine
 10
1332.034146504607
 20
618.9843395608958
 30
0.0
 11
1332.034146504607
 21
618.9843395608958
 31
0.0
  0
LINE
  5
487B
330
1F
100
AcDbEntity
  8
HATCH
  6
Continuous
100
AcDbLine
 10
1338.644605117817
 20
619.854622947523
 30
0.0
 11
1338.644605117817
 21
619.854622947523
 31
0.0
  0
LINE
  5
487C
330
1F
100
AcDbEntity
  8
HATCH
  6
Continuous
100
AcDbLine
 10
1348.969511904164
 20
621.2139227133026
 30
0.0
 11
1348.969511904164
 21
621.2139227133026
 31
0.0
  0
LINE
  5
487D
330
1F
100
AcDbEntity
  8
HATCH
  6
Continuous
100
AcDbLine
 10
1366.219661047207
 20
623.4849479317392
 30
0.0
 11
1366.219661047207
 21
623.4849479317392
 31
0.0
  0
LINE
  5
487E
330
1F
100
AcDbEntity
  8
HATCH
  6
Continuous
100
AcDbLine
 10
1372.830119660417
 20
624.3552313183664
 30
0.0
 11
1372.830119660417
 21
624.3552313183664
 31
0.0
  0
LINE
  5
487F
330
1F
100
AcDbEntity
  8
HATCH
  6
Continuous
100
AcDbLine
 10
1383.155026446764
 20
625.714531084146
 30
0.0
 11
1383.155026446764
 21
625.714531084146
 31
0.0
  0
LINE
  5
4880
330
1F
100
AcDbEntity
  8
HATCH
  6
Continuous
100
AcDbLine
 10
1400.405175589807
 20
627.9855563025827
 30
0.0
 11
1400.405175589807
 21
627.9855563025827
 31
0.0
  0
LINE
  5
4881
330
1F
100
AcDbEntity
  8
HATCH
  6
Continuous
100
AcDbLine
 10
1407.015634203017
 20
628.8558396892099
 30
0.0
 11
1407.015634203017
 21
628.8558396892099
 31
0.0
  0
LINE
  5
4882
330
1F
100
AcDbEntity
  8
HATCH
  6
Continuous
100
AcDbLine
 10
1417.340540989363
 20
630.2151394549895
 30
0.0
 11
1417.340540989363
 21
630.2151394549895
 31
0.0
  0
LINE
  5
4883
330
1F
100
AcDbEntity
  8
HATCH
  6
Continuous
100
AcDbLine
 10
1463.235405917662
 20
603.3751011682588
 30
0.0
 11
1463.235405917662
 21
603.3751011682588
 31
0.0
  0
LINE
  5
4884
330
1F
100
AcDbEntity
  8
HATCH
  6
Continuous
100
AcDbLine
 10
1480.485555060705
 20
605.6461263866955
 30
0.0
 11
1480.485555060705
 21
605.6461263866955
 31
0.0
  0
LINE
  5
4885
330
1F
100
AcDbEntity
  8
HATCH
  6
Continuous
100
AcDbLine
 10
1487.096013673915
 20
606.5164097733227
 30
0.0
 11
1487.096013673915
 21
606.5164097733227
 31
0.0
  0
LINE
  5
4886
330
1F
100
AcDbEntity
  8
HATCH
  6
Continuous
100
AcDbLine
 10
1497.420920460262
 20
607.8757095391023
 30
0.0
 11
1497.420920460262
 21
607.8757095391023
 31
0.0
  0
LINE
  5
4887
330
1F
100
AcDbEntity
  8
HATCH
  6
Continuous
100
AcDbLine
 10
1514.671069603305
 20
610.146734757539
 30
0.0
 11
1514.671069603305
 21
610.146734757539
 31
0.0
  0
LINE
  5
4888
330
1F
100
AcDbEntity
  8
HATCH
  6
Continuous
100
AcDbLine
 10
1521.281528216515
 20
611.0170181441661
 30
0.0
 11
1521.281528216515
 21
611.0170181441661
 31
0.0
  0
LINE
  5
4889
330
1F
100
AcDbEntity
  8
HATCH
  6
Continuous
100
AcDbLine
 10
1531.606435002862
 20
612.3763179099458
 30
0.0
 11
1531.606435002862
 21
612.3763179099458
 31
0.0
  0
LINE
  5
488A
330
1F
100
AcDbEntity
  8
HATCH
  6
Continuous
100
AcDbLine
 10
1548.856584145905
 20
614.6473431283824
 30
0.0
 11
1548.856584145905
 21
614.6473431283824
 31
0.0
  0
LINE
  5
488B
330
1F
100
AcDbEntity
  8
HATCH
  6
Continuous
100
AcDbLine
 10
1555.467042759115
 20
615.5176265150096
 30
0.0
 11
1555.467042759115
 21
615.5176265150096
 31
0.0
  0
LINE
  5
488C
330
1F
100
AcDbEntity
  8
HATCH
  6
Continuous
100
AcDbLine
 10
1565.791949545461
 20
616.8769262807892
 30
0.0
 11
1565.791949545461
 21
616.8769262807892
 31
0.0
  0
LINE
  5
488D
330
1F
100
AcDbEntity
  8
HATCH
  6
Continuous
100
AcDbLine
 10
1551.65954990878
 20
632.2810732690054
 30
0.0
 11
1551.65954990878
 21
632.2810732690054
 31
0.0
  0
LINE
  5
488E
330
1F
100
AcDbEntity
  8
HATCH
  6
Continuous
100
AcDbLine
 10
1576.830567609065
 20
616.2453664578945
 30
0.0
 11
1576.830567609065
 21
616.2453664578945
 31
0.0
  0
LINE
  5
488F
330
1F
100
AcDbEntity
  8
HATCH
  6
Continuous
100
AcDbLine
 10
1512.109931396707
 20
632.2092140350779
 30
0.0
 11
1512.109931396707
 21
632.2092140350779
 31
0.0
  0
LINE
  5
4890
330
1F
100
AcDbEntity
  8
HATCH
  6
Continuous
100
AcDbLine
 10
1537.280949096993
 20
616.1735072239669
 30
0.0
 11
1537.280949096993
 21
616.1735072239669
 31
0.0
  0
LINE
  5
4891
330
1F
100
AcDbEntity
  8
HATCH
  6
Continuous
100
AcDbLine
 10
1542.636484777905
 20
612.7616547109645
 30
0.0
 11
1542.636484777905
 21
612.7616547109645
 31
0.0
  0
LINE
  5
4892
330
1F
100
AcDbEntity
  8
HATCH
  6
Continuous
100
AcDbLine
 10
1472.560312884634
 20
632.1373548011508
 30
0.0
 11
1472.560312884634
 21
632.1373548011508
 31
0.0
  0
LINE
  5
4893
330
1F
100
AcDbEntity
  8
HATCH
  6
Continuous
100
AcDbLine
 10
1497.73133058492
 20
616.1016479900399
 30
0.0
 11
1497.73133058492
 21
616.1016479900399
 31
0.0
  0
LINE
  5
4894
330
1F
100
AcDbEntity
  8
HATCH
  6
Continuous
100
AcDbLine
 10
1503.086866265831
 20
612.6897954770376
 30
0.0
 11
1503.086866265831
 21
612.6897954770376
 31
0.0
  0
LINE
  5
4895
330
1F
100
AcDbEntity
  8
HATCH
  6
Continuous
100
AcDbLine
 10
1433.010694372561
 20
632.0654955672235
 30
0.0
 11
1433.010694372561
 21
632.0654955672235
 31
0.0
  0
LINE
  5
4896
330
1F
100
AcDbEntity
  8
HATCH
  6
Continuous
100
AcDbLine
 10
1458.181712072847
 20
616.0297887561125
 30
0.0
 11
1458.181712072847
 21
616.0297887561125
 31
0.0
  0
LINE
  5
4897
330
1F
100
AcDbEntity
  8
HATCH
  6
Continuous
100
AcDbLine
 10
1463.537247753758
 20
612.6179362431102
 30
0.0
 11
1463.537247753758
 21
612.6179362431102
 31
0.0
  0
LINE
  5
4898
330
1F
100
AcDbEntity
  8
HATCH
  6
Continuous
100
AcDbLine
 10
1393.461075860488
 20
631.9936363332963
 30
0.0
 11
1393.461075860488
 21
631.9936363332963
 31
0.0
  0
LINE
  5
4899
330
1F
100
AcDbEntity
  8
HATCH
  6
Continuous
100
AcDbLine
 10
1418.632093560774
 20
615.9579295221853
 30
0.0
 11
1418.632093560774
 21
615.9579295221853
 31
0.0
  0
LINE
  5
489A
330
1F
100
AcDbEntity
  8
HATCH
  6
Continuous
100
AcDbLine
 10
1423.987629241685
 20
612.546077009183
 30
0.0
 11
1423.987629241685
 21
612.546077009183
 31
0.0
  0
LINE
  5
489B
330
1F
100
AcDbEntity
  8
HATCH
  6
Continuous
100
AcDbLine
 10
1353.911457348415
 20
631.9217770993688
 30
0.0
 11
1353.911457348415
 21
631.9217770993688
 31
0.0
  0
LINE
  5
489C
330
1F
100
AcDbEntity
  8
HATCH
  6
Continuous
100
AcDbLine
 10
1379.082475048701
 20
615.8860702882577
 30
0.0
 11
1379.082475048701
 21
615.8860702882577
 31
0.0
  0
LINE
  5
489D
330
1F
100
AcDbEntity
  8
HATCH
  6
Continuous
100
AcDbLine
 10
1384.438010729613
 20
612.4742177752554
 30
0.0
 11
1384.438010729613
 21
612.4742177752554
 31
0.0
  0
LINE
  5
489E
330
1F
100
AcDbEntity
  8
HATCH
  6
Continuous
100
AcDbLine
 10
1314.361838836342
 20
631.8499178654417
 30
0.0
 11
1314.361838836342
 21
631.8499178654417
 31
0.0
  0
LINE
  5
489F
330
1F
100
AcDbEntity
  8
HATCH
  6
Continuous
100
AcDbLine
 10
1339.532856536628
 20
615.8142110543308
 30
0.0
 11
1339.532856536628
 21
615.8142110543308
 31
0.0
  0
LINE
  5
48A0
330
1F
100
AcDbEntity
  8
HATCH
  6
Continuous
100
AcDbLine
 10
1344.88839221754
 20
612.4023585413284
 30
0.0
 11
1344.88839221754
 21
612.4023585413284
 31
0.0
  0
LINE
  5
48A1
330
1F
100
AcDbEntity
  8
HATCH
  6
Continuous
100
AcDbLine
 10
1274.812220324269
 20
631.7780586315145
 30
0.0
 11
1274.812220324269
 21
631.7780586315145
 31
0.0
  0
LINE
  5
48A2
330
1F
100
AcDbEntity
  8
HATCH
  6
Continuous
100
AcDbLine
 10
1299.983238024555
 20
615.7423518204036
 30
0.0
 11
1299.983238024555
 21
615.7423518204036
 31
0.0
  0
LINE
  5
48A3
330
1F
100
AcDbEntity
  8
HATCH
  6
Continuous
100
AcDbLine
 10
1305.338773705467
 20
612.3304993074013
 30
0.0
 11
1305.338773705467
 21
612.3304993074013
 31
0.0
  0
LINE
  5
48A4
330
1F
100
AcDbEntity
  8
HATCH
  6
Continuous
100
AcDbLine
 10
1235.262601812197
 20
631.706199397587
 30
0.0
 11
1235.262601812197
 21
631.706199397587
 31
0.0
  0
LINE
  5
48A5
330
1F
100
AcDbEntity
  8
HATCH
  6
Continuous
100
AcDbLine
 10
1260.433619512482
 20
615.670492586476
 30
0.0
 11
1260.433619512482
 21
615.670492586476
 31
0.0
  0
LINE
  5
48A6
330
1F
100
AcDbEntity
  8
HATCH
  6
Continuous
100
AcDbLine
 10
1265.789155193394
 20
612.2586400734737
 30
0.0
 11
1265.789155193394
 21
612.2586400734737
 31
0.0
  0
LINE
  5
48A7
330
1F
100
AcDbEntity
  8
HATCH
  6
Continuous
100
AcDbLine
 10
1195.712983300124
 20
631.6343401636596
 30
0.0
 11
1195.712983300124
 21
631.6343401636596
 31
0.0
  0
LINE
  5
48A8
330
1F
100
AcDbEntity
  8
HATCH
  6
Continuous
100
AcDbLine
 10
1220.884001000409
 20
615.5986333525486
 30
0.0
 11
1220.884001000409
 21
615.5986333525486
 31
0.0
  0
LINE
  5
48A9
330
1F
100
AcDbEntity
  8
HATCH
  6
Continuous
100
AcDbLine
 10
1226.239536681321
 20
612.1867808395462
 30
0.0
 11
1226.239536681321
 21
612.1867808395462
 31
0.0
  0
LINE
  5
48AA
330
1F
100
AcDbEntity
  8
HATCH
  6
Continuous
100
AcDbLine
 10
1181.334382488337
 20
615.5267741186214
 30
0.0
 11
1181.334382488337
 21
615.5267741186214
 31
0.0
  0
LINE
  5
48AB
330
1F
100
AcDbEntity
  8
HATCH
  6
Continuous
100
AcDbLine
 10
1186.689918169249
 20
612.114921605619
 30
0.0
 11
1186.689918169249
 21
612.114921605619
 31
0.0
  0
LINE
  5
48AC
330
1F
100
AcDbEntity
  8
HATCH
  6
Continuous
100
AcDbLine
 10
1530.385868648722
 20
630.0021952679307
 30
0.0
 11
1530.385868648722
 21
630.0021952679307
 31
0.0
  0
LINE
  5
48AD
330
1F
100
AcDbEntity
  8
HATCH
  6
Continuous
100
AcDbLine
 10
1543.026488588332
 20
618.4192011583602
 30
0.0
 11
1543.026488588332
 21
618.4192011583602
 31
0.0
  0
LINE
  5
48AE
330
1F
100
AcDbEntity
  8
HATCH
  6
Continuous
100
AcDbLine
 10
1545.367344132704
 20
616.2742022491804
 30
0.0
 11
1545.367344132704
 21
616.2742022491804
 31
0.0
  0
LINE
  5
48AF
330
1F
100
AcDbEntity
  8
HATCH
  6
Continuous
100
AcDbLine
 10
1556.416182302141
 20
606.1498073978522
 30
0.0
 11
1556.416182302141
 21
606.1498073978522
 31
0.0
  0
LINE
  5
48B0
330
1F
100
AcDbEntity
  8
HATCH
  6
Continuous
100
AcDbLine
 10
1478.818352311299
 20
631.1251228655778
 30
0.0
 11
1478.818352311299
 21
631.1251228655778
 31
0.0
  0
LINE
  5
48B1
330
1F
100
AcDbEntity
  8
HATCH
  6
Continuous
100
AcDbLine
 10
1481.159207855671
 20
628.980123956398
 30
0.0
 11
1481.159207855671
 21
628.980123956398
 31
0.0
  0
LINE
  5
48B2
330
1F
100
AcDbEntity
  8
HATCH
  6
Continuous
100
AcDbLine
 10
1492.208046025107
 20
618.8557291050698
 30
0.0
 11
1492.208046025107
 21
618.8557291050698
 31
0.0
  0
LINE
  5
48B3
330
1F
100
AcDbEntity
  8
HATCH
  6
Continuous
100
AcDbLine
 10
1504.848665964717
 20
607.2727349954994
 30
0.0
 11
1504.848665964717
 21
607.2727349954994
 31
0.0
  0
LINE
  5
48B4
330
1F
100
AcDbEntity
  8
HATCH
  6
Continuous
100
AcDbLine
 10
1507.189521509089
 20
605.1277360863196
 30
0.0
 11
1507.189521509089
 21
605.1277360863196
 31
0.0
  0
LINE
  5
48B5
330
1F
100
AcDbEntity
  8
HATCH
  6
Continuous
100
AcDbLine
 10
1427.999909748075
 20
631.5616508122878
 30
0.0
 11
1427.999909748075
 21
631.5616508122878
 31
0.0
  0
LINE
  5
48B6
330
1F
100
AcDbEntity
  8
HATCH
  6
Continuous
100
AcDbLine
 10
1440.640529687684
 20
619.9786567027173
 30
0.0
 11
1440.640529687684
 21
619.9786567027173
 31
0.0
  0
LINE
  5
48B7
330
1F
100
AcDbEntity
  8
HATCH
  6
Continuous
100
AcDbLine
 10
1442.981385232056
 20
617.8336577935375
 30
0.0
 11
1442.981385232056
 21
617.8336577935375
 31
0.0
  0
LINE
  5
48B8
330
1F
100
AcDbEntity
  8
HATCH
  6
Continuous
100
AcDbLine
 10
1454.030223401493
 20
607.7092629422093
 30
0.0
 11
1454.030223401493
 21
607.7092629422093
 31
0.0
  0
LINE
  5
48B9
330
1F
100
AcDbEntity
  8
HATCH
  6
Continuous
100
AcDbLine
 10
1378.773248955023
 20
630.5395795007552
 30
0.0
 11
1378.773248955023
 21
630.5395795007552
 31
0.0
  0
LINE
  5
48BA
330
1F
100
AcDbEntity
  8
HATCH
  6
Continuous
100
AcDbLine
 10
1389.82208712446
 20
620.4151846494269
 30
0.0
 11
1389.82208712446
 21
620.4151846494269
 31
0.0
  0
LINE
  5
48BB
330
1F
100
AcDbEntity
  8
HATCH
  6
Continuous
100
AcDbLine
 10
1402.462707064069
 20
608.8321905398564
 30
0.0
 11
1402.462707064069
 21
608.8321905398564
 31
0.0
  0
LINE
  5
48BC
330
1F
100
AcDbEntity
  8
HATCH
  6
Continuous
100
AcDbLine
 10
1404.803562608441
 20
606.6871916306767
 30
0.0
 11
1404.803562608441
 21
606.6871916306767
 31
0.0
  0
LINE
  5
48BD
330
1F
100
AcDbEntity
  8
HATCH
  6
Continuous
100
AcDbLine
 10
1338.254570787036
 20
621.538112247074
 30
0.0
 11
1338.254570787036
 21
621.538112247074
 31
0.0
  0
LINE
  5
48BE
330
1F
100
AcDbEntity
  8
HATCH
  6
Continuous
100
AcDbLine
 10
1340.595426331408
 20
619.3931133378941
 30
0.0
 11
1340.595426331408
 21
619.3931133378941
 31
0.0
  0
LINE
  5
48BF
330
1F
100
AcDbEntity
  8
HATCH
  6
Continuous
100
AcDbLine
 10
1351.644264500845
 20
609.2687184865659
 30
0.0
 11
1351.644264500845
 21
609.2687184865659
 31
0.0
  0
LINE
  5
48C0
330
1F
100
AcDbEntity
  8
HATCH
  6
Continuous
100
AcDbLine
 10
1276.387290054375
 20
632.099035045112
 30
0.0
 11
1276.387290054375
 21
632.099035045112
 31
0.0
  0
LINE
  5
48C1
330
1F
100
AcDbEntity
  8
HATCH
  6
Continuous
100
AcDbLine
 10
1287.436128223812
 20
621.9746401937838
 30
0.0
 11
1287.436128223812
 21
621.9746401937838
 31
0.0
  0
LINE
  5
48C2
330
1F
100
AcDbEntity
  8
HATCH
  6
Continuous
100
AcDbLine
 10
1300.076748163421
 20
610.3916460842133
 30
0.0
 11
1300.076748163421
 21
610.3916460842133
 31
0.0
  0
LINE
  5
48C3
330
1F
100
AcDbEntity
  8
HATCH
  6
Continuous
100
AcDbLine
 10
1302.417603707793
 20
608.2466471750335
 30
0.0
 11
1302.417603707793
 21
608.2466471750335
 31
0.0
  0
LINE
  5
48C4
330
1F
100
AcDbEntity
  8
HATCH
  6
Continuous
100
AcDbLine
 10
1235.868611886388
 20
623.0975677914307
 30
0.0
 11
1235.868611886388
 21
623.0975677914307
 31
0.0
  0
LINE
  5
48C5
330
1F
100
AcDbEntity
  8
HATCH
  6
Continuous
100
AcDbLine
 10
1238.20946743076
 20
620.9525688822509
 30
0.0
 11
1238.20946743076
 21
620.9525688822509
 31
0.0
  0
LINE
  5
48C6
330
1F
100
AcDbEntity
  8
HATCH
  6
Continuous
100
AcDbLine
 10
1249.258305600197
 20
610.8281740309227
 30
0.0
 11
1249.258305600197
 21
610.8281740309227
 31
0.0
  0
LINE
  5
48C7
330
1F
100
AcDbEntity
  8
HATCH
  6
Continuous
100
AcDbLine
 10
1185.050169323164
 20
623.5340957381404
 30
0.0
 11
1185.050169323164
 21
623.5340957381404
 31
0.0
  0
LINE
  5
48C8
330
1F
100
AcDbEntity
  8
HATCH
  6
Continuous
100
AcDbLine
 10
1197.690789262773
 20
611.95110162857
 30
0.0
 11
1197.690789262773
 21
611.95110162857
 31
0.0
  0
LINE
  5
48C9
330
1F
100
AcDbEntity
  8
HATCH
  6
Continuous
100
AcDbLine
 10
1200.031644807146
 20
609.8061027193901
 30
0.0
 11
1200.031644807146
 21
609.8061027193901
 31
0.0
  0
LINE
  5
48CA
330
1F
100
AcDbEntity
  8
BOUSUI
100
AcDbLine
 10
1034.889317788995
 20
836.8936799757033
 30
0.0
 11
1185.0
 21
881.9268846390045
 31
0.0
  0
LINE
  5
48CB
330
1F
100
AcDbEntity
  8
BOUSUI
100
AcDbLine
 10
1185.0
 20
881.9268846390045
 30
0.0
 11
1185.0
 21
637.3197658814815
 31
0.0
  0
LINE
  5
48CC
330
1F
100
AcDbEntity
  8
BOUSUI
100
AcDbLine
 10
1185.0
 20
637.3197658814815
 30
0.0
 11
1575.0
 21
637.3197658814819
 31
0.0
  0
LINE
  5
48CD
330
1F
100
AcDbEntity
  8
BOUSUI
100
AcDbLine
 10
1575.0
 20
637.3197658814819
 30
0.0
 11
1575.0
 21
997.3608386626683
 31
0.0
  0
LINE
  5
48CE
330
1F
100
AcDbEntity
  8
BOUSUI
100
AcDbLine
 10
1575.0
 20
997.3608386626683
 30
0.0
 11
1722.23720335534
 21
1041.531999669269
 31
0.0
  0
LINE
  5
48CF
330
1F
100
AcDbEntity
  8
BOUSUI
100
AcDbLine
 10
1574.56897817165
 20
998.7975780905001
 30
0.0
 11
1722.017050100881
 21
1043.031999669269
 31
0.0
  0
LINE
  5
48D0
330
1F
100
AcDbEntity
  8
BOUSUI
100
AcDbLine
 10
1722.017050100881
 20
1043.031999669269
 30
0.0
 11
1739.417560949065
 21
1043.031999669269
 31
0.0
  0
LINE
  5
48D1
330
1F
100
AcDbEntity
  8
BOUSUI
100
AcDbLine
 10
1739.417560949065
 20
1043.031999669269
 30
0.0
 11
2279.568978171651
 21
1205.077424836045
 31
0.0
  0
LINE
  5
48D2
330
1F
100
AcDbEntity
  8
HATCH
  6
Continuous
100
AcDbLine
 10
485.7782125675432
 20
664.6273086900907
 30
0.0
 11
485.7782125675432
 21
664.6273086900907
 31
0.0
  0
LINE
  5
48D3
330
1F
100
AcDbEntity
  8
HATCH
  6
Continuous
100
AcDbLine
 10
486.5782282155352
 20
640.1566468236236
 30
0.0
 11
486.5782282155352
 21
640.1566468236236
 31
0.0
  0
LINE
  5
48D4
330
1F
100
AcDbEntity
  8
HATCH
  6
Continuous
100
AcDbLine
 10
501.8931210965172
 20
651.908177449208
 30
0.0
 11
501.8931210965172
 21
651.908177449208
 31
0.0
  0
LINE
  5
48D5
330
1F
100
AcDbEntity
  8
HATCH
  6
Continuous
100
AcDbLine
 10
519.0216197134049
 20
665.0513367015062
 30
0.0
 11
519.0216197134049
 21
665.0513367015062
 31
0.0
  0
LINE
  5
48D6
330
1F
100
AcDbEntity
  8
HATCH
  6
Continuous
100
AcDbLine
 10
535.3944492736653
 20
677.6146506926736
 30
0.0
 11
535.3944492736653
 21
677.6146506926736
 31
0.0
  0
LINE
  5
48D7
330
1F
100
AcDbEntity
  8
HATCH
  6
Continuous
100
AcDbLine
 10
536.1944649216574
 20
653.1439888262066
 30
0.0
 11
536.1944649216574
 21
653.1439888262066
 31
0.0
  0
LINE
  5
48D8
330
1F
100
AcDbEntity
  8
HATCH
  6
Continuous
100
AcDbLine
 10
551.5093578026394
 20
664.895519451791
 30
0.0
 11
551.5093578026394
 21
664.895519451791
 31
0.0
  0
LINE
  5
48D9
330
1F
100
AcDbEntity
  8
HATCH
  6
Continuous
100
AcDbLine
 10
568.6378564195272
 20
678.0386787040892
 30
0.0
 11
568.6378564195272
 21
678.0386787040892
 31
0.0
  0
LINE
  5
48DA
330
1F
100
AcDbEntity
  8
HATCH
  6
Continuous
100
AcDbLine
 10
585.0106859797875
 20
690.6019926952566
 30
0.0
 11
585.0106859797875
 21
690.6019926952566
 31
0.0
  0
LINE
  5
48DB
330
1F
100
AcDbEntity
  8
HATCH
  6
Continuous
100
AcDbLine
 10
585.8107016277796
 20
666.1313308287897
 30
0.0
 11
585.8107016277796
 21
666.1313308287897
 31
0.0
  0
LINE
  5
48DC
330
1F
100
AcDbEntity
  8
HATCH
  6
Continuous
100
AcDbLine
 10
601.1255945087616
 20
677.8828614543741
 30
0.0
 11
601.1255945087616
 21
677.8828614543741
 31
0.0
  0
LINE
  5
48DD
330
1F
100
AcDbEntity
  8
HATCH
  6
Continuous
100
AcDbLine
 10
618.2540931256494
 20
691.0260207066722
 30
0.0
 11
618.2540931256494
 21
691.0260207066722
 31
0.0
  0
LINE
  5
48DE
330
1F
100
AcDbEntity
  8
HATCH
  6
Continuous
100
AcDbLine
 10
634.6269226859098
 20
703.5893346978397
 30
0.0
 11
634.6269226859098
 21
703.5893346978397
 31
0.0
  0
LINE
  5
48DF
330
1F
100
AcDbEntity
  8
HATCH
  6
Continuous
100
AcDbLine
 10
635.4269383339016
 20
679.1186728313727
 30
0.0
 11
635.4269383339016
 21
679.1186728313727
 31
0.0
  0
LINE
  5
48E0
330
1F
100
AcDbEntity
  8
HATCH
  6
Continuous
100
AcDbLine
 10
650.7418312148837
 20
690.870203456957
 30
0.0
 11
650.7418312148837
 21
690.870203456957
 31
0.0
  0
LINE
  5
48E1
330
1F
100
AcDbEntity
  8
HATCH
  6
Continuous
100
AcDbLine
 10
667.8703298317715
 20
704.0133627092552
 30
0.0
 11
667.8703298317715
 21
704.0133627092552
 31
0.0
  0
LINE
  5
48E2
330
1F
100
AcDbEntity
  8
HATCH
  6
Continuous
100
AcDbLine
 10
684.2431593920318
 20
716.5766767004226
 30
0.0
 11
684.2431593920318
 21
716.5766767004226
 31
0.0
  0
LINE
  5
48E3
330
1F
100
AcDbEntity
  8
HATCH
  6
Continuous
100
AcDbLine
 10
699.5580522730139
 20
728.328207326007
 30
0.0
 11
699.5580522730139
 21
728.328207326007
 31
0.0
  0
LINE
  5
48E4
330
1F
100
AcDbEntity
  8
HATCH
  6
Continuous
100
AcDbLine
 10
700.358067921006
 20
703.8575454595399
 30
0.0
 11
700.358067921006
 21
703.8575454595399
 31
0.0
  0
LINE
  5
48E5
330
1F
100
AcDbEntity
  8
HATCH
  6
Continuous
100
AcDbLine
 10
717.4865665378937
 20
717.0007047118381
 30
0.0
 11
717.4865665378937
 21
717.0007047118381
 31
0.0
  0
LINE
  5
48E6
330
1F
100
AcDbEntity
  8
HATCH
  6
Continuous
100
AcDbLine
 10
733.859396098154
 20
729.5640187030056
 30
0.0
 11
733.859396098154
 21
729.5640187030056
 31
0.0
  0
LINE
  5
48E7
330
1F
100
AcDbEntity
  8
HATCH
  6
Continuous
100
AcDbLine
 10
749.174288979136
 20
741.3155493285898
 30
0.0
 11
749.174288979136
 21
741.3155493285898
 31
0.0
  0
LINE
  5
48E8
330
1F
100
AcDbEntity
  8
HATCH
  6
Continuous
100
AcDbLine
 10
749.9743046271281
 20
716.844887462123
 30
0.0
 11
749.9743046271281
 21
716.844887462123
 31
0.0
  0
LINE
  5
48E9
330
1F
100
AcDbEntity
  8
HATCH
  6
Continuous
100
AcDbLine
 10
767.1028032440159
 20
729.9880467144212
 30
0.0
 11
767.1028032440159
 21
729.9880467144212
 31
0.0
  0
LINE
  5
48EA
330
1F
100
AcDbEntity
  8
HATCH
  6
Continuous
100
AcDbLine
 10
783.4756328042763
 20
742.5513607055886
 30
0.0
 11
783.4756328042763
 21
742.5513607055886
 31
0.0
  0
LINE
  5
48EB
330
1F
100
AcDbEntity
  8
HATCH
  6
Continuous
100
AcDbLine
 10
798.7905256852583
 20
754.3028913311729
 30
0.0
 11
798.7905256852583
 21
754.3028913311729
 31
0.0
  0
LINE
  5
48EC
330
1F
100
AcDbEntity
  8
HATCH
  6
Continuous
100
AcDbLine
 10
799.5905413332502
 20
729.8322294647059
 30
0.0
 11
799.5905413332502
 21
729.8322294647059
 31
0.0
  0
LINE
  5
48ED
330
1F
100
AcDbEntity
  8
HATCH
  6
Continuous
100
AcDbLine
 10
816.7190399501381
 20
742.9753887170042
 30
0.0
 11
816.7190399501381
 21
742.9753887170042
 31
0.0
  0
LINE
  5
48EE
330
1F
100
AcDbEntity
  8
HATCH
  6
Continuous
100
AcDbLine
 10
833.0918695103983
 20
755.5387027081716
 30
0.0
 11
833.0918695103983
 21
755.5387027081716
 31
0.0
  0
LINE
  5
48EF
330
1F
100
AcDbEntity
  8
HATCH
  6
Continuous
100
AcDbLine
 10
848.4067623913803
 20
767.2902333337559
 30
0.0
 11
848.4067623913803
 21
767.2902333337559
 31
0.0
  0
LINE
  5
48F0
330
1F
100
AcDbEntity
  8
HATCH
  6
Continuous
100
AcDbLine
 10
866.3352766562603
 20
755.9627307195872
 30
0.0
 11
866.3352766562603
 21
755.9627307195872
 31
0.0
  0
LINE
  5
48F1
330
1F
100
AcDbEntity
  8
HATCH
  6
Continuous
100
AcDbLine
 10
882.7081062165206
 20
768.5260447107546
 30
0.0
 11
882.7081062165206
 21
768.5260447107546
 31
0.0
  0
LINE
  5
48F2
330
1F
100
AcDbEntity
  8
HATCH
  6
Continuous
100
AcDbLine
 10
898.0229990975026
 20
780.2775753363389
 30
0.0
 11
898.0229990975026
 21
780.2775753363389
 31
0.0
  0
LINE
  5
48F3
330
1F
100
AcDbEntity
  8
HATCH
  6
Continuous
100
AcDbLine
 10
915.1514977143904
 20
793.4207345886371
 30
0.0
 11
915.1514977143904
 21
793.4207345886371
 31
0.0
  0
LINE
  5
48F4
330
1F
100
AcDbEntity
  8
HATCH
  6
Continuous
100
AcDbLine
 10
915.9515133623823
 20
768.9500727221701
 30
0.0
 11
915.9515133623823
 21
768.9500727221701
 31
0.0
  0
LINE
  5
48F5
330
1F
100
AcDbEntity
  8
HATCH
  6
Continuous
100
AcDbLine
 10
932.3243429226426
 20
781.5133867133376
 30
0.0
 11
932.3243429226426
 21
781.5133867133376
 31
0.0
  0
LINE
  5
48F6
330
1F
100
AcDbEntity
  8
HATCH
  6
Continuous
100
AcDbLine
 10
947.6392358036248
 20
793.2649173389219
 30
0.0
 11
947.6392358036248
 21
793.2649173389219
 31
0.0
  0
LINE
  5
48F7
330
1F
100
AcDbEntity
  8
HATCH
  6
Continuous
100
AcDbLine
 10
964.7677344205124
 20
806.4080765912201
 30
0.0
 11
964.7677344205124
 21
806.4080765912201
 31
0.0
  0
LINE
  5
48F8
330
1F
100
AcDbEntity
  8
HATCH
  6
Continuous
100
AcDbLine
 10
965.5677500685046
 20
781.9374147247531
 30
0.0
 11
965.5677500685046
 21
781.9374147247531
 31
0.0
  0
LINE
  5
48F9
330
1F
100
AcDbEntity
  8
HATCH
  6
Continuous
100
AcDbLine
 10
981.9405796287648
 20
794.5007287159206
 30
0.0
 11
981.9405796287648
 21
794.5007287159206
 31
0.0
  0
LINE
  5
48FA
330
1F
100
AcDbEntity
  8
HATCH
  6
Continuous
100
AcDbLine
 10
997.2554725097468
 20
806.2522593415049
 30
0.0
 11
997.2554725097468
 21
806.2522593415049
 31
0.0
  0
LINE
  5
48FB
330
1F
100
AcDbEntity
  8
HATCH
  6
Continuous
100
AcDbLine
 10
1014.383971126634
 20
819.395418593803
 30
0.0
 11
1014.383971126634
 21
819.395418593803
 31
0.0
  0
LINE
  5
48FC
330
1F
100
AcDbEntity
  8
HATCH
  6
Continuous
100
AcDbLine
 10
1015.183986774627
 20
794.924756727336
 30
0.0
 11
1015.183986774627
 21
794.924756727336
 31
0.0
  0
LINE
  5
48FD
330
1F
100
AcDbEntity
  8
HATCH
  6
Continuous
100
AcDbLine
 10
1031.556816334887
 20
807.4880707185034
 30
0.0
 11
1031.556816334887
 21
807.4880707185034
 31
0.0
  0
LINE
  5
48FE
330
1F
100
AcDbEntity
  8
HATCH
  6
Continuous
100
AcDbLine
 10
1046.871709215869
 20
819.2396013440877
 30
0.0
 11
1046.871709215869
 21
819.2396013440877
 31
0.0
  0
LINE
  5
48FF
330
1F
100
AcDbEntity
  8
HATCH
  6
Continuous
100
AcDbLine
 10
1064.000207832757
 20
832.382760596386
 30
0.0
 11
1064.000207832757
 21
832.382760596386
 31
0.0
  0
LINE
  5
4900
330
1F
100
AcDbEntity
  8
HATCH
  6
Continuous
100
AcDbLine
 10
1064.800223480749
 20
807.9120987299191
 30
0.0
 11
1064.800223480749
 21
807.9120987299191
 31
0.0
  0
LINE
  5
4901
330
1F
100
AcDbEntity
  8
HATCH
  6
Continuous
100
AcDbLine
 10
1081.173053041009
 20
820.4754127210865
 30
0.0
 11
1081.173053041009
 21
820.4754127210865
 31
0.0
  0
LINE
  5
4902
330
1F
100
AcDbEntity
  8
HATCH
  6
Continuous
100
AcDbLine
 10
1096.487945921991
 20
832.2269433466708
 30
0.0
 11
1096.487945921991
 21
832.2269433466708
 31
0.0
  0
LINE
  5
4903
330
1F
100
AcDbEntity
  8
HATCH
  6
Continuous
100
AcDbLine
 10
1113.616444538879
 20
845.370102598969
 30
0.0
 11
1113.616444538879
 21
845.370102598969
 31
0.0
  0
LINE
  5
4904
330
1F
100
AcDbEntity
  8
HATCH
  6
Continuous
100
AcDbLine
 10
1129.989274099139
 20
857.9334165901364
 30
0.0
 11
1129.989274099139
 21
857.9334165901364
 31
0.0
  0
LINE
  5
4905
330
1F
100
AcDbEntity
  8
HATCH
  6
Continuous
100
AcDbLine
 10
1130.789289747131
 20
833.4627547236694
 30
0.0
 11
1130.789289747131
 21
833.4627547236694
 31
0.0
  0
LINE
  5
4906
330
1F
100
AcDbEntity
  8
HATCH
  6
Continuous
100
AcDbLine
 10
1146.104182628113
 20
845.2142853492537
 30
0.0
 11
1146.104182628113
 21
845.2142853492537
 31
0.0
  0
LINE
  5
4907
330
1F
100
AcDbEntity
  8
HATCH
  6
Continuous
100
AcDbLine
 10
1163.232681245001
 20
858.357444601552
 30
0.0
 11
1163.232681245001
 21
858.357444601552
 31
0.0
  0
LINE
  5
4908
330
1F
100
AcDbEntity
  8
HATCH
  6
Continuous
100
AcDbLine
 10
1179.605510805261
 20
870.9207585927194
 30
0.0
 11
1179.605510805261
 21
870.9207585927194
 31
0.0
  0
LINE
  5
4909
330
1F
100
AcDbEntity
  8
HATCH
  6
Continuous
100
AcDbLine
 10
1591.850297335221
 20
986.571025238968
 30
0.0
 11
1591.850297335221
 21
986.571025238968
 31
0.0
  0
LINE
  5
490A
330
1F
100
AcDbEntity
  8
HATCH
  6
Continuous
100
AcDbLine
 10
1608.978795952108
 20
999.7141844912661
 30
0.0
 11
1608.978795952108
 21
999.7141844912661
 31
0.0
  0
LINE
  5
490B
330
1F
100
AcDbEntity
  8
HATCH
  6
Continuous
100
AcDbLine
 10
1609.7788116001
 20
975.2435226247989
 30
0.0
 11
1609.7788116001
 21
975.2435226247989
 31
0.0
  0
LINE
  5
490C
330
1F
100
AcDbEntity
  8
HATCH
  6
Continuous
100
AcDbLine
 10
1626.151641160361
 20
987.8068366159663
 30
0.0
 11
1626.151641160361
 21
987.8068366159663
 31
0.0
  0
LINE
  5
490D
330
1F
100
AcDbEntity
  8
HATCH
  6
Continuous
100
AcDbLine
 10
1641.466534041343
 20
999.5583672415506
 30
0.0
 11
1641.466534041343
 21
999.5583672415506
 31
0.0
  0
LINE
  5
490E
330
1F
100
AcDbEntity
  8
HATCH
  6
Continuous
100
AcDbLine
 10
1658.595032658231
 20
1012.701526493849
 30
0.0
 11
1658.595032658231
 21
1012.701526493849
 31
0.0
  0
LINE
  5
490F
330
1F
100
AcDbEntity
  8
HATCH
  6
Continuous
100
AcDbLine
 10
1659.395048306223
 20
988.230864627382
 30
0.0
 11
1659.395048306223
 21
988.230864627382
 31
0.0
  0
LINE
  5
4910
330
1F
100
AcDbEntity
  8
HATCH
  6
Continuous
100
AcDbLine
 10
1675.767877866483
 20
1000.794178618549
 30
0.0
 11
1675.767877866483
 21
1000.794178618549
 31
0.0
  0
LINE
  5
4911
330
1F
100
AcDbEntity
  8
HATCH
  6
Continuous
100
AcDbLine
 10
1691.082770747465
 20
1012.545709244133
 30
0.0
 11
1691.082770747465
 21
1012.545709244133
 31
0.0
  0
LINE
  5
4912
330
1F
100
AcDbEntity
  8
HATCH
  6
Continuous
100
AcDbLine
 10
1708.211269364353
 20
1025.688868496432
 30
0.0
 11
1708.211269364353
 21
1025.688868496432
 31
0.0
  0
LINE
  5
4913
330
1F
100
AcDbEntity
  8
HATCH
  6
Continuous
100
AcDbLine
 10
1709.011285012345
 20
1001.218206629965
 30
0.0
 11
1709.011285012345
 21
1001.218206629965
 31
0.0
  0
LINE
  5
4914
330
1F
100
AcDbEntity
  8
HATCH
  6
Continuous
100
AcDbLine
 10
1725.384114572605
 20
1013.781520621132
 30
0.0
 11
1725.384114572605
 21
1013.781520621132
 31
0.0
  0
LINE
  5
4915
330
1F
100
AcDbEntity
  8
HATCH
  6
Continuous
100
AcDbLine
 10
1740.699007453588
 20
1025.533051246717
 30
0.0
 11
1740.699007453588
 21
1025.533051246717
 31
0.0
  0
LINE
  5
4916
330
1F
100
AcDbEntity
  8
HATCH
  6
Continuous
100
AcDbLine
 10
1757.827506070475
 20
1038.676210499015
 30
0.0
 11
1757.827506070475
 21
1038.676210499015
 31
0.0
  0
LINE
  5
4917
330
1F
100
AcDbEntity
  8
HATCH
  6
Continuous
100
AcDbLine
 10
1775.000351278728
 20
1026.768862623715
 30
0.0
 11
1775.000351278728
 21
1026.768862623715
 31
0.0
  0
LINE
  5
4918
330
1F
100
AcDbEntity
  8
HATCH
  6
Continuous
100
AcDbLine
 10
1790.315244159709
 20
1038.520393249299
 30
0.0
 11
1790.315244159709
 21
1038.520393249299
 31
0.0
  0
LINE
  5
4919
330
1F
100
AcDbEntity
  8
HATCH
  6
Continuous
100
AcDbLine
 10
1807.443742776597
 20
1051.663552501598
 30
0.0
 11
1807.443742776597
 21
1051.663552501598
 31
0.0
  0
LINE
  5
491A
330
1F
100
AcDbEntity
  8
HATCH
  6
Continuous
100
AcDbLine
 10
1823.816572336857
 20
1064.226866492765
 30
0.0
 11
1823.816572336857
 21
1064.226866492765
 31
0.0
  0
LINE
  5
491B
330
1F
100
AcDbEntity
  8
HATCH
  6
Continuous
100
AcDbLine
 10
1824.616587984849
 20
1039.756204626298
 30
0.0
 11
1824.616587984849
 21
1039.756204626298
 31
0.0
  0
LINE
  5
491C
330
1F
100
AcDbEntity
  8
HATCH
  6
Continuous
100
AcDbLine
 10
1839.931480865831
 20
1051.507735251882
 30
0.0
 11
1839.931480865831
 21
1051.507735251882
 31
0.0
  0
LINE
  5
491D
330
1F
100
AcDbEntity
  8
HATCH
  6
Continuous
100
AcDbLine
 10
1857.059979482719
 20
1064.650894504181
 30
0.0
 11
1857.059979482719
 21
1064.650894504181
 31
0.0
  0
LINE
  5
491E
330
1F
100
AcDbEntity
  8
HATCH
  6
Continuous
100
AcDbLine
 10
1873.43280904298
 20
1077.214208495348
 30
0.0
 11
1873.43280904298
 21
1077.214208495348
 31
0.0
  0
LINE
  5
491F
330
1F
100
AcDbEntity
  8
HATCH
  6
Continuous
100
AcDbLine
 10
1874.232824690972
 20
1052.743546628881
 30
0.0
 11
1874.232824690972
 21
1052.743546628881
 31
0.0
  0
LINE
  5
4920
330
1F
100
AcDbEntity
  8
HATCH
  6
Continuous
100
AcDbLine
 10
1889.547717571954
 20
1064.495077254465
 30
0.0
 11
1889.547717571954
 21
1064.495077254465
 31
0.0
  0
LINE
  5
4921
330
1F
100
AcDbEntity
  8
HATCH
  6
Continuous
100
AcDbLine
 10
1906.676216188841
 20
1077.638236506763
 30
0.0
 11
1906.676216188841
 21
1077.638236506763
 31
0.0
  0
LINE
  5
4922
330
1F
100
AcDbEntity
  8
HATCH
  6
Continuous
100
AcDbLine
 10
1923.049045749102
 20
1090.201550497931
 30
0.0
 11
1923.049045749102
 21
1090.201550497931
 31
0.0
  0
LINE
  5
4923
330
1F
100
AcDbEntity
  8
HATCH
  6
Continuous
100
AcDbLine
 10
1923.849061397094
 20
1065.730888631464
 30
0.0
 11
1923.849061397094
 21
1065.730888631464
 31
0.0
  0
LINE
  5
4924
330
1F
100
AcDbEntity
  8
HATCH
  6
Continuous
100
AcDbLine
 10
1939.163954278076
 20
1077.482419257048
 30
0.0
 11
1939.163954278076
 21
1077.482419257048
 31
0.0
  0
LINE
  5
4925
330
1F
100
AcDbEntity
  8
HATCH
  6
Continuous
100
AcDbLine
 10
1956.292452894963
 20
1090.625578509347
 30
0.0
 11
1956.292452894963
 21
1090.625578509347
 31
0.0
  0
LINE
  5
4926
330
1F
100
AcDbEntity
  8
HATCH
  6
Continuous
100
AcDbLine
 10
1972.665282455224
 20
1103.188892500514
 30
0.0
 11
1972.665282455224
 21
1103.188892500514
 31
0.0
  0
LINE
  5
4927
330
1F
100
AcDbEntity
  8
HATCH
  6
Continuous
100
AcDbLine
 10
1987.980175336206
 20
1114.940423126099
 30
0.0
 11
1987.980175336206
 21
1114.940423126099
 31
0.0
  0
LINE
  5
4928
330
1F
100
AcDbEntity
  8
HATCH
  6
Continuous
100
AcDbLine
 10
1988.780190984198
 20
1090.469761259631
 30
0.0
 11
1988.780190984198
 21
1090.469761259631
 31
0.0
  0
LINE
  5
4929
330
1F
100
AcDbEntity
  8
HATCH
  6
Continuous
100
AcDbLine
 10
2005.908689601086
 20
1103.61292051193
 30
0.0
 11
2005.908689601086
 21
1103.61292051193
 31
0.0
  0
LINE
  5
492A
330
1F
100
AcDbEntity
  8
HATCH
  6
Continuous
100
AcDbLine
 10
2022.281519161346
 20
1116.176234503097
 30
0.0
 11
2022.281519161346
 21
1116.176234503097
 31
0.0
  0
LINE
  5
492B
330
1F
100
AcDbEntity
  8
HATCH
  6
Continuous
100
AcDbLine
 10
2037.596412042328
 20
1127.927765128681
 30
0.0
 11
2037.596412042328
 21
1127.927765128681
 31
0.0
  0
LINE
  5
492C
330
1F
100
AcDbEntity
  8
HATCH
  6
Continuous
100
AcDbLine
 10
2038.396427690321
 20
1103.457103262215
 30
0.0
 11
2038.396427690321
 21
1103.457103262215
 31
0.0
  0
LINE
  5
492D
330
1F
100
AcDbEntity
  8
HATCH
  6
Continuous
100
AcDbLine
 10
2055.524926307208
 20
1116.600262514513
 30
0.0
 11
2055.524926307208
 21
1116.600262514513
 31
0.0
  0
LINE
  5
492E
330
1F
100
AcDbEntity
  8
HATCH
  6
Continuous
100
AcDbLine
 10
2071.897755867469
 20
1129.16357650568
 30
0.0
 11
2071.897755867469
 21
1129.16357650568
 31
0.0
  0
LINE
  5
492F
330
1F
100
AcDbEntity
  8
HATCH
  6
Continuous
100
AcDbLine
 10
2087.212648748451
 20
1140.915107131265
 30
0.0
 11
2087.212648748451
 21
1140.915107131265
 31
0.0
  0
LINE
  5
4930
330
1F
100
AcDbEntity
  8
HATCH
  6
Continuous
100
AcDbLine
 10
2088.012664396442
 20
1116.444445264797
 30
0.0
 11
2088.012664396442
 21
1116.444445264797
 31
0.0
  0
LINE
  5
4931
330
1F
100
AcDbEntity
  8
HATCH
  6
Continuous
100
AcDbLine
 10
2105.14116301333
 20
1129.587604517096
 30
0.0
 11
2105.14116301333
 21
1129.587604517096
 31
0.0
  0
LINE
  5
4932
330
1F
100
AcDbEntity
  8
HATCH
  6
Continuous
100
AcDbLine
 10
2121.513992573591
 20
1142.150918508263
 30
0.0
 11
2121.513992573591
 21
1142.150918508263
 31
0.0
  0
LINE
  5
4933
330
1F
100
AcDbEntity
  8
HATCH
  6
Continuous
100
AcDbLine
 10
2136.828885454572
 20
1153.902449133847
 30
0.0
 11
2136.828885454572
 21
1153.902449133847
 31
0.0
  0
LINE
  5
4934
330
1F
100
AcDbEntity
  8
HATCH
  6
Continuous
100
AcDbLine
 10
2154.757399719452
 20
1142.574946519679
 30
0.0
 11
2154.757399719452
 21
1142.574946519679
 31
0.0
  0
LINE
  5
4935
330
1F
100
AcDbEntity
  8
HATCH
  6
Continuous
100
AcDbLine
 10
2171.130229279713
 20
1155.138260510846
 30
0.0
 11
2171.130229279713
 21
1155.138260510846
 31
0.0
  0
LINE
  5
4936
330
1F
100
AcDbEntity
  8
HATCH
  6
Continuous
100
AcDbLine
 10
2186.445122160694
 20
1166.88979113643
 30
0.0
 11
2186.445122160694
 21
1166.88979113643
 31
0.0
  0
LINE
  5
4937
330
1F
100
AcDbEntity
  8
HATCH
  6
Continuous
100
AcDbLine
 10
2204.373636425575
 20
1155.562288522261
 30
0.0
 11
2204.373636425575
 21
1155.562288522261
 31
0.0
  0
LINE
  5
4938
330
1F
100
AcDbEntity
  8
HATCH
  6
Continuous
100
AcDbLine
 10
2220.746465985835
 20
1168.125602513429
 30
0.0
 11
2220.746465985835
 21
1168.125602513429
 31
0.0
  0
LINE
  5
4939
330
1F
100
AcDbEntity
  8
HATCH
  6
Continuous
100
AcDbLine
 10
2236.061358866817
 20
1179.877133139013
 30
0.0
 11
2236.061358866817
 21
1179.877133139013
 31
0.0
  0
LINE
  5
493A
330
1F
100
AcDbEntity
  8
HATCH
  6
Continuous
100
AcDbLine
 10
2253.189857483705
 20
1193.020292391312
 30
0.0
 11
2253.189857483705
 21
1193.020292391312
 31
0.0
  0
LINE
  5
493B
330
1F
100
AcDbEntity
  8
HATCH
  6
Continuous
100
AcDbLine
 10
2253.989873131697
 20
1168.549630524845
 30
0.0
 11
2253.989873131697
 21
1168.549630524845
 31
0.0
  0
LINE
  5
493C
330
1F
100
AcDbEntity
  8
HATCH
  6
Continuous
100
AcDbLine
 10
2270.362702691957
 20
1181.112944516012
 30
0.0
 11
2270.362702691957
 21
1181.112944516012
 31
0.0
  0
LINE
  5
493D
330
1F
100
AcDbEntity
  8
HATCH
  6
Continuous
100
AcDbLine
 10
2275.189622751788
 20
1201.266852653019
 30
0.0
 11
2275.189622751788
 21
1201.266852653019
 31
0.0
  0
LINE
  5
493E
330
1F
100
AcDbEntity
  8
HATCH
  6
Continuous
100
AcDbLine
 10
2081.78588588189
 20
1142.922555770383
 30
0.0
 11
2081.78588588189
 21
1142.922555770383
 31
0.0
  0
LINE
  5
493F
330
1F
100
AcDbEntity
  8
HATCH
  6
Continuous
100
AcDbLine
 10
2092.110792668237
 20
1144.281855536163
 30
0.0
 11
2092.110792668237
 21
1144.281855536163
 31
0.0
  0
LINE
  5
4940
330
1F
100
AcDbEntity
  8
HATCH
  6
Continuous
100
AcDbLine
 10
2109.36094181128
 20
1146.5528807546
 30
0.0
 11
2109.36094181128
 21
1146.5528807546
 31
0.0
  0
LINE
  5
4941
330
1F
100
AcDbEntity
  8
HATCH
  6
Continuous
100
AcDbLine
 10
2115.97140042449
 20
1147.423164141227
 30
0.0
 11
2115.97140042449
 21
1147.423164141227
 31
0.0
  0
LINE
  5
4942
330
1F
100
AcDbEntity
  8
HATCH
  6
Continuous
100
AcDbLine
 10
2126.296307210836
 20
1148.782463907007
 30
0.0
 11
2126.296307210836
 21
1148.782463907007
 31
0.0
  0
LINE
  5
4943
330
1F
100
AcDbEntity
  8
HATCH
  6
Continuous
100
AcDbLine
 10
2143.546456353879
 20
1151.053489125444
 30
0.0
 11
2143.546456353879
 21
1151.053489125444
 31
0.0
  0
LINE
  5
4944
330
1F
100
AcDbEntity
  8
HATCH
  6
Continuous
100
AcDbLine
 10
2150.15691496709
 20
1151.923772512071
 30
0.0
 11
2150.15691496709
 21
1151.923772512071
 31
0.0
  0
LINE
  5
4945
330
1F
100
AcDbEntity
  8
HATCH
  6
Continuous
100
AcDbLine
 10
2160.481821753436
 20
1153.283072277851
 30
0.0
 11
2160.481821753436
 21
1153.283072277851
 31
0.0
  0
LINE
  5
4946
330
1F
100
AcDbEntity
  8
HATCH
  6
Continuous
100
AcDbLine
 10
2177.731970896479
 20
1155.554097496288
 30
0.0
 11
2177.731970896479
 21
1155.554097496288
 31
0.0
  0
LINE
  5
4947
330
1F
100
AcDbEntity
  8
HATCH
  6
Continuous
100
AcDbLine
 10
2184.342429509689
 20
1156.424380882915
 30
0.0
 11
2184.342429509689
 21
1156.424380882915
 31
0.0
  0
LINE
  5
4948
330
1F
100
AcDbEntity
  8
HATCH
  6
Continuous
100
AcDbLine
 10
2194.667336296036
 20
1157.783680648694
 30
0.0
 11
2194.667336296036
 21
1157.783680648694
 31
0.0
  0
LINE
  5
4949
330
1F
100
AcDbEntity
  8
HATCH
  6
Continuous
100
AcDbLine
 10
2211.917485439079
 20
1160.054705867131
 30
0.0
 11
2211.917485439079
 21
1160.054705867131
 31
0.0
  0
LINE
  5
494A
330
1F
100
AcDbEntity
  8
HATCH
  6
Continuous
100
AcDbLine
 10
2218.527944052289
 20
1160.924989253759
 30
0.0
 11
2218.527944052289
 21
1160.924989253759
 31
0.0
  0
LINE
  5
494B
330
1F
100
AcDbEntity
  8
HATCH
  6
Continuous
100
AcDbLine
 10
2228.852850838636
 20
1162.284289019538
 30
0.0
 11
2228.852850838636
 21
1162.284289019538
 31
0.0
  0
LINE
  5
494C
330
1F
100
AcDbEntity
  8
HATCH
  6
Continuous
100
AcDbLine
 10
2246.102999981679
 20
1164.555314237975
 30
0.0
 11
2246.102999981679
 21
1164.555314237975
 31
0.0
  0
LINE
  5
494D
330
1F
100
AcDbEntity
  8
HATCH
  6
Continuous
100
AcDbLine
 10
2252.713458594889
 20
1165.425597624603
 30
0.0
 11
2252.713458594889
 21
1165.425597624603
 31
0.0
  0
LINE
  5
494E
330
1F
100
AcDbEntity
  8
HATCH
  6
Continuous
100
AcDbLine
 10
1888.382149011991
 20
1084.578258887748
 30
0.0
 11
1888.382149011991
 21
1084.578258887748
 31
0.0
  0
LINE
  5
494F
330
1F
100
AcDbEntity
  8
HATCH
  6
Continuous
100
AcDbLine
 10
1898.707055798338
 20
1085.937558653528
 30
0.0
 11
1898.707055798338
 21
1085.937558653528
 31
0.0
  0
LINE
  5
4950
330
1F
100
AcDbEntity
  8
HATCH
  6
Continuous
100
AcDbLine
 10
1915.957204941381
 20
1088.208583871965
 30
0.0
 11
1915.957204941381
 21
1088.208583871965
 31
0.0
  0
LINE
  5
4951
330
1F
100
AcDbEntity
  8
HATCH
  6
Continuous
100
AcDbLine
 10
1922.567663554591
 20
1089.078867258592
 30
0.0
 11
1922.567663554591
 21
1089.078867258592
 31
0.0
  0
LINE
  5
4952
330
1F
100
AcDbEntity
  8
HATCH
  6
Continuous
100
AcDbLine
 10
1932.892570340938
 20
1090.438167024372
 30
0.0
 11
1932.892570340938
 21
1090.438167024372
 31
0.0
  0
LINE
  5
4953
330
1F
100
AcDbEntity
  8
HATCH
  6
Continuous
100
AcDbLine
 10
1950.142719483981
 20
1092.709192242809
 30
0.0
 11
1950.142719483981
 21
1092.709192242809
 31
0.0
  0
LINE
  5
4954
330
1F
100
AcDbEntity
  8
HATCH
  6
Continuous
100
AcDbLine
 10
1956.753178097191
 20
1093.579475629436
 30
0.0
 11
1956.753178097191
 21
1093.579475629436
 31
0.0
  0
LINE
  5
4955
330
1F
100
AcDbEntity
  8
HATCH
  6
Continuous
100
AcDbLine
 10
1967.078084883538
 20
1094.938775395216
 30
0.0
 11
1967.078084883538
 21
1094.938775395216
 31
0.0
  0
LINE
  5
4956
330
1F
100
AcDbEntity
  8
HATCH
  6
Continuous
100
AcDbLine
 10
1984.328234026581
 20
1097.209800613652
 30
0.0
 11
1984.328234026581
 21
1097.209800613652
 31
0.0
  0
LINE
  5
4957
330
1F
100
AcDbEntity
  8
HATCH
  6
Continuous
100
AcDbLine
 10
1990.93869263979
 20
1098.08008400028
 30
0.0
 11
1990.93869263979
 21
1098.08008400028
 31
0.0
  0
LINE
  5
4958
330
1F
100
AcDbEntity
  8
HATCH
  6
Continuous
100
AcDbLine
 10
2001.263599426138
 20
1099.439383766059
 30
0.0
 11
2001.263599426138
 21
1099.439383766059
 31
0.0
  0
LINE
  5
4959
330
1F
100
AcDbEntity
  8
HATCH
  6
Continuous
100
AcDbLine
 10
2018.513748569181
 20
1101.710408984496
 30
0.0
 11
2018.513748569181
 21
1101.710408984496
 31
0.0
  0
LINE
  5
495A
330
1F
100
AcDbEntity
  8
HATCH
  6
Continuous
100
AcDbLine
 10
2025.124207182391
 20
1102.580692371123
 30
0.0
 11
2025.124207182391
 21
1102.580692371123
 31
0.0
  0
LINE
  5
495B
330
1F
100
AcDbEntity
  8
HATCH
  6
Continuous
100
AcDbLine
 10
2035.449113968738
 20
1103.939992136903
 30
0.0
 11
2035.449113968738
 21
1103.939992136903
 31
0.0
  0
LINE
  5
495C
330
1F
100
AcDbEntity
  8
HATCH
  6
Continuous
100
AcDbLine
 10
2052.699263111781
 20
1106.21101735534
 30
0.0
 11
2052.699263111781
 21
1106.21101735534
 31
0.0
  0
LINE
  5
495D
330
1F
100
AcDbEntity
  8
HATCH
  6
Continuous
100
AcDbLine
 10
2059.309721724991
 20
1107.081300741967
 30
0.0
 11
2059.309721724991
 21
1107.081300741967
 31
0.0
  0
LINE
  5
495E
330
1F
100
AcDbEntity
  8
HATCH
  6
Continuous
100
AcDbLine
 10
1688.367953528883
 20
1025.363678618486
 30
0.0
 11
1688.367953528883
 21
1025.363678618486
 31
0.0
  0
LINE
  5
495F
330
1F
100
AcDbEntity
  8
HATCH
  6
Continuous
100
AcDbLine
 10
1694.978412142093
 20
1026.233962005113
 30
0.0
 11
1694.978412142093
 21
1026.233962005113
 31
0.0
  0
LINE
  5
4960
330
1F
100
AcDbEntity
  8
HATCH
  6
Continuous
100
AcDbLine
 10
1705.30331892844
 20
1027.593261770893
 30
0.0
 11
1705.30331892844
 21
1027.593261770893
 31
0.0
  0
LINE
  5
4961
330
1F
100
AcDbEntity
  8
HATCH
  6
Continuous
100
AcDbLine
 10
1722.553468071483
 20
1029.86428698933
 30
0.0
 11
1722.553468071483
 21
1029.86428698933
 31
0.0
  0
LINE
  5
4962
330
1F
100
AcDbEntity
  8
HATCH
  6
Continuous
100
AcDbLine
 10
1729.163926684693
 20
1030.734570375957
 30
0.0
 11
1729.163926684693
 21
1030.734570375957
 31
0.0
  0
LINE
  5
4963
330
1F
100
AcDbEntity
  8
HATCH
  6
Continuous
100
AcDbLine
 10
1739.48883347104
 20
1032.093870141737
 30
0.0
 11
1739.48883347104
 21
1032.093870141737
 31
0.0
  0
LINE
  5
4964
330
1F
100
AcDbEntity
  8
HATCH
  6
Continuous
100
AcDbLine
 10
1756.738982614083
 20
1034.364895360174
 30
0.0
 11
1756.738982614083
 21
1034.364895360174
 31
0.0
  0
LINE
  5
4965
330
1F
100
AcDbEntity
  8
HATCH
  6
Continuous
100
AcDbLine
 10
1763.349441227292
 20
1035.235178746801
 30
0.0
 11
1763.349441227292
 21
1035.235178746801
 31
0.0
  0
LINE
  5
4966
330
1F
100
AcDbEntity
  8
HATCH
  6
Continuous
100
AcDbLine
 10
1773.674348013639
 20
1036.59447851258
 30
0.0
 11
1773.674348013639
 21
1036.59447851258
 31
0.0
  0
LINE
  5
4967
330
1F
100
AcDbEntity
  8
HATCH
  6
Continuous
100
AcDbLine
 10
1790.924497156682
 20
1038.865503731017
 30
0.0
 11
1790.924497156682
 21
1038.865503731017
 31
0.0
  0
LINE
  5
4968
330
1F
100
AcDbEntity
  8
HATCH
  6
Continuous
100
AcDbLine
 10
1797.534955769892
 20
1039.735787117645
 30
0.0
 11
1797.534955769892
 21
1039.735787117645
 31
0.0
  0
LINE
  5
4969
330
1F
100
AcDbEntity
  8
HATCH
  6
Continuous
100
AcDbLine
 10
1807.859862556239
 20
1041.095086883424
 30
0.0
 11
1807.859862556239
 21
1041.095086883424
 31
0.0
  0
LINE
  5
496A
330
1F
100
AcDbEntity
  8
HATCH
  6
Continuous
100
AcDbLine
 10
1825.110011699282
 20
1043.366112101861
 30
0.0
 11
1825.110011699282
 21
1043.366112101861
 31
0.0
  0
LINE
  5
496B
330
1F
100
AcDbEntity
  8
HATCH
  6
Continuous
100
AcDbLine
 10
1831.720470312492
 20
1044.236395488488
 30
0.0
 11
1831.720470312492
 21
1044.236395488488
 31
0.0
  0
LINE
  5
496C
330
1F
100
AcDbEntity
  8
HATCH
  6
Continuous
100
AcDbLine
 10
1842.045377098839
 20
1045.595695254268
 30
0.0
 11
1842.045377098839
 21
1045.595695254268
 31
0.0
  0
LINE
  5
496D
330
1F
100
AcDbEntity
  8
HATCH
  6
Continuous
100
AcDbLine
 10
1859.295526241882
 20
1047.866720472705
 30
0.0
 11
1859.295526241882
 21
1047.866720472705
 31
0.0
  0
LINE
  5
496E
330
1F
100
AcDbEntity
  8
HATCH
  6
Continuous
100
AcDbLine
 10
1865.905984855092
 20
1048.737003859332
 30
0.0
 11
1865.905984855092
 21
1048.737003859332
 31
0.0
  0
LINE
  5
496F
330
1F
100
AcDbEntity
  8
HATCH
  6
Continuous
100
AcDbLine
 10
1580.27061114374
 20
978.2501816299447
 30
0.0
 11
1580.27061114374
 21
978.2501816299447
 31
0.0
  0
LINE
  5
4970
330
1F
100
AcDbEntity
  8
HATCH
  6
Continuous
100
AcDbLine
 10
1597.520760286784
 20
980.5212068483815
 30
0.0
 11
1597.520760286784
 21
980.5212068483815
 31
0.0
  0
LINE
  5
4971
330
1F
100
AcDbEntity
  8
HATCH
  6
Continuous
100
AcDbLine
 10
1604.131218899993
 20
981.3914902350086
 30
0.0
 11
1604.131218899993
 21
981.3914902350086
 31
0.0
  0
LINE
  5
4972
330
1F
100
AcDbEntity
  8
HATCH
  6
Continuous
100
AcDbLine
 10
1614.45612568634
 20
982.7507900007882
 30
0.0
 11
1614.45612568634
 21
982.7507900007882
 31
0.0
  0
LINE
  5
4973
330
1F
100
AcDbEntity
  8
HATCH
  6
Continuous
100
AcDbLine
 10
1631.706274829383
 20
985.0218152192249
 30
0.0
 11
1631.706274829383
 21
985.0218152192249
 31
0.0
  0
LINE
  5
4974
330
1F
100
AcDbEntity
  8
HATCH
  6
Continuous
100
AcDbLine
 10
1638.316733442593
 20
985.8920986058521
 30
0.0
 11
1638.316733442593
 21
985.8920986058521
 31
0.0
  0
LINE
  5
4975
330
1F
100
AcDbEntity
  8
HATCH
  6
Continuous
100
AcDbLine
 10
1648.64164022894
 20
987.2513983716316
 30
0.0
 11
1648.64164022894
 21
987.2513983716316
 31
0.0
  0
LINE
  5
4976
330
1F
100
AcDbEntity
  8
HATCH
  6
Continuous
100
AcDbLine
 10
1665.891789371983
 20
989.5224235900682
 30
0.0
 11
1665.891789371983
 21
989.5224235900682
 31
0.0
  0
LINE
  5
4977
330
1F
100
AcDbEntity
  8
HATCH
  6
Continuous
100
AcDbLine
 10
1672.502247985193
 20
990.3927069766956
 30
0.0
 11
1672.502247985193
 21
990.3927069766956
 31
0.0
  0
LINE
  5
4978
330
1F
100
AcDbEntity
  8
HATCH
  6
Continuous
100
AcDbLine
 10
1108.156742919188
 20
850.3307879705806
 30
0.0
 11
1108.156742919188
 21
850.3307879705806
 31
0.0
  0
LINE
  5
4979
330
1F
100
AcDbEntity
  8
HATCH
  6
Continuous
100
AcDbLine
 10
1114.767201532397
 20
851.2010713572077
 30
0.0
 11
1114.767201532397
 21
851.2010713572077
 31
0.0
  0
LINE
  5
497A
330
1F
100
AcDbEntity
  8
HATCH
  6
Continuous
100
AcDbLine
 10
1125.092108318744
 20
852.5603711229875
 30
0.0
 11
1125.092108318744
 21
852.5603711229875
 31
0.0
  0
LINE
  5
497B
330
1F
100
AcDbEntity
  8
HATCH
  6
Continuous
100
AcDbLine
 10
1142.342257461787
 20
854.8313963414241
 30
0.0
 11
1142.342257461787
 21
854.8313963414241
 31
0.0
  0
LINE
  5
497C
330
1F
100
AcDbEntity
  8
HATCH
  6
Continuous
100
AcDbLine
 10
1148.952716074997
 20
855.7016797280512
 30
0.0
 11
1148.952716074997
 21
855.7016797280512
 31
0.0
  0
LINE
  5
497D
330
1F
100
AcDbEntity
  8
HATCH
  6
Continuous
100
AcDbLine
 10
1159.277622861344
 20
857.0609794938309
 30
0.0
 11
1159.277622861344
 21
857.0609794938309
 31
0.0
  0
LINE
  5
497E
330
1F
100
AcDbEntity
  8
HATCH
  6
Continuous
100
AcDbLine
 10
1176.527772004387
 20
859.3320047122675
 30
0.0
 11
1176.527772004387
 21
859.3320047122675
 31
0.0
  0
LINE
  5
497F
330
1F
100
AcDbEntity
  8
HATCH
  6
Continuous
100
AcDbLine
 10
914.753006049289
 20
791.9864910879454
 30
0.0
 11
914.753006049289
 21
791.9864910879454
 31
0.0
  0
LINE
  5
4980
330
1F
100
AcDbEntity
  8
HATCH
  6
Continuous
100
AcDbLine
 10
921.3634646624988
 20
792.8567744745727
 30
0.0
 11
921.3634646624988
 21
792.8567744745727
 31
0.0
  0
LINE
  5
4981
330
1F
100
AcDbEntity
  8
HATCH
  6
Continuous
100
AcDbLine
 10
931.6883714488458
 20
794.2160742403523
 30
0.0
 11
931.6883714488458
 21
794.2160742403523
 31
0.0
  0
LINE
  5
4982
330
1F
100
AcDbEntity
  8
HATCH
  6
Continuous
100
AcDbLine
 10
948.9385205918887
 20
796.4870994587889
 30
0.0
 11
948.9385205918887
 21
796.4870994587889
 31
0.0
  0
LINE
  5
4983
330
1F
100
AcDbEntity
  8
HATCH
  6
Continuous
100
AcDbLine
 10
955.5489792050986
 20
797.3573828454162
 30
0.0
 11
955.5489792050986
 21
797.3573828454162
 31
0.0
  0
LINE
  5
4984
330
1F
100
AcDbEntity
  8
HATCH
  6
Continuous
100
AcDbLine
 10
965.8738859914455
 20
798.7166826111957
 30
0.0
 11
965.8738859914455
 21
798.7166826111957
 31
0.0
  0
LINE
  5
4985
330
1F
100
AcDbEntity
  8
HATCH
  6
Continuous
100
AcDbLine
 10
983.1240351344884
 20
800.9877078296323
 30
0.0
 11
983.1240351344884
 21
800.9877078296323
 31
0.0
  0
LINE
  5
4986
330
1F
100
AcDbEntity
  8
HATCH
  6
Continuous
100
AcDbLine
 10
989.7344937476983
 20
801.8579912162596
 30
0.0
 11
989.7344937476983
 21
801.8579912162596
 31
0.0
  0
LINE
  5
4987
330
1F
100
AcDbEntity
  8
HATCH
  6
Continuous
100
AcDbLine
 10
1000.059400534045
 20
803.2172909820392
 30
0.0
 11
1000.059400534045
 21
803.2172909820392
 31
0.0
  0
LINE
  5
4988
330
1F
100
AcDbEntity
  8
HATCH
  6
Continuous
100
AcDbLine
 10
1017.309549677088
 20
805.4883162004758
 30
0.0
 11
1017.309549677088
 21
805.4883162004758
 31
0.0
  0
LINE
  5
4989
330
1F
100
AcDbEntity
  8
HATCH
  6
Continuous
100
AcDbLine
 10
1023.920008290298
 20
806.3585995871031
 30
0.0
 11
1023.920008290298
 21
806.3585995871031
 31
0.0
  0
LINE
  5
498A
330
1F
100
AcDbEntity
  8
HATCH
  6
Continuous
100
AcDbLine
 10
1034.244915076644
 20
807.7178993528827
 30
0.0
 11
1034.244915076644
 21
807.7178993528827
 31
0.0
  0
LINE
  5
498B
330
1F
100
AcDbEntity
  8
HATCH
  6
Continuous
100
AcDbLine
 10
1051.495064219688
 20
809.9889245713193
 30
0.0
 11
1051.495064219688
 21
809.9889245713193
 31
0.0
  0
LINE
  5
498C
330
1F
100
AcDbEntity
  8
HATCH
  6
Continuous
100
AcDbLine
 10
1058.105522832897
 20
810.8592079579464
 30
0.0
 11
1058.105522832897
 21
810.8592079579464
 31
0.0
  0
LINE
  5
498D
330
1F
100
AcDbEntity
  8
HATCH
  6
Continuous
100
AcDbLine
 10
1068.430429619244
 20
812.2185077237261
 30
0.0
 11
1068.430429619244
 21
812.2185077237261
 31
0.0
  0
LINE
  5
498E
330
1F
100
AcDbEntity
  8
HATCH
  6
Continuous
100
AcDbLine
 10
1085.680578762287
 20
814.4895329421627
 30
0.0
 11
1085.680578762287
 21
814.4895329421627
 31
0.0
  0
LINE
  5
498F
330
1F
100
AcDbEntity
  8
HATCH
  6
Continuous
100
AcDbLine
 10
721.3492691793905
 20
733.6421942053103
 30
0.0
 11
721.3492691793905
 21
733.6421942053103
 31
0.0
  0
LINE
  5
4990
330
1F
100
AcDbEntity
  8
HATCH
  6
Continuous
100
AcDbLine
 10
727.9597277926003
 20
734.5124775919376
 30
0.0
 11
727.9597277926003
 21
734.5124775919376
 31
0.0
  0
LINE
  5
4991
330
1F
100
AcDbEntity
  8
HATCH
  6
Continuous
100
AcDbLine
 10
738.2846345789472
 20
735.8717773577171
 30
0.0
 11
738.2846345789472
 21
735.8717773577171
 31
0.0
  0
LINE
  5
4992
330
1F
100
AcDbEntity
  8
HATCH
  6
Continuous
100
AcDbLine
 10
755.5347837219901
 20
738.1428025761538
 30
0.0
 11
755.5347837219901
 21
738.1428025761538
 31
0.0
  0
LINE
  5
4993
330
1F
100
AcDbEntity
  8
HATCH
  6
Continuous
100
AcDbLine
 10
762.1452423352
 20
739.0130859627809
 30
0.0
 11
762.1452423352
 21
739.0130859627809
 31
0.0
  0
LINE
  5
4994
330
1F
100
AcDbEntity
  8
HATCH
  6
Continuous
100
AcDbLine
 10
772.4701491215469
 20
740.3723857285606
 30
0.0
 11
772.4701491215469
 21
740.3723857285606
 31
0.0
  0
LINE
  5
4995
330
1F
100
AcDbEntity
  8
HATCH
  6
Continuous
100
AcDbLine
 10
789.7202982645898
 20
742.6434109469973
 30
0.0
 11
789.7202982645898
 21
742.6434109469973
 31
0.0
  0
LINE
  5
4996
330
1F
100
AcDbEntity
  8
HATCH
  6
Continuous
100
AcDbLine
 10
796.3307568777996
 20
743.5136943336244
 30
0.0
 11
796.3307568777996
 21
743.5136943336244
 31
0.0
  0
LINE
  5
4997
330
1F
100
AcDbEntity
  8
HATCH
  6
Continuous
100
AcDbLine
 10
806.6556636641465
 20
744.8729940994041
 30
0.0
 11
806.6556636641465
 21
744.8729940994041
 31
0.0
  0
LINE
  5
4998
330
1F
100
AcDbEntity
  8
HATCH
  6
Continuous
100
AcDbLine
 10
823.9058128071894
 20
747.1440193178407
 30
0.0
 11
823.9058128071894
 21
747.1440193178407
 31
0.0
  0
LINE
  5
4999
330
1F
100
AcDbEntity
  8
HATCH
  6
Continuous
100
AcDbLine
 10
830.5162714203992
 20
748.0143027044679
 30
0.0
 11
830.5162714203992
 21
748.0143027044679
 31
0.0
  0
LINE
  5
499A
330
1F
100
AcDbEntity
  8
HATCH
  6
Continuous
100
AcDbLine
 10
840.8411782067462
 20
749.3736024702475
 30
0.0
 11
840.8411782067462
 21
749.3736024702475
 31
0.0
  0
LINE
  5
499B
330
1F
100
AcDbEntity
  8
HATCH
  6
Continuous
100
AcDbLine
 10
858.0913273497891
 20
751.6446276886841
 30
0.0
 11
858.0913273497891
 21
751.6446276886841
 31
0.0
  0
LINE
  5
499C
330
1F
100
AcDbEntity
  8
HATCH
  6
Continuous
100
AcDbLine
 10
864.701785962999
 20
752.5149110753114
 30
0.0
 11
864.701785962999
 21
752.5149110753114
 31
0.0
  0
LINE
  5
499D
330
1F
100
AcDbEntity
  8
HATCH
  6
Continuous
100
AcDbLine
 10
875.0266927493459
 20
753.8742108410909
 30
0.0
 11
875.0266927493459
 21
753.8742108410909
 31
0.0
  0
LINE
  5
499E
330
1F
100
AcDbEntity
  8
HATCH
  6
Continuous
100
AcDbLine
 10
892.2768418923888
 20
756.1452360595276
 30
0.0
 11
892.2768418923888
 21
756.1452360595276
 31
0.0
  0
LINE
  5
499F
330
1F
100
AcDbEntity
  8
HATCH
  6
Continuous
100
AcDbLine
 10
527.945532309492
 20
675.2978973226751
 30
0.0
 11
527.945532309492
 21
675.2978973226751
 31
0.0
  0
LINE
  5
49A0
330
1F
100
AcDbEntity
  8
HATCH
  6
Continuous
100
AcDbLine
 10
534.5559909227018
 20
676.1681807093022
 30
0.0
 11
534.5559909227018
 21
676.1681807093022
 31
0.0
  0
LINE
  5
49A1
330
1F
100
AcDbEntity
  8
HATCH
  6
Continuous
100
AcDbLine
 10
544.8808977090488
 20
677.5274804750819
 30
0.0
 11
544.8808977090488
 21
677.5274804750819
 31
0.0
  0
LINE
  5
49A2
330
1F
100
AcDbEntity
  8
HATCH
  6
Continuous
100
AcDbLine
 10
562.1310468520916
 20
679.7985056935186
 30
0.0
 11
562.1310468520916
 21
679.7985056935186
 31
0.0
  0
LINE
  5
49A3
330
1F
100
AcDbEntity
  8
HATCH
  6
Continuous
100
AcDbLine
 10
568.7415054653015
 20
680.6687890801457
 30
0.0
 11
568.7415054653015
 21
680.6687890801457
 31
0.0
  0
LINE
  5
49A4
330
1F
100
AcDbEntity
  8
HATCH
  6
Continuous
100
AcDbLine
 10
579.0664122516484
 20
682.0280888459254
 30
0.0
 11
579.0664122516484
 21
682.0280888459254
 31
0.0
  0
LINE
  5
49A5
330
1F
100
AcDbEntity
  8
HATCH
  6
Continuous
100
AcDbLine
 10
596.3165613946913
 20
684.2991140643619
 30
0.0
 11
596.3165613946913
 21
684.2991140643619
 31
0.0
  0
LINE
  5
49A6
330
1F
100
AcDbEntity
  8
HATCH
  6
Continuous
100
AcDbLine
 10
602.9270200079012
 20
685.1693974509892
 30
0.0
 11
602.9270200079012
 21
685.1693974509892
 31
0.0
  0
LINE
  5
49A7
330
1F
100
AcDbEntity
  8
HATCH
  6
Continuous
100
AcDbLine
 10
613.251926794248
 20
686.5286972167687
 30
0.0
 11
613.251926794248
 21
686.5286972167687
 31
0.0
  0
LINE
  5
49A8
330
1F
100
AcDbEntity
  8
HATCH
  6
Continuous
100
AcDbLine
 10
630.502075937291
 20
688.7997224352054
 30
0.0
 11
630.502075937291
 21
688.7997224352054
 31
0.0
  0
LINE
  5
49A9
330
1F
100
AcDbEntity
  8
HATCH
  6
Continuous
100
AcDbLine
 10
637.1125345505008
 20
689.6700058218327
 30
0.0
 11
637.1125345505008
 21
689.6700058218327
 31
0.0
  0
LINE
  5
49AA
330
1F
100
AcDbEntity
  8
HATCH
  6
Continuous
100
AcDbLine
 10
647.4374413368478
 20
691.0293055876122
 30
0.0
 11
647.4374413368478
 21
691.0293055876122
 31
0.0
  0
LINE
  5
49AB
330
1F
100
AcDbEntity
  8
HATCH
  6
Continuous
100
AcDbLine
 10
664.6875904798906
 20
693.3003308060489
 30
0.0
 11
664.6875904798906
 21
693.3003308060489
 31
0.0
  0
LINE
  5
49AC
330
1F
100
AcDbEntity
  8
HATCH
  6
Continuous
100
AcDbLine
 10
671.2980490931005
 20
694.170614192676
 30
0.0
 11
671.2980490931005
 21
694.170614192676
 31
0.0
  0
LINE
  5
49AD
330
1F
100
AcDbEntity
  8
HATCH
  6
Continuous
100
AcDbLine
 10
681.6229558794474
 20
695.5299139584557
 30
0.0
 11
681.6229558794474
 21
695.5299139584557
 31
0.0
  0
LINE
  5
49AE
330
1F
100
AcDbEntity
  8
HATCH
  6
Continuous
100
AcDbLine
 10
488.2192190095489
 20
637.1856170758207
 30
0.0
 11
488.2192190095489
 21
637.1856170758207
 31
0.0
  0
LINE
  5
49AF
330
1F
100
AcDbEntity
  8
HATCH
  6
Continuous
100
AcDbLine
 10
2263.028144516748
 20
1187.041791334942
 30
0.0
 11
2263.028144516748
 21
1187.041791334942
 31
0.0
  0
LINE
  5
49B0
330
1F
100
AcDbEntity
  8
HATCH
  6
Continuous
100
AcDbLine
 10
2268.38368019766
 20
1183.62993882194
 30
0.0
 11
2268.38368019766
 21
1183.62993882194
 31
0.0
  0
LINE
  5
49B1
330
1F
100
AcDbEntity
  8
HATCH
  6
Continuous
100
AcDbLine
 10
2228.834061685586
 20
1183.558079588013
 30
0.0
 11
2228.834061685586
 21
1183.558079588013
 31
0.0
  0
LINE
  5
49B2
330
1F
100
AcDbEntity
  8
HATCH
  6
Continuous
100
AcDbLine
 10
2248.113990136869
 20
1171.275410541204
 30
0.0
 11
2248.113990136869
 21
1171.275410541204
 31
0.0
  0
LINE
  5
49B3
330
1F
100
AcDbEntity
  8
HATCH
  6
Continuous
100
AcDbLine
 10
2208.564371624797
 20
1171.203551307277
 30
0.0
 11
2208.564371624797
 21
1171.203551307277
 31
0.0
  0
LINE
  5
49B4
330
1F
100
AcDbEntity
  8
HATCH
  6
Continuous
100
AcDbLine
 10
2194.185770813009
 20
1155.095985262238
 30
0.0
 11
2194.185770813009
 21
1155.095985262238
 31
0.0
  0
LINE
  5
49B5
330
1F
100
AcDbEntity
  8
HATCH
  6
Continuous
100
AcDbLine
 10
2199.541306493921
 20
1151.684132749236
 30
0.0
 11
2199.541306493921
 21
1151.684132749236
 31
0.0
  0
LINE
  5
49B6
330
1F
100
AcDbEntity
  8
HATCH
  6
Continuous
100
AcDbLine
 10
2154.636152300937
 20
1155.024126028311
 30
0.0
 11
2154.636152300937
 21
1155.024126028311
 31
0.0
  0
LINE
  5
49B7
330
1F
100
AcDbEntity
  8
HATCH
  6
Continuous
100
AcDbLine
 10
2159.991687981849
 20
1151.612273515309
 30
0.0
 11
2159.991687981849
 21
1151.612273515309
 31
0.0
  0
LINE
  5
49B8
330
1F
100
AcDbEntity
  8
HATCH
  6
Continuous
100
AcDbLine
 10
2120.442069469776
 20
1151.540414281382
 30
0.0
 11
2120.442069469776
 21
1151.540414281382
 31
0.0
  0
LINE
  5
49B9
330
1F
100
AcDbEntity
  8
HATCH
  6
Continuous
100
AcDbLine
 10
2139.721997921058
 20
1139.257745234573
 30
0.0
 11
2139.721997921058
 21
1139.257745234573
 31
0.0
  0
LINE
  5
49BA
330
1F
100
AcDbEntity
  8
HATCH
  6
Continuous
100
AcDbLine
 10
2100.172379408985
 20
1139.185886000646
 30
0.0
 11
2100.172379408985
 21
1139.185886000646
 31
0.0
  0
LINE
  5
49BB
330
1F
100
AcDbEntity
  8
HATCH
  6
Continuous
100
AcDbLine
 10
2085.793778597198
 20
1123.078319955608
 30
0.0
 11
2085.793778597198
 21
1123.078319955608
 31
0.0
  0
LINE
  5
49BC
330
1F
100
AcDbEntity
  8
HATCH
  6
Continuous
100
AcDbLine
 10
2091.14931427811
 20
1119.666467442605
 30
0.0
 11
2091.14931427811
 21
1119.666467442605
 31
0.0
  0
LINE
  5
49BD
330
1F
100
AcDbEntity
  8
HATCH
  6
Continuous
100
AcDbLine
 10
2046.244160085124
 20
1123.00646072168
 30
0.0
 11
2046.244160085124
 21
1123.00646072168
 31
0.0
  0
LINE
  5
49BE
330
1F
100
AcDbEntity
  8
HATCH
  6
Continuous
100
AcDbLine
 10
2051.599695766036
 20
1119.594608208678
 30
0.0
 11
2051.599695766036
 21
1119.594608208678
 31
0.0
  0
LINE
  5
49BF
330
1F
100
AcDbEntity
  8
HATCH
  6
Continuous
100
AcDbLine
 10
2012.050077253963
 20
1119.522748974751
 30
0.0
 11
2012.050077253963
 21
1119.522748974751
 31
0.0
  0
LINE
  5
49C0
330
1F
100
AcDbEntity
  8
HATCH
  6
Continuous
100
AcDbLine
 10
2031.330005705246
 20
1107.240079927943
 30
0.0
 11
2031.330005705246
 21
1107.240079927943
 31
0.0
  0
LINE
  5
49C1
330
1F
100
AcDbEntity
  8
HATCH
  6
Continuous
100
AcDbLine
 10
1991.780387193173
 20
1107.168220694015
 30
0.0
 11
1991.780387193173
 21
1107.168220694015
 31
0.0
  0
LINE
  5
49C2
330
1F
100
AcDbEntity
  8
HATCH
  6
Continuous
100
AcDbLine
 10
1977.401786381385
 20
1091.060654648977
 30
0.0
 11
1977.401786381385
 21
1091.060654648977
 31
0.0
  0
LINE
  5
49C3
330
1F
100
AcDbEntity
  8
HATCH
  6
Continuous
100
AcDbLine
 10
1982.757322062297
 20
1087.648802135975
 30
0.0
 11
1982.757322062297
 21
1087.648802135975
 31
0.0
  0
LINE
  5
49C4
330
1F
100
AcDbEntity
  8
HATCH
  6
Continuous
100
AcDbLine
 10
1937.852167869313
 20
1090.988795415049
 30
0.0
 11
1937.852167869313
 21
1090.988795415049
 31
0.0
  0
LINE
  5
49C5
330
1F
100
AcDbEntity
  8
HATCH
  6
Continuous
100
AcDbLine
 10
1943.207703550225
 20
1087.576942902047
 30
0.0
 11
1943.207703550225
 21
1087.576942902047
 31
0.0
  0
LINE
  5
49C6
330
1F
100
AcDbEntity
  8
HATCH
  6
Continuous
100
AcDbLine
 10
1903.658085038152
 20
1087.50508366812
 30
0.0
 11
1903.658085038152
 21
1087.50508366812
 31
0.0
  0
LINE
  5
49C7
330
1F
100
AcDbEntity
  8
HATCH
  6
Continuous
100
AcDbLine
 10
1922.938013489434
 20
1075.222414621311
 30
0.0
 11
1922.938013489434
 21
1075.222414621311
 31
0.0
  0
LINE
  5
49C8
330
1F
100
AcDbEntity
  8
HATCH
  6
Continuous
100
AcDbLine
 10
1883.388394977362
 20
1075.150555387384
 30
0.0
 11
1883.388394977362
 21
1075.150555387384
 31
0.0
  0
LINE
  5
49C9
330
1F
100
AcDbEntity
  8
HATCH
  6
Continuous
100
AcDbLine
 10
1869.009794165575
 20
1059.042989342346
 30
0.0
 11
1869.009794165575
 21
1059.042989342346
 31
0.0
  0
LINE
  5
49CA
330
1F
100
AcDbEntity
  8
HATCH
  6
Continuous
100
AcDbLine
 10
1874.365329846486
 20
1055.631136829344
 30
0.0
 11
1874.365329846486
 21
1055.631136829344
 31
0.0
  0
LINE
  5
49CB
330
1F
100
AcDbEntity
  8
HATCH
  6
Continuous
100
AcDbLine
 10
1829.460175653501
 20
1058.971130108419
 30
0.0
 11
1829.460175653501
 21
1058.971130108419
 31
0.0
  0
LINE
  5
49CC
330
1F
100
AcDbEntity
  8
HATCH
  6
Continuous
100
AcDbLine
 10
1834.815711334413
 20
1055.559277595417
 30
0.0
 11
1834.815711334413
 21
1055.559277595417
 31
0.0
  0
LINE
  5
49CD
330
1F
100
AcDbEntity
  8
HATCH
  6
Continuous
100
AcDbLine
 10
1795.26609282234
 20
1055.487418361489
 30
0.0
 11
1795.26609282234
 21
1055.487418361489
 31
0.0
  0
LINE
  5
49CE
330
1F
100
AcDbEntity
  8
HATCH
  6
Continuous
100
AcDbLine
 10
1814.546021273623
 20
1043.204749314681
 30
0.0
 11
1814.546021273623
 21
1043.204749314681
 31
0.0
  0
LINE
  5
49CF
330
1F
100
AcDbEntity
  8
HATCH
  6
Continuous
100
AcDbLine
 10
1774.99640276155
 20
1043.132890080753
 30
0.0
 11
1774.99640276155
 21
1043.132890080753
 31
0.0
  0
LINE
  5
49D0
330
1F
100
AcDbEntity
  8
HATCH
  6
Continuous
100
AcDbLine
 10
1760.617801949763
 20
1027.025324035715
 30
0.0
 11
1760.617801949763
 21
1027.025324035715
 31
0.0
  0
LINE
  5
49D1
330
1F
100
AcDbEntity
  8
HATCH
  6
Continuous
100
AcDbLine
 10
1765.973337630675
 20
1023.613471522713
 30
0.0
 11
1765.973337630675
 21
1023.613471522713
 31
0.0
  0
LINE
  5
49D2
330
1F
100
AcDbEntity
  8
HATCH
  6
Continuous
100
AcDbLine
 10
1721.068183437689
 20
1026.953464801788
 30
0.0
 11
1721.068183437689
 21
1026.953464801788
 31
0.0
  0
LINE
  5
49D3
330
1F
100
AcDbEntity
  8
HATCH
  6
Continuous
100
AcDbLine
 10
1726.423719118601
 20
1023.541612288786
 30
0.0
 11
1726.423719118601
 21
1023.541612288786
 31
0.0
  0
LINE
  5
49D4
330
1F
100
AcDbEntity
  8
HATCH
  6
Continuous
100
AcDbLine
 10
1686.874100606528
 20
1023.469753054858
 30
0.0
 11
1686.874100606528
 21
1023.469753054858
 31
0.0
  0
LINE
  5
49D5
330
1F
100
AcDbEntity
  8
HATCH
  6
Continuous
100
AcDbLine
 10
1706.154029057811
 20
1011.18708400805
 30
0.0
 11
1706.154029057811
 21
1011.18708400805
 31
0.0
  0
LINE
  5
49D6
330
1F
100
AcDbEntity
  8
HATCH
  6
Continuous
100
AcDbLine
 10
1666.604410545738
 20
1011.115224774123
 30
0.0
 11
1666.604410545738
 21
1011.115224774123
 31
0.0
  0
LINE
  5
49D7
330
1F
100
AcDbEntity
  8
HATCH
  6
Continuous
100
AcDbLine
 10
1652.22580973395
 20
995.0076587290848
 30
0.0
 11
1652.22580973395
 21
995.0076587290848
 31
0.0
  0
LINE
  5
49D8
330
1F
100
AcDbEntity
  8
HATCH
  6
Continuous
100
AcDbLine
 10
1657.581345414862
 20
991.5958062160823
 30
0.0
 11
1657.581345414862
 21
991.5958062160823
 31
0.0
  0
LINE
  5
49D9
330
1F
100
AcDbEntity
  8
HATCH
  6
Continuous
100
AcDbLine
 10
1612.676191221878
 20
994.9357994951574
 30
0.0
 11
1612.676191221878
 21
994.9357994951574
 31
0.0
  0
LINE
  5
49DA
330
1F
100
AcDbEntity
  8
HATCH
  6
Continuous
100
AcDbLine
 10
1618.031726902789
 20
991.523946982155
 30
0.0
 11
1618.031726902789
 21
991.523946982155
 31
0.0
  0
LINE
  5
49DB
330
1F
100
AcDbEntity
  8
HATCH
  6
Continuous
100
AcDbLine
 10
1597.762036842
 20
979.1694187014192
 30
0.0
 11
1597.762036842
 21
979.1694187014192
 31
0.0
  0
LINE
  5
49DC
330
1F
100
AcDbEntity
  8
HATCH
  6
Continuous
100
AcDbLine
 10
1179.108222358631
 20
866.865138268634
 30
0.0
 11
1179.108222358631
 21
866.865138268634
 31
0.0
  0
LINE
  5
49DD
330
1F
100
AcDbEntity
  8
HATCH
  6
Continuous
100
AcDbLine
 10
1164.194067978753
 20
851.0987574748957
 30
0.0
 11
1164.194067978753
 21
851.0987574748957
 31
0.0
  0
LINE
  5
49DE
330
1F
100
AcDbEntity
  8
HATCH
  6
Continuous
100
AcDbLine
 10
1124.64444946668
 20
851.0268982409685
 30
0.0
 11
1124.64444946668
 21
851.0268982409685
 31
0.0
  0
LINE
  5
49DF
330
1F
100
AcDbEntity
  8
HATCH
  6
Continuous
100
AcDbLine
 10
1149.815467166965
 20
834.9911914298576
 30
0.0
 11
1149.815467166965
 21
834.9911914298576
 31
0.0
  0
LINE
  5
49E0
330
1F
100
AcDbEntity
  8
HATCH
  6
Continuous
100
AcDbLine
 10
1110.265848654893
 20
834.9193321959303
 30
0.0
 11
1110.265848654893
 21
834.9193321959303
 31
0.0
  0
LINE
  5
49E1
330
1F
100
AcDbEntity
  8
HATCH
  6
Continuous
100
AcDbLine
 10
1115.621384335804
 20
831.5074796829279
 30
0.0
 11
1115.621384335804
 21
831.5074796829279
 31
0.0
  0
LINE
  5
49E2
330
1F
100
AcDbEntity
  8
HATCH
  6
Continuous
100
AcDbLine
 10
1070.716230142819
 20
834.8474729620033
 30
0.0
 11
1070.716230142819
 21
834.8474729620033
 31
0.0
  0
LINE
  5
49E3
330
1F
100
AcDbEntity
  8
HATCH
  6
Continuous
100
AcDbLine
 10
1076.071765823731
 20
831.4356204490009
 30
0.0
 11
1076.071765823731
 21
831.4356204490009
 31
0.0
  0
LINE
  5
49E4
330
1F
100
AcDbEntity
  8
HATCH
  6
Continuous
100
AcDbLine
 10
1095.351694275013
 20
819.1529514021924
 30
0.0
 11
1095.351694275013
 21
819.1529514021924
 31
0.0
  0
LINE
  5
49E5
330
1F
100
AcDbEntity
  8
HATCH
  6
Continuous
100
AcDbLine
 10
1055.802075762941
 20
819.0810921682651
 30
0.0
 11
1055.802075762941
 21
819.0810921682651
 31
0.0
  0
LINE
  5
49E6
330
1F
100
AcDbEntity
  8
HATCH
  6
Continuous
100
AcDbLine
 10
1016.252457250868
 20
819.0092329343377
 30
0.0
 11
1016.252457250868
 21
819.0092329343377
 31
0.0
  0
LINE
  5
49E7
330
1F
100
AcDbEntity
  8
HATCH
  6
Continuous
100
AcDbLine
 10
1041.423474951154
 20
802.9735261232268
 30
0.0
 11
1041.423474951154
 21
802.9735261232268
 31
0.0
  0
LINE
  5
49E8
330
1F
100
AcDbEntity
  8
HATCH
  6
Continuous
100
AcDbLine
 10
1001.873856439081
 20
802.9016668892992
 30
0.0
 11
1001.873856439081
 21
802.9016668892992
 31
0.0
  0
LINE
  5
49E9
330
1F
100
AcDbEntity
  8
HATCH
  6
Continuous
100
AcDbLine
 10
1007.229392119993
 20
799.4898143762969
 30
0.0
 11
1007.229392119993
 21
799.4898143762969
 31
0.0
  0
LINE
  5
49EA
330
1F
100
AcDbEntity
  8
HATCH
  6
Continuous
100
AcDbLine
 10
962.3242379270079
 20
802.8298076553724
 30
0.0
 11
962.3242379270079
 21
802.8298076553724
 31
0.0
  0
LINE
  5
49EB
330
1F
100
AcDbEntity
  8
HATCH
  6
Continuous
100
AcDbLine
 10
967.6797736079198
 20
799.41795514237
 30
0.0
 11
967.6797736079198
 21
799.41795514237
 31
0.0
  0
LINE
  5
49EC
330
1F
100
AcDbEntity
  8
HATCH
  6
Continuous
100
AcDbLine
 10
986.9597020592022
 20
787.1352860955616
 30
0.0
 11
986.9597020592022
 21
787.1352860955616
 31
0.0
  0
LINE
  5
49ED
330
1F
100
AcDbEntity
  8
HATCH
  6
Continuous
100
AcDbLine
 10
947.4100835471293
 20
787.0634268616343
 30
0.0
 11
947.4100835471293
 21
787.0634268616343
 31
0.0
  0
LINE
  5
49EE
330
1F
100
AcDbEntity
  8
HATCH
  6
Continuous
100
AcDbLine
 10
907.8604650350568
 20
786.9915676277068
 30
0.0
 11
907.8604650350568
 21
786.9915676277068
 31
0.0
  0
LINE
  5
49EF
330
1F
100
AcDbEntity
  8
HATCH
  6
Continuous
100
AcDbLine
 10
933.0314827353424
 20
770.9558608165959
 30
0.0
 11
933.0314827353424
 21
770.9558608165959
 31
0.0
  0
LINE
  5
49F0
330
1F
100
AcDbEntity
  8
HATCH
  6
Continuous
100
AcDbLine
 10
893.4818642232695
 20
770.8840015826686
 30
0.0
 11
893.4818642232695
 21
770.8840015826686
 31
0.0
  0
LINE
  5
49F1
330
1F
100
AcDbEntity
  8
HATCH
  6
Continuous
100
AcDbLine
 10
898.8373999041812
 20
767.4721490696661
 30
0.0
 11
898.8373999041812
 21
767.4721490696661
 31
0.0
  0
LINE
  5
49F2
330
1F
100
AcDbEntity
  8
HATCH
  6
Continuous
100
AcDbLine
 10
853.9322457111966
 20
770.8121423487413
 30
0.0
 11
853.9322457111966
 21
770.8121423487413
 31
0.0
  0
LINE
  5
49F3
330
1F
100
AcDbEntity
  8
HATCH
  6
Continuous
100
AcDbLine
 10
859.2877813921084
 20
767.4002898357389
 30
0.0
 11
859.2877813921084
 21
767.4002898357389
 31
0.0
  0
LINE
  5
49F4
330
1F
100
AcDbEntity
  8
HATCH
  6
Continuous
100
AcDbLine
 10
878.5677098433909
 20
755.1176207889304
 30
0.0
 11
878.5677098433909
 21
755.1176207889304
 31
0.0
  0
LINE
  5
49F5
330
1F
100
AcDbEntity
  8
HATCH
  6
Continuous
100
AcDbLine
 10
839.018091331318
 20
755.0457615550032
 30
0.0
 11
839.018091331318
 21
755.0457615550032
 31
0.0
  0
LINE
  5
49F6
330
1F
100
AcDbEntity
  8
HATCH
  6
Continuous
100
AcDbLine
 10
799.4684728192449
 20
754.9739023210761
 30
0.0
 11
799.4684728192449
 21
754.9739023210761
 31
0.0
  0
LINE
  5
49F7
330
1F
100
AcDbEntity
  8
HATCH
  6
Continuous
100
AcDbLine
 10
824.6394905195305
 20
738.9381955099652
 30
0.0
 11
824.6394905195305
 21
738.9381955099652
 31
0.0
  0
LINE
  5
49F8
330
1F
100
AcDbEntity
  8
HATCH
  6
Continuous
100
AcDbLine
 10
785.0898720074578
 20
738.8663362760377
 30
0.0
 11
785.0898720074578
 21
738.8663362760377
 31
0.0
  0
LINE
  5
49F9
330
1F
100
AcDbEntity
  8
HATCH
  6
Continuous
100
AcDbLine
 10
790.4454076883696
 20
735.4544837630353
 30
0.0
 11
790.4454076883696
 21
735.4544837630353
 31
0.0
  0
LINE
  5
49FA
330
1F
100
AcDbEntity
  8
HATCH
  6
Continuous
100
AcDbLine
 10
745.5402534953849
 20
738.7944770421102
 30
0.0
 11
745.5402534953849
 21
738.7944770421102
 31
0.0
  0
LINE
  5
49FB
330
1F
100
AcDbEntity
  8
HATCH
  6
Continuous
100
AcDbLine
 10
750.8957891762967
 20
735.3826245291079
 30
0.0
 11
750.8957891762967
 21
735.3826245291079
 31
0.0
  0
LINE
  5
49FC
330
1F
100
AcDbEntity
  8
HATCH
  6
Continuous
100
AcDbLine
 10
770.1757176275792
 20
723.0999554822995
 30
0.0
 11
770.1757176275792
 21
723.0999554822995
 31
0.0
  0
LINE
  5
49FD
330
1F
100
AcDbEntity
  8
HATCH
  6
Continuous
100
AcDbLine
 10
730.6260991155063
 20
723.0280962483725
 30
0.0
 11
730.6260991155063
 21
723.0280962483725
 31
0.0
  0
LINE
  5
49FE
330
1F
100
AcDbEntity
  8
HATCH
  6
Continuous
100
AcDbLine
 10
691.0764806034334
 20
722.9562370144452
 30
0.0
 11
691.0764806034334
 21
722.9562370144452
 31
0.0
  0
LINE
  5
49FF
330
1F
100
AcDbEntity
  8
HATCH
  6
Continuous
100
AcDbLine
 10
716.2474983037189
 20
706.9205302033342
 30
0.0
 11
716.2474983037189
 21
706.9205302033342
 31
0.0
  0
LINE
  5
4A00
330
1F
100
AcDbEntity
  8
HATCH
  6
Continuous
100
AcDbLine
 10
676.6978797916459
 20
706.848670969407
 30
0.0
 11
676.6978797916459
 21
706.848670969407
 31
0.0
  0
LINE
  5
4A01
330
1F
100
AcDbEntity
  8
HATCH
  6
Continuous
100
AcDbLine
 10
682.0534154725577
 20
703.4368184564047
 30
0.0
 11
682.0534154725577
 21
703.4368184564047
 31
0.0
  0
LINE
  5
4A02
330
1F
100
AcDbEntity
  8
HATCH
  6
Continuous
100
AcDbLine
 10
637.1482612795731
 20
706.7768117354797
 30
0.0
 11
637.1482612795731
 21
706.7768117354797
 31
0.0
  0
LINE
  5
4A03
330
1F
100
AcDbEntity
  8
HATCH
  6
Continuous
100
AcDbLine
 10
642.5037969604849
 20
703.3649592224772
 30
0.0
 11
642.5037969604849
 21
703.3649592224772
 31
0.0
  0
LINE
  5
4A04
330
1F
100
AcDbEntity
  8
HATCH
  6
Continuous
100
AcDbLine
 10
661.7837254117675
 20
691.0822901756688
 30
0.0
 11
661.7837254117675
 21
691.0822901756688
 31
0.0
  0
LINE
  5
4A05
330
1F
100
AcDbEntity
  8
HATCH
  6
Continuous
100
AcDbLine
 10
622.2341068996946
 20
691.0104309417416
 30
0.0
 11
622.2341068996946
 21
691.0104309417416
 31
0.0
  0
LINE
  5
4A06
330
1F
100
AcDbEntity
  8
HATCH
  6
Continuous
100
AcDbLine
 10
582.6844883876218
 20
690.9385717078142
 30
0.0
 11
582.6844883876218
 21
690.9385717078142
 31
0.0
  0
LINE
  5
4A07
330
1F
100
AcDbEntity
  8
HATCH
  6
Continuous
100
AcDbLine
 10
607.8555060879074
 20
674.9028648967033
 30
0.0
 11
607.8555060879074
 21
674.9028648967033
 31
0.0
  0
LINE
  5
4A08
330
1F
100
AcDbEntity
  8
HATCH
  6
Continuous
100
AcDbLine
 10
568.3058875758344
 20
674.8310056627761
 30
0.0
 11
568.3058875758344
 21
674.8310056627761
 31
0.0
  0
LINE
  5
4A09
330
1F
100
AcDbEntity
  8
HATCH
  6
Continuous
100
AcDbLine
 10
573.6614232567462
 20
671.4191531497736
 30
0.0
 11
573.6614232567462
 21
671.4191531497736
 31
0.0
  0
LINE
  5
4A0A
330
1F
100
AcDbEntity
  8
HATCH
  6
Continuous
100
AcDbLine
 10
528.7562690637615
 20
674.7591464288488
 30
0.0
 11
528.7562690637615
 21
674.7591464288488
 31
0.0
  0
LINE
  5
4A0B
330
1F
100
AcDbEntity
  8
HATCH
  6
Continuous
100
AcDbLine
 10
534.1118047446733
 20
671.3472939158464
 30
0.0
 11
534.1118047446733
 21
671.3472939158464
 31
0.0
  0
LINE
  5
4A0C
330
1F
100
AcDbEntity
  8
HATCH
  6
Continuous
100
AcDbLine
 10
553.3917331959559
 20
659.0646248690379
 30
0.0
 11
553.3917331959559
 21
659.0646248690379
 31
0.0
  0
LINE
  5
4A0D
330
1F
100
AcDbEntity
  8
HATCH
  6
Continuous
100
AcDbLine
 10
513.842114683883
 20
658.9927656351107
 30
0.0
 11
513.842114683883
 21
658.9927656351107
 31
0.0
  0
LINE
  5
4A0E
330
1F
100
AcDbEntity
  8
HATCH
  6
Continuous
100
AcDbLine
 10
499.4635138720957
 20
642.8851995900726
 30
0.0
 11
499.4635138720957
 21
642.8851995900726
 31
0.0
  0
LINE
  5
4A0F
330
1F
100
AcDbEntity
  8
HATCH
  6
Continuous
100
AcDbLine
 10
2274.961914732553
 20
1188.033865583192
 30
0.0
 11
2274.961914732553
 21
1188.033865583192
 31
0.0
  0
LINE
  5
4A10
330
1F
100
AcDbEntity
  8
HATCH
  6
Continuous
100
AcDbLine
 10
2277.302770276925
 20
1185.888866674012
 30
0.0
 11
2277.302770276925
 21
1185.888866674012
 31
0.0
  0
LINE
  5
4A11
330
1F
100
AcDbEntity
  8
HATCH
  6
Continuous
100
AcDbLine
 10
2236.784092108939
 20
1176.887399420331
 30
0.0
 11
2236.784092108939
 21
1176.887399420331
 31
0.0
  0
LINE
  5
4A12
330
1F
100
AcDbEntity
  8
HATCH
  6
Continuous
100
AcDbLine
 10
2239.124947653311
 20
1174.742400511151
 30
0.0
 11
2239.124947653311
 21
1174.742400511151
 31
0.0
  0
LINE
  5
4A13
330
1F
100
AcDbEntity
  8
HATCH
  6
Continuous
100
AcDbLine
 10
2250.173785822747
 20
1164.618005659823
 30
0.0
 11
2250.173785822747
 21
1164.618005659823
 31
0.0
  0
LINE
  5
4A14
330
1F
100
AcDbEntity
  8
HATCH
  6
Continuous
100
AcDbLine
 10
2198.606269485324
 20
1165.74093325747
 30
0.0
 11
2198.606269485324
 21
1165.74093325747
 31
0.0
  0
LINE
  5
4A15
330
1F
100
AcDbEntity
  8
HATCH
  6
Continuous
100
AcDbLine
 10
2200.947125029696
 20
1163.59593434829
 30
0.0
 11
2200.947125029696
 21
1163.59593434829
 31
0.0
  0
LINE
  5
4A16
330
1F
100
AcDbEntity
  8
HATCH
  6
Continuous
100
AcDbLine
 10
2211.995963199132
 20
1153.471539496962
 30
0.0
 11
2211.995963199132
 21
1153.471539496962
 31
0.0
  0
LINE
  5
4A17
330
1F
100
AcDbEntity
  8
HATCH
  6
Continuous
100
AcDbLine
 10
2160.428446861709
 20
1154.594467094609
 30
0.0
 11
2160.428446861709
 21
1154.594467094609
 31
0.0
  0
LINE
  5
4A18
330
1F
100
AcDbEntity
  8
HATCH
  6
Continuous
100
AcDbLine
 10
2162.769302406081
 20
1152.44946818543
 30
0.0
 11
2162.769302406081
 21
1152.44946818543
 31
0.0
  0
LINE
  5
4A19
330
1F
100
AcDbEntity
  8
HATCH
  6
Continuous
100
AcDbLine
 10
2173.818140575517
 20
1142.325073334101
 30
0.0
 11
2173.818140575517
 21
1142.325073334101
 31
0.0
  0
LINE
  5
4A1A
330
1F
100
AcDbEntity
  8
HATCH
  6
Continuous
100
AcDbLine
 10
2122.250624238094
 20
1143.448000931749
 30
0.0
 11
2122.250624238094
 21
1143.448000931749
 31
0.0
  0
LINE
  5
4A1B
330
1F
100
AcDbEntity
  8
HATCH
  6
Continuous
100
AcDbLine
 10
2124.591479782466
 20
1141.303002022569
 30
0.0
 11
2124.591479782466
 21
1141.303002022569
 31
0.0
  0
LINE
  5
4A1C
330
1F
100
AcDbEntity
  8
HATCH
  6
Continuous
100
AcDbLine
 10
2135.640317951902
 20
1131.17860717124
 30
0.0
 11
2135.640317951902
 21
1131.17860717124
 31
0.0
  0
LINE
  5
4A1D
330
1F
100
AcDbEntity
  8
HATCH
  6
Continuous
100
AcDbLine
 10
2084.07280161448
 20
1132.301534768887
 30
0.0
 11
2084.07280161448
 21
1132.301534768887
 31
0.0
  0
LINE
  5
4A1E
330
1F
100
AcDbEntity
  8
HATCH
  6
Continuous
100
AcDbLine
 10
2086.413657158852
 20
1130.156535859708
 30
0.0
 11
2086.413657158852
 21
1130.156535859708
 31
0.0
  0
LINE
  5
4A1F
330
1F
100
AcDbEntity
  8
HATCH
  6
Continuous
100
AcDbLine
 10
2097.462495328288
 20
1120.032141008379
 30
0.0
 11
2097.462495328288
 21
1120.032141008379
 31
0.0
  0
LINE
  5
4A20
330
1F
100
AcDbEntity
  8
HATCH
  6
Continuous
100
AcDbLine
 10
2045.894978990864
 20
1121.155068606027
 30
0.0
 11
2045.894978990864
 21
1121.155068606027
 31
0.0
  0
LINE
  5
4A21
330
1F
100
AcDbEntity
  8
HATCH
  6
Continuous
100
AcDbLine
 10
2048.235834535236
 20
1119.010069696847
 30
0.0
 11
2048.235834535236
 21
1119.010069696847
 31
0.0
  0
LINE
  5
4A22
330
1F
100
AcDbEntity
  8
HATCH
  6
Continuous
100
AcDbLine
 10
2059.284672704673
 20
1108.885674845518
 30
0.0
 11
2059.284672704673
 21
1108.885674845518
 31
0.0
  0
LINE
  5
4A23
330
1F
100
AcDbEntity
  8
HATCH
  6
Continuous
100
AcDbLine
 10
2007.717156367249
 20
1110.008602443166
 30
0.0
 11
2007.717156367249
 21
1110.008602443166
 31
0.0
  0
LINE
  5
4A24
330
1F
100
AcDbEntity
  8
HATCH
  6
Continuous
100
AcDbLine
 10
2010.058011911621
 20
1107.863603533987
 30
0.0
 11
2010.058011911621
 21
1107.863603533987
 31
0.0
  0
LINE
  5
4A25
330
1F
100
AcDbEntity
  8
HATCH
  6
Continuous
100
AcDbLine
 10
2021.106850081058
 20
1097.739208682658
 30
0.0
 11
2021.106850081058
 21
1097.739208682658
 31
0.0
  0
LINE
  5
4A26
330
1F
100
AcDbEntity
  8
HATCH
  6
Continuous
100
AcDbLine
 10
1969.539333743634
 20
1098.862136280305
 30
0.0
 11
1969.539333743634
 21
1098.862136280305
 31
0.0
  0
LINE
  5
4A27
330
1F
100
AcDbEntity
  8
HATCH
  6
Continuous
100
AcDbLine
 10
1971.880189288006
 20
1096.717137371125
 30
0.0
 11
1971.880189288006
 21
1096.717137371125
 31
0.0
  0
LINE
  5
4A28
330
1F
100
AcDbEntity
  8
HATCH
  6
Continuous
100
AcDbLine
 10
1982.929027457443
 20
1086.592742519797
 30
0.0
 11
1982.929027457443
 21
1086.592742519797
 31
0.0
  0
LINE
  5
4A29
330
1F
100
AcDbEntity
  8
HATCH
  6
Continuous
100
AcDbLine
 10
1931.361511120019
 20
1087.715670117445
 30
0.0
 11
1931.361511120019
 21
1087.715670117445
 31
0.0
  0
LINE
  5
4A2A
330
1F
100
AcDbEntity
  8
HATCH
  6
Continuous
100
AcDbLine
 10
1933.702366664391
 20
1085.570671208265
 30
0.0
 11
1933.702366664391
 21
1085.570671208265
 31
0.0
  0
LINE
  5
4A2B
330
1F
100
AcDbEntity
  8
HATCH
  6
Continuous
100
AcDbLine
 10
1944.751204833828
 20
1075.446276356936
 30
0.0
 11
1944.751204833828
 21
1075.446276356936
 31
0.0
  0
LINE
  5
4A2C
330
1F
100
AcDbEntity
  8
HATCH
  6
Continuous
100
AcDbLine
 10
1893.183688496405
 20
1076.569203954583
 30
0.0
 11
1893.183688496405
 21
1076.569203954583
 31
0.0
  0
LINE
  5
4A2D
330
1F
100
AcDbEntity
  8
HATCH
  6
Continuous
100
AcDbLine
 10
1895.524544040777
 20
1074.424205045404
 30
0.0
 11
1895.524544040777
 21
1074.424205045404
 31
0.0
  0
LINE
  5
4A2E
330
1F
100
AcDbEntity
  8
HATCH
  6
Continuous
100
AcDbLine
 10
1906.573382210213
 20
1064.299810194075
 30
0.0
 11
1906.573382210213
 21
1064.299810194075
 31
0.0
  0
LINE
  5
4A2F
330
1F
100
AcDbEntity
  8
HATCH
  6
Continuous
100
AcDbLine
 10
1855.00586587279
 20
1065.422737791722
 30
0.0
 11
1855.00586587279
 21
1065.422737791722
 31
0.0
  0
LINE
  5
4A30
330
1F
100
AcDbEntity
  8
HATCH
  6
Continuous
100
AcDbLine
 10
1857.346721417162
 20
1063.277738882543
 30
0.0
 11
1857.346721417162
 21
1063.277738882543
 31
0.0
  0
LINE
  5
4A31
330
1F
100
AcDbEntity
  8
HATCH
  6
Continuous
100
AcDbLine
 10
1868.395559586598
 20
1053.153344031214
 30
0.0
 11
1868.395559586598
 21
1053.153344031214
 31
0.0
  0
LINE
  5
4A32
330
1F
100
AcDbEntity
  8
HATCH
  6
Continuous
100
AcDbLine
 10
1816.828043249175
 20
1054.276271628862
 30
0.0
 11
1816.828043249175
 21
1054.276271628862
 31
0.0
  0
LINE
  5
4A33
330
1F
100
AcDbEntity
  8
HATCH
  6
Continuous
100
AcDbLine
 10
1819.168898793547
 20
1052.131272719682
 30
0.0
 11
1819.168898793547
 21
1052.131272719682
 31
0.0
  0
LINE
  5
4A34
330
1F
100
AcDbEntity
  8
HATCH
  6
Continuous
100
AcDbLine
 10
1830.217736962983
 20
1042.006877868354
 30
0.0
 11
1830.217736962983
 21
1042.006877868354
 31
0.0
  0
LINE
  5
4A35
330
1F
100
AcDbEntity
  8
HATCH
  6
Continuous
100
AcDbLine
 10
1778.65022062556
 20
1043.129805466001
 30
0.0
 11
1778.65022062556
 21
1043.129805466001
 31
0.0
  0
LINE
  5
4A36
330
1F
100
AcDbEntity
  8
HATCH
  6
Continuous
100
AcDbLine
 10
1780.991076169932
 20
1040.984806556821
 30
0.0
 11
1780.991076169932
 21
1040.984806556821
 31
0.0
  0
LINE
  5
4A37
330
1F
100
AcDbEntity
  8
HATCH
  6
Continuous
100
AcDbLine
 10
1792.039914339369
 20
1030.860411705493
 30
0.0
 11
1792.039914339369
 21
1030.860411705493
 31
0.0
  0
LINE
  5
4A38
330
1F
100
AcDbEntity
  8
HATCH
  6
Continuous
100
AcDbLine
 10
1740.472398001945
 20
1031.98333930314
 30
0.0
 11
1740.472398001945
 21
1031.98333930314
 31
0.0
  0
LINE
  5
4A39
330
1F
100
AcDbEntity
  8
HATCH
  6
Continuous
100
AcDbLine
 10
1742.813253546317
 20
1029.83834039396
 30
0.0
 11
1742.813253546317
 21
1029.83834039396
 31
0.0
  0
LINE
  5
4A3A
330
1F
100
AcDbEntity
  8
HATCH
  6
Continuous
100
AcDbLine
 10
1753.862091715754
 20
1019.713945542632
 30
0.0
 11
1753.862091715754
 21
1019.713945542632
 31
0.0
  0
LINE
  5
4A3B
330
1F
100
AcDbEntity
  8
HATCH
  6
Continuous
100
AcDbLine
 10
1702.29457537833
 20
1020.836873140279
 30
0.0
 11
1702.29457537833
 21
1020.836873140279
 31
0.0
  0
LINE
  5
4A3C
330
1F
100
AcDbEntity
  8
HATCH
  6
Continuous
100
AcDbLine
 10
1704.635430922702
 20
1018.6918742311
 30
0.0
 11
1704.635430922702
 21
1018.6918742311
 31
0.0
  0
LINE
  5
4A3D
330
1F
100
AcDbEntity
  8
HATCH
  6
Continuous
100
AcDbLine
 10
1715.684269092139
 20
1008.567479379771
 30
0.0
 11
1715.684269092139
 21
1008.567479379771
 31
0.0
  0
LINE
  5
4A3E
330
1F
100
AcDbEntity
  8
HATCH
  6
Continuous
100
AcDbLine
 10
1664.116752754716
 20
1009.690406977419
 30
0.0
 11
1664.116752754716
 21
1009.690406977419
 31
0.0
  0
LINE
  5
4A3F
330
1F
100
AcDbEntity
  8
HATCH
  6
Continuous
100
AcDbLine
 10
1666.457608299088
 20
1007.545408068239
 30
0.0
 11
1666.457608299088
 21
1007.545408068239
 31
0.0
  0
LINE
  5
4A40
330
1F
100
AcDbEntity
  8
HATCH
  6
Continuous
100
AcDbLine
 10
1677.506446468524
 20
997.421013216911
 30
0.0
 11
1677.506446468524
 21
997.421013216911
 31
0.0
  0
LINE
  5
4A41
330
1F
100
AcDbEntity
  8
HATCH
  6
Continuous
100
AcDbLine
 10
1625.9389301311
 20
998.5439408145579
 30
0.0
 11
1625.9389301311
 21
998.5439408145579
 31
0.0
  0
LINE
  5
4A42
330
1F
100
AcDbEntity
  8
HATCH
  6
Continuous
100
AcDbLine
 10
1628.279785675473
 20
996.3989419053781
 30
0.0
 11
1628.279785675473
 21
996.3989419053781
 31
0.0
  0
LINE
  5
4A43
330
1F
100
AcDbEntity
  8
HATCH
  6
Continuous
100
AcDbLine
 10
1639.328623844909
 20
986.2745470540499
 30
0.0
 11
1639.328623844909
 21
986.2745470540499
 31
0.0
  0
LINE
  5
4A44
330
1F
100
AcDbEntity
  8
HATCH
  6
Continuous
100
AcDbLine
 10
1587.761107507486
 20
987.3974746516973
 30
0.0
 11
1587.761107507486
 21
987.3974746516973
 31
0.0
  0
LINE
  5
4A45
330
1F
100
AcDbEntity
  8
HATCH
  6
Continuous
100
AcDbLine
 10
1590.101963051858
 20
985.2524757425175
 30
0.0
 11
1590.101963051858
 21
985.2524757425175
 31
0.0
  0
LINE
  5
4A46
330
1F
100
AcDbEntity
  8
HATCH
  6
Continuous
100
AcDbLine
 10
1601.150801221294
 20
975.1280808911893
 30
0.0
 11
1601.150801221294
 21
975.1280808911893
 31
0.0
  0
LINE
  5
4A47
330
1F
100
AcDbEntity
  8
HATCH
  6
Continuous
100
AcDbLine
 10
1167.805058647722
 20
864.7863468602283
 30
0.0
 11
1167.805058647722
 21
864.7863468602283
 31
0.0
  0
LINE
  5
4A48
330
1F
100
AcDbEntity
  8
HATCH
  6
Continuous
100
AcDbLine
 10
1170.145914192094
 20
862.6413479510485
 30
0.0
 11
1170.145914192094
 21
862.6413479510485
 31
0.0
  0
LINE
  5
4A49
330
1F
100
AcDbEntity
  8
HATCH
  6
Continuous
100
AcDbLine
 10
1129.627236024107
 20
853.6398806973675
 30
0.0
 11
1129.627236024107
 21
853.6398806973675
 31
0.0
  0
LINE
  5
4A4A
330
1F
100
AcDbEntity
  8
HATCH
  6
Continuous
100
AcDbLine
 10
1131.968091568479
 20
851.4948817881878
 30
0.0
 11
1131.968091568479
 21
851.4948817881878
 31
0.0
  0
LINE
  5
4A4B
330
1F
100
AcDbEntity
  8
HATCH
  6
Continuous
100
AcDbLine
 10
1143.016929737916
 20
841.3704869368595
 30
0.0
 11
1143.016929737916
 21
841.3704869368595
 31
0.0
  0
LINE
  5
4A4C
330
1F
100
AcDbEntity
  8
HATCH
  6
Continuous
100
AcDbLine
 10
1091.449413400492
 20
842.4934145345066
 30
0.0
 11
1091.449413400492
 21
842.4934145345066
 31
0.0
  0
LINE
  5
4A4D
330
1F
100
AcDbEntity
  8
HATCH
  6
Continuous
100
AcDbLine
 10
1093.790268944864
 20
840.3484156253266
 30
0.0
 11
1093.790268944864
 21
840.3484156253266
 31
0.0
  0
LINE
  5
4A4E
330
1F
100
AcDbEntity
  8
HATCH
  6
Continuous
100
AcDbLine
 10
1104.839107114301
 20
830.2240207739984
 30
0.0
 11
1104.839107114301
 21
830.2240207739984
 31
0.0
  0
LINE
  5
4A4F
330
1F
100
AcDbEntity
  8
HATCH
  6
Continuous
100
AcDbLine
 10
1053.271590776878
 20
831.3469483716458
 30
0.0
 11
1053.271590776878
 21
831.3469483716458
 31
0.0
  0
LINE
  5
4A50
330
1F
100
AcDbEntity
  8
HATCH
  6
Continuous
100
AcDbLine
 10
1055.61244632125
 20
829.2019494624661
 30
0.0
 11
1055.61244632125
 21
829.2019494624661
 31
0.0
  0
LINE
  5
4A51
330
1F
100
AcDbEntity
  8
HATCH
  6
Continuous
100
AcDbLine
 10
1066.661284490686
 20
819.0775546111378
 30
0.0
 11
1066.661284490686
 21
819.0775546111378
 31
0.0
  0
LINE
  5
4A52
330
1F
100
AcDbEntity
  8
HATCH
  6
Continuous
100
AcDbLine
 10
1015.093768153263
 20
820.200482208785
 30
0.0
 11
1015.093768153263
 21
820.200482208785
 31
0.0
  0
LINE
  5
4A53
330
1F
100
AcDbEntity
  8
HATCH
  6
Continuous
100
AcDbLine
 10
1017.434623697635
 20
818.0554832996053
 30
0.0
 11
1017.434623697635
 21
818.0554832996053
 31
0.0
  0
LINE
  5
4A54
330
1F
100
AcDbEntity
  8
HATCH
  6
Continuous
100
AcDbLine
 10
1028.483461867071
 20
807.9310884482771
 30
0.0
 11
1028.483461867071
 21
807.9310884482771
 31
0.0
  0
LINE
  5
4A55
330
1F
100
AcDbEntity
  8
HATCH
  6
Continuous
100
AcDbLine
 10
976.9159455296481
 20
809.0540160459241
 30
0.0
 11
976.9159455296481
 21
809.0540160459241
 31
0.0
  0
LINE
  5
4A56
330
1F
100
AcDbEntity
  8
HATCH
  6
Continuous
100
AcDbLine
 10
979.2568010740204
 20
806.9090171367443
 30
0.0
 11
979.2568010740204
 21
806.9090171367443
 31
0.0
  0
LINE
  5
4A57
330
1F
100
AcDbEntity
  8
HATCH
  6
Continuous
100
AcDbLine
 10
990.3056392434569
 20
796.7846222854161
 30
0.0
 11
990.3056392434569
 21
796.7846222854161
 31
0.0
  0
LINE
  5
4A58
330
1F
100
AcDbEntity
  8
HATCH
  6
Continuous
100
AcDbLine
 10
938.7381229060332
 20
797.9075498830633
 30
0.0
 11
938.7381229060332
 21
797.9075498830633
 31
0.0
  0
LINE
  5
4A59
330
1F
100
AcDbEntity
  8
HATCH
  6
Continuous
100
AcDbLine
 10
941.0789784504054
 20
795.7625509738835
 30
0.0
 11
941.0789784504054
 21
795.7625509738835
 31
0.0
  0
LINE
  5
4A5A
330
1F
100
AcDbEntity
  8
HATCH
  6
Continuous
100
AcDbLine
 10
952.1278166198419
 20
785.6381561225552
 30
0.0
 11
952.1278166198419
 21
785.6381561225552
 31
0.0
  0
LINE
  5
4A5B
330
1F
100
AcDbEntity
  8
HATCH
  6
Continuous
100
AcDbLine
 10
900.5603002824182
 20
786.7610837202026
 30
0.0
 11
900.5603002824182
 21
786.7610837202026
 31
0.0
  0
LINE
  5
4A5C
330
1F
100
AcDbEntity
  8
HATCH
  6
Continuous
100
AcDbLine
 10
902.9011558267903
 20
784.6160848110229
 30
0.0
 11
902.9011558267903
 21
784.6160848110229
 31
0.0
  0
LINE
  5
4A5D
330
1F
100
AcDbEntity
  8
HATCH
  6
Continuous
100
AcDbLine
 10
913.9499939962268
 20
774.4916899596947
 30
0.0
 11
913.9499939962268
 21
774.4916899596947
 31
0.0
  0
LINE
  5
4A5E
330
1F
100
AcDbEntity
  8
HATCH
  6
Continuous
100
AcDbLine
 10
862.3824776588035
 20
775.6146175573418
 30
0.0
 11
862.3824776588035
 21
775.6146175573418
 31
0.0
  0
LINE
  5
4A5F
330
1F
100
AcDbEntity
  8
HATCH
  6
Continuous
100
AcDbLine
 10
864.7233332031756
 20
773.469618648162
 30
0.0
 11
864.7233332031756
 21
773.469618648162
 31
0.0
  0
LINE
  5
4A60
330
1F
100
AcDbEntity
  8
HATCH
  6
Continuous
100
AcDbLine
 10
875.7721713726121
 20
763.3452237968338
 30
0.0
 11
875.7721713726121
 21
763.3452237968338
 31
0.0
  0
LINE
  5
4A61
330
1F
100
AcDbEntity
  8
HATCH
  6
Continuous
100
AcDbLine
 10
824.2046550351886
 20
764.4681513944808
 30
0.0
 11
824.2046550351886
 21
764.4681513944808
 31
0.0
  0
LINE
  5
4A62
330
1F
100
AcDbEntity
  8
HATCH
  6
Continuous
100
AcDbLine
 10
826.5455105795608
 20
762.3231524853011
 30
0.0
 11
826.5455105795608
 21
762.3231524853011
 31
0.0
  0
LINE
  5
4A63
330
1F
100
AcDbEntity
  8
HATCH
  6
Continuous
100
AcDbLine
 10
837.5943487489973
 20
752.1987576339728
 30
0.0
 11
837.5943487489973
 21
752.1987576339728
 31
0.0
  0
LINE
  5
4A64
330
1F
100
AcDbEntity
  8
HATCH
  6
Continuous
100
AcDbLine
 10
786.0268324115739
 20
753.3216852316199
 30
0.0
 11
786.0268324115739
 21
753.3216852316199
 31
0.0
  0
LINE
  5
4A65
330
1F
100
AcDbEntity
  8
HATCH
  6
Continuous
100
AcDbLine
 10
788.367687955946
 20
751.1766863224401
 30
0.0
 11
788.367687955946
 21
751.1766863224401
 31
0.0
  0
LINE
  5
4A66
330
1F
100
AcDbEntity
  8
HATCH
  6
Continuous
100
AcDbLine
 10
799.4165261253826
 20
741.0522914711118
 30
0.0
 11
799.4165261253826
 21
741.0522914711118
 31
0.0
  0
LINE
  5
4A67
330
1F
100
AcDbEntity
  8
HATCH
  6
Continuous
100
AcDbLine
 10
747.8490097879588
 20
742.1752190687593
 30
0.0
 11
747.8490097879588
 21
742.1752190687593
 31
0.0
  0
LINE
  5
4A68
330
1F
100
AcDbEntity
  8
HATCH
  6
Continuous
100
AcDbLine
 10
750.1898653323309
 20
740.0302201595795
 30
0.0
 11
750.1898653323309
 21
740.0302201595795
 31
0.0
  0
LINE
  5
4A69
330
1F
100
AcDbEntity
  8
HATCH
  6
Continuous
100
AcDbLine
 10
761.2387035017675
 20
729.9058253082513
 30
0.0
 11
761.2387035017675
 21
729.9058253082513
 31
0.0
  0
LINE
  5
4A6A
330
1F
100
AcDbEntity
  8
HATCH
  6
Continuous
100
AcDbLine
 10
709.6711871643441
 20
731.0287529058984
 30
0.0
 11
709.6711871643441
 21
731.0287529058984
 31
0.0
  0
LINE
  5
4A6B
330
1F
100
AcDbEntity
  8
HATCH
  6
Continuous
100
AcDbLine
 10
712.0120427087162
 20
728.8837539967187
 30
0.0
 11
712.0120427087162
 21
728.8837539967187
 31
0.0
  0
LINE
  5
4A6C
330
1F
100
AcDbEntity
  8
HATCH
  6
Continuous
100
AcDbLine
 10
723.0608808781528
 20
718.7593591453905
 30
0.0
 11
723.0608808781528
 21
718.7593591453905
 31
0.0
  0
LINE
  5
4A6D
330
1F
100
AcDbEntity
  8
HATCH
  6
Continuous
100
AcDbLine
 10
671.4933645407292
 20
719.8822867430376
 30
0.0
 11
671.4933645407292
 21
719.8822867430376
 31
0.0
  0
LINE
  5
4A6E
330
1F
100
AcDbEntity
  8
HATCH
  6
Continuous
100
AcDbLine
 10
673.8342200851014
 20
717.7372878338578
 30
0.0
 11
673.8342200851014
 21
717.7372878338578
 31
0.0
  0
LINE
  5
4A6F
330
1F
100
AcDbEntity
  8
HATCH
  6
Continuous
100
AcDbLine
 10
684.8830582545379
 20
707.6128929825296
 30
0.0
 11
684.8830582545379
 21
707.6128929825296
 31
0.0
  0
LINE
  5
4A70
330
1F
100
AcDbEntity
  8
HATCH
  6
Continuous
100
AcDbLine
 10
633.3155419171142
 20
708.7358205801769
 30
0.0
 11
633.3155419171142
 21
708.7358205801769
 31
0.0
  0
LINE
  5
4A71
330
1F
100
AcDbEntity
  8
HATCH
  6
Continuous
100
AcDbLine
 10
635.6563974614864
 20
706.5908216709971
 30
0.0
 11
635.6563974614864
 21
706.5908216709971
 31
0.0
  0
LINE
  5
4A72
330
1F
100
AcDbEntity
  8
HATCH
  6
Continuous
100
AcDbLine
 10
646.7052356309229
 20
696.4664268196688
 30
0.0
 11
646.7052356309229
 21
696.4664268196688
 31
0.0
  0
LINE
  5
4A73
330
1F
100
AcDbEntity
  8
HATCH
  6
Continuous
100
AcDbLine
 10
595.1377192934995
 20
697.589354417316
 30
0.0
 11
595.1377192934995
 21
697.589354417316
 31
0.0
  0
LINE
  5
4A74
330
1F
100
AcDbEntity
  8
HATCH
  6
Continuous
100
AcDbLine
 10
597.4785748378717
 20
695.4443555081362
 30
0.0
 11
597.4785748378717
 21
695.4443555081362
 31
0.0
  0
LINE
  5
4A75
330
1F
100
AcDbEntity
  8
HATCH
  6
Continuous
100
AcDbLine
 10
608.5274130073083
 20
685.319960656808
 30
0.0
 11
608.5274130073083
 21
685.319960656808
 31
0.0
  0
LINE
  5
4A76
330
1F
100
AcDbEntity
  8
HATCH
  6
Continuous
100
AcDbLine
 10
556.9598966698847
 20
686.4428882544553
 30
0.0
 11
556.9598966698847
 21
686.4428882544553
 31
0.0
  0
LINE
  5
4A77
330
1F
100
AcDbEntity
  8
HATCH
  6
Continuous
100
AcDbLine
 10
559.3007522142569
 20
684.2978893452754
 30
0.0
 11
559.3007522142569
 21
684.2978893452754
 31
0.0
  0
LINE
  5
4A78
330
1F
100
AcDbEntity
  8
HATCH
  6
Continuous
100
AcDbLine
 10
570.3495903836934
 20
674.1734944939472
 30
0.0
 11
570.3495903836934
 21
674.1734944939472
 31
0.0
  0
LINE
  5
4A79
330
1F
100
AcDbEntity
  8
HATCH
  6
Continuous
100
AcDbLine
 10
521.1229295906418
 20
673.1514231824148
 30
0.0
 11
521.1229295906418
 21
673.1514231824148
 31
0.0
  0
LINE
  5
4A7A
330
1F
100
AcDbEntity
  8
HATCH
  6
Continuous
100
AcDbLine
 10
532.1717677600783
 20
663.0270283310864
 30
0.0
 11
532.1717677600783
 21
663.0270283310864
 31
0.0
  0
LINE
  5
4A7B
330
1F
100
AcDbEntity
  8
HATCH
  6
Continuous
100
AcDbLine
 10
482.9451069670271
 20
662.0049570195537
 30
0.0
 11
482.9451069670271
 21
662.0049570195537
 31
0.0
  0
LINE
  5
4A7C
330
1F
100
AcDbEntity
  8
HATCH
  6
Continuous
100
AcDbLine
 10
493.9939451364636
 20
651.8805621682255
 30
0.0
 11
493.9939451364636
 21
651.8805621682255
 31
0.0
  0
LINE
  5
4A7D
330
1F
100
AcDbEntity
  8
single
100
AcDbLine
 10
479.9999999999998
 20
673.3501704614999
 30
0.0
 11
524.9446217749034
 21
686.8335569939711
 31
0.0
  0
LINE
  5
4A7E
330
1F
100
AcDbEntity
  8
single
100
AcDbLine
 10
524.9446217749034
 20
686.8335569939711
 30
0.0
 11
525.749195854489
 21
684.1516433953517
 31
0.0
  0
LINE
  5
4A7F
330
1F
100
AcDbEntity
  8
single
100
AcDbLine
 10
525.749195854489
 20
684.1516433953517
 30
0.0
 11
479.9999999999998
 21
670.4268846390051
 31
0.0
  0
LINE
  5
4A80
330
1F
100
AcDbEntity
  8
single
100
AcDbLine
 10
479.9999999999998
 20
676.273456283995
 30
0.0
 11
524.8586642782377
 21
689.7310555674664
 31
0.0
  0
LINE
  5
4A81
330
1F
100
AcDbEntity
  8
single
100
AcDbLine
 10
524.8586642782377
 20
689.7310555674664
 30
0.0
 11
530.3084489721418
 21
688.4427051531422
 31
0.0
  0
LINE
  5
4A82
330
1F
100
AcDbEntity
  8
single
100
AcDbLine
 10
530.3084489721418
 20
688.4427051531422
 30
0.0
 11
659.0403017058645
 21
727.0622609732592
 31
0.0
  0
LINE
  5
4A83
330
1F
100
AcDbEntity
  8
single
100
AcDbLine
 10
659.0403017058645
 20
727.0622609732592
 30
0.0
 11
659.8448757854505
 21
724.3803473746404
 31
0.0
  0
LINE
  5
4A84
330
1F
100
AcDbEntity
  8
single
100
AcDbLine
 10
659.8448757854505
 20
724.3803473746404
 30
0.0
 11
530.3944064688074
 21
685.5452065796473
 31
0.0
  0
LINE
  5
4A85
330
1F
100
AcDbEntity
  8
single
100
AcDbLine
 10
530.3944064688074
 20
685.5452065796473
 30
0.0
 11
524.9446217749034
 21
686.8335569939711
 31
0.0
  0
LINE
  5
4A86
330
1F
100
AcDbEntity
  8
single
100
AcDbLine
 10
524.9446217749034
 20
686.8335569939711
 30
0.0
 11
479.9999999999998
 21
673.3501704614999
 31
0.0
  0
LINE
  5
4A87
330
1F
100
AcDbEntity
  8
single
100
AcDbLine
 10
793.9405557164116
 20
764.6090513539286
 30
0.0
 11
664.4900863997683
 21
725.7739105589355
 31
0.0
  0
LINE
  5
4A88
330
1F
100
AcDbEntity
  8
single
100
AcDbLine
 10
664.4900863997683
 20
725.7739105589355
 30
0.0
 11
659.0403017058645
 21
727.0622609732592
 31
0.0
  0
LINE
  5
4A89
330
1F
100
AcDbEntity
  8
single
100
AcDbLine
 10
659.0403017058645
 20
727.0622609732592
 30
0.0
 11
530.3084489721422
 21
688.4427051531426
 31
0.0
  0
LINE
  5
4A8A
330
1F
100
AcDbEntity
  8
single
100
AcDbLine
 10
530.3084489721422
 20
688.4427051531426
 30
0.0
 11
524.8586642782381
 21
689.7310555674664
 31
0.0
  0
LINE
  5
4A8B
330
1F
100
AcDbEntity
  8
single
100
AcDbLine
 10
524.8586642782381
 20
689.7310555674664
 30
0.0
 11
500.1943905647888
 21
682.3317734534314
 31
0.0
  0
LINE
  5
4A8C
330
1F
100
AcDbEntity
  8
single
100
AcDbLine
 10
500.1943905647888
 20
682.3317734534314
 30
0.0
 11
499.3898164852033
 21
685.0136870520507
 31
0.0
  0
LINE
  5
4A8D
330
1F
100
AcDbEntity
  8
single
100
AcDbLine
 10
499.3898164852033
 20
685.0136870520507
 30
0.0
 11
524.7727067815723
 21
692.6285541409618
 31
0.0
  0
LINE
  5
4A8E
330
1F
100
AcDbEntity
  8
single
100
AcDbLine
 10
524.7727067815723
 20
692.6285541409618
 30
0.0
 11
530.2224914754767
 21
691.340203726638
 31
0.0
  0
LINE
  5
4A8F
330
1F
100
AcDbEntity
  8
single
100
AcDbLine
 10
530.2224914754767
 20
691.340203726638
 30
0.0
 11
658.9543442091992
 21
729.9597595467546
 31
0.0
  0
LINE
  5
4A90
330
1F
100
AcDbEntity
  8
single
100
AcDbLine
 10
658.9543442091992
 20
729.9597595467546
 30
0.0
 11
664.4041289031031
 21
728.6714091324308
 31
0.0
  0
LINE
  5
4A91
330
1F
100
AcDbEntity
  8
single
100
AcDbLine
 10
664.4041289031031
 20
728.6714091324308
 30
0.0
 11
793.135981636826
 21
767.2909649525474
 31
0.0
  0
LINE
  5
4A92
330
1F
100
AcDbEntity
  8
single
100
AcDbLine
 10
793.135981636826
 20
767.2909649525474
 30
0.0
 11
793.9405557164116
 21
764.6090513539286
 31
0.0
  0
LINE
  5
4A93
330
1F
100
AcDbEntity
  8
single
100
AcDbLine
 10
928.0362356473727
 20
804.8377553332167
 30
0.0
 11
798.5857663307299
 21
766.0026145382241
 31
0.0
  0
LINE
  5
4A94
330
1F
100
AcDbEntity
  8
single
100
AcDbLine
 10
798.5857663307299
 20
766.0026145382241
 30
0.0
 11
793.135981636826
 21
767.2909649525474
 31
0.0
  0
LINE
  5
4A95
330
1F
100
AcDbEntity
  8
single
100
AcDbLine
 10
793.135981636826
 20
767.2909649525474
 30
0.0
 11
664.4041289031036
 21
728.6714091324308
 31
0.0
  0
LINE
  5
4A96
330
1F
100
AcDbEntity
  8
single
100
AcDbLine
 10
664.4041289031036
 20
728.6714091324308
 30
0.0
 11
658.9543442091992
 21
729.9597595467546
 31
0.0
  0
LINE
  5
4A97
330
1F
100
AcDbEntity
  8
single
100
AcDbLine
 10
658.9543442091992
 20
729.9597595467546
 30
0.0
 11
634.2900704957501
 21
722.5604774327201
 31
0.0
  0
LINE
  5
4A98
330
1F
100
AcDbEntity
  8
single
100
AcDbLine
 10
634.2900704957501
 20
722.5604774327201
 30
0.0
 11
633.4854964161642
 21
725.2423910313393
 31
0.0
  0
LINE
  5
4A99
330
1F
100
AcDbEntity
  8
single
100
AcDbLine
 10
633.4854964161642
 20
725.2423910313393
 30
0.0
 11
658.8683867125334
 21
732.8572581202499
 31
0.0
  0
LINE
  5
4A9A
330
1F
100
AcDbEntity
  8
single
100
AcDbLine
 10
658.8683867125334
 20
732.8572581202499
 30
0.0
 11
664.3181714064378
 21
731.5689077059261
 31
0.0
  0
LINE
  5
4A9B
330
1F
100
AcDbEntity
  8
single
100
AcDbLine
 10
664.3181714064378
 20
731.5689077059261
 30
0.0
 11
793.0500241401603
 21
770.1884635260433
 31
0.0
  0
LINE
  5
4A9C
330
1F
100
AcDbEntity
  8
single
100
AcDbLine
 10
793.0500241401603
 20
770.1884635260433
 30
0.0
 11
798.4998088340642
 21
768.9001131117195
 31
0.0
  0
LINE
  5
4A9D
330
1F
100
AcDbEntity
  8
single
100
AcDbLine
 10
798.4998088340642
 20
768.9001131117195
 30
0.0
 11
927.2316615677871
 21
807.519668931836
 31
0.0
  0
LINE
  5
4A9E
330
1F
100
AcDbEntity
  8
single
100
AcDbLine
 10
927.2316615677871
 20
807.519668931836
 30
0.0
 11
928.0362356473727
 21
804.8377553332167
 31
0.0
  0
LINE
  5
4A9F
330
1F
100
AcDbEntity
  8
single
100
AcDbLine
 10
1062.131915578333
 20
845.0664593125054
 30
0.0
 11
932.681446261691
 21
806.2313185175124
 31
0.0
  0
LINE
  5
4AA0
330
1F
100
AcDbEntity
  8
single
100
AcDbLine
 10
932.681446261691
 20
806.2313185175124
 30
0.0
 11
927.2316615677871
 21
807.519668931836
 31
0.0
  0
LINE
  5
4AA1
330
1F
100
AcDbEntity
  8
single
100
AcDbLine
 10
927.2316615677871
 20
807.519668931836
 30
0.0
 11
798.4998088340646
 21
768.9001131117195
 31
0.0
  0
LINE
  5
4AA2
330
1F
100
AcDbEntity
  8
single
100
AcDbLine
 10
798.4998088340646
 20
768.9001131117195
 30
0.0
 11
793.0500241401603
 21
770.1884635260433
 31
0.0
  0
LINE
  5
4AA3
330
1F
100
AcDbEntity
  8
single
100
AcDbLine
 10
793.0500241401603
 20
770.1884635260433
 30
0.0
 11
768.3857504267114
 21
762.7891814120086
 31
0.0
  0
LINE
  5
4AA4
330
1F
100
AcDbEntity
  8
single
100
AcDbLine
 10
768.3857504267114
 20
762.7891814120086
 30
0.0
 11
767.5811763471253
 21
765.4710950106276
 31
0.0
  0
LINE
  5
4AA5
330
1F
100
AcDbEntity
  8
single
100
AcDbLine
 10
767.5811763471253
 20
765.4710950106276
 30
0.0
 11
792.9640666434948
 21
773.0859620995381
 31
0.0
  0
LINE
  5
4AA6
330
1F
100
AcDbEntity
  8
single
100
AcDbLine
 10
792.9640666434948
 20
773.0859620995381
 30
0.0
 11
798.4138513373989
 21
771.7976116852144
 31
0.0
  0
LINE
  5
4AA7
330
1F
100
AcDbEntity
  8
single
100
AcDbLine
 10
798.4138513373989
 20
771.7976116852144
 30
0.0
 11
927.1457040711213
 21
810.4171675053315
 31
0.0
  0
LINE
  5
4AA8
330
1F
100
AcDbEntity
  8
single
100
AcDbLine
 10
927.1457040711213
 20
810.4171675053315
 30
0.0
 11
932.5954887650253
 21
809.1288170910077
 31
0.0
  0
LINE
  5
4AA9
330
1F
100
AcDbEntity
  8
single
100
AcDbLine
 10
932.5954887650253
 20
809.1288170910077
 30
0.0
 11
1061.327341498748
 21
847.7483729111247
 31
0.0
  0
LINE
  5
4AAA
330
1F
100
AcDbEntity
  8
single
100
AcDbLine
 10
1061.327341498748
 20
847.7483729111247
 30
0.0
 11
1062.131915578333
 21
845.0664593125054
 31
0.0
  0
LINE
  5
4AAB
330
1F
100
AcDbEntity
  8
single
100
AcDbLine
 10
1185.0
 20
881.926884639005
 30
0.0
 11
1066.777126192652
 21
846.4600224968009
 31
0.0
  0
LINE
  5
4AAC
330
1F
100
AcDbEntity
  8
single
100
AcDbLine
 10
1066.777126192652
 20
846.4600224968009
 30
0.0
 11
1061.327341498748
 21
847.7483729111247
 31
0.0
  0
LINE
  5
4AAD
330
1F
100
AcDbEntity
  8
single
100
AcDbLine
 10
1061.327341498748
 20
847.7483729111247
 30
0.0
 11
932.5954887650256
 21
809.1288170910077
 31
0.0
  0
LINE
  5
4AAE
330
1F
100
AcDbEntity
  8
single
100
AcDbLine
 10
932.5954887650256
 20
809.1288170910077
 30
0.0
 11
927.1457040711213
 21
810.4171675053315
 31
0.0
  0
LINE
  5
4AAF
330
1F
100
AcDbEntity
  8
single
100
AcDbLine
 10
927.1457040711213
 20
810.4171675053315
 30
0.0
 11
902.4814303576725
 21
803.0178853912968
 31
0.0
  0
LINE
  5
4AB0
330
1F
100
AcDbEntity
  8
single
100
AcDbLine
 10
902.4814303576725
 20
803.0178853912968
 30
0.0
 11
901.6768562780869
 21
805.6997989899157
 31
0.0
  0
LINE
  5
4AB1
330
1F
100
AcDbEntity
  8
single
100
AcDbLine
 10
901.6768562780869
 20
805.6997989899157
 30
0.0
 11
927.0597465744561
 21
813.3146660788263
 31
0.0
  0
LINE
  5
4AB2
330
1F
100
AcDbEntity
  8
single
100
AcDbLine
 10
927.0597465744561
 20
813.3146660788263
 30
0.0
 11
932.5095312683604
 21
812.026315664503
 31
0.0
  0
LINE
  5
4AB3
330
1F
100
AcDbEntity
  8
single
100
AcDbLine
 10
932.5095312683604
 20
812.026315664503
 30
0.0
 11
1061.241384002082
 21
850.6458714846196
 31
0.0
  0
LINE
  5
4AB4
330
1F
100
AcDbEntity
  8
single
100
AcDbLine
 10
1061.241384002082
 20
850.6458714846196
 30
0.0
 11
1066.691168695987
 21
849.3575210702958
 31
0.0
  0
LINE
  5
4AB5
330
1F
100
AcDbEntity
  8
single
100
AcDbLine
 10
1066.691168695987
 20
849.3575210702958
 30
0.0
 11
1184.195425920414
 21
884.6087982376245
 31
0.0
  0
LINE
  5
4AB6
330
1F
100
AcDbEntity
  8
single
100
AcDbLine
 10
1184.195425920414
 20
884.6087982376245
 30
0.0
 11
1185.0
 21
881.926884639005
 31
0.0
  0
LINE
  5
4AB7
330
1F
100
AcDbEntity
  8
single
100
AcDbLine
 10
1184.195425920414
 20
884.6087982376243
 30
0.0
 11
1066.691168695987
 21
849.3575210702958
 31
0.0
  0
LINE
  5
4AB8
330
1F
100
AcDbEntity
  8
single
100
AcDbLine
 10
1066.691168695987
 20
849.3575210702958
 30
0.0
 11
1061.241384002083
 21
850.6458714846196
 31
0.0
  0
LINE
  5
4AB9
330
1F
100
AcDbEntity
  8
single
100
AcDbLine
 10
1061.241384002083
 20
850.6458714846196
 30
0.0
 11
1036.577110288633
 21
843.2465893705851
 31
0.0
  0
LINE
  5
4ABA
330
1F
100
AcDbEntity
  8
single
100
AcDbLine
 10
1036.577110288633
 20
843.2465893705851
 30
0.0
 11
1035.772536209048
 21
845.9285029692038
 31
0.0
  0
LINE
  5
4ABB
330
1F
100
AcDbEntity
  8
single
100
AcDbLine
 10
1035.772536209048
 20
845.9285029692038
 30
0.0
 11
1061.155426505417
 21
853.5433700581149
 31
0.0
  0
LINE
  5
4ABC
330
1F
100
AcDbEntity
  8
single
100
AcDbLine
 10
1061.155426505417
 20
853.5433700581149
 30
0.0
 11
1066.605211199321
 21
852.2550196437917
 31
0.0
  0
LINE
  5
4ABD
330
1F
100
AcDbEntity
  8
single
100
AcDbLine
 10
1066.605211199321
 20
852.2550196437917
 30
0.0
 11
1183.390851840828
 21
887.2907118362432
 31
0.0
  0
LINE
  5
4ABE
330
1F
100
AcDbEntity
  8
single
100
AcDbLine
 10
1183.390851840828
 20
887.2907118362432
 30
0.0
 11
1184.195425920414
 21
884.6087982376243
 31
0.0
  0
LINE
  5
4ABF
330
1F
100
AcDbEntity
  8
single
100
AcDbLine
 10
1187.8
 20
831.9268846390052
 30
0.0
 11
1187.8
 21
882.3378373806555
 31
0.0
  0
LINE
  5
4AC0
330
1F
100
AcDbEntity
  8
single
100
AcDbLine
 10
1187.8
 20
882.3378373806555
 30
0.0
 11
1185.268191359862
 21
890.7771995144482
 31
0.0
  0
LINE
  5
4AC1
330
1F
100
AcDbEntity
  8
single
100
AcDbLine
 10
1185.268191359862
 20
890.7771995144482
 30
0.0
 11
1131.555164731163
 21
874.6632915258388
 31
0.0
  0
LINE
  5
4AC2
330
1F
100
AcDbEntity
  8
single
100
AcDbLine
 10
1131.555164731163
 20
874.6632915258388
 30
0.0
 11
1132.359738810749
 21
871.9813779272195
 31
0.0
  0
LINE
  5
4AC3
330
1F
100
AcDbEntity
  8
single
100
AcDbLine
 10
1132.359738810749
 20
871.9813779272195
 30
0.0
 11
1183.390851840828
 21
887.2907118362432
 31
0.0
  0
LINE
  5
4AC4
330
1F
100
AcDbEntity
  8
single
100
AcDbLine
 10
1183.390851840828
 20
887.2907118362432
 30
0.0
 11
1185.0
 21
881.9268846390052
 31
0.0
  0
LINE
  5
4AC5
330
1F
100
AcDbEntity
  8
single
100
AcDbLine
 10
1185.0
 20
881.9268846390052
 30
0.0
 11
1185.0
 21
831.9268846390052
 31
0.0
  0
LINE
  5
4AC6
330
1F
100
AcDbEntity
  8
single
100
AcDbLine
 10
1185.0
 20
831.9268846390052
 30
0.0
 11
1187.8
 21
831.9268846390052
 31
0.0
  0
LINE
  5
4AC7
330
1F
100
AcDbEntity
  8
single
100
AcDbLine
 10
2136.334094453856
 20
1162.106959720707
 30
0.0
 11
2006.883625137213
 21
1123.271818925714
 31
0.0
  0
LINE
  5
4AC8
330
1F
100
AcDbEntity
  8
single
100
AcDbLine
 10
2006.883625137213
 20
1123.271818925714
 30
0.0
 11
2001.433840443309
 21
1124.560169340037
 31
0.0
  0
LINE
  5
4AC9
330
1F
100
AcDbEntity
  8
single
100
AcDbLine
 10
2001.433840443309
 20
1124.560169340037
 30
0.0
 11
1872.701987709587
 21
1085.94061351992
 31
0.0
  0
LINE
  5
4ACA
330
1F
100
AcDbEntity
  8
single
100
AcDbLine
 10
1872.701987709587
 20
1085.94061351992
 30
0.0
 11
1867.252203015682
 21
1087.228963934244
 31
0.0
  0
LINE
  5
4ACB
330
1F
100
AcDbEntity
  8
single
100
AcDbLine
 10
1867.252203015682
 20
1087.228963934244
 30
0.0
 11
1842.587929302233
 21
1079.82968182021
 31
0.0
  0
LINE
  5
4ACC
330
1F
100
AcDbEntity
  8
single
100
AcDbLine
 10
1842.587929302233
 20
1079.82968182021
 30
0.0
 11
1841.783355222647
 21
1082.511595418829
 31
0.0
  0
LINE
  5
4ACD
330
1F
100
AcDbEntity
  8
single
100
AcDbLine
 10
1841.783355222647
 20
1082.511595418829
 30
0.0
 11
1867.166245519016
 21
1090.12646250774
 31
0.0
  0
LINE
  5
4ACE
330
1F
100
AcDbEntity
  8
single
100
AcDbLine
 10
1867.166245519016
 20
1090.12646250774
 30
0.0
 11
1872.616030212921
 21
1088.838112093416
 31
0.0
  0
LINE
  5
4ACF
330
1F
100
AcDbEntity
  8
single
100
AcDbLine
 10
1872.616030212921
 20
1088.838112093416
 30
0.0
 11
2001.347882946643
 21
1127.457667913533
 31
0.0
  0
LINE
  5
4AD0
330
1F
100
AcDbEntity
  8
single
100
AcDbLine
 10
2001.347882946643
 20
1127.457667913533
 30
0.0
 11
2006.797667640547
 21
1126.169317499209
 31
0.0
  0
LINE
  5
4AD1
330
1F
100
AcDbEntity
  8
single
100
AcDbLine
 10
2006.797667640547
 20
1126.169317499209
 30
0.0
 11
2135.52952037427
 21
1164.788873319326
 31
0.0
  0
LINE
  5
4AD2
330
1F
100
AcDbEntity
  8
single
100
AcDbLine
 10
2135.52952037427
 20
1164.788873319326
 30
0.0
 11
2136.334094453856
 21
1162.106959720707
 31
0.0
  0
LINE
  5
4AD3
330
1F
100
AcDbEntity
  8
single
100
AcDbLine
 10
2270.429774384817
 20
1202.335663699995
 30
0.0
 11
2140.979305068174
 21
1163.500522905002
 31
0.0
  0
LINE
  5
4AD4
330
1F
100
AcDbEntity
  8
single
100
AcDbLine
 10
2140.979305068174
 20
1163.500522905002
 30
0.0
 11
2135.52952037427
 21
1164.788873319326
 31
0.0
  0
LINE
  5
4AD5
330
1F
100
AcDbEntity
  8
single
100
AcDbLine
 10
2135.52952037427
 20
1164.788873319326
 30
0.0
 11
2006.797667640547
 21
1126.169317499209
 31
0.0
  0
LINE
  5
4AD6
330
1F
100
AcDbEntity
  8
single
100
AcDbLine
 10
2006.797667640547
 20
1126.169317499209
 30
0.0
 11
2001.347882946643
 21
1127.457667913533
 31
0.0
  0
LINE
  5
4AD7
330
1F
100
AcDbEntity
  8
single
100
AcDbLine
 10
2001.347882946643
 20
1127.457667913533
 30
0.0
 11
1976.683609233194
 21
1120.058385799498
 31
0.0
  0
LINE
  5
4AD8
330
1F
100
AcDbEntity
  8
single
100
AcDbLine
 10
1976.683609233194
 20
1120.058385799498
 30
0.0
 11
1975.879035153608
 21
1122.740299398117
 31
0.0
  0
LINE
  5
4AD9
330
1F
100
AcDbEntity
  8
single
100
AcDbLine
 10
1975.879035153608
 20
1122.740299398117
 30
0.0
 11
2001.261925449978
 21
1130.355166487028
 31
0.0
  0
LINE
  5
4ADA
330
1F
100
AcDbEntity
  8
single
100
AcDbLine
 10
2001.261925449978
 20
1130.355166487028
 30
0.0
 11
2006.711710143882
 21
1129.066816072704
 31
0.0
  0
LINE
  5
4ADB
330
1F
100
AcDbEntity
  8
single
100
AcDbLine
 10
2006.711710143882
 20
1129.066816072704
 30
0.0
 11
2135.443562877604
 21
1167.686371892821
 31
0.0
  0
LINE
  5
4ADC
330
1F
100
AcDbEntity
  8
single
100
AcDbLine
 10
2135.443562877604
 20
1167.686371892821
 30
0.0
 11
2140.893347571509
 21
1166.398021478497
 31
0.0
  0
LINE
  5
4ADD
330
1F
100
AcDbEntity
  8
single
100
AcDbLine
 10
2140.893347571509
 20
1166.398021478497
 30
0.0
 11
2269.625200305231
 21
1205.017577298614
 31
0.0
  0
LINE
  5
4ADE
330
1F
100
AcDbEntity
  8
single
100
AcDbLine
 10
2269.625200305231
 20
1205.017577298614
 30
0.0
 11
2270.429774384817
 21
1202.335663699995
 31
0.0
  0
LINE
  5
4ADF
330
1F
100
AcDbEntity
  8
single
100
AcDbLine
 10
2280.0
 20
1205.20673138455
 30
0.0
 11
2275.074984999136
 21
1203.729226884291
 31
0.0
  0
LINE
  5
4AE0
330
1F
100
AcDbEntity
  8
single
100
AcDbLine
 10
2275.074984999136
 20
1203.729226884291
 30
0.0
 11
2269.625200305231
 21
1205.017577298614
 31
0.0
  0
LINE
  5
4AE1
330
1F
100
AcDbEntity
  8
single
100
AcDbLine
 10
2269.625200305231
 20
1205.017577298614
 30
0.0
 11
2140.893347571509
 21
1166.398021478497
 31
0.0
  0
LINE
  5
4AE2
330
1F
100
AcDbEntity
  8
single
100
AcDbLine
 10
2140.893347571509
 20
1166.398021478497
 30
0.0
 11
2135.443562877604
 21
1167.686371892821
 31
0.0
  0
LINE
  5
4AE3
330
1F
100
AcDbEntity
  8
single
100
AcDbLine
 10
2135.443562877604
 20
1167.686371892821
 30
0.0
 11
2110.779289164156
 21
1160.287089778786
 31
0.0
  0
LINE
  5
4AE4
330
1F
100
AcDbEntity
  8
single
100
AcDbLine
 10
2110.779289164156
 20
1160.287089778786
 30
0.0
 11
2109.97471508457
 21
1162.969003377406
 31
0.0
  0
LINE
  5
4AE5
330
1F
100
AcDbEntity
  8
single
100
AcDbLine
 10
2109.97471508457
 20
1162.969003377406
 30
0.0
 11
2135.357605380939
 21
1170.583870466316
 31
0.0
  0
LINE
  5
4AE6
330
1F
100
AcDbEntity
  8
single
100
AcDbLine
 10
2135.357605380939
 20
1170.583870466316
 30
0.0
 11
2140.807390074843
 21
1169.295520051993
 31
0.0
  0
LINE
  5
4AE7
330
1F
100
AcDbEntity
  8
single
100
AcDbLine
 10
2140.807390074843
 20
1169.295520051993
 30
0.0
 11
2269.539242808565
 21
1207.91507587211
 31
0.0
  0
LINE
  5
4AE8
330
1F
100
AcDbEntity
  8
single
100
AcDbLine
 10
2269.539242808565
 20
1207.91507587211
 30
0.0
 11
2274.98902750247
 21
1206.626725457786
 31
0.0
  0
LINE
  5
4AE9
330
1F
100
AcDbEntity
  8
single
100
AcDbLine
 10
2274.98902750247
 20
1206.626725457786
 30
0.0
 11
2280.0
 21
1208.130017207045
 31
0.0
  0
LINE
  5
4AEA
330
1F
100
AcDbEntity
  8
single
100
AcDbLine
 10
2280.0
 20
1208.130017207045
 30
0.0
 11
2274.98902750247
 21
1206.626725457786
 31
0.0
  0
LINE
  5
4AEB
330
1F
100
AcDbEntity
  8
single
100
AcDbLine
 10
2274.98902750247
 20
1206.626725457786
 30
0.0
 11
2269.539242808566
 21
1207.91507587211
 31
0.0
  0
LINE
  5
4AEC
330
1F
100
AcDbEntity
  8
single
100
AcDbLine
 10
2269.539242808566
 20
1207.91507587211
 30
0.0
 11
2244.874969095116
 21
1200.515793758075
 31
0.0
  0
LINE
  5
4AED
330
1F
100
AcDbEntity
  8
single
100
AcDbLine
 10
2244.874969095116
 20
1200.515793758075
 30
0.0
 11
2244.070395015532
 21
1203.197707356694
 31
0.0
  0
LINE
  5
4AEE
330
1F
100
AcDbEntity
  8
single
100
AcDbLine
 10
2244.070395015532
 20
1203.197707356694
 30
0.0
 11
2269.4532853119
 21
1210.812574445604
 31
0.0
  0
LINE
  5
4AEF
330
1F
100
AcDbEntity
  8
single
100
AcDbLine
 10
2269.4532853119
 20
1210.812574445604
 30
0.0
 11
2274.903070005805
 21
1209.524224031281
 31
0.0
  0
LINE
  5
4AF0
330
1F
100
AcDbEntity
  8
single
100
AcDbLine
 10
2274.903070005805
 20
1209.524224031281
 30
0.0
 11
2280.0
 21
1211.05330302954
 31
0.0
  0
LINE
  5
4AF1
330
1F
100
AcDbEntity
  8
WAKU
100
AcDbLine
 10
0.0
 20
0.0
 30
0.0
 11
2760.0
 21
0.0
 31
0.0
  0
LINE
  5
4AF2
330
1F
100
AcDbEntity
  8
WAKU
100
AcDbLine
 10
2760.0
 20
0.0
 30
0.0
 11
2760.0
 21
1910.0
 31
0.0
  0
LINE
  5
4AF3
330
1F
100
AcDbEntity
  8
WAKU
100
AcDbLine
 10
2760.0
 20
1910.0
 30
0.0
 11
0.0
 21
1910.0
 31
0.0
  0
LINE
  5
4AF4
330
1F
100
AcDbEntity
  8
WAKU
100
AcDbLine
 10
0.0
 20
1910.0
 30
0.0
 11
0.0
 21
0.0
 31
0.0
  0
LINE
  5
4AF5
330
1F
100
AcDbEntity
  8
WAKU
100
AcDbLine
 10
2760.0
 20
1790.0
 30
0.0
 11
0.0
 21
1790.0
 31
0.0
  0
LINE
  5
4AF6
330
1F
100
AcDbEntity
  8
WAKU
100
AcDbLine
 10
0.0
 20
1790.0
 30
0.0
 11
0.0
 21
1910.0
 31
0.0
  0
LINE
  5
4AF7
330
1F
100
AcDbEntity
  8
WAKU
100
AcDbLine
 10
0.0
 20
1910.0
 30
0.0
 11
2760.0
 21
1910.0
 31
0.0
  0
LINE
  5
4AF8
330
1F
100
AcDbEntity
  8
WAKU
100
AcDbLine
 10
2760.0
 20
1910.0
 30
0.0
 11
2760.0
 21
1790.0
 31
0.0
  0
LINE
  5
4AF9
330
1F
100
AcDbEntity
  8
single
100
AcDbLine
 10
1574.56897817165
 20
998.7975780905001
 30
0.0
 11
1722.017050100881
 21
1043.031999669269
 31
0.0
  0
LINE
  5
4AFA
330
1F
100
AcDbEntity
  8
single
100
AcDbLine
 10
1722.017050100881
 20
1043.031999669269
 30
0.0
 11
1739.417560949065
 21
1043.031999669269
 31
0.0
  0
LINE
  5
4AFB
330
1F
100
AcDbEntity
  8
single
100
AcDbLine
 10
1739.417560949065
 20
1043.031999669269
 30
0.0
 11
1767.570974643712
 21
1051.478023777663
 31
0.0
  0
LINE
  5
4AFC
330
1F
100
AcDbEntity
  8
single
100
AcDbLine
 10
1767.570974643712
 20
1051.478023777663
 30
0.0
 11
1766.766400564127
 21
1054.159937376283
 31
0.0
  0
LINE
  5
4AFD
330
1F
100
AcDbEntity
  8
single
100
AcDbLine
 10
1766.766400564127
 20
1054.159937376283
 30
0.0
 11
1739.006608207415
 21
1045.831999669269
 31
0.0
  0
LINE
  5
4AFE
330
1F
100
AcDbEntity
  8
single
100
AcDbLine
 10
1739.006608207415
 20
1045.831999669269
 30
0.0
 11
1721.606097359231
 21
1045.831999669269
 31
0.0
  0
LINE
  5
4AFF
330
1F
100
AcDbEntity
  8
single
100
AcDbLine
 10
1721.606097359231
 20
1045.831999669269
 30
0.0
 11
1573.764404092065
 21
1001.479491689119
 31
0.0
  0
LINE
  5
4B00
330
1F
100
AcDbEntity
  8
single
100
AcDbLine
 10
1573.764404092065
 20
1001.479491689119
 30
0.0
 11
1574.56897817165
 21
998.7975780905001
 31
0.0
  0
LINE
  5
4B01
330
1F
100
AcDbEntity
  8
single
100
AcDbLine
 10
1573.764404092065
 20
1001.479491689119
 30
0.0
 11
1721.606097359227
 21
1045.831999669268
 31
0.0
  0
LINE
  5
4B02
330
1F
100
AcDbEntity
  8
single
100
AcDbLine
 10
1721.606097359227
 20
1045.831999669268
 30
0.0
 11
1739.006608207415
 21
1045.831999669269
 31
0.0
  0
LINE
  5
4B03
330
1F
100
AcDbEntity
  8
single
100
AcDbLine
 10
1739.006608207415
 20
1045.831999669269
 30
0.0
 11
1766.766400564127
 21
1054.159937376283
 31
0.0
  0
LINE
  5
4B04
330
1F
100
AcDbEntity
  8
single
100
AcDbLine
 10
1766.766400564127
 20
1054.159937376283
 30
0.0
 11
1772.216185258032
 21
1052.871586961959
 31
0.0
  0
LINE
  5
4B05
330
1F
100
AcDbEntity
  8
single
100
AcDbLine
 10
1772.216185258032
 20
1052.871586961959
 30
0.0
 11
1868.142734591933
 21
1081.64955176213
 31
0.0
  0
LINE
  5
4B06
330
1F
100
AcDbEntity
  8
single
100
AcDbLine
 10
1868.142734591933
 20
1081.64955176213
 30
0.0
 11
1867.338160512348
 21
1084.331465360749
 31
0.0
  0
LINE
  5
4B07
330
1F
100
AcDbEntity
  8
single
100
AcDbLine
 10
1867.338160512348
 20
1084.331465360749
 30
0.0
 11
1772.130227761366
 21
1055.769085535454
 31
0.0
  0
LINE
  5
4B08
330
1F
100
AcDbEntity
  8
single
100
AcDbLine
 10
1772.130227761366
 20
1055.769085535454
 30
0.0
 11
1766.680443067461
 21
1057.057435949778
 31
0.0
  0
LINE
  5
4B09
330
1F
100
AcDbEntity
  8
single
100
AcDbLine
 10
1766.680443067461
 20
1057.057435949778
 30
0.0
 11
1738.595655465764
 21
1048.631999669269
 31
0.0
  0
LINE
  5
4B0A
330
1F
100
AcDbEntity
  8
single
100
AcDbLine
 10
1738.595655465764
 20
1048.631999669269
 30
0.0
 11
1721.195144617577
 21
1048.631999669268
 31
0.0
  0
LINE
  5
4B0B
330
1F
100
AcDbEntity
  8
single
100
AcDbLine
 10
1721.195144617577
 20
1048.631999669268
 30
0.0
 11
1572.959830012479
 21
1004.161405287738
 31
0.0
  0
LINE
  5
4B0C
330
1F
100
AcDbEntity
  8
single
100
AcDbLine
 10
1572.959830012479
 20
1004.161405287738
 30
0.0
 11
1573.764404092065
 21
1001.479491689119
 31
0.0
  0
LINE
  5
4B0D
330
1F
100
AcDbEntity
  8
single
100
AcDbLine
 10
1708.545647865626
 20
1044.837150643681
 30
0.0
 11
1721.195144617581
 21
1048.631999669268
 31
0.0
  0
LINE
  5
4B0E
330
1F
100
AcDbEntity
  8
single
100
AcDbLine
 10
1721.195144617581
 20
1048.631999669268
 30
0.0
 11
1738.595655465764
 21
1048.631999669269
 31
0.0
  0
LINE
  5
4B0F
330
1F
100
AcDbEntity
  8
single
100
AcDbLine
 10
1738.595655465764
 20
1048.631999669269
 30
0.0
 11
1766.680443067461
 21
1057.057435949778
 31
0.0
  0
LINE
  5
4B10
330
1F
100
AcDbEntity
  8
single
100
AcDbLine
 10
1766.680443067461
 20
1057.057435949778
 30
0.0
 11
1772.130227761366
 21
1055.769085535454
 31
0.0
  0
LINE
  5
4B11
330
1F
100
AcDbEntity
  8
single
100
AcDbLine
 10
1772.130227761366
 20
1055.769085535454
 30
0.0
 11
1867.338160512347
 21
1084.331465360749
 31
0.0
  0
LINE
  5
4B12
330
1F
100
AcDbEntity
  8
single
100
AcDbLine
 10
1867.338160512347
 20
1084.331465360749
 30
0.0
 11
1872.787945206251
 21
1083.043114946426
 31
0.0
  0
LINE
  5
4B13
330
1F
100
AcDbEntity
  8
single
100
AcDbLine
 10
1872.787945206251
 20
1083.043114946426
 30
0.0
 11
2002.238414522895
 21
1121.87825574142
 31
0.0
  0
LINE
  5
4B14
330
1F
100
AcDbEntity
  8
single
100
AcDbLine
 10
2002.238414522895
 20
1121.87825574142
 30
0.0
 11
2001.433840443309
 21
1124.560169340039
 31
0.0
  0
LINE
  5
4B15
330
1F
100
AcDbEntity
  8
single
100
AcDbLine
 10
2001.433840443309
 20
1124.560169340039
 30
0.0
 11
1872.701987709585
 21
1085.940613519921
 31
0.0
  0
LINE
  5
4B16
330
1F
100
AcDbEntity
  8
single
100
AcDbLine
 10
1872.701987709585
 20
1085.940613519921
 30
0.0
 11
1867.252203015681
 21
1087.228963934244
 31
0.0
  0
LINE
  5
4B17
330
1F
100
AcDbEntity
  8
single
100
AcDbLine
 10
1867.252203015681
 20
1087.228963934244
 30
0.0
 11
1772.0442702647
 21
1058.66658410895
 31
0.0
  0
LINE
  5
4B18
330
1F
100
AcDbEntity
  8
single
100
AcDbLine
 10
1772.0442702647
 20
1058.66658410895
 30
0.0
 11
1766.594485570795
 21
1059.954934523273
 31
0.0
  0
LINE
  5
4B19
330
1F
100
AcDbEntity
  8
single
100
AcDbLine
 10
1766.594485570795
 20
1059.954934523273
 30
0.0
 11
1738.184702724114
 21
1051.431999669269
 31
0.0
  0
LINE
  5
4B1A
330
1F
100
AcDbEntity
  8
single
100
AcDbLine
 10
1738.184702724114
 20
1051.431999669269
 30
0.0
 11
1720.784191875931
 21
1051.431999669268
 31
0.0
  0
LINE
  5
4B1B
330
1F
100
AcDbEntity
  8
single
100
AcDbLine
 10
1720.784191875931
 20
1051.431999669268
 30
0.0
 11
1707.74107378604
 21
1047.5190642423
 31
0.0
  0
LINE
  5
4B1C
330
1F
100
AcDbEntity
  8
single
100
AcDbLine
 10
1707.74107378604
 20
1047.5190642423
 30
0.0
 11
1708.545647865626
 21
1044.837150643681
 31
0.0
  0
ENDSEC
  0
SECTION
  2
OBJECTS
  0
DICTIONARY
  5
C
330
0
100
AcDbDictionary
281
     1
  3
ACAD_CIP_PREVIOUS_PRODUCT_INFO
350
4552
  3
ACAD_COLOR
350
43A2
  3
ACAD_DETAILVIEWSTYLE
350
454D
  3
ACAD_GROUP
350
D
  3
ACAD_LAYOUT
350
1A
  3
ACAD_MATERIAL
350
4375
  3
ACAD_MLEADERSTYLE
350
43B7
  3
ACAD_MLINESTYLE
350
17
  3
ACAD_PLOTSETTINGS
350
19
  3
ACAD_PLOTSTYLENAME
350
E
  3
ACAD_SCALELIST
350
43A5
  3
ACAD_SECTIONVIEWSTYLE
350
454B
  3
ACAD_TABLESTYLE
350
43A3
  3
ACAD_VISUALSTYLE
350
438E
  3
ACDB_RECOMPOSE_DATA
350
4B1F
  3
AcDbVariableDictionary
350
1835
  3
DWGPROPS
350
4B20
  0
DICTIONARY
  5
43D8
330
8
100
AcDbDictionary
280
     1
281
     1
  0
DICTIONARY
  5
2D
330
2
100
AcDbDictionary
280
     1
281
     1
  3
ACAD_LAYERFILTERS
360
2E
  3
ACAD_LAYERSTATES
360
918
  0
DICTIONARY
  5
43C8
330
10
100
AcDbDictionary
280
     1
281
     1
  3
ADSK_XREC_LAYER_RECONCILED
360
43C9
  0
DICTIONARY
  5
43CA
330
235F
100
AcDbDictionary
280
     1
281
     1
  3
ADSK_XREC_LAYER_RECONCILED
360
43CB
  0
DICTIONARY
  5
43CC
330
2361
100
AcDbDictionary
280
     1
281
     1
  3
ADSK_XREC_LAYER_RECONCILED
360
43CD
  0
DICTIONARY
  5
43CE
330
275B
100
AcDbDictionary
280
     1
281
     1
  3
ADSK_XREC_LAYER_RECONCILED
360
43CF
  0
DICTIONARY
  5
43D0
330
35D9
100
AcDbDictionary
280
     1
281
     1
  3
ADSK_XREC_LAYER_RECONCILED
360
43D1
  0
DICTIONARY
  5
43D2
330
35DA
100
AcDbDictionary
280
     1
281
     1
  3
ADSK_XREC_LAYER_RECONCILED
360
43D3
  0
DICTIONARY
  5
459D
330
459C
100
AcDbDictionary
280
     1
281
     1
  0
DICTIONARY
  5
1C62
330
1F
100
AcDbDictionary
280
     1
281
     1
  3
ACAD_SORTENTS
360
1C63
  0
XRECORD
  5
4552
102
{ACAD_REACTORS
330
C
102
}
330
C
100
AcDbXrecord
280
     1
300
ACD
300
2022
300

  0
DICTIONARY
  5
43A2
102
{ACAD_REACTORS
330
C
102
}
330
C
100
AcDbDictionary
281
     1
  0
DICTIONARY
  5
454D
102
{ACAD_REACTORS
330
C
102
}
330
C
100
AcDbDictionary
281
     1
  3
Metric50
350
454E
  0
DICTIONARY
  5
D
102
{ACAD_REACTORS
330
C
102
}
330
C
100
AcDbDictionary
281
     1
  0
DICTIONARY
  5
1A
102
{ACAD_REACTORS
330
C
102
}
330
C
100
AcDbDictionary
281
     1
  3
Model
350
22
  3
\U+FF9A\U+FF72\U+FF71\U+FF73\U+FF841
350
1CD1
  0
DICTIONARY
  5
4375
102
{ACAD_REACTORS
330
C
102
}
330
C
100
AcDbDictionary
281
     1
  3
ByBlock
350
437E
  3
ByLayer
350
4376
  3
Global
350
4386
  0
DICTIONARY
  5
43B7
102
{ACAD_REACTORS
330
C
102
}
330
C
100
AcDbDictionary
281
     1
  3
Standard
350
43B8
  0
DICTIONARY
  5
17
102
{ACAD_REACTORS
330
C
102
}
330
C
100
AcDbDictionary
281
     1
  3
Standard
350
18
  0
DICTIONARY
  5
19
102
{ACAD_REACTORS
330
C
102
}
330
C
100
AcDbDictionary
281
     1
  0
ACDBDICTIONARYWDFLT
  5
E
102
{ACAD_REACTORS
330
C
102
}
330
C
100
AcDbDictionary
281
     1
  3
Normal
350
F
  3
通常
350
29
100
AcDbDictionaryWithDefault
340
F
  0
DICTIONARY
  5
43A5
102
{ACAD_REACTORS
330
C
102
}
330
C
100
AcDbDictionary
281
     1
  3
A0
350
43A6
  3
A1
350
43A7
  3
A2
350
43A8
  3
A3
350
43A9
  3
A4
350
43AA
  3
A5
350
43AB
  3
A6
350
43AC
  3
A7
350
43AD
  3
A8
350
43AE
  3
A9
350
43AF
  3
B0
350
43B0
  3
B1
350
43B1
  3
B2
350
43B2
  3
B3
350
43B3
  3
B4
350
43B4
  3
B5
350
43B5
  3
B6
350
43B6
  0
DICTIONARY
  5
454B
102
{ACAD_REACTORS
330
C
102
}
330
C
100
AcDbDictionary
281
     1
  3
Metric50
350
454C
  0
DICTIONARY
  5
43A3
102
{ACAD_REACTORS
330
C
102
}
330
C
100
AcDbDictionary
281
     1
  3
Standard
350
43A4
  0
DICTIONARY
  5
438E
102
{ACAD_REACTORS
330
C
102
}
330
C
100
AcDbDictionary
281
     1
  3
2dWireframe
350
4394
  3
3D Hidden
350
4396
  3
3dWireframe
350
4395
  3
Basic
350
4393
  3
Brighten
350
439A
  3
ColorChange
350
439E
  3
Conceptual
350
4397
  3
Dim
350
4399
  3
EdgeColorOff
350
43A1
  3
Facepattern
350
439D
  3
Flat
350
438F
  3
FlatWithEdges
350
4390
  3
Gouraud
350
4391
  3
GouraudWithEdges
350
4392
  3
Hidden
350
4545
  3
JitterOff
350
439F
  3
Linepattern
350
439C
  3
OverhangOff
350
43A0
  3
Realistic
350
4398
  3
Shaded
350
454A
  3
Shaded with edges
350
4549
  3
Shades of Gray
350
4546
  3
Sketchy
350
4547
  3
Thicken
350
439B
  3
Wireframe
350
4544
  3
X-Ray
350
4548
  0
XRECORD
  5
4B1F
102
{ACAD_REACTORS
330
C
102
}
330
C
100
AcDbXrecord
280
     1
 90
        1
330
43A4
  0
DICTIONARY
  5
1835
102
{ACAD_REACTORS
330
C
102
}
330
C
100
AcDbDictionary
281
     1
  3
CANNOSCALE
350
440B
  3
CMLEADERSTYLE
350
440A
  3
CTABLESTYLE
350
4409
  3
CVIEWDETAILSTYLE
350
4595
  3
CVIEWSECTIONSTYLE
350
4596
  3
DIMASSOC
350
440D
  3
INDEXCTL
350
440C
  3
SORTENTS
350
1836
  3
XCLIPFRAME
350
4B1D
  0
XRECORD
  5
4B20
102
{ACAD_REACTORS
330
C
102
}
330
C
100
AcDbXrecord
280
     1
  1
DWGPROPS COOKIE
  2

  3

  4

  6

  7

  8
2020009
  9

300
=
301
=
302
=
303
=
304
=
305
=
306
=
307
=
308
=
309
=
 40
0.3588157291666667
 41
2453276.413761574
 42
2459978.553148148
  1

 90
        0
  0
DICTIONARY
  5
2E
102
{ACAD_REACTORS
330
2D
102
}
330
2D
100
AcDbDictionary
280
     1
281
     1
  0
DICTIONARY
  5
918
102
{ACAD_REACTORS
330
2D
102
}
330
2D
100
AcDbDictionary
281
     1
  0
XRECORD
  5
43C9
102
{ACAD_REACTORS
330
43C8
102
}
330
43C8
100
AcDbXrecord
280
     1
290
     1
  0
XRECORD
  5
43CB
102
{ACAD_REACTORS
330
43CA
102
}
330
43CA
100
AcDbXrecord
280
     1
290
     1
  0
XRECORD
  5
43CD
102
{ACAD_REACTORS
330
43CC
102
}
330
43CC
100
AcDbXrecord
280
     1
290
     1
  0
XRECORD
  5
43CF
102
{ACAD_REACTORS
330
43CE
102
}
330
43CE
100
AcDbXrecord
280
     1
290
     1
  0
XRECORD
  5
43D1
102
{ACAD_REACTORS
330
43D0
102
}
330
43D0
100
AcDbXrecord
280
     1
290
     1
  0
XRECORD
  5
43D3
102
{ACAD_REACTORS
330
43D2
102
}
330
43D2
100
AcDbXrecord
280
     1
290
     1
  0
SORTENTSTABLE
  5
1C63
102
{ACAD_REACTORS
330
1C62
102
}
330
1C62
100
AcDbSortentsTable
330
1F
331
3EA0
  5
4892
331
3EA1
  5
4893
331
3EA2
  5
4894
331
3EA3
  5
4895
331
3EAD
  5
4896
331
3EB2
  5
4897
331
3EB5
  5
4898
331
3EB6
  5
4899
331
3EB7
  5
489A
331
3EBB
  5
489B
331
3EBC
  5
489C
331
3EBD
  5
489D
331
3EBE
  5
489E
331
3EC6
  5
489F
331
3ECA
  5
48A0
331
3ECB
  5
48A1
331
3ECC
  5
48A2
331
3ED2
  5
48A3
331
3ED3
  5
48A4
331
3ED7
  5
48A5
331
3ED8
  5
48A6
331
3ED9
  5
48A7
331
3EDA
  5
48A8
331
3EDC
  5
48A9
331
3EDD
  5
48AA
331
3EDE
  5
48AB
331
3EDF
  5
48AC
331
3EE5
  5
48AD
331
3F00
  5
48AE
331
3F01
  5
48AF
331
3F02
  5
48B0
331
3F03
  5
48B1
331
4293
  5
48B2
331
4294
  5
48B3
331
4297
  5
48B4
331
4299
  5
48B5
331
429F
  5
48B6
331
42A1
  5
48B7
331
42A3
  5
48B8
331
42C7
  5
48B9
331
42C9
  5
48BA
331
42CA
  5
48BB
331
42CB
  5
48BC
331
42CD
  5
48BD
331
42D1
  5
48BE
331
42D4
  5
48BF
331
42D5
  5
48C0
331
42DA
  5
48C6
331
42DD
  5
48CA
331
436B
  5
4A76
331
436C
  5
4A77
331
45B1
  5
4AF4
331
45B2
  5
4AF5
331
45B3
  5
4AF6
331
45B4
  5
4AF7
331
45B5
  5
4AF8
331
484F
  5
3EA0
331
4850
  5
3EA1
331
4851
  5
3EA2
331
4852
  5
3EA3
331
4853
  5
3EAD
331
4854
  5
3EB2
331
4855
  5
3EB5
331
4856
  5
3EB6
331
4857
  5
3EB7
331
4858
  5
3EBB
331
4859
  5
3EBC
331
485A
  5
3EBD
331
485B
  5
3EBE
331
485C
  5
3EC6
331
485D
  5
3ECA
331
485E
  5
3ECB
331
485F
  5
3ECC
331
4860
  5
3ED2
331
4861
  5
3ED3
331
4862
  5
3ED7
331
4863
  5
3ED8
331
4864
  5
3ED9
331
4865
  5
3EDA
331
4866
  5
3EDC
331
4867
  5
3EDD
331
4868
  5
3EDE
331
4869
  5
3EDF
331
486A
  5
3EE5
331
486B
  5
3F00
331
486C
  5
3F01
331
486D
  5
3F02
331
486E
  5
3F03
331
486F
  5
4293
331
4870
  5
4294
331
4871
  5
4297
331
4872
  5
4299
331
4873
  5
429F
331
4874
  5
42A1
331
4875
  5
42A3
331
4876
  5
42C7
331
4877
  5
42C9
331
4878
  5
42CA
331
4879
  5
42CB
331
487A
  5
42CD
331
487B
  5
42D1
331
487C
  5
42D4
331
487D
  5
42D5
331
487E
  5
42DA
331
487F
  5
42DD
331
4880
  5
436B
331
4881
  5
436C
331
4882
  5
45B1
331
4883
  5
45B2
331
4884
  5
45B3
331
4885
  5
45B4
331
4886
  5
45B5
331
4887
  5
484F
331
4888
  5
4850
331
4889
  5
4851
331
488A
  5
4852
331
488B
  5
4853
331
488C
  5
4854
331
488D
  5
4855
331
488E
  5
4856
331
488F
  5
4857
331
4890
  5
4858
331
4891
  5
4859
331
4892
  5
485A
331
4893
  5
485B
331
4894
  5
485C
331
4895
  5
485D
331
4896
  5
485E
331
4897
  5
485F
331
4898
  5
4860
331
4899
  5
4861
331
489A
  5
4862
331
489B
  5
4863
331
489C
  5
4864
331
489D
  5
4865
331
489E
  5
4866
331
489F
  5
4867
331
48A0
  5
4868
331
48A1
  5
4869
331
48A2
  5
486A
331
48A3
  5
486B
331
48A4
  5
486C
331
48A5
  5
486D
331
48A6
  5
486E
331
48A7
  5
486F
331
48A8
  5
4870
331
48A9
  5
4871
331
48AA
  5
4872
331
48AB
  5
4873
331
48AC
  5
4874
331
48AD
  5
4875
331
48AE
  5
4876
331
48AF
  5
4877
331
48B0
  5
4878
331
48B1
  5
4879
331
48B2
  5
487A
331
48B3
  5
487B
331
48B4
  5
487C
331
48B5
  5
487D
331
48B6
  5
487E
331
48B7
  5
487F
331
48B8
  5
4880
331
48B9
  5
4881
331
48BA
  5
4882
331
48BB
  5
4883
331
48BC
  5
4884
331
48BD
  5
4885
331
48BE
  5
4886
331
48BF
  5
4887
331
48C0
  5
4888
331
48C1
  5
4889
331
48C2
  5
488A
331
48C3
  5
488B
331
48C4
  5
488C
331
48C5
  5
488D
331
48C6
  5
488E
331
48C7
  5
488F
331
48C8
  5
4890
331
48C9
  5
4891
331
48CA
  5
48C1
331
48CB
  5
48C2
331
48CC
  5
48C3
331
48CD
  5
48C4
331
48CE
  5
48C5
331
48CF
  5
48C7
331
48D0
  5
48C8
331
48D1
  5
48C9
331
48D2
  5
48CB
331
48D3
  5
48CC
331
48D4
  5
48CD
331
48D5
  5
48CE
331
48D6
  5
48CF
331
48D7
  5
48D0
331
48D8
  5
48D1
331
48D9
  5
48D2
331
48DA
  5
48D3
331
48DB
  5
48D4
331
48DC
  5
48D5
331
48DD
  5
48D6
331
48DE
  5
48D7
331
48DF
  5
48D8
331
48E0
  5
48D9
331
48E1
  5
48DA
331
48E2
  5
48DB
331
48E3
  5
48DC
331
48E4
  5
48DD
331
48E5
  5
48DE
331
48E6
  5
48DF
331
48E7
  5
48E0
331
48E8
  5
48E1
331
48E9
  5
48E2
331
48EA
  5
48E3
331
48EB
  5
48E4
331
48EC
  5
48E5
331
48ED
  5
48E6
331
48EE
  5
48E7
331
48EF
  5
48E8
331
48F0
  5
48E9
331
48F1
  5
48EA
331
48F2
  5
48EB
331
48F3
  5
48EC
331
48F4
  5
48ED
331
48F5
  5
48EE
331
48F6
  5
48EF
331
48F7
  5
48F0
331
48F8
  5
48F1
331
48F9
  5
48F2
331
48FA
  5
48F3
331
48FB
  5
48F4
331
48FC
  5
48F5
331
48FD
  5
48F6
331
48FE
  5
48F7
331
48FF
  5
48F8
331
4900
  5
48F9
331
4901
  5
48FA
331
4902
  5
48FB
331
4903
  5
48FC
331
4904
  5
48FD
331
4905
  5
48FE
331
4906
  5
48FF
331
4907
  5
4900
331
4908
  5
4901
331
4909
  5
4902
331
490A
  5
4903
331
490B
  5
4904
331
490C
  5
4905
331
490D
  5
4906
331
490E
  5
4907
331
490F
  5
4908
331
4910
  5
4909
331
4911
  5
490A
331
4912
  5
490B
331
4913
  5
490C
331
4914
  5
490D
331
4915
  5
490E
331
4916
  5
490F
331
4917
  5
4910
331
4918
  5
4911
331
4919
  5
4912
331
491A
  5
4913
331
491B
  5
4914
331
491C
  5
4915
331
491D
  5
4916
331
491E
  5
4917
331
491F
  5
4918
331
4920
  5
4919
331
4921
  5
491A
331
4922
  5
491B
331
4923
  5
491C
331
4924
  5
491D
331
4925
  5
491E
331
4926
  5
491F
331
4927
  5
4920
331
4928
  5
4921
331
4929
  5
4922
331
492A
  5
4923
331
492B
  5
4924
331
492C
  5
4925
331
492D
  5
4926
331
492E
  5
4927
331
492F
  5
4928
331
4930
  5
4929
331
4931
  5
492A
331
4932
  5
492B
331
4933
  5
492C
331
4934
  5
492D
331
4935
  5
492E
331
4936
  5
492F
331
4937
  5
4930
331
4938
  5
4931
331
4939
  5
4932
331
493A
  5
4933
331
493B
  5
4934
331
493C
  5
4935
331
493D
  5
4936
331
493E
  5
4937
331
493F
  5
4938
331
4940
  5
4939
331
4941
  5
493A
331
4942
  5
493B
331
4943
  5
493C
331
4944
  5
493D
331
4945
  5
493E
331
4946
  5
493F
331
4947
  5
4940
331
4948
  5
4941
331
4949
  5
4942
331
494A
  5
4943
331
494B
  5
4944
331
494C
  5
4945
331
494D
  5
4946
331
494E
  5
4947
331
494F
  5
4948
331
4950
  5
4949
331
4951
  5
494A
331
4952
  5
494B
331
4953
  5
494C
331
4954
  5
494D
331
4955
  5
494E
331
4956
  5
494F
331
4957
  5
4950
331
4958
  5
4951
331
4959
  5
4952
331
495A
  5
4953
331
495B
  5
4954
331
495C
  5
4955
331
495D
  5
4956
331
495E
  5
4957
331
495F
  5
4958
331
4960
  5
4959
331
4961
  5
495A
331
4962
  5
495B
331
4963
  5
495C
331
4964
  5
495D
331
4965
  5
495E
331
4966
  5
495F
331
4967
  5
4960
331
4968
  5
4961
331
4969
  5
4962
331
496A
  5
4963
331
496B
  5
4964
331
496C
  5
4965
331
496D
  5
4966
331
496E
  5
4967
331
496F
  5
4968
331
4970
  5
4969
331
4971
  5
496A
331
4972
  5
496B
331
4973
  5
496C
331
4974
  5
496D
331
4975
  5
496E
331
4976
  5
496F
331
4977
  5
4970
331
4978
  5
4971
331
4979
  5
4972
331
497A
  5
4973
331
497B
  5
4974
331
497C
  5
4975
331
497D
  5
4976
331
497E
  5
4977
331
497F
  5
4978
331
4980
  5
4979
331
4981
  5
497A
331
4982
  5
497B
331
4983
  5
497C
331
4984
  5
497D
331
4985
  5
497E
331
4986
  5
497F
331
4987
  5
4980
331
4988
  5
4981
331
4989
  5
4982
331
498A
  5
4983
331
498B
  5
4984
331
498C
  5
4985
331
498D
  5
4986
331
498E
  5
4987
331
498F
  5
4988
331
4990
  5
4989
331
4991
  5
498A
331
4992
  5
498B
331
4993
  5
498C
331
4994
  5
498D
331
4995
  5
498E
331
4996
  5
498F
331
4997
  5
4990
331
4998
  5
4991
331
4999
  5
4992
331
499A
  5
4993
331
499B
  5
4994
331
499C
  5
4995
331
499D
  5
4996
331
499E
  5
4997
331
499F
  5
4998
331
49A0
  5
4999
331
49A1
  5
499A
331
49A2
  5
499B
331
49A3
  5
499C
331
49A4
  5
499D
331
49A5
  5
499E
331
49A6
  5
499F
331
49A7
  5
49A0
331
49A8
  5
49A1
331
49A9
  5
49A2
331
49AA
  5
49A3
331
49AB
  5
49A4
331
49AC
  5
49A5
331
49AD
  5
49A6
331
49AE
  5
49A7
331
49AF
  5
49A8
331
49B0
  5
49A9
331
49B1
  5
49AA
331
49B2
  5
49AB
331
49B3
  5
49AC
331
49B4
  5
49AD
331
49B5
  5
49AE
331
49B6
  5
49AF
331
49B7
  5
49B0
331
49B8
  5
49B1
331
49B9
  5
49B2
331
49BA
  5
49B3
331
49BB
  5
49B4
331
49BC
  5
49B5
331
49BD
  5
49B6
331
49BE
  5
49B7
331
49BF
  5
49B8
331
49C0
  5
49B9
331
49C1
  5
49BA
331
49C2
  5
49BB
331
49C3
  5
49BC
331
49C4
  5
49BD
331
49C5
  5
49BE
331
49C6
  5
49BF
331
49C7
  5
49C0
331
49C8
  5
49C1
331
49C9
  5
49C2
331
49CA
  5
49C3
331
49CB
  5
49C4
331
49CC
  5
49C5
331
49CD
  5
49C6
331
49CE
  5
49C7
331
49CF
  5
49C8
331
49D0
  5
49C9
331
49D1
  5
49CA
331
49D2
  5
49CB
331
49D3
  5
49CC
331
49D4
  5
49CD
331
49D5
  5
49CE
331
49D6
  5
49CF
331
49D7
  5
49D0
331
49D8
  5
49D1
331
49D9
  5
49D2
331
49DA
  5
49D3
331
49DB
  5
49D4
331
49DC
  5
49D5
331
49DD
  5
49D6
331
49DE
  5
49D7
331
49DF
  5
49D8
331
49E0
  5
49D9
331
49E1
  5
49DA
331
49E2
  5
49DB
331
49E3
  5
49DC
331
49E4
  5
49DD
331
49E5
  5
49DE
331
49E6
  5
49DF
331
49E7
  5
49E0
331
49E8
  5
49E1
331
49E9
  5
49E2
331
49EA
  5
49E3
331
49EB
  5
49E4
331
49EC
  5
49E5
331
49ED
  5
49E6
331
49EE
  5
49E7
331
49EF
  5
49E8
331
49F0
  5
49E9
331
49F1
  5
49EA
331
49F2
  5
49EB
331
49F3
  5
49EC
331
49F4
  5
49ED
331
49F5
  5
49EE
331
49F6
  5
49EF
331
49F7
  5
49F0
331
49F8
  5
49F1
331
49F9
  5
49F2
331
49FA
  5
49F3
331
49FB
  5
49F4
331
49FC
  5
49F5
331
49FD
  5
49F6
331
49FE
  5
49F7
331
49FF
  5
49F8
331
4A00
  5
49F9
331
4A01
  5
49FA
331
4A02
  5
49FB
331
4A03
  5
49FC
331
4A04
  5
49FD
331
4A05
  5
49FE
331
4A06
  5
49FF
331
4A07
  5
4A00
331
4A08
  5
4A01
331
4A09
  5
4A02
331
4A0A
  5
4A03
331
4A0B
  5
4A04
331
4A0C
  5
4A05
331
4A0D
  5
4A06
331
4A0E
  5
4A07
331
4A0F
  5
4A08
331
4A10
  5
4A09
331
4A11
  5
4A0A
331
4A12
  5
4A0B
331
4A13
  5
4A0C
331
4A14
  5
4A0D
331
4A15
  5
4A0E
331
4A16
  5
4A0F
331
4A17
  5
4A10
331
4A18
  5
4A11
331
4A19
  5
4A12
331
4A1A
  5
4A13
331
4A1B
  5
4A14
331
4A1C
  5
4A15
331
4A1D
  5
4A16
331
4A1E
  5
4A17
331
4A1F
  5
4A18
331
4A20
  5
4A19
331
4A21
  5
4A1A
331
4A22
  5
4A1B
331
4A23
  5
4A1C
331
4A24
  5
4A1D
331
4A25
  5
4A1E
331
4A26
  5
4A1F
331
4A27
  5
4A20
331
4A28
  5
4A21
331
4A29
  5
4A22
331
4A2A
  5
4A23
331
4A2B
  5
4A24
331
4A2C
  5
4A25
331
4A2D
  5
4A26
331
4A2E
  5
4A27
331
4A2F
  5
4A28
331
4A30
  5
4A29
331
4A31
  5
4A2A
331
4A32
  5
4A2B
331
4A33
  5
4A2C
331
4A34
  5
4A2D
331
4A35
  5
4A2E
331
4A36
  5
4A2F
331
4A37
  5
4A30
331
4A38
  5
4A31
331
4A39
  5
4A32
331
4A3A
  5
4A33
331
4A3B
  5
4A34
331
4A3C
  5
4A35
331
4A3D
  5
4A36
331
4A3E
  5
4A37
331
4A3F
  5
4A38
331
4A40
  5
4A39
331
4A41
  5
4A3A
331
4A42
  5
4A3B
331
4A43
  5
4A3C
331
4A44
  5
4A3D
331
4A45
  5
4A3E
331
4A46
  5
4A3F
331
4A47
  5
4A40
331
4A48
  5
4A41
331
4A49
  5
4A42
331
4A4A
  5
4A43
331
4A4B
  5
4A44
331
4A4C
  5
4A45
331
4A4D
  5
4A46
331
4A4E
  5
4A47
331
4A4F
  5
4A48
331
4A50
  5
4A49
331
4A51
  5
4A4A
331
4A52
  5
4A4B
331
4A53
  5
4A4C
331
4A54
  5
4A4D
331
4A55
  5
4A4E
331
4A56
  5
4A4F
331
4A57
  5
4A50
331
4A58
  5
4A51
331
4A59
  5
4A52
331
4A5A
  5
4A53
331
4A5B
  5
4A54
331
4A5C
  5
4A55
331
4A5D
  5
4A56
331
4A5E
  5
4A57
331
4A5F
  5
4A58
331
4A60
  5
4A59
331
4A61
  5
4A5A
331
4A62
  5
4A5B
331
4A63
  5
4A5C
331
4A64
  5
4A5D
331
4A65
  5
4A5E
331
4A66
  5
4A5F
331
4A67
  5
4A60
331
4A68
  5
4A61
331
4A69
  5
4A62
331
4A6A
  5
4A63
331
4A6B
  5
4A64
331
4A6C
  5
4A65
331
4A6D
  5
4A66
331
4A6E
  5
4A67
331
4A6F
  5
4A68
331
4A70
  5
4A69
331
4A71
  5
4A6A
331
4A72
  5
4A6B
331
4A73
  5
4A6C
331
4A74
  5
4A6D
331
4A75
  5
4A6E
331
4A76
  5
4A6F
331
4A77
  5
4A70
331
4A78
  5
4A71
331
4A79
  5
4A72
331
4A7A
  5
4A73
331
4A7B
  5
4A74
331
4A7C
  5
4A75
331
4A7D
  5
4A78
331
4A7E
  5
4A79
331
4A7F
  5
4A7A
331
4A80
  5
4A7B
331
4A81
  5
4A7C
331
4A82
  5
4A7D
331
4A83
  5
4A7E
331
4A84
  5
4A7F
331
4A85
  5
4A80
331
4A86
  5
4A81
331
4A87
  5
4A82
331
4A88
  5
4A83
331
4A89
  5
4A84
331
4A8A
  5
4A85
331
4A8B
  5
4A86
331
4A8C
  5
4A87
331
4A8D
  5
4A88
331
4A8E
  5
4A89
331
4A8F
  5
4A8A
331
4A90
  5
4A8B
331
4A91
  5
4A8C
331
4A92
  5
4A8D
331
4A93
  5
4A8E
331
4A94
  5
4A8F
331
4A95
  5
4A90
331
4A96
  5
4A91
331
4A97
  5
4A92
331
4A98
  5
4A93
331
4A99
  5
4A94
331
4A9A
  5
4A95
331
4A9B
  5
4A96
331
4A9C
  5
4A97
331
4A9D
  5
4A98
331
4A9E
  5
4A99
331
4A9F
  5
4A9A
331
4AA0
  5
4A9B
331
4AA1
  5
4A9C
331
4AA2
  5
4A9D
331
4AA3
  5
4A9E
331
4AA4
  5
4A9F
331
4AA5
  5
4AA0
331
4AA6
  5
4AA1
331
4AA7
  5
4AA2
331
4AA8
  5
4AA3
331
4AA9
  5
4AA4
331
4AAA
  5
4AA5
331
4AAB
  5
4AA6
331
4AAC
  5
4AA7
331
4AAD
  5
4AA8
331
4AAE
  5
4AA9
331
4AAF
  5
4AAA
331
4AB0
  5
4AAB
331
4AB1
  5
4AAC
331
4AB2
  5
4AAD
331
4AB3
  5
4AAE
331
4AB4
  5
4AAF
331
4AB5
  5
4AB0
331
4AB6
  5
4AB1
331
4AB7
  5
4AB2
331
4AB8
  5
4AB3
331
4AB9
  5
4AB4
331
4ABA
  5
4AB5
331
4ABB
  5
4AB6
331
4ABC
  5
4AB7
331
4ABD
  5
4AB8
331
4ABE
  5
4AB9
331
4ABF
  5
4ABA
331
4AC0
  5
4ABB
331
4AC1
  5
4ABC
331
4AC2
  5
4ABD
331
4AC3
  5
4ABE
331
4AC4
  5
4ABF
331
4AC5
  5
4AC0
331
4AC6
  5
4AC1
331
4AC7
  5
4AC2
331
4AC8
  5
4AC3
331
4AC9
  5
4AC4
331
4ACA
  5
4AC5
331
4ACB
  5
4AC6
331
4ACC
  5
4AC7
331
4ACD
  5
4AC8
331
4ACE
  5
4AC9
331
4ACF
  5
4ACA
331
4AD0
  5
4ACB
331
4AD1
  5
4ACC
331
4AD2
  5
4ACD
331
4AD3
  5
4ACE
331
4AD4
  5
4ACF
331
4AD5
  5
4AD0
331
4AD6
  5
4AD1
331
4AD7
  5
4AD2
331
4AD8
  5
4AD3
331
4AD9
  5
4AD4
331
4ADA
  5
4AD5
331
4ADB
  5
4AD6
331
4ADC
  5
4AD7
331
4ADD
  5
4AD8
331
4ADE
  5
4AD9
331
4ADF
  5
4ADA
331
4AE0
  5
4ADB
331
4AE1
  5
4ADC
331
4AE2
  5
4ADD
331
4AE3
  5
4ADE
331
4AE4
  5
4ADF
331
4AE5
  5
4AE0
331
4AE6
  5
4AE1
331
4AE7
  5
4AE2
331
4AE8
  5
4AE3
331
4AE9
  5
4AE4
331
4AEA
  5
4AE5
331
4AEB
  5
4AE6
331
4AEC
  5
4AE7
331
4AED
  5
4AE8
331
4AEE
  5
4AE9
331
4AEF
  5
4AEA
331
4AF0
  5
4AEB
331
4AF1
  5
4AEC
331
4AF2
  5
4AED
331
4AF3
  5
4AEE
331
4AF4
  5
4AEF
331
4AF5
  5
4AF0
331
4AF6
  5
4AF1
331
4AF7
  5
4AF2
331
4AF8
  5
4AF3
  0
ACDBDETAILVIEWSTYLE
  5
454E
102
{ACAD_XDICTIONARY
360
4B5F
102
}
102
{ACAD_REACTORS
330
454D
102
}
330
454D
100
AcDbModelDocViewStyle
 70
     0
  3
Metric50
290
     0
100
AcDbDetailViewStyle
 70
     0
 71
     0
 90
        3
 71
     1
340
11
 40
5.0
340
0
 40
5.0
300

 40
0.0
280
     1
 71
     2
340
16
 90
       25
 71
     3
340
11
 40
5.0
 90
        0
 40
15.0
 90
        1
300
%<\AcVar ViewDetailId>% (%<\AcVar ViewScale \f "%sn">%)
 71
     4
340
16
 90
       25
340
16
 90
       25
280
     0
1001
ACAD
1000
AcRTDxfName
1000
ACDBDETAILVIEWSTYLE
1000
AcRTDxfName
1000
ACDBDETAILVIEWSTYLE
  0
LAYOUT
  5
22
102
{ACAD_XDICTIONARY
360
4B21
102
}
102
{ACAD_REACTORS
330
1A
102
}
330
1A
100
AcDbPlotSettings
  1

  2
Canon LBP3800 LIPSLX
  4
A4
  6

 40
5.873749732971191
 41
5.873747825622558
 42
5.873748779296875
 43
5.873748779296875
 44
209.9733276367187
 45
296.9259948730469
 46
0.61
 47
0.59
 48
444.9983463649091
 49
-1090.000000918417
140
2395.001653364909
141
1659.999999081583
142
1.0
143
10.0
 70
 11940
 72
     1
 73
     1
 74
     2
  7
monochrome.ctb
 75
     0
147
0.1
148
0.0
149
0.0
100
AcDbLayout
  1
Model
 70
     1
 71
     0
 10
0.0
 20
0.0
 11
12.0
 21
9.0
 12
0.0
 22
0.0
 32
0.0
 14
0.0
 24
0.0
 34
0.0
 15
0.0
 25
0.0
 35
0.0
146
0.0
 13
0.0
 23
0.0
 33
0.0
 16
1.0
 26
0.0
 36
0.0
 17
0.0
 27
1.0
 37
0.0
 76
     0
330
1F
331
4373
  0
LAYOUT
  5
1CD1
102
{ACAD_XDICTIONARY
360
4B23
102
}
102
{ACAD_REACTORS
330
1A
102
}
330
1A
100
AcDbPlotSettings
  1

  2
\\ek_srv\Canon LBP-880 LIPS4
  4

  6

 40
0.0
 41
0.0
 42
0.0
 43
0.0
 44
0.0
 45
0.0
 46
0.0
 47
0.0
 48
0.0
 49
0.0
140
0.0
141
0.0
142
1.0
143
1.0
 70
   688
 72
     0
 73
     0
 74
     5
  7
monochrome.ctb
 75
    16
147
1.0
148
0.0
149
0.0
100
AcDbLayout
  1
\U+FF9A\U+FF72\U+FF71\U+FF73\U+FF841
 70
     1
 71
     1
 10
0.0
 20
0.0
 11
12.0
 21
9.0
 12
0.0
 22
0.0
 32
0.0
 14
0.0
 24
0.0
 34
0.0
 15
0.0
 25
0.0
 35
0.0
146
0.0
 13
0.0
 23
0.0
 33
0.0
 16
1.0
 26
0.0
 36
0.0
 17
0.0
 27
1.0
 37
0.0
 76
     0
330
1CD0
  0
MATERIAL
  5
437E
102
{ACAD_XDICTIONARY
360
437F
102
}
102
{ACAD_REACTORS
330
4375
102
}
330
4375
100
AcDbMaterial
  1
ByBlock
 72
     0
 43
0.0008202099737533
 43
0.0
 43
0.0
 43
0.0
 43
0.0
 43
0.0008202099737533
 43
0.0
 43
0.0
 43
0.0
 43
0.0
 43
1.0
 43
0.0
 43
0.0
 43
0.0
 43
0.0
 43
1.0
 77
     0
 47
0.0008202099737533
 47
0.0
 47
0.0
 47
0.0
 47
0.0
 47
0.0008202099737533
 47
0.0
 47
0.0
 47
0.0
 47
0.0
 47
1.0
 47
0.0
 47
0.0
 47
0.0
 47
0.0
 47
1.0
171
     0
 49
0.0008202099737533
 49
0.0
 49
0.0
 49
0.0
 49
0.0
 49
0.0008202099737533
 49
0.0
 49
0.0
 49
0.0
 49
0.0
 49
1.0
 49
0.0
 49
0.0
 49
0.0
 49
0.0
 49
1.0
175
     0
142
0.0008202099737533
142
0.0
142
0.0
142
0.0
142
0.0
142
0.0008202099737533
142
0.0
142
0.0
142
0.0
142
0.0
142
1.0
142
0.0
142
0.0
142
0.0
142
0.0
142
1.0
179
     0
144
0.0008202099737533
144
0.0
144
0.0
144
0.0
144
0.0
144
0.0008202099737533
144
0.0
144
0.0
144
0.0
144
0.0
144
1.0
144
0.0
144
0.0
144
0.0
144
0.0
144
1.0
147
0.0008202099737533
147
0.0
147
0.0
147
0.0
147
0.0
147
0.0008202099737533
147
0.0
147
0.0
147
0.0
147
0.0
147
1.0
147
0.0
147
0.0
147
0.0
147
0.0
147
1.0
  0
MATERIAL
  5
4376
102
{ACAD_XDICTIONARY
360
4377
102
}
102
{ACAD_REACTORS
330
4375
102
}
330
4375
100
AcDbMaterial
  1
ByLayer
 72
     0
 43
0.0008202099737533
 43
0.0
 43
0.0
 43
0.0
 43
0.0
 43
0.0008202099737533
 43
0.0
 43
0.0
 43
0.0
 43
0.0
 43
1.0
 43
0.0
 43
0.0
 43
0.0
 43
0.0
 43
1.0
 77
     0
 47
0.0008202099737533
 47
0.0
 47
0.0
 47
0.0
 47
0.0
 47
0.0008202099737533
 47
0.0
 47
0.0
 47
0.0
 47
0.0
 47
1.0
 47
0.0
 47
0.0
 47
0.0
 47
0.0
 47
1.0
171
     0
 49
0.0008202099737533
 49
0.0
 49
0.0
 49
0.0
 49
0.0
 49
0.0008202099737533
 49
0.0
 49
0.0
 49
0.0
 49
0.0
 49
1.0
 49
0.0
 49
0.0
 49
0.0
 49
0.0
 49
1.0
175
     0
142
0.0008202099737533
142
0.0
142
0.0
142
0.0
142
0.0
142
0.0008202099737533
142
0.0
142
0.0
142
0.0
142
0.0
142
1.0
142
0.0
142
0.0
142
0.0
142
0.0
142
1.0
179
     0
144
0.0008202099737533
144
0.0
144
0.0
144
0.0
144
0.0
144
0.0008202099737533
144
0.0
144
0.0
144
0.0
144
0.0
144
1.0
144
0.0
144
0.0
144
0.0
144
0.0
144
1.0
147
0.0008202099737533
147
0.0
147
0.0
147
0.0
147
0.0
147
0.0008202099737533
147
0.0
147
0.0
147
0.0
147
0.0
147
1.0
147
0.0
147
0.0
147
0.0
147
0.0
147
1.0
  0
MATERIAL
  5
4386
102
{ACAD_XDICTIONARY
360
4387
102
}
102
{ACAD_REACTORS
330
4375
102
}
330
4375
100
AcDbMaterial
  1
Global
 72
     0
 43
0.0008202099737533
 43
0.0
 43
0.0
 43
0.0
 43
0.0
 43
0.0008202099737533
 43
0.0
 43
0.0
 43
0.0
 43
0.0
 43
1.0
 43
0.0
 43
0.0
 43
0.0
 43
0.0
 43
1.0
 77
     0
 47
0.0008202099737533
 47
0.0
 47
0.0
 47
0.0
 47
0.0
 47
0.0008202099737533
 47
0.0
 47
0.0
 47
0.0
 47
0.0
 47
1.0
 47
0.0
 47
0.0
 47
0.0
 47
0.0
 47
1.0
171
     0
 49
0.0008202099737533
 49
0.0
 49
0.0
 49
0.0
 49
0.0
 49
0.0008202099737533
 49
0.0
 49
0.0
 49
0.0
 49
0.0
 49
1.0
 49
0.0
 49
0.0
 49
0.0
 49
0.0
 49
1.0
175
     0
142
0.0008202099737533
142
0.0
142
0.0
142
0.0
142
0.0
142
0.0008202099737533
142
0.0
142
0.0
142
0.0
142
0.0
142
1.0
142
0.0
142
0.0
142
0.0
142
0.0
142
1.0
179
     0
144
0.0008202099737533
144
0.0
144
0.0
144
0.0
144
0.0
144
0.0008202099737533
144
0.0
144
0.0
144
0.0
144
0.0
144
1.0
144
0.0
144
0.0
144
0.0
144
0.0
144
1.0
147
0.0008202099737533
147
0.0
147
0.0
147
0.0
147
0.0
147
0.0008202099737533
147
0.0
147
0.0
147
0.0
147
0.0
147
1.0
147
0.0
147
0.0
147
0.0
147
0.0
147
1.0
  0
MLEADERSTYLE
  5
43B8
102
{ACAD_REACTORS
330
43B7
102
}
330
43B7
100
AcDbMLeaderStyle
170
     2
171
     1
172
     0
 90
        2
 40
0.0
 41
0.0
173
     1
 91
-1056964608
340
14
 92
       -2
290
     1
 42
2.0
291
     1
 43
0.36
  3
Standard
 44
4.0
300

342
11
174
     1
178
     6
175
     1
176
     0
 93
-1056964608
 45
4.0
292
     0
297
     0
 46
4.0
 94
-1056964608
 47
1.0
 49
1.0
140
1.0
293
     1
141
0.0
294
     1
177
     0
142
1.0
295
     0
296
     0
143
0.125
1001
ACAD_MLEADERVER
1070
     2
  0
MLINESTYLE
  5
18
102
{ACAD_REACTORS
330
17
102
}
330
17
100
AcDbMlineStyle
  2
STANDARD
 70
     0
  3

 62
   256
 51
90.0
 52
90.0
 71
     2
 49
0.5
 62
   256
  6
BYLAYER
 49
-0.5
 62
   256
  6
BYLAYER
  0
ACDBPLACEHOLDER
  5
F
102
{ACAD_REACTORS
330
E
102
}
330
E
  0
ACDBPLACEHOLDER
  5
29
102
{ACAD_REACTORS
330
E
102
}
330
E
  0
SCALE
  5
43A6
102
{ACAD_REACTORS
330
43A5
102
}
330
43A5
100
AcDbScale
 70
     0
300
1:1
140
1.0
141
1.0
290
     1
  0
SCALE
  5
43A7
102
{ACAD_REACTORS
330
43A5
102
}
330
43A5
100
AcDbScale
 70
     0
300
1:2
140
1.0
141
2.0
290
     0
  0
SCALE
  5
43A8
102
{ACAD_REACTORS
330
43A5
102
}
330
43A5
100
AcDbScale
 70
     0
300
1:4
140
1.0
141
4.0
290
     0
  0
SCALE
  5
43A9
102
{ACAD_REACTORS
330
43A5
102
}
330
43A5
100
AcDbScale
 70
     0
300
1:5
140
1.0
141
5.0
290
     0
  0
SCALE
  5
43AA
102
{ACAD_REACTORS
330
43A5
102
}
330
43A5
100
AcDbScale
 70
     0
300
1:8
140
1.0
141
8.0
290
     0
  0
SCALE
  5
43AB
102
{ACAD_REACTORS
330
43A5
102
}
330
43A5
100
AcDbScale
 70
     0
300
1:10
140
1.0
141
10.0
290
     0
  0
SCALE
  5
43AC
102
{ACAD_REACTORS
330
43A5
102
}
330
43A5
100
AcDbScale
 70
     0
300
1:16
140
1.0
141
16.0
290
     0
  0
SCALE
  5
43AD
102
{ACAD_REACTORS
330
43A5
102
}
330
43A5
100
AcDbScale
 70
     0
300
1:20
140
1.0
141
20.0
290
     0
  0
SCALE
  5
43AE
102
{ACAD_REACTORS
330
43A5
102
}
330
43A5
100
AcDbScale
 70
     0
300
1:30
140
1.0
141
30.0
290
     0
  0
SCALE
  5
43AF
102
{ACAD_REACTORS
330
43A5
102
}
330
43A5
100
AcDbScale
 70
     0
300
1:40
140
1.0
141
40.0
290
     0
  0
SCALE
  5
43B0
102
{ACAD_REACTORS
330
43A5
102
}
330
43A5
100
AcDbScale
 70
     0
300
1:50
140
1.0
141
50.0
290
     0
  0
SCALE
  5
43B1
102
{ACAD_REACTORS
330
43A5
102
}
330
43A5
100
AcDbScale
 70
     0
300
1:100
140
1.0
141
100.0
290
     0
  0
SCALE
  5
43B2
102
{ACAD_REACTORS
330
43A5
102
}
330
43A5
100
AcDbScale
 70
     0
300
2:1
140
2.0
141
1.0
290
     0
  0
SCALE
  5
43B3
102
{ACAD_REACTORS
330
43A5
102
}
330
43A5
100
AcDbScale
 70
     0
300
4:1
140
4.0
141
1.0
290
     0
  0
SCALE
  5
43B4
102
{ACAD_REACTORS
330
43A5
102
}
330
43A5
100
AcDbScale
 70
     0
300
8:1
140
8.0
141
1.0
290
     0
  0
SCALE
  5
43B5
102
{ACAD_REACTORS
330
43A5
102
}
330
43A5
100
AcDbScale
 70
     0
300
10:1
140
10.0
141
1.0
290
     0
  0
SCALE
  5
43B6
102
{ACAD_REACTORS
330
43A5
102
}
330
43A5
100
AcDbScale
 70
     0
300
100:1
140
100.0
141
1.0
290
     0
  0
ACDBSECTIONVIEWSTYLE
  5
454C
102
{ACAD_XDICTIONARY
360
4B5D
102
}
102
{ACAD_REACTORS
330
454B
102
}
330
454B
100
AcDbModelDocViewStyle
 70
     0
  3
Metric50
290
     0
100
AcDbSectionViewStyle
 70
     0
 71
     0
 90
      102
 71
     1
340
11
 40
5.0
340
0
340
0
 40
5.0
300
I, O, Q, S, X, Z
 40
10.0
 90
        0
 40
2.5
 90
        0
 71
     2
340
16
 90
       25
340
16
 90
       50
 40
5.0
 40
2.5
 40
5.0
 71
     3
340
11
 40
5.0
 90
        0
 40
15.0
 90
        1
300
%<\AcVar ViewSectionStartId>%-%<\AcVar ViewSectionEndId>% (%<\AcVar ViewScale \f "%sn">%)
 71
     4
300
ANSI31
 40
1.0
 90
        0
290
     0
290
     0
 90
        6
 40
0.0
 40
1.570796326794896
 40
0.2617993877991494
 40
1.308996938995747
 40
-0.2617993877991494
 40
1.832595714594046
1001
ACAD
1000
AcRTDxfName
1000
ACDBSECTIONVIEWSTYLE
1000
AcRTDxfName
1000
ACDBSECTIONVIEWSTYLE
  0
TABLESTYLE
  5
43A4
102
{ACAD_XDICTIONARY
360
43D4
102
}
102
{ACAD_REACTORS
330
43A3
102
}
330
43A3
100
AcDbTableStyle
  3
Standard
 70
     0
 71
     0
 40
1.5
 41
1.5
280
     0
281
     0
  7
Standard
140
4.5
170
     2
 62
     0
 63
     7
283
     0
274
    -2
284
     1
 64
     0
275
    -2
285
     1
 65
     0
276
    -2
286
     1
 66
     0
277
    -2
287
     1
 67
     0
278
    -2
288
     1
 68
     0
279
    -2
289
     1
 69
     0
  7
Standard
140
6.0
170
     5
 62
     0
 63
     7
283
     0
274
    -2
284
     1
 64
     0
275
    -2
285
     1
 65
     0
276
    -2
286
     1
 66
     0
277
    -2
287
     1
 67
     0
278
    -2
288
     1
 68
     0
279
    -2
289
     1
 69
     0
  7
Standard
140
4.5
170
     5
 62
     0
 63
     7
283
     0
274
    -2
284
     1
 64
     0
275
    -2
285
     1
 65
     0
276
    -2
286
     1
 66
     0
277
    -2
287
     1
 67
     0
278
    -2
288
     1
 68
     0
279
    -2
289
     1
 69
     0
  0
VISUALSTYLE
  5
4394
102
{ACAD_XDICTIONARY
360
4B32
102
}
102
{ACAD_REACTORS
330
438E
102
}
330
438E
100
AcDbVisualStyle
  2
2dWireframe
 70
     4
 71
     0
 72
     2
 73
     0
 90
        0
 40
-0.6
 41
-30.0
 62
     5
 63
     7
 74
     1
 91
        4
 64
     7
 65
   257
 75
     1
175
     1
 42
1.0
 92
        0
 66
   257
 43
1.0
 76
     1
 77
     6
 78
     2
 67
     7
 79
     5
170
     0
171
     0
290
     0
174
     0
 93
        1
 44
0.0
173
     0
291
     0
 45
0.0
1001
ACAD
1000
AcDbSavedByObjectVersion
1070
     0
  0
VISUALSTYLE
  5
4396
102
{ACAD_XDICTIONARY
360
4B36
102
}
102
{ACAD_REACTORS
330
438E
102
}
330
438E
100
AcDbVisualStyle
  2
3D Hidden
 70
     6
 71
     1
 72
     2
 73
     2
 90
        0
 40
-0.6
 41
-30.0
 62
     5
 63
     7
 74
     2
 91
        2
 64
     7
 65
   257
 75
     2
175
     1
 42
179.0
 92
        0
 66
   257
 43
1.0
 76
     1
 77
     6
 78
     2
 67
     7
 79
     3
170
     0
171
     0
290
     0
174
     0
 93
        1
 44
0.0
173
     0
291
     0
 45
0.0
1001
ACAD
1000
AcDbSavedByObjectVersion
1070
     0
  0
VISUALSTYLE
  5
4395
102
{ACAD_XDICTIONARY
360
4B34
102
}
102
{ACAD_REACTORS
330
438E
102
}
330
438E
100
AcDbVisualStyle
  2
3dWireframe
 70
     5
 71
     0
 72
     2
 73
     0
 90
        0
 40
-0.6
 41
-30.0
 62
     5
 63
     7
 74
     1
 91
        4
 64
     7
 65
   257
 75
     1
175
     1
 42
1.0
 92
        0
 66
   257
 43
1.0
 76
     1
 77
     6
 78
     2
 67
     7
 79
     5
170
     0
171
     0
290
     0
174
     0
 93
        1
 44
0.0
173
     0
291
     0
 45
0.0
1001
ACAD
1000
AcDbSavedByObjectVersion
1070
     0
  0
VISUALSTYLE
  5
4393
102
{ACAD_XDICTIONARY
360
4B30
102
}
102
{ACAD_REACTORS
330
438E
102
}
330
438E
100
AcDbVisualStyle
  2
Basic
 70
     7
 71
     1
 72
     0
 73
     1
 90
        0
 40
-0.6
 41
-30.0
 62
     5
 63
     7
 74
     0
 91
        4
 64
     7
 65
   257
 75
     1
175
     1
 42
1.0
 92
        8
 66
     7
 43
1.0
 76
     1
 77
     6
 78
     2
 67
     7
 79
     5
170
     0
171
     0
290
     0
174
     0
 93
        1
 44
0.0
173
     0
291
     1
 45
0.0
1001
ACAD
1000
AcDbSavedByObjectVersion
1070
     0
  0
VISUALSTYLE
  5
439A
102
{ACAD_XDICTIONARY
360
4B3E
102
}
102
{ACAD_REACTORS
330
438E
102
}
330
438E
100
AcDbVisualStyle
  2
Brighten
 70
    12
 71
     2
 72
     2
 73
     0
 90
        0
 40
-0.6
 41
-30.0
 62
     5
 63
     7
 74
     1
 91
        4
 64
     7
 65
   257
 75
     1
175
     1
 42
1.0
 92
        8
 66
     7
 43
1.0
 76
     1
 77
     6
 78
     2
 67
     7
 79
     5
170
     0
171
     0
290
     0
174
     0
 93
        1
 44
50.0
173
     0
291
     1
 45
0.0
1001
ACAD
1000
AcDbSavedByObjectVersion
1070
     0
  0
VISUALSTYLE
  5
439E
102
{ACAD_XDICTIONARY
360
4B46
102
}
102
{ACAD_REACTORS
330
438E
102
}
330
438E
100
AcDbVisualStyle
  2
ColorChange
 70
    16
 71
     2
 72
     2
 73
     3
 90
        0
 40
-0.6
 41
-30.0
 62
     5
 63
     8
 74
     1
 91
        4
 64
     7
 65
   257
 75
     1
175
     1
 42
1.0
 92
        8
 66
     8
 43
1.0
 76
     1
 77
     6
 78
     2
 67
     7
 79
     5
170
     0
171
     0
290
     0
174
     0
 93
        1
 44
0.0
173
     0
291
     1
 45
0.0
1001
ACAD
1000
AcDbSavedByObjectVersion
1070
     0
  0
VISUALSTYLE
  5
4397
102
{ACAD_XDICTIONARY
360
4B38
102
}
102
{ACAD_REACTORS
330
438E
102
}
330
438E
100
AcDbVisualStyle
  2
Conceptual
 70
     9
 71
     3
 72
     2
 73
     0
 90
        0
 40
-0.6
 41
-30.0
 62
     5
 63
     7
 74
     2
 91
        2
 64
     7
 65
   257
 75
     1
175
     1
 42
179.0
 92
        8
 66
     7
 43
1.0
 76
     1
 77
     6
 78
     2
 67
     7
 79
     3
170
     0
171
     0
290
     0
174
     0
 93
        1
 44
0.0
173
     0
291
     0
 45
0.0
1001
ACAD
1000
AcDbSavedByObjectVersion
1070
     0
  0
VISUALSTYLE
  5
4399
102
{ACAD_XDICTIONARY
360
4B3C
102
}
102
{ACAD_REACTORS
330
438E
102
}
330
438E
100
AcDbVisualStyle
  2
Dim
 70
    11
 71
     2
 72
     2
 73
     0
 90
        0
 40
-0.6
 41
-30.0
 62
     5
 63
     7
 74
     1
 91
        4
 64
     7
 65
   257
 75
     1
175
     1
 42
1.0
 92
        8
 66
     7
 43
1.0
 76
     1
 77
     6
 78
     2
 67
     7
 79
     5
170
     0
171
     0
290
     0
174
     0
 93
        1
 44
-50.0
173
     0
291
     1
 45
0.0
1001
ACAD
1000
AcDbSavedByObjectVersion
1070
     0
  0
VISUALSTYLE
  5
43A1
102
{ACAD_XDICTIONARY
360
4B4C
102
}
102
{ACAD_REACTORS
330
438E
102
}
330
438E
100
AcDbVisualStyle
  2
EdgeColorOff
 70
    22
 71
     2
 72
     2
 73
     0
 90
        0
 40
-0.6
 41
-30.0
 62
     5
 63
     7
 74
     1
 91
        4
 64
     7
 65
   257
 75
     1
175
     1
 42
1.0
 92
        8
 66
     7
 43
1.0
 76
     1
 77
     6
 78
     2
 67
     7
 79
     5
170
     0
171
     0
290
     0
174
     0
 93
        1
 44
0.0
173
     0
291
     1
 45
0.0
1001
ACAD
1000
AcDbSavedByObjectVersion
1070
     0
  0
VISUALSTYLE
  5
439D
102
{ACAD_XDICTIONARY
360
4B44
102
}
102
{ACAD_REACTORS
330
438E
102
}
330
438E
100
AcDbVisualStyle
  2
Facepattern
 70
    15
 71
     2
 72
     2
 73
     0
 90
        0
 40
-0.6
 41
-30.0
 62
     5
 63
     7
 74
     1
 91
        4
 64
     7
 65
   257
 75
     1
175
     1
 42
1.0
 92
        8
 66
     7
 43
1.0
 76
     1
 77
     6
 78
     2
 67
     7
 79
     5
170
     0
171
     0
290
     0
174
     0
 93
        1
 44
0.0
173
     0
291
     1
 45
0.0
1001
ACAD
1000
AcDbSavedByObjectVersion
1070
     0
  0
VISUALSTYLE
  5
438F
102
{ACAD_XDICTIONARY
360
4B28
102
}
102
{ACAD_REACTORS
330
438E
102
}
330
438E
100
AcDbVisualStyle
  2
Flat
 70
     0
 71
     2
 72
     1
 73
     1
 90
        2
 40
-0.6
 41
30.0
 62
     5
 63
     7
 74
     0
 91
        4
 64
     7
 65
   257
 75
     1
175
     1
 42
1.0
 92
        8
 66
     7
 43
1.0
 76
     1
 77
     6
 78
     2
 67
     7
 79
     5
170
     0
171
     0
290
     0
174
     0
 93
       13
 44
0.0
173
     0
291
     1
 45
0.0
1001
ACAD
1000
AcDbSavedByObjectVersion
1070
     0
  0
VISUALSTYLE
  5
4390
102
{ACAD_XDICTIONARY
360
4B2A
102
}
102
{ACAD_REACTORS
330
438E
102
}
330
438E
100
AcDbVisualStyle
  2
FlatWithEdges
 70
     1
 71
     2
 72
     1
 73
     1
 90
        2
 40
-0.6
 41
30.0
 62
     5
 63
     7
 74
     1
 91
        4
 64
     7
 65
   257
 75
     1
175
     1
 42
1.0
 92
        0
 66
   257
 43
1.0
 76
     1
 77
     6
 78
     2
 67
     7
 79
     5
170
     0
171
     0
290
     0
174
     0
 93
       13
 44
0.0
173
     0
291
     1
 45
0.0
1001
ACAD
1000
AcDbSavedByObjectVersion
1070
     0
  0
VISUALSTYLE
  5
4391
102
{ACAD_XDICTIONARY
360
4B2C
102
}
102
{ACAD_REACTORS
330
438E
102
}
330
438E
100
AcDbVisualStyle
  2
Gouraud
 70
     2
 71
     2
 72
     2
 73
     1
 90
        2
 40
-0.6
 41
30.0
 62
     5
 63
     7
 74
     0
 91
        4
 64
     7
 65
   257
 75
     1
175
     1
 42
1.0
 92
        0
 66
     7
 43
1.0
 76
     1
 77
     6
 78
     2
 67
     7
 79
     5
170
     0
171
     0
290
     0
174
     0
 93
       13
 44
0.0
173
     0
291
     1
 45
0.0
1001
ACAD
1000
AcDbSavedByObjectVersion
1070
     0
  0
VISUALSTYLE
  5
4392
102
{ACAD_XDICTIONARY
360
4B2E
102
}
102
{ACAD_REACTORS
330
438E
102
}
330
438E
100
AcDbVisualStyle
  2
GouraudWithEdges
 70
     3
 71
     2
 72
     2
 73
     1
 90
        2
 40
-0.6
 41
30.0
 62
     5
 63
     7
 74
     1
 91
        4
 64
     7
 65
   257
 75
     1
175
     1
 42
1.0
 92
        0
 66
   257
 43
1.0
 76
     1
 77
     6
 78
     2
 67
     7
 79
     5
170
     0
171
     0
290
     0
174
     0
 93
       13
 44
0.0
173
     0
291
     1
 45
0.0
1001
ACAD
1000
AcDbSavedByObjectVersion
1070
     0
  0
VISUALSTYLE
  5
4545
102
{ACAD_XDICTIONARY
360
4B51
102
}
102
{ACAD_REACTORS
330
438E
102
}
330
438E
100
AcDbVisualStyle
  2
Hidden
 70
     6
 71
     1
 72
     2
 73
     2
 90
        0
 40
-0.6
 41
-30.0
 62
     5
 63
     7
 74
     2
 91
        2
 64
     7
 65
   257
 75
     2
175
     1
 42
40.0
 92
        0
 66
   257
 43
1.0
 76
     1
 77
     6
 78
     2
 67
     7
 79
     3
170
     0
171
     0
290
     0
174
     0
 93
        1
 44
0.0
173
     0
291
     0
 45
0.0
1001
ACAD
1000
AcDbSavedByObjectVersion
1070
     0
  0
VISUALSTYLE
  5
439F
102
{ACAD_XDICTIONARY
360
4B48
102
}
102
{ACAD_REACTORS
330
438E
102
}
330
438E
100
AcDbVisualStyle
  2
JitterOff
 70
    20
 71
     2
 72
     2
 73
     0
 90
        0
 40
-0.6
 41
-30.0
 62
     5
 63
     7
 74
     1
 91
        4
 64
     7
 65
   257
 75
     1
175
     1
 42
1.0
 92
       10
 66
     7
 43
1.0
 76
     1
 77
     6
 78
     2
 67
     7
 79
     5
170
     0
171
     0
290
     0
174
     0
 93
        1
 44
0.0
173
     0
291
     1
 45
0.0
1001
ACAD
1000
AcDbSavedByObjectVersion
1070
     0
  0
VISUALSTYLE
  5
439C
102
{ACAD_XDICTIONARY
360
4B42
102
}
102
{ACAD_REACTORS
330
438E
102
}
330
438E
100
AcDbVisualStyle
  2
Linepattern
 70
    14
 71
     2
 72
     2
 73
     0
 90
        0
 40
-0.6
 41
-30.0
 62
     5
 63
     7
 74
     1
 91
        4
 64
     7
 65
   257
 75
     7
175
     7
 42
1.0
 92
        8
 66
     7
 43
1.0
 76
     1
 77
     6
 78
     2
 67
     7
 79
     5
170
     0
171
     0
290
     0
174
     0
 93
        1
 44
0.0
173
     0
291
     1
 45
0.0
1001
ACAD
1000
AcDbSavedByObjectVersion
1070
     0
  0
VISUALSTYLE
  5
43A0
102
{ACAD_XDICTIONARY
360
4B4A
102
}
102
{ACAD_REACTORS
330
438E
102
}
330
438E
100
AcDbVisualStyle
  2
OverhangOff
 70
    21
 71
     2
 72
     2
 73
     0
 90
        0
 40
-0.6
 41
-30.0
 62
     5
 63
     7
 74
     1
 91
        4
 64
     7
 65
   257
 75
     1
175
     1
 42
1.0
 92
        9
 66
     7
 43
1.0
 76
     1
 77
     6
 78
     2
 67
     7
 79
     5
170
     0
171
     0
290
     0
174
     0
 93
        1
 44
0.0
173
     0
291
     1
 45
0.0
1001
ACAD
1000
AcDbSavedByObjectVersion
1070
     0
  0
VISUALSTYLE
  5
4398
102
{ACAD_XDICTIONARY
360
4B3A
102
}
102
{ACAD_REACTORS
330
438E
102
}
330
438E
100
AcDbVisualStyle
  2
Realistic
 70
     8
 71
     2
 72
     2
 73
     0
 90
        0
 40
-0.6
 41
-30.0
 62
     5
 63
     7
 74
     1
 91
        0
 64
     7
 65
   257
 75
     1
175
     1
 42
1.0
 92
        8
 66
     8
 43
1.0
 76
     1
 77
     6
 78
     2
 67
     7
 79
     5
170
     0
171
     0
290
     0
174
     0
 93
       13
 44
0.0
173
     0
291
     0
 45
0.0
1001
ACAD
1000
AcDbSavedByObjectVersion
1070
     0
  0
VISUALSTYLE
  5
454A
102
{ACAD_XDICTIONARY
360
4B5B
102
}
102
{ACAD_REACTORS
330
438E
102
}
330
438E
100
AcDbVisualStyle
  2
Shaded
 70
    27
 71
     2
 72
     2
 73
     1
 90
        2
 40
-0.6
 41
30.0
 62
     5
 63
     7
 74
     0
 91
        4
 64
     7
 65
   257
 75
     1
175
     1
 42
1.0
 92
        8
 66
   257
 43
1.0
 76
     1
 77
     6
 78
     2
 67
     8
 79
     3
170
     0
171
     0
290
     0
174
     0
 93
        5
 44
0.0
173
     0
291
     0
 45
0.0
1001
ACAD
1000
AcDbSavedByObjectVersion
1070
     0
  0
VISUALSTYLE
  5
4549
102
{ACAD_XDICTIONARY
360
4B59
102
}
102
{ACAD_REACTORS
330
438E
102
}
330
438E
100
AcDbVisualStyle
  2
Shaded with edges
 70
    26
 71
     2
 72
     2
 73
     1
 90
        2
 40
-0.6
 41
30.0
 62
     5
 63
     7
 74
     1
 91
        2
 64
     7
 65
   257
 75
     2
175
     1
 42
1.0
 92
        8
 66
   257
 43
1.0
 76
     1
 77
     6
 78
     2
 67
     7
 79
     3
170
     0
171
     0
290
     0
174
     0
 93
        5
 44
0.0
173
     0
291
     0
 45
0.0
1001
ACAD
1000
AcDbSavedByObjectVersion
1070
     0
  0
VISUALSTYLE
  5
4546
102
{ACAD_XDICTIONARY
360
4B53
102
}
102
{ACAD_REACTORS
330
438E
102
}
330
438E
100
AcDbVisualStyle
  2
Shades of Gray
 70
    23
 71
     2
 72
     2
 73
     3
 90
        0
 40
-0.6
 41
-30.0
 62
     5
 63
     7
 74
     2
 91
        2
 64
     7
 65
     7
 75
     1
175
     1
 42
40.0
 92
        8
 66
     7
 43
1.0
 76
     1
 77
     6
 78
     2
 67
     7
 79
     3
170
     0
171
     0
290
     0
174
     0
 93
        1
 44
0.0
173
     0
291
     0
 45
0.0
1001
ACAD
1000
AcDbSavedByObjectVersion
1070
     0
  0
VISUALSTYLE
  5
4547
102
{ACAD_XDICTIONARY
360
4B55
102
}
102
{ACAD_REACTORS
330
438E
102
}
330
438E
100
AcDbVisualStyle
  2
Sketchy
 70
    24
 71
     1
 72
     2
 73
     2
 90
        0
 40
-0.6
 41
-30.0
 62
     5
 63
     7
 74
     2
 91
        2
 64
     7
 65
     7
 75
     1
175
     1
 42
40.0
 92
       11
 66
     7
 43
1.0
 76
     1
 77
     6
 78
     2
 67
     7
 79
     6
170
     0
171
     0
290
     0
174
     0
 93
        1
 44
0.0
173
     0
291
     0
 45
0.0
1001
ACAD
1000
AcDbSavedByObjectVersion
1070
     0
  0
VISUALSTYLE
  5
439B
102
{ACAD_XDICTIONARY
360
4B40
102
}
102
{ACAD_REACTORS
330
438E
102
}
330
438E
100
AcDbVisualStyle
  2
Thicken
 70
    13
 71
     2
 72
     2
 73
     0
 90
        0
 40
-0.6
 41
-30.0
 62
     5
 63
     7
 74
     1
 91
        4
 64
     7
 65
   257
 75
     1
175
     1
 42
1.0
 92
       12
 66
     7
 43
1.0
 76
     1
 77
     6
 78
     2
 67
     7
 79
     5
170
     0
171
     0
290
     0
174
     0
 93
        1
 44
0.0
173
     0
291
     1
 45
0.0
1001
ACAD
1000
AcDbSavedByObjectVersion
1070
     0
  0
VISUALSTYLE
  5
4544
102
{ACAD_XDICTIONARY
360
4B4F
102
}
102
{ACAD_REACTORS
330
438E
102
}
330
438E
100
AcDbVisualStyle
  2
Wireframe
 70
     5
 71
     0
 72
     2
 73
     0
 90
        0
 40
-0.6
 41
-30.0
 62
     5
 63
     7
 74
     1
 91
        4
 64
     7
 65
   257
 75
     1
175
     1
 42
1.0
 92
        0
 66
   257
 43
1.0
 76
     1
 77
     6
 78
     2
 67
     7
 79
     3
170
     0
171
     0
290
     0
174
     0
 93
        1
 44
0.0
173
     0
291
     0
 45
0.0
1001
ACAD
1000
AcDbSavedByObjectVersion
1070
     0
  0
VISUALSTYLE
  5
4548
102
{ACAD_XDICTIONARY
360
4B57
102
}
102
{ACAD_REACTORS
330
438E
102
}
330
438E
100
AcDbVisualStyle
  2
X-Ray
 70
    25
 71
     2
 72
     2
 73
     1
 90
        1
 40
0.5
 41
-30.0
 62
     5
 63
     7
 74
     1
 91
        0
 64
     7
 65
   257
 75
     1
175
     1
 42
1.0
 92
        8
 66
     7
 43
1.0
 76
     1
 77
     6
 78
     2
 67
     7
 79
     3
170
     0
171
     0
290
     0
174
     0
 93
       13
 44
0.0
173
     0
291
     0
 45
0.0
1001
ACAD
1000
AcDbSavedByObjectVersion
1070
     0
  0
DICTIONARYVAR
  5
440B
102
{ACAD_REACTORS
330
1835
102
}
330
1835
100
DictionaryVariables
280
     0
  1
1:1
  0
DICTIONARYVAR
  5
440A
102
{ACAD_REACTORS
330
1835
102
}
330
1835
100
DictionaryVariables
280
     0
  1
STANDARD
  0
DICTIONARYVAR
  5
4409
102
{ACAD_REACTORS
330
1835
102
}
330
1835
100
DictionaryVariables
280
     0
  1
STANDARD
  0
DICTIONARYVAR
  5
4595
102
{ACAD_REACTORS
330
1835
102
}
330
1835
100
DictionaryVariables
280
     0
  1
Metric50
  0
DICTIONARYVAR
  5
4596
102
{ACAD_REACTORS
330
1835
102
}
330
1835
100
DictionaryVariables
280
     0
  1
Metric50
  0
DICTIONARYVAR
  5
440D
102
{ACAD_REACTORS
330
1835
102
}
330
1835
100
DictionaryVariables
280
     0
  1
1
  0
DICTIONARYVAR
  5
440C
102
{ACAD_REACTORS
330
1835
102
}
330
1835
100
DictionaryVariables
280
     0
  1
0
  0
DICTIONARYVAR
  5
1836
102
{ACAD_REACTORS
330
1835
102
}
330
1835
100
DictionaryVariables
280
     0
  1
127
  0
DICTIONARYVAR
  5
4B1D
102
{ACAD_REACTORS
330
1835
102
}
330
1835
100
DictionaryVariables
280
     0
  1
2
  0
DICTIONARY
  5
4B5F
330
454E
100
AcDbDictionary
280
     1
281
     1
  3
ACAD_XREC_ROUNDTRIP
360
4B60
  0
DICTIONARY
  5
4B21
330
22
100
AcDbDictionary
280
     1
281
     1
  3
ACAD_XREC_ROUNDTRIP
360
4B22
  0
DICTIONARY
  5
4B23
330
1CD1
100
AcDbDictionary
280
     1
281
     1
  3
ACAD_XREC_ROUNDTRIP
360
4B24
  0
DICTIONARY
  5
437F
330
437E
100
AcDbDictionary
280
     1
281
     1
  3
ACAD_XREC_ROUNDTRIP
360
4B26
  3
BUMPTILE
360
4381
  3
DIFFUSETILE
360
4380
  3
OPACITYTILE
360
4384
  3
REFLECTIONTILE
360
4383
  3
REFRACTIONTILE
360
4385
  3
SPECULARTILE
360
4382
  0
DICTIONARY
  5
4377
330
4376
100
AcDbDictionary
280
     1
281
     1
  3
ACAD_XREC_ROUNDTRIP
360
4B25
  3
BUMPTILE
360
4379
  3
DIFFUSETILE
360
4378
  3
OPACITYTILE
360
437C
  3
REFLECTIONTILE
360
437B
  3
REFRACTIONTILE
360
437D
  3
SPECULARTILE
360
437A
  0
DICTIONARY
  5
4387
330
4386
100
AcDbDictionary
280
     1
281
     1
  3
ACAD_XREC_ROUNDTRIP
360
4B27
  3
BUMPTILE
360
4389
  3
DIFFUSETILE
360
4388
  3
OPACITYTILE
360
438C
  3
REFLECTIONTILE
360
438B
  3
REFRACTIONTILE
360
438D
  3
SPECULARTILE
360
438A
  0
DICTIONARY
  5
4B5D
330
454C
100
AcDbDictionary
280
     1
281
     1
  3
ACAD_XREC_ROUNDTRIP
360
4B5E
  0
DICTIONARY
  5
43D4
330
43A4
100
AcDbDictionary
280
     1
281
     1
  3
ACAD_ROUNDTRIP_2008_TABLESTYLE_CELLSTYLEMAP
360
4B1E
  3
ACAD_XREC_ROUNDTRIP
360
4B4E
  0
DICTIONARY
  5
4B32
330
4394
100
AcDbDictionary
280
     1
281
     1
  3
ACAD_XREC_ROUNDTRIP
360
4B33
  0
DICTIONARY
  5
4B36
330
4396
100
AcDbDictionary
280
     1
281
     1
  3
ACAD_XREC_ROUNDTRIP
360
4B37
  0
DICTIONARY
  5
4B34
330
4395
100
AcDbDictionary
280
     1
281
     1
  3
ACAD_XREC_ROUNDTRIP
360
4B35
  0
DICTIONARY
  5
4B30
330
4393
100
AcDbDictionary
280
     1
281
     1
  3
ACAD_XREC_ROUNDTRIP
360
4B31
  0
DICTIONARY
  5
4B3E
330
439A
100
AcDbDictionary
280
     1
281
     1
  3
ACAD_XREC_ROUNDTRIP
360
4B3F
  0
DICTIONARY
  5
4B46
330
439E
100
AcDbDictionary
280
     1
281
     1
  3
ACAD_XREC_ROUNDTRIP
360
4B47
  0
DICTIONARY
  5
4B38
330
4397
100
AcDbDictionary
280
     1
281
     1
  3
ACAD_XREC_ROUNDTRIP
360
4B39
  0
DICTIONARY
  5
4B3C
330
4399
100
AcDbDictionary
280
     1
281
     1
  3
ACAD_XREC_ROUNDTRIP
360
4B3D
  0
DICTIONARY
  5
4B4C
330
43A1
100
AcDbDictionary
280
     1
281
     1
  3
ACAD_XREC_ROUNDTRIP
360
4B4D
  0
DICTIONARY
  5
4B44
330
439D
100
AcDbDictionary
280
     1
281
     1
  3
ACAD_XREC_ROUNDTRIP
360
4B45
  0
DICTIONARY
  5
4B28
330
438F
100
AcDbDictionary
280
     1
281
     1
  3
ACAD_XREC_ROUNDTRIP
360
4B29
  0
DICTIONARY
  5
4B2A
330
4390
100
AcDbDictionary
280
     1
281
     1
  3
ACAD_XREC_ROUNDTRIP
360
4B2B
  0
DICTIONARY
  5
4B2C
330
4391
100
AcDbDictionary
280
     1
281
     1
  3
ACAD_XREC_ROUNDTRIP
360
4B2D
  0
DICTIONARY
  5
4B2E
330
4392
100
AcDbDictionary
280
     1
281
     1
  3
ACAD_XREC_ROUNDTRIP
360
4B2F
  0
DICTIONARY
  5
4B51
330
4545
100
AcDbDictionary
280
     1
281
     1
  3
ACAD_XREC_ROUNDTRIP
360
4B52
  0
DICTIONARY
  5
4B48
330
439F
100
AcDbDictionary
280
     1
281
     1
  3
ACAD_XREC_ROUNDTRIP
360
4B49
  0
DICTIONARY
  5
4B42
330
439C
100
AcDbDictionary
280
     1
281
     1
  3
ACAD_XREC_ROUNDTRIP
360
4B43
  0
DICTIONARY
  5
4B4A
330
43A0
100
AcDbDictionary
280
     1
281
     1
  3
ACAD_XREC_ROUNDTRIP
360
4B4B
  0
DICTIONARY
  5
4B3A
330
4398
100
AcDbDictionary
280
     1
281
     1
  3
ACAD_XREC_ROUNDTRIP
360
4B3B
  0
DICTIONARY
  5
4B5B
330
454A
100
AcDbDictionary
280
     1
281
     1
  3
ACAD_XREC_ROUNDTRIP
360
4B5C
  0
DICTIONARY
  5
4B59
330
4549
100
AcDbDictionary
280
     1
281
     1
  3
ACAD_XREC_ROUNDTRIP
360
4B5A
  0
DICTIONARY
  5
4B53
330
4546
100
AcDbDictionary
280
     1
281
     1
  3
ACAD_XREC_ROUNDTRIP
360
4B54
  0
DICTIONARY
  5
4B55
330
4547
100
AcDbDictionary
280
     1
281
     1
  3
ACAD_XREC_ROUNDTRIP
360
4B56
  0
DICTIONARY
  5
4B40
330
439B
100
AcDbDictionary
280
     1
281
     1
  3
ACAD_XREC_ROUNDTRIP
360
4B41
  0
DICTIONARY
  5
4B4F
330
4544
100
AcDbDictionary
280
     1
281
     1
  3
ACAD_XREC_ROUNDTRIP
360
4B50
  0
DICTIONARY
  5
4B57
330
4548
100
AcDbDictionary
280
     1
281
     1
  3
ACAD_XREC_ROUNDTRIP
360
4B58
  0
XRECORD
  5
4B60
102
{ACAD_REACTORS
330
4B5F
102
}
330
4B5F
100
AcDbXrecord
280
     1
102
DISPLAYNAME
  1
Metric50
102
FLAGS
 90
        0
  0
XRECORD
  5
4B22
102
{ACAD_REACTORS
330
4B21
102
}
330
4B21
100
AcDbXrecord
280
     1
102
SHADEPLOT
 70
     0
102
SHADEPLOTRESLEVEL
 70
     2
102
SHADEPLOTCUSTOMDPI
 70
   300
  0
XRECORD
  5
4B24
102
{ACAD_REACTORS
330
4B23
102
}
330
4B23
100
AcDbXrecord
280
     1
102
SHADEPLOT
 70
     0
102
SHADEPLOTRESLEVEL
 70
     2
102
SHADEPLOTCUSTOMDPI
 70
   300
  0
XRECORD
  5
4B26
102
{ACAD_REACTORS
330
437F
102
}
330
437F
100
AcDbXrecord
280
     1
102
MATERIAL
148
0.0
149
0.0
149
0.0
 93
        0
 94
      127
282
     0
 72
     0
 77
     0
171
     0
175
     0
179
     0
273
     0
  0
XRECORD
  5
4381
102
{ACAD_REACTORS
330
437F
102
}
330
437F
100
AcDbXrecord
280
     1
270
     1
271
     1
  0
XRECORD
  5
4380
102
{ACAD_REACTORS
330
437F
102
}
330
437F
100
AcDbXrecord
280
     1
270
     1
271
     1
  0
XRECORD
  5
4384
102
{ACAD_REACTORS
330
437F
102
}
330
437F
100
AcDbXrecord
280
     1
270
     1
271
     1
  0
XRECORD
  5
4383
102
{ACAD_REACTORS
330
437F
102
}
330
437F
100
AcDbXrecord
280
     1
270
     1
271
     1
  0
XRECORD
  5
4385
102
{ACAD_REACTORS
330
437F
102
}
330
437F
100
AcDbXrecord
280
     1
270
     1
271
     1
  0
XRECORD
  5
4382
102
{ACAD_REACTORS
330
437F
102
}
330
437F
100
AcDbXrecord
280
     1
270
     1
271
     1
  0
XRECORD
  5
4B25
102
{ACAD_REACTORS
330
4377
102
}
330
4377
100
AcDbXrecord
280
     1
102
MATERIAL
148
0.0
149
0.0
149
0.0
 93
        0
 94
      127
282
     0
 72
     0
 77
     0
171
     0
175
     0
179
     0
273
     0
  0
XRECORD
  5
4379
102
{ACAD_REACTORS
330
4377
102
}
330
4377
100
AcDbXrecord
280
     1
270
     1
271
     1
  0
XRECORD
  5
4378
102
{ACAD_REACTORS
330
4377
102
}
330
4377
100
AcDbXrecord
280
     1
270
     1
271
     1
  0
XRECORD
  5
437C
102
{ACAD_REACTORS
330
4377
102
}
330
4377
100
AcDbXrecord
280
     1
270
     1
271
     1
  0
XRECORD
  5
437B
102
{ACAD_REACTORS
330
4377
102
}
330
4377
100
AcDbXrecord
280
     1
270
     1
271
     1
  0
XRECORD
  5
437D
102
{ACAD_REACTORS
330
4377
102
}
330
4377
100
AcDbXrecord
280
     1
270
     1
271
     1
  0
XRECORD
  5
437A
102
{ACAD_REACTORS
330
4377
102
}
330
4377
100
AcDbXrecord
280
     1
270
     1
271
     1
  0
XRECORD
  5
4B27
102
{ACAD_REACTORS
330
4387
102
}
330
4387
100
AcDbXrecord
280
     1
102
MATERIAL
148
0.0
149
0.0
149
0.0
 93
        0
 94
      127
282
     0
 72
     0
 77
     0
171
     0
175
     0
179
     0
273
     0
  0
XRECORD
  5
4389
102
{ACAD_REACTORS
330
4387
102
}
330
4387
100
AcDbXrecord
280
     1
270
     1
271
     1
  0
XRECORD
  5
4388
102
{ACAD_REACTORS
330
4387
102
}
330
4387
100
AcDbXrecord
280
     1
270
     1
271
     1
  0
XRECORD
  5
438C
102
{ACAD_REACTORS
330
4387
102
}
330
4387
100
AcDbXrecord
280
     1
270
     1
271
     1
  0
XRECORD
  5
438B
102
{ACAD_REACTORS
330
4387
102
}
330
4387
100
AcDbXrecord
280
     1
270
     1
271
     1
  0
XRECORD
  5
438D
102
{ACAD_REACTORS
330
4387
102
}
330
4387
100
AcDbXrecord
280
     1
270
     1
271
     1
  0
XRECORD
  5
438A
102
{ACAD_REACTORS
330
4387
102
}
330
4387
100
AcDbXrecord
280
     1
270
     1
271
     1
  0
XRECORD
  5
4B5E
102
{ACAD_REACTORS
330
4B5D
102
}
330
4B5D
100
AcDbXrecord
280
     1
102
DISPLAYNAME
  1
Metric50
102
FLAGS
 90
        0
  0
CELLSTYLEMAP
  5
4B1E
102
{ACAD_REACTORS
330
43D4
102
}
330
43D4
100
AcDbCellStyleMap
 90
        3
300
CELLSTYLE
  1
TABLEFORMAT_BEGIN
 90
        5
170
     1
 91
        0
 92
    32768
 62
   257
 93
        1
300
CONTENTFORMAT
  1
CONTENTFORMAT_BEGIN
 90
        0
 91
        0
 92
      512
 93
        0
300

 40
0.0
140
1.0
 94
        5
 62
     0
340
11
144
6.0
309
CONTENTFORMAT_END
171
     1
301
MARGIN
  1
CELLMARGIN_BEGIN
 40
1.5
 40
1.5
 40
1.5
 40
1.5
 40
4.5
 40
4.5
309
CELLMARGIN_END
 94
        6
 95
        1
302
GRIDFORMAT
  1
GRIDFORMAT_BEGIN
 90
        0
 91
        1
 62
     0
 92
       -2
340
0
 93
        0
 40
1.125
309
GRIDFORMAT_END
 95
        2
302
GRIDFORMAT
  1
GRIDFORMAT_BEGIN
 90
        0
 91
        1
 62
     0
 92
       -2
340
0
 93
        0
 40
1.125
309
GRIDFORMAT_END
 95
        4
302
GRIDFORMAT
  1
GRIDFORMAT_BEGIN
 90
        0
 91
        1
 62
     0
 92
       -2
340
0
 93
        0
 40
1.125
309
GRIDFORMAT_END
 95
        8
302
GRIDFORMAT
  1
GRIDFORMAT_BEGIN
 90
        0
 91
        1
 62
     0
 92
       -2
340
0
 93
        0
 40
1.125
309
GRIDFORMAT_END
 95
       16
302
GRIDFORMAT
  1
GRIDFORMAT_BEGIN
 90
        0
 91
        1
 62
     0
 92
       -2
340
0
 93
        0
 40
1.125
309
GRIDFORMAT_END
 95
       32
302
GRIDFORMAT
  1
GRIDFORMAT_BEGIN
 90
        0
 91
        1
 62
     0
 92
       -2
340
0
 93
        0
 40
1.125
309
GRIDFORMAT_END
309
TABLEFORMAT_END
  1
CELLSTYLE_BEGIN
 90
        1
 91
        1
300
_TITLE
309
CELLSTYLE_END
300
CELLSTYLE
  1
TABLEFORMAT_BEGIN
 90
        5
170
     1
 91
        0
 92
        0
 62
   257
 93
        1
300
CONTENTFORMAT
  1
CONTENTFORMAT_BEGIN
 90
        0
 91
        0
 92
      512
 93
        0
300

 40
0.0
140
1.0
 94
        5
 62
     0
340
11
144
4.5
309
CONTENTFORMAT_END
171
     1
301
MARGIN
  1
CELLMARGIN_BEGIN
 40
1.5
 40
1.5
 40
1.5
 40
1.5
 40
4.5
 40
4.5
309
CELLMARGIN_END
 94
        6
 95
        1
302
GRIDFORMAT
  1
GRIDFORMAT_BEGIN
 90
        0
 91
        1
 62
     0
 92
       -2
340
0
 93
        0
 40
1.125
309
GRIDFORMAT_END
 95
        2
302
GRIDFORMAT
  1
GRIDFORMAT_BEGIN
 90
        0
 91
        1
 62
     0
 92
       -2
340
0
 93
        0
 40
1.125
309
GRIDFORMAT_END
 95
        4
302
GRIDFORMAT
  1
GRIDFORMAT_BEGIN
 90
        0
 91
        1
 62
     0
 92
       -2
340
0
 93
        0
 40
1.125
309
GRIDFORMAT_END
 95
        8
302
GRIDFORMAT
  1
GRIDFORMAT_BEGIN
 90
        0
 91
        1
 62
     0
 92
       -2
340
0
 93
        0
 40
1.125
309
GRIDFORMAT_END
 95
       16
302
GRIDFORMAT
  1
GRIDFORMAT_BEGIN
 90
        0
 91
        1
 62
     0
 92
       -2
340
0
 93
        0
 40
1.125
309
GRIDFORMAT_END
 95
       32
302
GRIDFORMAT
  1
GRIDFORMAT_BEGIN
 90
        0
 91
        1
 62
     0
 92
       -2
340
0
 93
        0
 40
1.125
309
GRIDFORMAT_END
309
TABLEFORMAT_END
  1
CELLSTYLE_BEGIN
 90
        2
 91
        1
300
_HEADER
309
CELLSTYLE_END
300
CELLSTYLE
  1
TABLEFORMAT_BEGIN
 90
        5
170
     1
 91
        0
 92
        0
 62
   257
 93
        1
300
CONTENTFORMAT
  1
CONTENTFORMAT_BEGIN
 90
        0
 91
        0
 92
      512
 93
        0
300

 40
0.0
140
1.0
 94
        2
 62
     0
340
11
144
4.5
309
CONTENTFORMAT_END
171
     1
301
MARGIN
  1
CELLMARGIN_BEGIN
 40
1.5
 40
1.5
 40
1.5
 40
1.5
 40
4.5
 40
4.5
309
CELLMARGIN_END
 94
        6
 95
        1
302
GRIDFORMAT
  1
GRIDFORMAT_BEGIN
 90
        0
 91
        1
 62
     0
 92
       -2
340
0
 93
        0
 40
1.125
309
GRIDFORMAT_END
 95
        2
302
GRIDFORMAT
  1
GRIDFORMAT_BEGIN
 90
        0
 91
        1
 62
     0
 92
       -2
340
0
 93
        0
 40
1.125
309
GRIDFORMAT_END
 95
        4
302
GRIDFORMAT
  1
GRIDFORMAT_BEGIN
 90
        0
 91
        1
 62
     0
 92
       -2
340
0
 93
        0
 40
1.125
309
GRIDFORMAT_END
 95
        8
302
GRIDFORMAT
  1
GRIDFORMAT_BEGIN
 90
        0
 91
        1
 62
     0
 92
       -2
340
0
 93
        0
 40
1.125
309
GRIDFORMAT_END
 95
       16
302
GRIDFORMAT
  1
GRIDFORMAT_BEGIN
 90
        0
 91
        1
 62
     0
 92
       -2
340
0
 93
        0
 40
1.125
309
GRIDFORMAT_END
 95
       32
302
GRIDFORMAT
  1
GRIDFORMAT_BEGIN
 90
        0
 91
        1
 62
     0
 92
       -2
340
0
 93
        0
 40
1.125
309
GRIDFORMAT_END
309
TABLEFORMAT_END
  1
CELLSTYLE_BEGIN
 90
        3
 91
        2
300
_DATA
309
CELLSTYLE_END
  0
XRECORD
  5
4B4E
102
{ACAD_REACTORS
330
43D4
102
}
330
43D4
100
AcDbXrecord
280
     1
102
ACAD_ROUNDTRIP_PRE2007_TABLESTYLE
 90
      512
 91
        0
  1

 92
      512
 93
        0
  2

 94
      512
 95
        0
  3

  0
XRECORD
  5
4B33
102
{ACAD_REACTORS
330
4B32
102
}
330
4B32
100
AcDbXrecord
280
     1
102
RTVSPost2010Prop28
280
     1
102
RTVSPost2010PropOp28
 70
     1
102
RTVSPost2010Prop29
280
     1
102
RTVSPost2010PropOp29
 70
     1
102
RTVSPost2010Prop30
280
     0
102
RTVSPost2010PropOp30
 70
     1
102
RTVSPost2010Prop31
280
     0
102
RTVSPost2010PropOp31
 70
     1
102
RTVSPost2010Prop32
280
     0
102
RTVSPost2010PropOp32
 70
     1
102
RTVSPost2010Prop33
280
     0
102
RTVSPost2010PropOp33
 70
     1
102
RTVSPost2010Prop34
280
     0
102
RTVSPost2010PropOp34
 70
     1
102
RTVSPost2010Prop35
280
     0
102
RTVSPost2010PropOp35
 70
     1
102
RTVSPost2010Prop36
280
     0
102
RTVSPost2010PropOp36
 70
     1
102
RTVSPost2010Prop37
 90
       50
102
RTVSPost2010PropOp37
 70
     1
102
RTVSPost2010Prop38
140
0.0
102
RTVSPost2010PropOp38
 70
     1
102
RTVSPost2010Prop39
140
1.0
102
RTVSPost2010PropOp39
 70
     1
102
RTVSPost2010Prop40
 90
        0
102
RTVSPost2010PropOp40
 70
     1
102
RTVSPost2010Prop41ColorIndex
 90
       18
102
RTVSPost2010Prop41ColorRGB
 90
        0
102
RTVSPost2010PropOp41
 70
     1
102
RTVSPost2010Prop42
 90
       50
102
RTVSPost2010PropOp42
 70
     1
102
RTVSPost2010Prop43
 90
        3
102
RTVSPost2010PropOp43
 70
     1
102
RTVSPost2010Prop44ColorIndex
 90
        5
102
RTVSPost2010Prop44ColorRGB
 90
      255
102
RTVSPost2010PropOp44
 70
     1
102
RTVSPost2010Prop45
280
     0
102
RTVSPost2010PropOp45
 70
     1
102
RTVSPost2010Prop46
 90
       50
102
RTVSPost2010PropOp46
 70
     1
102
RTVSPost2010Prop47
 90
       50
102
RTVSPost2010PropOp47
 70
     1
102
RTVSPost2010Prop48
 90
       50
102
RTVSPost2010PropOp48
 70
     1
102
RTVSPost2010Prop49
280
     0
102
RTVSPost2010PropOp49
 70
     1
102
RTVSPost2010Prop50
 90
       50
102
RTVSPost2010PropOp50
 70
     1
102
RTVSPost2010Prop51ColorIndex
 90
      256
102
RTVSPost2010Prop51ColorRGB
 90
-16777216
102
RTVSPost2010PropOp51
 70
     0
102
RTVSPost2010Prop52
140
1.0
102
RTVSPost2010PropOp52
 70
     0
102
RTVSPost2010Prop53
 90
        2
102
RTVSPost2010PropOp53
 70
     1
102
RTVSPost2010Prop54
  1
strokes_ogs.tif
102
RTVSPost2010PropOp54
 70
     1
102
RTVSPost2010Prop55
280
     0
102
RTVSPost2010PropOp55
 70
     1
102
RTVSPost2010Prop56
140
1.0
102
RTVSPost2010PropOp56
 70
     1
102
RTVSPost2010Prop57
140
1.0
102
RTVSPost2010PropOp57
 70
     1
102
RTVSPropertyOp0
 70
     1
102
RTVSPropertyOp1
 70
     1
102
RTVSPropertyOp2
 70
     1
102
RTVSPropertyOp3
 70
     1
102
RTVSPropertyOp4
 70
     1
102
RTVSPropertyOp5
 70
     1
102
RTVSPropertyOp6
 70
     1
102
RTVSPropertyOp7
 70
     1
102
RTVSPropertyOp8
 70
     1
102
RTVSPropertyOp9
 70
     1
102
RTVSPropertyOp10
 70
     1
102
RTVSPropertyOp11
 70
     1
102
RTVSPropertyOp12
 70
     1
102
RTVSPropertyOp13
 70
     1
102
RTVSPropertyOp14
 70
     1
102
RTVSPropertyOp15
 70
     1
102
RTVSPropertyOp16
 70
     1
102
RTVSPropertyOp17
 70
     1
102
RTVSPropertyOp18
 70
     1
102
RTVSPropertyOp19
 70
     1
102
RTVSPropertyOp20
 70
     1
102
RTVSPropertyOp21
 70
     1
102
RTVSPropertyOp22
 70
     1
102
RTVSPropertyOp23
 70
     1
102
RTVSPropertyOp24
 70
     1
102
RTVSPropertyOp25
 70
     1
102
RTVSPropertyOp26
 70
     1
102
RTVSPropertyOp27
 70
     1
102
RTVSPropertyOp28
 70
     1
102
RTVSPropertyOp29
 70
     1
102
RTVSPropertyOp30
 70
     1
102
RTVSPropertyOp31
 70
     1
102
RTVSPropertyOp32
 70
     1
102
RTVSPropertyOp33
 70
     1
102
RTVSPropertyOp34
 70
     1
102
RTVSPropertyOp35
 70
     1
102
RTVSPropertyOp36
 70
     1
102
RTVSPropertyOp37
 70
     1
102
RTVSPropertyOp38
 70
     1
102
RTVSPropertyOp39
 70
     1
102
RTVSPropertyOp40
 70
     1
102
RTVSPropertyOp41
 70
     1
102
RTVSPropertyOp42
 70
     1
102
RTVSPropertyOp43
 70
     1
102
RTVSPropertyOp44
 70
     1
102
RTVSPropertyOp45
 70
     1
102
RTVSPropertyOp46
 70
     1
102
RTVSPropertyOp47
 70
     1
102
RTVSPropertyOp48
 70
     1
102
RTVSPropertyOp49
 70
     1
102
RTVSPropertyOp50
 70
     1
102
RTVSPropertyOp51
 70
     0
102
RTVSPropertyOp52
 70
     0
102
RTVSPropertyOp53
 70
     1
102
RTVSPropertyOp54
 70
     1
102
RTVSPropertyOp55
 70
     1
102
RTVSPropertyOp56
 70
     1
102
RTVSPropertyOp57
 70
     1
102
RTVSPropertyOp58
 70
     1
102
RTVSPropertyOp59
 70
     1
102
RTVSPropertyOp60
 70
     1
102
RTVSPropertyOp61
 70
     1
102
RTVSPropertyOp62
 70
     1
  0
XRECORD
  5
4B37
102
{ACAD_REACTORS
330
4B36
102
}
330
4B36
100
AcDbXrecord
280
     1
102
RTVSPost2010Prop28
280
     0
102
RTVSPost2010PropOp28
 70
     1
102
RTVSPost2010Prop29
280
     1
102
RTVSPost2010PropOp29
 70
     1
102
RTVSPost2010Prop30
280
     1
102
RTVSPost2010PropOp30
 70
     1
102
RTVSPost2010Prop31
280
     0
102
RTVSPost2010PropOp31
 70
     1
102
RTVSPost2010Prop32
280
     0
102
RTVSPost2010PropOp32
 70
     1
102
RTVSPost2010Prop33
280
     0
102
RTVSPost2010PropOp33
 70
     1
102
RTVSPost2010Prop34
280
     0
102
RTVSPost2010PropOp34
 70
     1
102
RTVSPost2010Prop35
280
     0
102
RTVSPost2010PropOp35
 70
     1
102
RTVSPost2010Prop36
280
     0
102
RTVSPost2010PropOp36
 70
     1
102
RTVSPost2010Prop37
 90
       50
102
RTVSPost2010PropOp37
 70
     1
102
RTVSPost2010Prop38
140
0.0
102
RTVSPost2010PropOp38
 70
     1
102
RTVSPost2010Prop39
140
1.0
102
RTVSPost2010PropOp39
 70
     1
102
RTVSPost2010Prop40
 90
        0
102
RTVSPost2010PropOp40
 70
     1
102
RTVSPost2010Prop41ColorIndex
 90
       18
102
RTVSPost2010Prop41ColorRGB
 90
        0
102
RTVSPost2010PropOp41
 70
     1
102
RTVSPost2010Prop42
 90
       50
102
RTVSPost2010PropOp42
 70
     1
102
RTVSPost2010Prop43
 90
        3
102
RTVSPost2010PropOp43
 70
     1
102
RTVSPost2010Prop44ColorIndex
 90
        5
102
RTVSPost2010Prop44ColorRGB
 90
      255
102
RTVSPost2010PropOp44
 70
     1
102
RTVSPost2010Prop45
280
     0
102
RTVSPost2010PropOp45
 70
     1
102
RTVSPost2010Prop46
 90
       50
102
RTVSPost2010PropOp46
 70
     1
102
RTVSPost2010Prop47
 90
       50
102
RTVSPost2010PropOp47
 70
     1
102
RTVSPost2010Prop48
 90
       50
102
RTVSPost2010PropOp48
 70
     1
102
RTVSPost2010Prop49
280
     0
102
RTVSPost2010PropOp49
 70
     1
102
RTVSPost2010Prop50
 90
       50
102
RTVSPost2010PropOp50
 70
     1
102
RTVSPost2010Prop51ColorIndex
 90
      256
102
RTVSPost2010Prop51ColorRGB
 90
-16777216
102
RTVSPost2010PropOp51
 70
     0
102
RTVSPost2010Prop52
140
1.0
102
RTVSPost2010PropOp52
 70
     0
102
RTVSPost2010Prop53
 90
        2
102
RTVSPost2010PropOp53
 70
     1
102
RTVSPost2010Prop54
  1
strokes_ogs.tif
102
RTVSPost2010PropOp54
 70
     1
102
RTVSPost2010Prop55
280
     0
102
RTVSPost2010PropOp55
 70
     1
102
RTVSPost2010Prop56
140
1.0
102
RTVSPost2010PropOp56
 70
     1
102
RTVSPost2010Prop57
140
1.0
102
RTVSPost2010PropOp57
 70
     1
102
RTVSPropertyOp0
 70
     1
102
RTVSPropertyOp1
 70
     1
102
RTVSPropertyOp2
 70
     1
102
RTVSPropertyOp3
 70
     1
102
RTVSPropertyOp4
 70
     1
102
RTVSPropertyOp5
 70
     1
102
RTVSPropertyOp6
 70
     1
102
RTVSPropertyOp7
 70
     1
102
RTVSPropertyOp8
 70
     1
102
RTVSPropertyOp9
 70
     1
102
RTVSPropertyOp10
 70
     1
102
RTVSPropertyOp11
 70
     1
102
RTVSPropertyOp12
 70
     1
102
RTVSPropertyOp13
 70
     1
102
RTVSPropertyOp14
 70
     1
102
RTVSPropertyOp15
 70
     1
102
RTVSPropertyOp16
 70
     1
102
RTVSPropertyOp17
 70
     1
102
RTVSPropertyOp18
 70
     1
102
RTVSPropertyOp19
 70
     1
102
RTVSPropertyOp20
 70
     1
102
RTVSPropertyOp21
 70
     1
102
RTVSPropertyOp22
 70
     1
102
RTVSPropertyOp23
 70
     1
102
RTVSPropertyOp24
 70
     1
102
RTVSPropertyOp25
 70
     1
102
RTVSPropertyOp26
 70
     1
102
RTVSPropertyOp27
 70
     1
102
RTVSPropertyOp28
 70
     1
102
RTVSPropertyOp29
 70
     1
102
RTVSPropertyOp30
 70
     1
102
RTVSPropertyOp31
 70
     1
102
RTVSPropertyOp32
 70
     1
102
RTVSPropertyOp33
 70
     1
102
RTVSPropertyOp34
 70
     1
102
RTVSPropertyOp35
 70
     1
102
RTVSPropertyOp36
 70
     1
102
RTVSPropertyOp37
 70
     1
102
RTVSPropertyOp38
 70
     1
102
RTVSPropertyOp39
 70
     1
102
RTVSPropertyOp40
 70
     1
102
RTVSPropertyOp41
 70
     1
102
RTVSPropertyOp42
 70
     1
102
RTVSPropertyOp43
 70
     1
102
RTVSPropertyOp44
 70
     1
102
RTVSPropertyOp45
 70
     1
102
RTVSPropertyOp46
 70
     1
102
RTVSPropertyOp47
 70
     1
102
RTVSPropertyOp48
 70
     1
102
RTVSPropertyOp49
 70
     1
102
RTVSPropertyOp50
 70
     1
102
RTVSPropertyOp51
 70
     0
102
RTVSPropertyOp52
 70
     0
102
RTVSPropertyOp53
 70
     1
102
RTVSPropertyOp54
 70
     1
102
RTVSPropertyOp55
 70
     1
102
RTVSPropertyOp56
 70
     1
102
RTVSPropertyOp57
 70
     1
102
RTVSPropertyOp58
 70
     1
102
RTVSPropertyOp59
 70
     1
102
RTVSPropertyOp60
 70
     1
102
RTVSPropertyOp61
 70
     1
102
RTVSPropertyOp62
 70
     1
  0
XRECORD
  5
4B35
102
{ACAD_REACTORS
330
4B34
102
}
330
4B34
100
AcDbXrecord
280
     1
102
RTVSPost2010Prop28
280
     0
102
RTVSPost2010PropOp28
 70
     1
102
RTVSPost2010Prop29
280
     1
102
RTVSPost2010PropOp29
 70
     1
102
RTVSPost2010Prop30
280
     1
102
RTVSPost2010PropOp30
 70
     1
102
RTVSPost2010Prop31
280
     0
102
RTVSPost2010PropOp31
 70
     1
102
RTVSPost2010Prop32
280
     0
102
RTVSPost2010PropOp32
 70
     1
102
RTVSPost2010Prop33
280
     0
102
RTVSPost2010PropOp33
 70
     1
102
RTVSPost2010Prop34
280
     0
102
RTVSPost2010PropOp34
 70
     1
102
RTVSPost2010Prop35
280
     0
102
RTVSPost2010PropOp35
 70
     1
102
RTVSPost2010Prop36
280
     0
102
RTVSPost2010PropOp36
 70
     1
102
RTVSPost2010Prop37
 90
       50
102
RTVSPost2010PropOp37
 70
     1
102
RTVSPost2010Prop38
140
0.0
102
RTVSPost2010PropOp38
 70
     1
102
RTVSPost2010Prop39
140
1.0
102
RTVSPost2010PropOp39
 70
     1
102
RTVSPost2010Prop40
 90
        0
102
RTVSPost2010PropOp40
 70
     1
102
RTVSPost2010Prop41ColorIndex
 90
       18
102
RTVSPost2010Prop41ColorRGB
 90
        0
102
RTVSPost2010PropOp41
 70
     1
102
RTVSPost2010Prop42
 90
       50
102
RTVSPost2010PropOp42
 70
     1
102
RTVSPost2010Prop43
 90
        3
102
RTVSPost2010PropOp43
 70
     1
102
RTVSPost2010Prop44ColorIndex
 90
        5
102
RTVSPost2010Prop44ColorRGB
 90
      255
102
RTVSPost2010PropOp44
 70
     1
102
RTVSPost2010Prop45
280
     0
102
RTVSPost2010PropOp45
 70
     1
102
RTVSPost2010Prop46
 90
       50
102
RTVSPost2010PropOp46
 70
     1
102
RTVSPost2010Prop47
 90
       50
102
RTVSPost2010PropOp47
 70
     1
102
RTVSPost2010Prop48
 90
       50
102
RTVSPost2010PropOp48
 70
     1
102
RTVSPost2010Prop49
280
     0
102
RTVSPost2010PropOp49
 70
     1
102
RTVSPost2010Prop50
 90
       50
102
RTVSPost2010PropOp50
 70
     1
102
RTVSPost2010Prop51ColorIndex
 90
      256
102
RTVSPost2010Prop51ColorRGB
 90
-16777216
102
RTVSPost2010PropOp51
 70
     0
102
RTVSPost2010Prop52
140
1.0
102
RTVSPost2010PropOp52
 70
     0
102
RTVSPost2010Prop53
 90
        2
102
RTVSPost2010PropOp53
 70
     1
102
RTVSPost2010Prop54
  1
strokes_ogs.tif
102
RTVSPost2010PropOp54
 70
     1
102
RTVSPost2010Prop55
280
     0
102
RTVSPost2010PropOp55
 70
     1
102
RTVSPost2010Prop56
140
1.0
102
RTVSPost2010PropOp56
 70
     1
102
RTVSPost2010Prop57
140
1.0
102
RTVSPost2010PropOp57
 70
     1
102
RTVSPropertyOp0
 70
     1
102
RTVSPropertyOp1
 70
     1
102
RTVSPropertyOp2
 70
     1
102
RTVSPropertyOp3
 70
     1
102
RTVSPropertyOp4
 70
     1
102
RTVSPropertyOp5
 70
     1
102
RTVSPropertyOp6
 70
     1
102
RTVSPropertyOp7
 70
     1
102
RTVSPropertyOp8
 70
     1
102
RTVSPropertyOp9
 70
     1
102
RTVSPropertyOp10
 70
     1
102
RTVSPropertyOp11
 70
     1
102
RTVSPropertyOp12
 70
     1
102
RTVSPropertyOp13
 70
     1
102
RTVSPropertyOp14
 70
     1
102
RTVSPropertyOp15
 70
     1
102
RTVSPropertyOp16
 70
     1
102
RTVSPropertyOp17
 70
     1
102
RTVSPropertyOp18
 70
     1
102
RTVSPropertyOp19
 70
     1
102
RTVSPropertyOp20
 70
     1
102
RTVSPropertyOp21
 70
     1
102
RTVSPropertyOp22
 70
     1
102
RTVSPropertyOp23
 70
     1
102
RTVSPropertyOp24
 70
     1
102
RTVSPropertyOp25
 70
     1
102
RTVSPropertyOp26
 70
     1
102
RTVSPropertyOp27
 70
     1
102
RTVSPropertyOp28
 70
     1
102
RTVSPropertyOp29
 70
     1
102
RTVSPropertyOp30
 70
     1
102
RTVSPropertyOp31
 70
     1
102
RTVSPropertyOp32
 70
     1
102
RTVSPropertyOp33
 70
     1
102
RTVSPropertyOp34
 70
     1
102
RTVSPropertyOp35
 70
     1
102
RTVSPropertyOp36
 70
     1
102
RTVSPropertyOp37
 70
     1
102
RTVSPropertyOp38
 70
     1
102
RTVSPropertyOp39
 70
     1
102
RTVSPropertyOp40
 70
     1
102
RTVSPropertyOp41
 70
     1
102
RTVSPropertyOp42
 70
     1
102
RTVSPropertyOp43
 70
     1
102
RTVSPropertyOp44
 70
     1
102
RTVSPropertyOp45
 70
     1
102
RTVSPropertyOp46
 70
     1
102
RTVSPropertyOp47
 70
     1
102
RTVSPropertyOp48
 70
     1
102
RTVSPropertyOp49
 70
     1
102
RTVSPropertyOp50
 70
     1
102
RTVSPropertyOp51
 70
     0
102
RTVSPropertyOp52
 70
     0
102
RTVSPropertyOp53
 70
     1
102
RTVSPropertyOp54
 70
     1
102
RTVSPropertyOp55
 70
     1
102
RTVSPropertyOp56
 70
     1
102
RTVSPropertyOp57
 70
     1
102
RTVSPropertyOp58
 70
     1
102
RTVSPropertyOp59
 70
     1
102
RTVSPropertyOp60
 70
     1
102
RTVSPropertyOp61
 70
     1
102
RTVSPropertyOp62
 70
     1
  0
XRECORD
  5
4B31
102
{ACAD_REACTORS
330
4B30
102
}
330
4B30
100
AcDbXrecord
280
     1
102
RTVSPost2010Prop28
280
     0
102
RTVSPost2010PropOp28
 70
     1
102
RTVSPost2010Prop29
280
     1
102
RTVSPost2010PropOp29
 70
     1
102
RTVSPost2010Prop30
280
     1
102
RTVSPost2010PropOp30
 70
     1
102
RTVSPost2010Prop31
280
     0
102
RTVSPost2010PropOp31
 70
     1
102
RTVSPost2010Prop32
280
     0
102
RTVSPost2010PropOp32
 70
     1
102
RTVSPost2010Prop33
280
     0
102
RTVSPost2010PropOp33
 70
     1
102
RTVSPost2010Prop34
280
     0
102
RTVSPost2010PropOp34
 70
     1
102
RTVSPost2010Prop35
280
     0
102
RTVSPost2010PropOp35
 70
     1
102
RTVSPost2010Prop36
280
     0
102
RTVSPost2010PropOp36
 70
     1
102
RTVSPost2010Prop37
 90
       50
102
RTVSPost2010PropOp37
 70
     1
102
RTVSPost2010Prop38
140
0.0
102
RTVSPost2010PropOp38
 70
     1
102
RTVSPost2010Prop39
140
1.0
102
RTVSPost2010PropOp39
 70
     1
102
RTVSPost2010Prop40
 90
        0
102
RTVSPost2010PropOp40
 70
     1
102
RTVSPost2010Prop41ColorIndex
 90
       18
102
RTVSPost2010Prop41ColorRGB
 90
        0
102
RTVSPost2010PropOp41
 70
     1
102
RTVSPost2010Prop42
 90
       50
102
RTVSPost2010PropOp42
 70
     1
102
RTVSPost2010Prop43
 90
        3
102
RTVSPost2010PropOp43
 70
     1
102
RTVSPost2010Prop44ColorIndex
 90
        5
102
RTVSPost2010Prop44ColorRGB
 90
      255
102
RTVSPost2010PropOp44
 70
     1
102
RTVSPost2010Prop45
280
     0
102
RTVSPost2010PropOp45
 70
     1
102
RTVSPost2010Prop46
 90
       50
102
RTVSPost2010PropOp46
 70
     1
102
RTVSPost2010Prop47
 90
       50
102
RTVSPost2010PropOp47
 70
     1
102
RTVSPost2010Prop48
 90
       50
102
RTVSPost2010PropOp48
 70
     1
102
RTVSPost2010Prop49
280
     0
102
RTVSPost2010PropOp49
 70
     1
102
RTVSPost2010Prop50
 90
       50
102
RTVSPost2010PropOp50
 70
     1
102
RTVSPost2010Prop51ColorIndex
 90
      256
102
RTVSPost2010Prop51ColorRGB
 90
-16777216
102
RTVSPost2010PropOp51
 70
     0
102
RTVSPost2010Prop52
140
1.0
102
RTVSPost2010PropOp52
 70
     0
102
RTVSPost2010Prop53
 90
        2
102
RTVSPost2010PropOp53
 70
     1
102
RTVSPost2010Prop54
  1
strokes_ogs.tif
102
RTVSPost2010PropOp54
 70
     1
102
RTVSPost2010Prop55
280
     0
102
RTVSPost2010PropOp55
 70
     1
102
RTVSPost2010Prop56
140
1.0
102
RTVSPost2010PropOp56
 70
     1
102
RTVSPost2010Prop57
140
1.0
102
RTVSPost2010PropOp57
 70
     1
102
RTVSPropertyOp0
 70
     1
102
RTVSPropertyOp1
 70
     1
102
RTVSPropertyOp2
 70
     1
102
RTVSPropertyOp3
 70
     1
102
RTVSPropertyOp4
 70
     1
102
RTVSPropertyOp5
 70
     1
102
RTVSPropertyOp6
 70
     1
102
RTVSPropertyOp7
 70
     1
102
RTVSPropertyOp8
 70
     1
102
RTVSPropertyOp9
 70
     1
102
RTVSPropertyOp10
 70
     1
102
RTVSPropertyOp11
 70
     1
102
RTVSPropertyOp12
 70
     1
102
RTVSPropertyOp13
 70
     1
102
RTVSPropertyOp14
 70
     1
102
RTVSPropertyOp15
 70
     1
102
RTVSPropertyOp16
 70
     1
102
RTVSPropertyOp17
 70
     1
102
RTVSPropertyOp18
 70
     1
102
RTVSPropertyOp19
 70
     1
102
RTVSPropertyOp20
 70
     1
102
RTVSPropertyOp21
 70
     1
102
RTVSPropertyOp22
 70
     1
102
RTVSPropertyOp23
 70
     1
102
RTVSPropertyOp24
 70
     1
102
RTVSPropertyOp25
 70
     1
102
RTVSPropertyOp26
 70
     1
102
RTVSPropertyOp27
 70
     1
102
RTVSPropertyOp28
 70
     1
102
RTVSPropertyOp29
 70
     1
102
RTVSPropertyOp30
 70
     1
102
RTVSPropertyOp31
 70
     1
102
RTVSPropertyOp32
 70
     1
102
RTVSPropertyOp33
 70
     1
102
RTVSPropertyOp34
 70
     1
102
RTVSPropertyOp35
 70
     1
102
RTVSPropertyOp36
 70
     1
102
RTVSPropertyOp37
 70
     1
102
RTVSPropertyOp38
 70
     1
102
RTVSPropertyOp39
 70
     1
102
RTVSPropertyOp40
 70
     1
102
RTVSPropertyOp41
 70
     1
102
RTVSPropertyOp42
 70
     1
102
RTVSPropertyOp43
 70
     1
102
RTVSPropertyOp44
 70
     1
102
RTVSPropertyOp45
 70
     1
102
RTVSPropertyOp46
 70
     1
102
RTVSPropertyOp47
 70
     1
102
RTVSPropertyOp48
 70
     1
102
RTVSPropertyOp49
 70
     1
102
RTVSPropertyOp50
 70
     1
102
RTVSPropertyOp51
 70
     0
102
RTVSPropertyOp52
 70
     0
102
RTVSPropertyOp53
 70
     1
102
RTVSPropertyOp54
 70
     1
102
RTVSPropertyOp55
 70
     1
102
RTVSPropertyOp56
 70
     1
102
RTVSPropertyOp57
 70
     1
102
RTVSPropertyOp58
 70
     1
102
RTVSPropertyOp59
 70
     1
102
RTVSPropertyOp60
 70
     1
102
RTVSPropertyOp61
 70
     1
102
RTVSPropertyOp62
 70
     1
  0
XRECORD
  5
4B3F
102
{ACAD_REACTORS
330
4B3E
102
}
330
4B3E
100
AcDbXrecord
280
     1
102
RTVSPost2010Prop28
280
     0
102
RTVSPost2010PropOp28
 70
     1
102
RTVSPost2010Prop29
280
     1
102
RTVSPost2010PropOp29
 70
     1
102
RTVSPost2010Prop30
280
     1
102
RTVSPost2010PropOp30
 70
     1
102
RTVSPost2010Prop31
280
     0
102
RTVSPost2010PropOp31
 70
     1
102
RTVSPost2010Prop32
280
     0
102
RTVSPost2010PropOp32
 70
     1
102
RTVSPost2010Prop33
280
     0
102
RTVSPost2010PropOp33
 70
     1
102
RTVSPost2010Prop34
280
     0
102
RTVSPost2010PropOp34
 70
     1
102
RTVSPost2010Prop35
280
     0
102
RTVSPost2010PropOp35
 70
     1
102
RTVSPost2010Prop36
280
     0
102
RTVSPost2010PropOp36
 70
     1
102
RTVSPost2010Prop37
 90
       50
102
RTVSPost2010PropOp37
 70
     1
102
RTVSPost2010Prop38
140
0.0
102
RTVSPost2010PropOp38
 70
     1
102
RTVSPost2010Prop39
140
1.0
102
RTVSPost2010PropOp39
 70
     1
102
RTVSPost2010Prop40
 90
        0
102
RTVSPost2010PropOp40
 70
     1
102
RTVSPost2010Prop41ColorIndex
 90
       18
102
RTVSPost2010Prop41ColorRGB
 90
        0
102
RTVSPost2010PropOp41
 70
     1
102
RTVSPost2010Prop42
 90
       50
102
RTVSPost2010PropOp42
 70
     1
102
RTVSPost2010Prop43
 90
        3
102
RTVSPost2010PropOp43
 70
     1
102
RTVSPost2010Prop44ColorIndex
 90
        5
102
RTVSPost2010Prop44ColorRGB
 90
      255
102
RTVSPost2010PropOp44
 70
     1
102
RTVSPost2010Prop45
280
     0
102
RTVSPost2010PropOp45
 70
     1
102
RTVSPost2010Prop46
 90
       50
102
RTVSPost2010PropOp46
 70
     1
102
RTVSPost2010Prop47
 90
       50
102
RTVSPost2010PropOp47
 70
     1
102
RTVSPost2010Prop48
 90
       50
102
RTVSPost2010PropOp48
 70
     1
102
RTVSPost2010Prop49
280
     0
102
RTVSPost2010PropOp49
 70
     1
102
RTVSPost2010Prop50
 90
       50
102
RTVSPost2010PropOp50
 70
     1
102
RTVSPost2010Prop51ColorIndex
 90
      256
102
RTVSPost2010Prop51ColorRGB
 90
-16777216
102
RTVSPost2010PropOp51
 70
     0
102
RTVSPost2010Prop52
140
1.0
102
RTVSPost2010PropOp52
 70
     0
102
RTVSPost2010Prop53
 90
        2
102
RTVSPost2010PropOp53
 70
     1
102
RTVSPost2010Prop54
  1
strokes_ogs.tif
102
RTVSPost2010PropOp54
 70
     1
102
RTVSPost2010Prop55
280
     0
102
RTVSPost2010PropOp55
 70
     1
102
RTVSPost2010Prop56
140
1.0
102
RTVSPost2010PropOp56
 70
     1
102
RTVSPost2010Prop57
140
1.0
102
RTVSPost2010PropOp57
 70
     1
102
RTVSPropertyOp0
 70
     1
102
RTVSPropertyOp1
 70
     1
102
RTVSPropertyOp2
 70
     1
102
RTVSPropertyOp3
 70
     1
102
RTVSPropertyOp4
 70
     1
102
RTVSPropertyOp5
 70
     1
102
RTVSPropertyOp6
 70
     1
102
RTVSPropertyOp7
 70
     1
102
RTVSPropertyOp8
 70
     1
102
RTVSPropertyOp9
 70
     1
102
RTVSPropertyOp10
 70
     1
102
RTVSPropertyOp11
 70
     1
102
RTVSPropertyOp12
 70
     1
102
RTVSPropertyOp13
 70
     1
102
RTVSPropertyOp14
 70
     1
102
RTVSPropertyOp15
 70
     1
102
RTVSPropertyOp16
 70
     1
102
RTVSPropertyOp17
 70
     1
102
RTVSPropertyOp18
 70
     1
102
RTVSPropertyOp19
 70
     1
102
RTVSPropertyOp20
 70
     1
102
RTVSPropertyOp21
 70
     1
102
RTVSPropertyOp22
 70
     1
102
RTVSPropertyOp23
 70
     1
102
RTVSPropertyOp24
 70
     1
102
RTVSPropertyOp25
 70
     1
102
RTVSPropertyOp26
 70
     1
102
RTVSPropertyOp27
 70
     1
102
RTVSPropertyOp28
 70
     1
102
RTVSPropertyOp29
 70
     1
102
RTVSPropertyOp30
 70
     1
102
RTVSPropertyOp31
 70
     1
102
RTVSPropertyOp32
 70
     1
102
RTVSPropertyOp33
 70
     1
102
RTVSPropertyOp34
 70
     1
102
RTVSPropertyOp35
 70
     1
102
RTVSPropertyOp36
 70
     1
102
RTVSPropertyOp37
 70
     1
102
RTVSPropertyOp38
 70
     1
102
RTVSPropertyOp39
 70
     1
102
RTVSPropertyOp40
 70
     1
102
RTVSPropertyOp41
 70
     1
102
RTVSPropertyOp42
 70
     1
102
RTVSPropertyOp43
 70
     1
102
RTVSPropertyOp44
 70
     1
102
RTVSPropertyOp45
 70
     1
102
RTVSPropertyOp46
 70
     1
102
RTVSPropertyOp47
 70
     1
102
RTVSPropertyOp48
 70
     1
102
RTVSPropertyOp49
 70
     1
102
RTVSPropertyOp50
 70
     1
102
RTVSPropertyOp51
 70
     0
102
RTVSPropertyOp52
 70
     0
102
RTVSPropertyOp53
 70
     1
102
RTVSPropertyOp54
 70
     1
102
RTVSPropertyOp55
 70
     1
102
RTVSPropertyOp56
 70
     1
102
RTVSPropertyOp57
 70
     1
102
RTVSPropertyOp58
 70
     1
102
RTVSPropertyOp59
 70
     1
102
RTVSPropertyOp60
 70
     1
102
RTVSPropertyOp61
 70
     1
102
RTVSPropertyOp62
 70
     1
  0
XRECORD
  5
4B47
102
{ACAD_REACTORS
330
4B46
102
}
330
4B46
100
AcDbXrecord
280
     1
102
RTVSPost2010Prop28
280
     0
102
RTVSPost2010PropOp28
 70
     1
102
RTVSPost2010Prop29
280
     1
102
RTVSPost2010PropOp29
 70
     1
102
RTVSPost2010Prop30
280
     1
102
RTVSPost2010PropOp30
 70
     1
102
RTVSPost2010Prop31
280
     0
102
RTVSPost2010PropOp31
 70
     1
102
RTVSPost2010Prop32
280
     0
102
RTVSPost2010PropOp32
 70
     1
102
RTVSPost2010Prop33
280
     0
102
RTVSPost2010PropOp33
 70
     1
102
RTVSPost2010Prop34
280
     0
102
RTVSPost2010PropOp34
 70
     1
102
RTVSPost2010Prop35
280
     0
102
RTVSPost2010PropOp35
 70
     1
102
RTVSPost2010Prop36
280
     0
102
RTVSPost2010PropOp36
 70
     1
102
RTVSPost2010Prop37
 90
       50
102
RTVSPost2010PropOp37
 70
     1
102
RTVSPost2010Prop38
140
0.0
102
RTVSPost2010PropOp38
 70
     1
102
RTVSPost2010Prop39
140
1.0
102
RTVSPost2010PropOp39
 70
     1
102
RTVSPost2010Prop40
 90
        0
102
RTVSPost2010PropOp40
 70
     1
102
RTVSPost2010Prop41ColorIndex
 90
       18
102
RTVSPost2010Prop41ColorRGB
 90
        0
102
RTVSPost2010PropOp41
 70
     1
102
RTVSPost2010Prop42
 90
       50
102
RTVSPost2010PropOp42
 70
     1
102
RTVSPost2010Prop43
 90
        3
102
RTVSPost2010PropOp43
 70
     1
102
RTVSPost2010Prop44ColorIndex
 90
        5
102
RTVSPost2010Prop44ColorRGB
 90
      255
102
RTVSPost2010PropOp44
 70
     1
102
RTVSPost2010Prop45
280
     0
102
RTVSPost2010PropOp45
 70
     1
102
RTVSPost2010Prop46
 90
       50
102
RTVSPost2010PropOp46
 70
     1
102
RTVSPost2010Prop47
 90
       50
102
RTVSPost2010PropOp47
 70
     1
102
RTVSPost2010Prop48
 90
       50
102
RTVSPost2010PropOp48
 70
     1
102
RTVSPost2010Prop49
280
     0
102
RTVSPost2010PropOp49
 70
     1
102
RTVSPost2010Prop50
 90
       50
102
RTVSPost2010PropOp50
 70
     1
102
RTVSPost2010Prop51ColorIndex
 90
      256
102
RTVSPost2010Prop51ColorRGB
 90
-16777216
102
RTVSPost2010PropOp51
 70
     0
102
RTVSPost2010Prop52
140
1.0
102
RTVSPost2010PropOp52
 70
     0
102
RTVSPost2010Prop53
 90
        2
102
RTVSPost2010PropOp53
 70
     1
102
RTVSPost2010Prop54
  1
strokes_ogs.tif
102
RTVSPost2010PropOp54
 70
     1
102
RTVSPost2010Prop55
280
     0
102
RTVSPost2010PropOp55
 70
     1
102
RTVSPost2010Prop56
140
1.0
102
RTVSPost2010PropOp56
 70
     1
102
RTVSPost2010Prop57
140
1.0
102
RTVSPost2010PropOp57
 70
     1
102
RTVSPropertyOp0
 70
     1
102
RTVSPropertyOp1
 70
     1
102
RTVSPropertyOp2
 70
     1
102
RTVSPropertyOp3
 70
     1
102
RTVSPropertyOp4
 70
     1
102
RTVSPropertyOp5
 70
     1
102
RTVSPropertyOp6
 70
     1
102
RTVSPropertyOp7
 70
     1
102
RTVSPropertyOp8
 70
     1
102
RTVSPropertyOp9
 70
     1
102
RTVSPropertyOp10
 70
     1
102
RTVSPropertyOp11
 70
     1
102
RTVSPropertyOp12
 70
     1
102
RTVSPropertyOp13
 70
     1
102
RTVSPropertyOp14
 70
     1
102
RTVSPropertyOp15
 70
     1
102
RTVSPropertyOp16
 70
     1
102
RTVSPropertyOp17
 70
     1
102
RTVSPropertyOp18
 70
     1
102
RTVSPropertyOp19
 70
     1
102
RTVSPropertyOp20
 70
     1
102
RTVSPropertyOp21
 70
     1
102
RTVSPropertyOp22
 70
     1
102
RTVSPropertyOp23
 70
     1
102
RTVSPropertyOp24
 70
     1
102
RTVSPropertyOp25
 70
     1
102
RTVSPropertyOp26
 70
     1
102
RTVSPropertyOp27
 70
     1
102
RTVSPropertyOp28
 70
     1
102
RTVSPropertyOp29
 70
     1
102
RTVSPropertyOp30
 70
     1
102
RTVSPropertyOp31
 70
     1
102
RTVSPropertyOp32
 70
     1
102
RTVSPropertyOp33
 70
     1
102
RTVSPropertyOp34
 70
     1
102
RTVSPropertyOp35
 70
     1
102
RTVSPropertyOp36
 70
     1
102
RTVSPropertyOp37
 70
     1
102
RTVSPropertyOp38
 70
     1
102
RTVSPropertyOp39
 70
     1
102
RTVSPropertyOp40
 70
     1
102
RTVSPropertyOp41
 70
     1
102
RTVSPropertyOp42
 70
     1
102
RTVSPropertyOp43
 70
     1
102
RTVSPropertyOp44
 70
     1
102
RTVSPropertyOp45
 70
     1
102
RTVSPropertyOp46
 70
     1
102
RTVSPropertyOp47
 70
     1
102
RTVSPropertyOp48
 70
     1
102
RTVSPropertyOp49
 70
     1
102
RTVSPropertyOp50
 70
     1
102
RTVSPropertyOp51
 70
     0
102
RTVSPropertyOp52
 70
     0
102
RTVSPropertyOp53
 70
     1
102
RTVSPropertyOp54
 70
     1
102
RTVSPropertyOp55
 70
     1
102
RTVSPropertyOp56
 70
     1
102
RTVSPropertyOp57
 70
     1
102
RTVSPropertyOp58
 70
     1
102
RTVSPropertyOp59
 70
     1
102
RTVSPropertyOp60
 70
     1
102
RTVSPropertyOp61
 70
     1
102
RTVSPropertyOp62
 70
     1
  0
XRECORD
  5
4B39
102
{ACAD_REACTORS
330
4B38
102
}
330
4B38
100
AcDbXrecord
280
     1
102
RTVSPost2010Prop28
280
     0
102
RTVSPost2010PropOp28
 70
     1
102
RTVSPost2010Prop29
280
     1
102
RTVSPost2010PropOp29
 70
     1
102
RTVSPost2010Prop30
280
     1
102
RTVSPost2010PropOp30
 70
     1
102
RTVSPost2010Prop31
280
     0
102
RTVSPost2010PropOp31
 70
     1
102
RTVSPost2010Prop32
280
     0
102
RTVSPost2010PropOp32
 70
     1
102
RTVSPost2010Prop33
280
     0
102
RTVSPost2010PropOp33
 70
     1
102
RTVSPost2010Prop34
280
     0
102
RTVSPost2010PropOp34
 70
     1
102
RTVSPost2010Prop35
280
     0
102
RTVSPost2010PropOp35
 70
     1
102
RTVSPost2010Prop36
280
     0
102
RTVSPost2010PropOp36
 70
     1
102
RTVSPost2010Prop37
 90
       50
102
RTVSPost2010PropOp37
 70
     1
102
RTVSPost2010Prop38
140
0.0
102
RTVSPost2010PropOp38
 70
     1
102
RTVSPost2010Prop39
140
1.0
102
RTVSPost2010PropOp39
 70
     1
102
RTVSPost2010Prop40
 90
        0
102
RTVSPost2010PropOp40
 70
     1
102
RTVSPost2010Prop41ColorIndex
 90
       18
102
RTVSPost2010Prop41ColorRGB
 90
        0
102
RTVSPost2010PropOp41
 70
     1
102
RTVSPost2010Prop42
 90
       50
102
RTVSPost2010PropOp42
 70
     1
102
RTVSPost2010Prop43
 90
        3
102
RTVSPost2010PropOp43
 70
     1
102
RTVSPost2010Prop44ColorIndex
 90
        5
102
RTVSPost2010Prop44ColorRGB
 90
      255
102
RTVSPost2010PropOp44
 70
     1
102
RTVSPost2010Prop45
280
     0
102
RTVSPost2010PropOp45
 70
     1
102
RTVSPost2010Prop46
 90
       50
102
RTVSPost2010PropOp46
 70
     1
102
RTVSPost2010Prop47
 90
       50
102
RTVSPost2010PropOp47
 70
     1
102
RTVSPost2010Prop48
 90
       50
102
RTVSPost2010PropOp48
 70
     1
102
RTVSPost2010Prop49
280
     0
102
RTVSPost2010PropOp49
 70
     1
102
RTVSPost2010Prop50
 90
       50
102
RTVSPost2010PropOp50
 70
     1
102
RTVSPost2010Prop51ColorIndex
 90
      256
102
RTVSPost2010Prop51ColorRGB
 90
-16777216
102
RTVSPost2010PropOp51
 70
     0
102
RTVSPost2010Prop52
140
1.0
102
RTVSPost2010PropOp52
 70
     0
102
RTVSPost2010Prop53
 90
        2
102
RTVSPost2010PropOp53
 70
     1
102
RTVSPost2010Prop54
  1
strokes_ogs.tif
102
RTVSPost2010PropOp54
 70
     1
102
RTVSPost2010Prop55
280
     0
102
RTVSPost2010PropOp55
 70
     1
102
RTVSPost2010Prop56
140
1.0
102
RTVSPost2010PropOp56
 70
     1
102
RTVSPost2010Prop57
140
1.0
102
RTVSPost2010PropOp57
 70
     1
102
RTVSPropertyOp0
 70
     1
102
RTVSPropertyOp1
 70
     1
102
RTVSPropertyOp2
 70
     1
102
RTVSPropertyOp3
 70
     1
102
RTVSPropertyOp4
 70
     1
102
RTVSPropertyOp5
 70
     1
102
RTVSPropertyOp6
 70
     1
102
RTVSPropertyOp7
 70
     1
102
RTVSPropertyOp8
 70
     1
102
RTVSPropertyOp9
 70
     1
102
RTVSPropertyOp10
 70
     1
102
RTVSPropertyOp11
 70
     1
102
RTVSPropertyOp12
 70
     1
102
RTVSPropertyOp13
 70
     1
102
RTVSPropertyOp14
 70
     1
102
RTVSPropertyOp15
 70
     1
102
RTVSPropertyOp16
 70
     1
102
RTVSPropertyOp17
 70
     1
102
RTVSPropertyOp18
 70
     1
102
RTVSPropertyOp19
 70
     1
102
RTVSPropertyOp20
 70
     1
102
RTVSPropertyOp21
 70
     1
102
RTVSPropertyOp22
 70
     1
102
RTVSPropertyOp23
 70
     1
102
RTVSPropertyOp24
 70
     1
102
RTVSPropertyOp25
 70
     1
102
RTVSPropertyOp26
 70
     1
102
RTVSPropertyOp27
 70
     1
102
RTVSPropertyOp28
 70
     1
102
RTVSPropertyOp29
 70
     1
102
RTVSPropertyOp30
 70
     1
102
RTVSPropertyOp31
 70
     1
102
RTVSPropertyOp32
 70
     1
102
RTVSPropertyOp33
 70
     1
102
RTVSPropertyOp34
 70
     1
102
RTVSPropertyOp35
 70
     1
102
RTVSPropertyOp36
 70
     1
102
RTVSPropertyOp37
 70
     1
102
RTVSPropertyOp38
 70
     1
102
RTVSPropertyOp39
 70
     1
102
RTVSPropertyOp40
 70
     1
102
RTVSPropertyOp41
 70
     1
102
RTVSPropertyOp42
 70
     1
102
RTVSPropertyOp43
 70
     1
102
RTVSPropertyOp44
 70
     1
102
RTVSPropertyOp45
 70
     1
102
RTVSPropertyOp46
 70
     1
102
RTVSPropertyOp47
 70
     1
102
RTVSPropertyOp48
 70
     1
102
RTVSPropertyOp49
 70
     1
102
RTVSPropertyOp50
 70
     1
102
RTVSPropertyOp51
 70
     0
102
RTVSPropertyOp52
 70
     0
102
RTVSPropertyOp53
 70
     1
102
RTVSPropertyOp54
 70
     1
102
RTVSPropertyOp55
 70
     1
102
RTVSPropertyOp56
 70
     1
102
RTVSPropertyOp57
 70
     1
102
RTVSPropertyOp58
 70
     1
102
RTVSPropertyOp59
 70
     1
102
RTVSPropertyOp60
 70
     1
102
RTVSPropertyOp61
 70
     1
102
RTVSPropertyOp62
 70
     1
  0
XRECORD
  5
4B3D
102
{ACAD_REACTORS
330
4B3C
102
}
330
4B3C
100
AcDbXrecord
280
     1
102
RTVSPost2010Prop28
280
     0
102
RTVSPost2010PropOp28
 70
     1
102
RTVSPost2010Prop29
280
     1
102
RTVSPost2010PropOp29
 70
     1
102
RTVSPost2010Prop30
280
     1
102
RTVSPost2010PropOp30
 70
     1
102
RTVSPost2010Prop31
280
     0
102
RTVSPost2010PropOp31
 70
     1
102
RTVSPost2010Prop32
280
     0
102
RTVSPost2010PropOp32
 70
     1
102
RTVSPost2010Prop33
280
     0
102
RTVSPost2010PropOp33
 70
     1
102
RTVSPost2010Prop34
280
     0
102
RTVSPost2010PropOp34
 70
     1
102
RTVSPost2010Prop35
280
     0
102
RTVSPost2010PropOp35
 70
     1
102
RTVSPost2010Prop36
280
     0
102
RTVSPost2010PropOp36
 70
     1
102
RTVSPost2010Prop37
 90
       50
102
RTVSPost2010PropOp37
 70
     1
102
RTVSPost2010Prop38
140
0.0
102
RTVSPost2010PropOp38
 70
     1
102
RTVSPost2010Prop39
140
1.0
102
RTVSPost2010PropOp39
 70
     1
102
RTVSPost2010Prop40
 90
        0
102
RTVSPost2010PropOp40
 70
     1
102
RTVSPost2010Prop41ColorIndex
 90
       18
102
RTVSPost2010Prop41ColorRGB
 90
        0
102
RTVSPost2010PropOp41
 70
     1
102
RTVSPost2010Prop42
 90
       50
102
RTVSPost2010PropOp42
 70
     1
102
RTVSPost2010Prop43
 90
        3
102
RTVSPost2010PropOp43
 70
     1
102
RTVSPost2010Prop44ColorIndex
 90
        5
102
RTVSPost2010Prop44ColorRGB
 90
      255
102
RTVSPost2010PropOp44
 70
     1
102
RTVSPost2010Prop45
280
     0
102
RTVSPost2010PropOp45
 70
     1
102
RTVSPost2010Prop46
 90
       50
102
RTVSPost2010PropOp46
 70
     1
102
RTVSPost2010Prop47
 90
       50
102
RTVSPost2010PropOp47
 70
     1
102
RTVSPost2010Prop48
 90
       50
102
RTVSPost2010PropOp48
 70
     1
102
RTVSPost2010Prop49
280
     0
102
RTVSPost2010PropOp49
 70
     1
102
RTVSPost2010Prop50
 90
       50
102
RTVSPost2010PropOp50
 70
     1
102
RTVSPost2010Prop51ColorIndex
 90
      256
102
RTVSPost2010Prop51ColorRGB
 90
-16777216
102
RTVSPost2010PropOp51
 70
     0
102
RTVSPost2010Prop52
140
1.0
102
RTVSPost2010PropOp52
 70
     0
102
RTVSPost2010Prop53
 90
        2
102
RTVSPost2010PropOp53
 70
     1
102
RTVSPost2010Prop54
  1
strokes_ogs.tif
102
RTVSPost2010PropOp54
 70
     1
102
RTVSPost2010Prop55
280
     0
102
RTVSPost2010PropOp55
 70
     1
102
RTVSPost2010Prop56
140
1.0
102
RTVSPost2010PropOp56
 70
     1
102
RTVSPost2010Prop57
140
1.0
102
RTVSPost2010PropOp57
 70
     1
102
RTVSPropertyOp0
 70
     1
102
RTVSPropertyOp1
 70
     1
102
RTVSPropertyOp2
 70
     1
102
RTVSPropertyOp3
 70
     1
102
RTVSPropertyOp4
 70
     1
102
RTVSPropertyOp5
 70
     1
102
RTVSPropertyOp6
 70
     1
102
RTVSPropertyOp7
 70
     1
102
RTVSPropertyOp8
 70
     1
102
RTVSPropertyOp9
 70
     1
102
RTVSPropertyOp10
 70
     1
102
RTVSPropertyOp11
 70
     1
102
RTVSPropertyOp12
 70
     1
102
RTVSPropertyOp13
 70
     1
102
RTVSPropertyOp14
 70
     1
102
RTVSPropertyOp15
 70
     1
102
RTVSPropertyOp16
 70
     1
102
RTVSPropertyOp17
 70
     1
102
RTVSPropertyOp18
 70
     1
102
RTVSPropertyOp19
 70
     1
102
RTVSPropertyOp20
 70
     1
102
RTVSPropertyOp21
 70
     1
102
RTVSPropertyOp22
 70
     1
102
RTVSPropertyOp23
 70
     1
102
RTVSPropertyOp24
 70
     1
102
RTVSPropertyOp25
 70
     1
102
RTVSPropertyOp26
 70
     1
102
RTVSPropertyOp27
 70
     1
102
RTVSPropertyOp28
 70
     1
102
RTVSPropertyOp29
 70
     1
102
RTVSPropertyOp30
 70
     1
102
RTVSPropertyOp31
 70
     1
102
RTVSPropertyOp32
 70
     1
102
RTVSPropertyOp33
 70
     1
102
RTVSPropertyOp34
 70
     1
102
RTVSPropertyOp35
 70
     1
102
RTVSPropertyOp36
 70
     1
102
RTVSPropertyOp37
 70
     1
102
RTVSPropertyOp38
 70
     1
102
RTVSPropertyOp39
 70
     1
102
RTVSPropertyOp40
 70
     1
102
RTVSPropertyOp41
 70
     1
102
RTVSPropertyOp42
 70
     1
102
RTVSPropertyOp43
 70
     1
102
RTVSPropertyOp44
 70
     1
102
RTVSPropertyOp45
 70
     1
102
RTVSPropertyOp46
 70
     1
102
RTVSPropertyOp47
 70
     1
102
RTVSPropertyOp48
 70
     1
102
RTVSPropertyOp49
 70
     1
102
RTVSPropertyOp50
 70
     1
102
RTVSPropertyOp51
 70
     0
102
RTVSPropertyOp52
 70
     0
102
RTVSPropertyOp53
 70
     1
102
RTVSPropertyOp54
 70
     1
102
RTVSPropertyOp55
 70
     1
102
RTVSPropertyOp56
 70
     1
102
RTVSPropertyOp57
 70
     1
102
RTVSPropertyOp58
 70
     1
102
RTVSPropertyOp59
 70
     1
102
RTVSPropertyOp60
 70
     1
102
RTVSPropertyOp61
 70
     1
102
RTVSPropertyOp62
 70
     1
  0
XRECORD
  5
4B4D
102
{ACAD_REACTORS
330
4B4C
102
}
330
4B4C
100
AcDbXrecord
280
     1
102
RTVSPost2010Prop28
280
     0
102
RTVSPost2010PropOp28
 70
     1
102
RTVSPost2010Prop29
280
     1
102
RTVSPost2010PropOp29
 70
     1
102
RTVSPost2010Prop30
280
     1
102
RTVSPost2010PropOp30
 70
     1
102
RTVSPost2010Prop31
280
     0
102
RTVSPost2010PropOp31
 70
     1
102
RTVSPost2010Prop32
280
     0
102
RTVSPost2010PropOp32
 70
     1
102
RTVSPost2010Prop33
280
     0
102
RTVSPost2010PropOp33
 70
     1
102
RTVSPost2010Prop34
280
     0
102
RTVSPost2010PropOp34
 70
     1
102
RTVSPost2010Prop35
280
     0
102
RTVSPost2010PropOp35
 70
     1
102
RTVSPost2010Prop36
280
     0
102
RTVSPost2010PropOp36
 70
     1
102
RTVSPost2010Prop37
 90
       50
102
RTVSPost2010PropOp37
 70
     1
102
RTVSPost2010Prop38
140
0.0
102
RTVSPost2010PropOp38
 70
     1
102
RTVSPost2010Prop39
140
1.0
102
RTVSPost2010PropOp39
 70
     1
102
RTVSPost2010Prop40
 90
        0
102
RTVSPost2010PropOp40
 70
     1
102
RTVSPost2010Prop41ColorIndex
 90
       18
102
RTVSPost2010Prop41ColorRGB
 90
        0
102
RTVSPost2010PropOp41
 70
     1
102
RTVSPost2010Prop42
 90
       50
102
RTVSPost2010PropOp42
 70
     1
102
RTVSPost2010Prop43
 90
        3
102
RTVSPost2010PropOp43
 70
     1
102
RTVSPost2010Prop44ColorIndex
 90
        5
102
RTVSPost2010Prop44ColorRGB
 90
      255
102
RTVSPost2010PropOp44
 70
     1
102
RTVSPost2010Prop45
280
     0
102
RTVSPost2010PropOp45
 70
     1
102
RTVSPost2010Prop46
 90
       50
102
RTVSPost2010PropOp46
 70
     1
102
RTVSPost2010Prop47
 90
       50
102
RTVSPost2010PropOp47
 70
     1
102
RTVSPost2010Prop48
 90
       50
102
RTVSPost2010PropOp48
 70
     1
102
RTVSPost2010Prop49
280
     0
102
RTVSPost2010PropOp49
 70
     1
102
RTVSPost2010Prop50
 90
       50
102
RTVSPost2010PropOp50
 70
     1
102
RTVSPost2010Prop51ColorIndex
 90
      256
102
RTVSPost2010Prop51ColorRGB
 90
-16777216
102
RTVSPost2010PropOp51
 70
     0
102
RTVSPost2010Prop52
140
1.0
102
RTVSPost2010PropOp52
 70
     0
102
RTVSPost2010Prop53
 90
        2
102
RTVSPost2010PropOp53
 70
     1
102
RTVSPost2010Prop54
  1
strokes_ogs.tif
102
RTVSPost2010PropOp54
 70
     1
102
RTVSPost2010Prop55
280
     0
102
RTVSPost2010PropOp55
 70
     1
102
RTVSPost2010Prop56
140
1.0
102
RTVSPost2010PropOp56
 70
     1
102
RTVSPost2010Prop57
140
1.0
102
RTVSPost2010PropOp57
 70
     1
102
RTVSPropertyOp0
 70
     0
102
RTVSPropertyOp1
 70
     0
102
RTVSPropertyOp2
 70
     0
102
RTVSPropertyOp3
 70
     0
102
RTVSPropertyOp4
 70
     0
102
RTVSPropertyOp5
 70
     0
102
RTVSPropertyOp6
 70
     0
102
RTVSPropertyOp7
 70
     0
102
RTVSPropertyOp8
 70
     0
102
RTVSPropertyOp9
 70
     0
102
RTVSPropertyOp10
 70
     0
102
RTVSPropertyOp11
 70
     0
102
RTVSPropertyOp12
 70
     0
102
RTVSPropertyOp13
 70
     0
102
RTVSPropertyOp14
 70
     2
102
RTVSPropertyOp15
 70
     0
102
RTVSPropertyOp16
 70
     0
102
RTVSPropertyOp17
 70
     0
102
RTVSPropertyOp18
 70
     0
102
RTVSPropertyOp19
 70
     0
102
RTVSPropertyOp20
 70
     0
102
RTVSPropertyOp21
 70
     0
102
RTVSPropertyOp22
 70
     0
102
RTVSPropertyOp23
 70
     0
102
RTVSPropertyOp24
 70
     0
102
RTVSPropertyOp25
 70
     0
102
RTVSPropertyOp26
 70
     0
102
RTVSPropertyOp27
 70
     0
102
RTVSPropertyOp28
 70
     1
102
RTVSPropertyOp29
 70
     1
102
RTVSPropertyOp30
 70
     1
102
RTVSPropertyOp31
 70
     1
102
RTVSPropertyOp32
 70
     1
102
RTVSPropertyOp33
 70
     1
102
RTVSPropertyOp34
 70
     1
102
RTVSPropertyOp35
 70
     1
102
RTVSPropertyOp36
 70
     1
102
RTVSPropertyOp37
 70
     1
102
RTVSPropertyOp38
 70
     1
102
RTVSPropertyOp39
 70
     1
102
RTVSPropertyOp40
 70
     1
102
RTVSPropertyOp41
 70
     1
102
RTVSPropertyOp42
 70
     1
102
RTVSPropertyOp43
 70
     1
102
RTVSPropertyOp44
 70
     1
102
RTVSPropertyOp45
 70
     1
102
RTVSPropertyOp46
 70
     1
102
RTVSPropertyOp47
 70
     1
102
RTVSPropertyOp48
 70
     1
102
RTVSPropertyOp49
 70
     1
102
RTVSPropertyOp50
 70
     1
102
RTVSPropertyOp51
 70
     0
102
RTVSPropertyOp52
 70
     0
102
RTVSPropertyOp53
 70
     1
102
RTVSPropertyOp54
 70
     1
102
RTVSPropertyOp55
 70
     1
102
RTVSPropertyOp56
 70
     1
102
RTVSPropertyOp57
 70
     1
102
RTVSPropertyOp58
 70
     1
102
RTVSPropertyOp59
 70
     1
102
RTVSPropertyOp60
 70
     1
102
RTVSPropertyOp61
 70
     1
102
RTVSPropertyOp62
 70
     1
  0
XRECORD
  5
4B45
102
{ACAD_REACTORS
330
4B44
102
}
330
4B44
100
AcDbXrecord
280
     1
102
RTVSPost2010Prop28
280
     0
102
RTVSPost2010PropOp28
 70
     1
102
RTVSPost2010Prop29
280
     1
102
RTVSPost2010PropOp29
 70
     1
102
RTVSPost2010Prop30
280
     1
102
RTVSPost2010PropOp30
 70
     1
102
RTVSPost2010Prop31
280
     0
102
RTVSPost2010PropOp31
 70
     1
102
RTVSPost2010Prop32
280
     0
102
RTVSPost2010PropOp32
 70
     1
102
RTVSPost2010Prop33
280
     0
102
RTVSPost2010PropOp33
 70
     1
102
RTVSPost2010Prop34
280
     0
102
RTVSPost2010PropOp34
 70
     1
102
RTVSPost2010Prop35
280
     0
102
RTVSPost2010PropOp35
 70
     1
102
RTVSPost2010Prop36
280
     0
102
RTVSPost2010PropOp36
 70
     1
102
RTVSPost2010Prop37
 90
       50
102
RTVSPost2010PropOp37
 70
     1
102
RTVSPost2010Prop38
140
0.0
102
RTVSPost2010PropOp38
 70
     1
102
RTVSPost2010Prop39
140
1.0
102
RTVSPost2010PropOp39
 70
     1
102
RTVSPost2010Prop40
 90
        0
102
RTVSPost2010PropOp40
 70
     1
102
RTVSPost2010Prop41ColorIndex
 90
       18
102
RTVSPost2010Prop41ColorRGB
 90
        0
102
RTVSPost2010PropOp41
 70
     1
102
RTVSPost2010Prop42
 90
       50
102
RTVSPost2010PropOp42
 70
     1
102
RTVSPost2010Prop43
 90
        3
102
RTVSPost2010PropOp43
 70
     1
102
RTVSPost2010Prop44ColorIndex
 90
        5
102
RTVSPost2010Prop44ColorRGB
 90
      255
102
RTVSPost2010PropOp44
 70
     1
102
RTVSPost2010Prop45
280
     0
102
RTVSPost2010PropOp45
 70
     1
102
RTVSPost2010Prop46
 90
       50
102
RTVSPost2010PropOp46
 70
     1
102
RTVSPost2010Prop47
 90
       50
102
RTVSPost2010PropOp47
 70
     1
102
RTVSPost2010Prop48
 90
       50
102
RTVSPost2010PropOp48
 70
     1
102
RTVSPost2010Prop49
280
     0
102
RTVSPost2010PropOp49
 70
     1
102
RTVSPost2010Prop50
 90
       50
102
RTVSPost2010PropOp50
 70
     1
102
RTVSPost2010Prop51ColorIndex
 90
      256
102
RTVSPost2010Prop51ColorRGB
 90
-16777216
102
RTVSPost2010PropOp51
 70
     0
102
RTVSPost2010Prop52
140
1.0
102
RTVSPost2010PropOp52
 70
     0
102
RTVSPost2010Prop53
 90
        2
102
RTVSPost2010PropOp53
 70
     1
102
RTVSPost2010Prop54
  1
strokes_ogs.tif
102
RTVSPost2010PropOp54
 70
     1
102
RTVSPost2010Prop55
280
     0
102
RTVSPost2010PropOp55
 70
     1
102
RTVSPost2010Prop56
140
1.0
102
RTVSPost2010PropOp56
 70
     1
102
RTVSPost2010Prop57
140
1.0
102
RTVSPost2010PropOp57
 70
     1
102
RTVSPropertyOp0
 70
     1
102
RTVSPropertyOp1
 70
     1
102
RTVSPropertyOp2
 70
     1
102
RTVSPropertyOp3
 70
     1
102
RTVSPropertyOp4
 70
     1
102
RTVSPropertyOp5
 70
     1
102
RTVSPropertyOp6
 70
     1
102
RTVSPropertyOp7
 70
     1
102
RTVSPropertyOp8
 70
     1
102
RTVSPropertyOp9
 70
     1
102
RTVSPropertyOp10
 70
     1
102
RTVSPropertyOp11
 70
     1
102
RTVSPropertyOp12
 70
     1
102
RTVSPropertyOp13
 70
     1
102
RTVSPropertyOp14
 70
     1
102
RTVSPropertyOp15
 70
     1
102
RTVSPropertyOp16
 70
     1
102
RTVSPropertyOp17
 70
     1
102
RTVSPropertyOp18
 70
     1
102
RTVSPropertyOp19
 70
     1
102
RTVSPropertyOp20
 70
     1
102
RTVSPropertyOp21
 70
     1
102
RTVSPropertyOp22
 70
     1
102
RTVSPropertyOp23
 70
     1
102
RTVSPropertyOp24
 70
     1
102
RTVSPropertyOp25
 70
     1
102
RTVSPropertyOp26
 70
     1
102
RTVSPropertyOp27
 70
     1
102
RTVSPropertyOp28
 70
     1
102
RTVSPropertyOp29
 70
     1
102
RTVSPropertyOp30
 70
     1
102
RTVSPropertyOp31
 70
     1
102
RTVSPropertyOp32
 70
     1
102
RTVSPropertyOp33
 70
     1
102
RTVSPropertyOp34
 70
     1
102
RTVSPropertyOp35
 70
     1
102
RTVSPropertyOp36
 70
     1
102
RTVSPropertyOp37
 70
     1
102
RTVSPropertyOp38
 70
     1
102
RTVSPropertyOp39
 70
     1
102
RTVSPropertyOp40
 70
     1
102
RTVSPropertyOp41
 70
     1
102
RTVSPropertyOp42
 70
     1
102
RTVSPropertyOp43
 70
     1
102
RTVSPropertyOp44
 70
     1
102
RTVSPropertyOp45
 70
     1
102
RTVSPropertyOp46
 70
     1
102
RTVSPropertyOp47
 70
     1
102
RTVSPropertyOp48
 70
     1
102
RTVSPropertyOp49
 70
     1
102
RTVSPropertyOp50
 70
     1
102
RTVSPropertyOp51
 70
     0
102
RTVSPropertyOp52
 70
     0
102
RTVSPropertyOp53
 70
     1
102
RTVSPropertyOp54
 70
     1
102
RTVSPropertyOp55
 70
     1
102
RTVSPropertyOp56
 70
     1
102
RTVSPropertyOp57
 70
     1
102
RTVSPropertyOp58
 70
     1
102
RTVSPropertyOp59
 70
     1
102
RTVSPropertyOp60
 70
     1
102
RTVSPropertyOp61
 70
     1
102
RTVSPropertyOp62
 70
     1
  0
XRECORD
  5
4B29
102
{ACAD_REACTORS
330
4B28
102
}
330
4B28
100
AcDbXrecord
280
     1
102
RTVSPost2010Prop28
280
     0
102
RTVSPost2010PropOp28
 70
     1
102
RTVSPost2010Prop29
280
     1
102
RTVSPost2010PropOp29
 70
     1
102
RTVSPost2010Prop30
280
     1
102
RTVSPost2010PropOp30
 70
     1
102
RTVSPost2010Prop31
280
     0
102
RTVSPost2010PropOp31
 70
     1
102
RTVSPost2010Prop32
280
     0
102
RTVSPost2010PropOp32
 70
     1
102
RTVSPost2010Prop33
280
     0
102
RTVSPost2010PropOp33
 70
     1
102
RTVSPost2010Prop34
280
     0
102
RTVSPost2010PropOp34
 70
     1
102
RTVSPost2010Prop35
280
     0
102
RTVSPost2010PropOp35
 70
     1
102
RTVSPost2010Prop36
280
     0
102
RTVSPost2010PropOp36
 70
     1
102
RTVSPost2010Prop37
 90
       50
102
RTVSPost2010PropOp37
 70
     1
102
RTVSPost2010Prop38
140
0.0
102
RTVSPost2010PropOp38
 70
     1
102
RTVSPost2010Prop39
140
1.0
102
RTVSPost2010PropOp39
 70
     1
102
RTVSPost2010Prop40
 90
        0
102
RTVSPost2010PropOp40
 70
     1
102
RTVSPost2010Prop41ColorIndex
 90
       18
102
RTVSPost2010Prop41ColorRGB
 90
        0
102
RTVSPost2010PropOp41
 70
     1
102
RTVSPost2010Prop42
 90
       50
102
RTVSPost2010PropOp42
 70
     1
102
RTVSPost2010Prop43
 90
        3
102
RTVSPost2010PropOp43
 70
     1
102
RTVSPost2010Prop44ColorIndex
 90
        5
102
RTVSPost2010Prop44ColorRGB
 90
      255
102
RTVSPost2010PropOp44
 70
     1
102
RTVSPost2010Prop45
280
     0
102
RTVSPost2010PropOp45
 70
     1
102
RTVSPost2010Prop46
 90
       50
102
RTVSPost2010PropOp46
 70
     1
102
RTVSPost2010Prop47
 90
       50
102
RTVSPost2010PropOp47
 70
     1
102
RTVSPost2010Prop48
 90
       50
102
RTVSPost2010PropOp48
 70
     1
102
RTVSPost2010Prop49
280
     0
102
RTVSPost2010PropOp49
 70
     1
102
RTVSPost2010Prop50
 90
       50
102
RTVSPost2010PropOp50
 70
     1
102
RTVSPost2010Prop51ColorIndex
 90
      256
102
RTVSPost2010Prop51ColorRGB
 90
-16777216
102
RTVSPost2010PropOp51
 70
     0
102
RTVSPost2010Prop52
140
1.0
102
RTVSPost2010PropOp52
 70
     0
102
RTVSPost2010Prop53
 90
        2
102
RTVSPost2010PropOp53
 70
     1
102
RTVSPost2010Prop54
  1
strokes_ogs.tif
102
RTVSPost2010PropOp54
 70
     1
102
RTVSPost2010Prop55
280
     0
102
RTVSPost2010PropOp55
 70
     1
102
RTVSPost2010Prop56
140
1.0
102
RTVSPost2010PropOp56
 70
     1
102
RTVSPost2010Prop57
140
1.0
102
RTVSPost2010PropOp57
 70
     1
102
RTVSPropertyOp0
 70
     1
102
RTVSPropertyOp1
 70
     1
102
RTVSPropertyOp2
 70
     1
102
RTVSPropertyOp3
 70
     1
102
RTVSPropertyOp4
 70
     1
102
RTVSPropertyOp5
 70
     1
102
RTVSPropertyOp6
 70
     1
102
RTVSPropertyOp7
 70
     1
102
RTVSPropertyOp8
 70
     1
102
RTVSPropertyOp9
 70
     1
102
RTVSPropertyOp10
 70
     1
102
RTVSPropertyOp11
 70
     1
102
RTVSPropertyOp12
 70
     1
102
RTVSPropertyOp13
 70
     1
102
RTVSPropertyOp14
 70
     1
102
RTVSPropertyOp15
 70
     1
102
RTVSPropertyOp16
 70
     1
102
RTVSPropertyOp17
 70
     1
102
RTVSPropertyOp18
 70
     1
102
RTVSPropertyOp19
 70
     1
102
RTVSPropertyOp20
 70
     1
102
RTVSPropertyOp21
 70
     1
102
RTVSPropertyOp22
 70
     1
102
RTVSPropertyOp23
 70
     1
102
RTVSPropertyOp24
 70
     1
102
RTVSPropertyOp25
 70
     1
102
RTVSPropertyOp26
 70
     1
102
RTVSPropertyOp27
 70
     1
102
RTVSPropertyOp28
 70
     1
102
RTVSPropertyOp29
 70
     1
102
RTVSPropertyOp30
 70
     1
102
RTVSPropertyOp31
 70
     1
102
RTVSPropertyOp32
 70
     1
102
RTVSPropertyOp33
 70
     1
102
RTVSPropertyOp34
 70
     1
102
RTVSPropertyOp35
 70
     1
102
RTVSPropertyOp36
 70
     1
102
RTVSPropertyOp37
 70
     1
102
RTVSPropertyOp38
 70
     1
102
RTVSPropertyOp39
 70
     1
102
RTVSPropertyOp40
 70
     1
102
RTVSPropertyOp41
 70
     1
102
RTVSPropertyOp42
 70
     1
102
RTVSPropertyOp43
 70
     1
102
RTVSPropertyOp44
 70
     1
102
RTVSPropertyOp45
 70
     1
102
RTVSPropertyOp46
 70
     1
102
RTVSPropertyOp47
 70
     1
102
RTVSPropertyOp48
 70
     1
102
RTVSPropertyOp49
 70
     1
102
RTVSPropertyOp50
 70
     1
102
RTVSPropertyOp51
 70
     0
102
RTVSPropertyOp52
 70
     0
102
RTVSPropertyOp53
 70
     1
102
RTVSPropertyOp54
 70
     1
102
RTVSPropertyOp55
 70
     1
102
RTVSPropertyOp56
 70
     1
102
RTVSPropertyOp57
 70
     1
102
RTVSPropertyOp58
 70
     1
102
RTVSPropertyOp59
 70
     1
102
RTVSPropertyOp60
 70
     1
102
RTVSPropertyOp61
 70
     1
102
RTVSPropertyOp62
 70
     1
  0
XRECORD
  5
4B2B
102
{ACAD_REACTORS
330
4B2A
102
}
330
4B2A
100
AcDbXrecord
280
     1
102
RTVSPost2010Prop28
280
     0
102
RTVSPost2010PropOp28
 70
     1
102
RTVSPost2010Prop29
280
     1
102
RTVSPost2010PropOp29
 70
     1
102
RTVSPost2010Prop30
280
     1
102
RTVSPost2010PropOp30
 70
     1
102
RTVSPost2010Prop31
280
     0
102
RTVSPost2010PropOp31
 70
     1
102
RTVSPost2010Prop32
280
     0
102
RTVSPost2010PropOp32
 70
     1
102
RTVSPost2010Prop33
280
     0
102
RTVSPost2010PropOp33
 70
     1
102
RTVSPost2010Prop34
280
     0
102
RTVSPost2010PropOp34
 70
     1
102
RTVSPost2010Prop35
280
     0
102
RTVSPost2010PropOp35
 70
     1
102
RTVSPost2010Prop36
280
     0
102
RTVSPost2010PropOp36
 70
     1
102
RTVSPost2010Prop37
 90
       50
102
RTVSPost2010PropOp37
 70
     1
102
RTVSPost2010Prop38
140
0.0
102
RTVSPost2010PropOp38
 70
     1
102
RTVSPost2010Prop39
140
1.0
102
RTVSPost2010PropOp39
 70
     1
102
RTVSPost2010Prop40
 90
        0
102
RTVSPost2010PropOp40
 70
     1
102
RTVSPost2010Prop41ColorIndex
 90
       18
102
RTVSPost2010Prop41ColorRGB
 90
        0
102
RTVSPost2010PropOp41
 70
     1
102
RTVSPost2010Prop42
 90
       50
102
RTVSPost2010PropOp42
 70
     1
102
RTVSPost2010Prop43
 90
        3
102
RTVSPost2010PropOp43
 70
     1
102
RTVSPost2010Prop44ColorIndex
 90
        5
102
RTVSPost2010Prop44ColorRGB
 90
      255
102
RTVSPost2010PropOp44
 70
     1
102
RTVSPost2010Prop45
280
     0
102
RTVSPost2010PropOp45
 70
     1
102
RTVSPost2010Prop46
 90
       50
102
RTVSPost2010PropOp46
 70
     1
102
RTVSPost2010Prop47
 90
       50
102
RTVSPost2010PropOp47
 70
     1
102
RTVSPost2010Prop48
 90
       50
102
RTVSPost2010PropOp48
 70
     1
102
RTVSPost2010Prop49
280
     0
102
RTVSPost2010PropOp49
 70
     1
102
RTVSPost2010Prop50
 90
       50
102
RTVSPost2010PropOp50
 70
     1
102
RTVSPost2010Prop51ColorIndex
 90
      256
102
RTVSPost2010Prop51ColorRGB
 90
-16777216
102
RTVSPost2010PropOp51
 70
     0
102
RTVSPost2010Prop52
140
1.0
102
RTVSPost2010PropOp52
 70
     0
102
RTVSPost2010Prop53
 90
        2
102
RTVSPost2010PropOp53
 70
     1
102
RTVSPost2010Prop54
  1
strokes_ogs.tif
102
RTVSPost2010PropOp54
 70
     1
102
RTVSPost2010Prop55
280
     0
102
RTVSPost2010PropOp55
 70
     1
102
RTVSPost2010Prop56
140
1.0
102
RTVSPost2010PropOp56
 70
     1
102
RTVSPost2010Prop57
140
1.0
102
RTVSPost2010PropOp57
 70
     1
102
RTVSPropertyOp0
 70
     1
102
RTVSPropertyOp1
 70
     1
102
RTVSPropertyOp2
 70
     1
102
RTVSPropertyOp3
 70
     1
102
RTVSPropertyOp4
 70
     1
102
RTVSPropertyOp5
 70
     1
102
RTVSPropertyOp6
 70
     1
102
RTVSPropertyOp7
 70
     1
102
RTVSPropertyOp8
 70
     1
102
RTVSPropertyOp9
 70
     1
102
RTVSPropertyOp10
 70
     1
102
RTVSPropertyOp11
 70
     1
102
RTVSPropertyOp12
 70
     1
102
RTVSPropertyOp13
 70
     1
102
RTVSPropertyOp14
 70
     1
102
RTVSPropertyOp15
 70
     1
102
RTVSPropertyOp16
 70
     1
102
RTVSPropertyOp17
 70
     1
102
RTVSPropertyOp18
 70
     1
102
RTVSPropertyOp19
 70
     1
102
RTVSPropertyOp20
 70
     1
102
RTVSPropertyOp21
 70
     1
102
RTVSPropertyOp22
 70
     1
102
RTVSPropertyOp23
 70
     1
102
RTVSPropertyOp24
 70
     1
102
RTVSPropertyOp25
 70
     1
102
RTVSPropertyOp26
 70
     1
102
RTVSPropertyOp27
 70
     1
102
RTVSPropertyOp28
 70
     1
102
RTVSPropertyOp29
 70
     1
102
RTVSPropertyOp30
 70
     1
102
RTVSPropertyOp31
 70
     1
102
RTVSPropertyOp32
 70
     1
102
RTVSPropertyOp33
 70
     1
102
RTVSPropertyOp34
 70
     1
102
RTVSPropertyOp35
 70
     1
102
RTVSPropertyOp36
 70
     1
102
RTVSPropertyOp37
 70
     1
102
RTVSPropertyOp38
 70
     1
102
RTVSPropertyOp39
 70
     1
102
RTVSPropertyOp40
 70
     1
102
RTVSPropertyOp41
 70
     1
102
RTVSPropertyOp42
 70
     1
102
RTVSPropertyOp43
 70
     1
102
RTVSPropertyOp44
 70
     1
102
RTVSPropertyOp45
 70
     1
102
RTVSPropertyOp46
 70
     1
102
RTVSPropertyOp47
 70
     1
102
RTVSPropertyOp48
 70
     1
102
RTVSPropertyOp49
 70
     1
102
RTVSPropertyOp50
 70
     1
102
RTVSPropertyOp51
 70
     0
102
RTVSPropertyOp52
 70
     0
102
RTVSPropertyOp53
 70
     1
102
RTVSPropertyOp54
 70
     1
102
RTVSPropertyOp55
 70
     1
102
RTVSPropertyOp56
 70
     1
102
RTVSPropertyOp57
 70
     1
102
RTVSPropertyOp58
 70
     1
102
RTVSPropertyOp59
 70
     1
102
RTVSPropertyOp60
 70
     1
102
RTVSPropertyOp61
 70
     1
102
RTVSPropertyOp62
 70
     1
  0
XRECORD
  5
4B2D
102
{ACAD_REACTORS
330
4B2C
102
}
330
4B2C
100
AcDbXrecord
280
     1
102
RTVSPost2010Prop28
280
     0
102
RTVSPost2010PropOp28
 70
     1
102
RTVSPost2010Prop29
280
     1
102
RTVSPost2010PropOp29
 70
     1
102
RTVSPost2010Prop30
280
     1
102
RTVSPost2010PropOp30
 70
     1
102
RTVSPost2010Prop31
280
     0
102
RTVSPost2010PropOp31
 70
     1
102
RTVSPost2010Prop32
280
     0
102
RTVSPost2010PropOp32
 70
     1
102
RTVSPost2010Prop33
280
     0
102
RTVSPost2010PropOp33
 70
     1
102
RTVSPost2010Prop34
280
     0
102
RTVSPost2010PropOp34
 70
     1
102
RTVSPost2010Prop35
280
     0
102
RTVSPost2010PropOp35
 70
     1
102
RTVSPost2010Prop36
280
     0
102
RTVSPost2010PropOp36
 70
     1
102
RTVSPost2010Prop37
 90
       50
102
RTVSPost2010PropOp37
 70
     1
102
RTVSPost2010Prop38
140
0.0
102
RTVSPost2010PropOp38
 70
     1
102
RTVSPost2010Prop39
140
1.0
102
RTVSPost2010PropOp39
 70
     1
102
RTVSPost2010Prop40
 90
        0
102
RTVSPost2010PropOp40
 70
     1
102
RTVSPost2010Prop41ColorIndex
 90
       18
102
RTVSPost2010Prop41ColorRGB
 90
        0
102
RTVSPost2010PropOp41
 70
     1
102
RTVSPost2010Prop42
 90
       50
102
RTVSPost2010PropOp42
 70
     1
102
RTVSPost2010Prop43
 90
        3
102
RTVSPost2010PropOp43
 70
     1
102
RTVSPost2010Prop44ColorIndex
 90
        5
102
RTVSPost2010Prop44ColorRGB
 90
      255
102
RTVSPost2010PropOp44
 70
     1
102
RTVSPost2010Prop45
280
     0
102
RTVSPost2010PropOp45
 70
     1
102
RTVSPost2010Prop46
 90
       50
102
RTVSPost2010PropOp46
 70
     1
102
RTVSPost2010Prop47
 90
       50
102
RTVSPost2010PropOp47
 70
     1
102
RTVSPost2010Prop48
 90
       50
102
RTVSPost2010PropOp48
 70
     1
102
RTVSPost2010Prop49
280
     0
102
RTVSPost2010PropOp49
 70
     1
102
RTVSPost2010Prop50
 90
       50
102
RTVSPost2010PropOp50
 70
     1
102
RTVSPost2010Prop51ColorIndex
 90
      256
102
RTVSPost2010Prop51ColorRGB
 90
-16777216
102
RTVSPost2010PropOp51
 70
     0
102
RTVSPost2010Prop52
140
1.0
102
RTVSPost2010PropOp52
 70
     0
102
RTVSPost2010Prop53
 90
        2
102
RTVSPost2010PropOp53
 70
     1
102
RTVSPost2010Prop54
  1
strokes_ogs.tif
102
RTVSPost2010PropOp54
 70
     1
102
RTVSPost2010Prop55
280
     0
102
RTVSPost2010PropOp55
 70
     1
102
RTVSPost2010Prop56
140
1.0
102
RTVSPost2010PropOp56
 70
     1
102
RTVSPost2010Prop57
140
1.0
102
RTVSPost2010PropOp57
 70
     1
102
RTVSPropertyOp0
 70
     1
102
RTVSPropertyOp1
 70
     1
102
RTVSPropertyOp2
 70
     1
102
RTVSPropertyOp3
 70
     1
102
RTVSPropertyOp4
 70
     1
102
RTVSPropertyOp5
 70
     1
102
RTVSPropertyOp6
 70
     1
102
RTVSPropertyOp7
 70
     1
102
RTVSPropertyOp8
 70
     1
102
RTVSPropertyOp9
 70
     1
102
RTVSPropertyOp10
 70
     1
102
RTVSPropertyOp11
 70
     1
102
RTVSPropertyOp12
 70
     1
102
RTVSPropertyOp13
 70
     1
102
RTVSPropertyOp14
 70
     1
102
RTVSPropertyOp15
 70
     1
102
RTVSPropertyOp16
 70
     1
102
RTVSPropertyOp17
 70
     1
102
RTVSPropertyOp18
 70
     1
102
RTVSPropertyOp19
 70
     1
102
RTVSPropertyOp20
 70
     1
102
RTVSPropertyOp21
 70
     1
102
RTVSPropertyOp22
 70
     1
102
RTVSPropertyOp23
 70
     1
102
RTVSPropertyOp24
 70
     1
102
RTVSPropertyOp25
 70
     1
102
RTVSPropertyOp26
 70
     1
102
RTVSPropertyOp27
 70
     1
102
RTVSPropertyOp28
 70
     1
102
RTVSPropertyOp29
 70
     1
102
RTVSPropertyOp30
 70
     1
102
RTVSPropertyOp31
 70
     1
102
RTVSPropertyOp32
 70
     1
102
RTVSPropertyOp33
 70
     1
102
RTVSPropertyOp34
 70
     1
102
RTVSPropertyOp35
 70
     1
102
RTVSPropertyOp36
 70
     1
102
RTVSPropertyOp37
 70
     1
102
RTVSPropertyOp38
 70
     1
102
RTVSPropertyOp39
 70
     1
102
RTVSPropertyOp40
 70
     1
102
RTVSPropertyOp41
 70
     1
102
RTVSPropertyOp42
 70
     1
102
RTVSPropertyOp43
 70
     1
102
RTVSPropertyOp44
 70
     1
102
RTVSPropertyOp45
 70
     1
102
RTVSPropertyOp46
 70
     1
102
RTVSPropertyOp47
 70
     1
102
RTVSPropertyOp48
 70
     1
102
RTVSPropertyOp49
 70
     1
102
RTVSPropertyOp50
 70
     1
102
RTVSPropertyOp51
 70
     0
102
RTVSPropertyOp52
 70
     0
102
RTVSPropertyOp53
 70
     1
102
RTVSPropertyOp54
 70
     1
102
RTVSPropertyOp55
 70
     1
102
RTVSPropertyOp56
 70
     1
102
RTVSPropertyOp57
 70
     1
102
RTVSPropertyOp58
 70
     1
102
RTVSPropertyOp59
 70
     1
102
RTVSPropertyOp60
 70
     1
102
RTVSPropertyOp61
 70
     1
102
RTVSPropertyOp62
 70
     1
  0
XRECORD
  5
4B2F
102
{ACAD_REACTORS
330
4B2E
102
}
330
4B2E
100
AcDbXrecord
280
     1
102
RTVSPost2010Prop28
280
     0
102
RTVSPost2010PropOp28
 70
     1
102
RTVSPost2010Prop29
280
     1
102
RTVSPost2010PropOp29
 70
     1
102
RTVSPost2010Prop30
280
     1
102
RTVSPost2010PropOp30
 70
     1
102
RTVSPost2010Prop31
280
     0
102
RTVSPost2010PropOp31
 70
     1
102
RTVSPost2010Prop32
280
     0
102
RTVSPost2010PropOp32
 70
     1
102
RTVSPost2010Prop33
280
     0
102
RTVSPost2010PropOp33
 70
     1
102
RTVSPost2010Prop34
280
     0
102
RTVSPost2010PropOp34
 70
     1
102
RTVSPost2010Prop35
280
     0
102
RTVSPost2010PropOp35
 70
     1
102
RTVSPost2010Prop36
280
     0
102
RTVSPost2010PropOp36
 70
     1
102
RTVSPost2010Prop37
 90
       50
102
RTVSPost2010PropOp37
 70
     1
102
RTVSPost2010Prop38
140
0.0
102
RTVSPost2010PropOp38
 70
     1
102
RTVSPost2010Prop39
140
1.0
102
RTVSPost2010PropOp39
 70
     1
102
RTVSPost2010Prop40
 90
        0
102
RTVSPost2010PropOp40
 70
     1
102
RTVSPost2010Prop41ColorIndex
 90
       18
102
RTVSPost2010Prop41ColorRGB
 90
        0
102
RTVSPost2010PropOp41
 70
     1
102
RTVSPost2010Prop42
 90
       50
102
RTVSPost2010PropOp42
 70
     1
102
RTVSPost2010Prop43
 90
        3
102
RTVSPost2010PropOp43
 70
     1
102
RTVSPost2010Prop44ColorIndex
 90
        5
102
RTVSPost2010Prop44ColorRGB
 90
      255
102
RTVSPost2010PropOp44
 70
     1
102
RTVSPost2010Prop45
280
     0
102
RTVSPost2010PropOp45
 70
     1
102
RTVSPost2010Prop46
 90
       50
102
RTVSPost2010PropOp46
 70
     1
102
RTVSPost2010Prop47
 90
       50
102
RTVSPost2010PropOp47
 70
     1
102
RTVSPost2010Prop48
 90
       50
102
RTVSPost2010PropOp48
 70
     1
102
RTVSPost2010Prop49
280
     0
102
RTVSPost2010PropOp49
 70
     1
102
RTVSPost2010Prop50
 90
       50
102
RTVSPost2010PropOp50
 70
     1
102
RTVSPost2010Prop51ColorIndex
 90
      256
102
RTVSPost2010Prop51ColorRGB
 90
-16777216
102
RTVSPost2010PropOp51
 70
     0
102
RTVSPost2010Prop52
140
1.0
102
RTVSPost2010PropOp52
 70
     0
102
RTVSPost2010Prop53
 90
        2
102
RTVSPost2010PropOp53
 70
     1
102
RTVSPost2010Prop54
  1
strokes_ogs.tif
102
RTVSPost2010PropOp54
 70
     1
102
RTVSPost2010Prop55
280
     0
102
RTVSPost2010PropOp55
 70
     1
102
RTVSPost2010Prop56
140
1.0
102
RTVSPost2010PropOp56
 70
     1
102
RTVSPost2010Prop57
140
1.0
102
RTVSPost2010PropOp57
 70
     1
102
RTVSPropertyOp0
 70
     1
102
RTVSPropertyOp1
 70
     1
102
RTVSPropertyOp2
 70
     1
102
RTVSPropertyOp3
 70
     1
102
RTVSPropertyOp4
 70
     1
102
RTVSPropertyOp5
 70
     1
102
RTVSPropertyOp6
 70
     1
102
RTVSPropertyOp7
 70
     1
102
RTVSPropertyOp8
 70
     1
102
RTVSPropertyOp9
 70
     1
102
RTVSPropertyOp10
 70
     1
102
RTVSPropertyOp11
 70
     1
102
RTVSPropertyOp12
 70
     1
102
RTVSPropertyOp13
 70
     1
102
RTVSPropertyOp14
 70
     1
102
RTVSPropertyOp15
 70
     1
102
RTVSPropertyOp16
 70
     1
102
RTVSPropertyOp17
 70
     1
102
RTVSPropertyOp18
 70
     1
102
RTVSPropertyOp19
 70
     1
102
RTVSPropertyOp20
 70
     1
102
RTVSPropertyOp21
 70
     1
102
RTVSPropertyOp22
 70
     1
102
RTVSPropertyOp23
 70
     1
102
RTVSPropertyOp24
 70
     1
102
RTVSPropertyOp25
 70
     1
102
RTVSPropertyOp26
 70
     1
102
RTVSPropertyOp27
 70
     1
102
RTVSPropertyOp28
 70
     1
102
RTVSPropertyOp29
 70
     1
102
RTVSPropertyOp30
 70
     1
102
RTVSPropertyOp31
 70
     1
102
RTVSPropertyOp32
 70
     1
102
RTVSPropertyOp33
 70
     1
102
RTVSPropertyOp34
 70
     1
102
RTVSPropertyOp35
 70
     1
102
RTVSPropertyOp36
 70
     1
102
RTVSPropertyOp37
 70
     1
102
RTVSPropertyOp38
 70
     1
102
RTVSPropertyOp39
 70
     1
102
RTVSPropertyOp40
 70
     1
102
RTVSPropertyOp41
 70
     1
102
RTVSPropertyOp42
 70
     1
102
RTVSPropertyOp43
 70
     1
102
RTVSPropertyOp44
 70
     1
102
RTVSPropertyOp45
 70
     1
102
RTVSPropertyOp46
 70
     1
102
RTVSPropertyOp47
 70
     1
102
RTVSPropertyOp48
 70
     1
102
RTVSPropertyOp49
 70
     1
102
RTVSPropertyOp50
 70
     1
102
RTVSPropertyOp51
 70
     0
102
RTVSPropertyOp52
 70
     0
102
RTVSPropertyOp53
 70
     1
102
RTVSPropertyOp54
 70
     1
102
RTVSPropertyOp55
 70
     1
102
RTVSPropertyOp56
 70
     1
102
RTVSPropertyOp57
 70
     1
102
RTVSPropertyOp58
 70
     1
102
RTVSPropertyOp59
 70
     1
102
RTVSPropertyOp60
 70
     1
102
RTVSPropertyOp61
 70
     1
102
RTVSPropertyOp62
 70
     1
  0
XRECORD
  5
4B52
102
{ACAD_REACTORS
330
4B51
102
}
330
4B51
100
AcDbXrecord
280
     1
102
RTVSPost2010Prop28
280
     0
102
RTVSPost2010PropOp28
 70
     1
102
RTVSPost2010Prop29
280
     1
102
RTVSPost2010PropOp29
 70
     1
102
RTVSPost2010Prop30
280
     1
102
RTVSPost2010PropOp30
 70
     1
102
RTVSPost2010Prop31
280
     0
102
RTVSPost2010PropOp31
 70
     1
102
RTVSPost2010Prop32
280
     0
102
RTVSPost2010PropOp32
 70
     1
102
RTVSPost2010Prop33
280
     0
102
RTVSPost2010PropOp33
 70
     1
102
RTVSPost2010Prop34
280
     0
102
RTVSPost2010PropOp34
 70
     1
102
RTVSPost2010Prop35
280
     0
102
RTVSPost2010PropOp35
 70
     1
102
RTVSPost2010Prop36
280
     0
102
RTVSPost2010PropOp36
 70
     1
102
RTVSPost2010Prop37
 90
       50
102
RTVSPost2010PropOp37
 70
     1
102
RTVSPost2010Prop38
140
0.0
102
RTVSPost2010PropOp38
 70
     1
102
RTVSPost2010Prop39
140
1.0
102
RTVSPost2010PropOp39
 70
     1
102
RTVSPost2010Prop40
 90
        0
102
RTVSPost2010PropOp40
 70
     1
102
RTVSPost2010Prop41ColorIndex
 90
       18
102
RTVSPost2010Prop41ColorRGB
 90
        0
102
RTVSPost2010PropOp41
 70
     1
102
RTVSPost2010Prop42
 90
       50
102
RTVSPost2010PropOp42
 70
     1
102
RTVSPost2010Prop43
 90
        3
102
RTVSPost2010PropOp43
 70
     1
102
RTVSPost2010Prop44ColorIndex
 90
        5
102
RTVSPost2010Prop44ColorRGB
 90
      255
102
RTVSPost2010PropOp44
 70
     1
102
RTVSPost2010Prop45
280
     0
102
RTVSPost2010PropOp45
 70
     1
102
RTVSPost2010Prop46
 90
       50
102
RTVSPost2010PropOp46
 70
     1
102
RTVSPost2010Prop47
 90
       50
102
RTVSPost2010PropOp47
 70
     1
102
RTVSPost2010Prop48
 90
       50
102
RTVSPost2010PropOp48
 70
     1
102
RTVSPost2010Prop49
280
     0
102
RTVSPost2010PropOp49
 70
     1
102
RTVSPost2010Prop50
 90
       50
102
RTVSPost2010PropOp50
 70
     1
102
RTVSPost2010Prop51ColorIndex
 90
      256
102
RTVSPost2010Prop51ColorRGB
 90
-16777216
102
RTVSPost2010PropOp51
 70
     0
102
RTVSPost2010Prop52
140
1.0
102
RTVSPost2010PropOp52
 70
     0
102
RTVSPost2010Prop53
 90
        2
102
RTVSPost2010PropOp53
 70
     1
102
RTVSPost2010Prop54
  1
strokes_ogs.tif
102
RTVSPost2010PropOp54
 70
     1
102
RTVSPost2010Prop55
280
     0
102
RTVSPost2010PropOp55
 70
     1
102
RTVSPost2010Prop56
140
1.0
102
RTVSPost2010PropOp56
 70
     1
102
RTVSPost2010Prop57
140
1.0
102
RTVSPost2010PropOp57
 70
     1
102
RTVSPropertyOp0
 70
     1
102
RTVSPropertyOp1
 70
     1
102
RTVSPropertyOp2
 70
     1
102
RTVSPropertyOp3
 70
     1
102
RTVSPropertyOp4
 70
     1
102
RTVSPropertyOp5
 70
     1
102
RTVSPropertyOp6
 70
     1
102
RTVSPropertyOp7
 70
     1
102
RTVSPropertyOp8
 70
     1
102
RTVSPropertyOp9
 70
     1
102
RTVSPropertyOp10
 70
     1
102
RTVSPropertyOp11
 70
     1
102
RTVSPropertyOp12
 70
     1
102
RTVSPropertyOp13
 70
     1
102
RTVSPropertyOp14
 70
     1
102
RTVSPropertyOp15
 70
     1
102
RTVSPropertyOp16
 70
     1
102
RTVSPropertyOp17
 70
     1
102
RTVSPropertyOp18
 70
     1
102
RTVSPropertyOp19
 70
     1
102
RTVSPropertyOp20
 70
     1
102
RTVSPropertyOp21
 70
     1
102
RTVSPropertyOp22
 70
     1
102
RTVSPropertyOp23
 70
     1
102
RTVSPropertyOp24
 70
     1
102
RTVSPropertyOp25
 70
     1
102
RTVSPropertyOp26
 70
     1
102
RTVSPropertyOp27
 70
     1
102
RTVSPropertyOp28
 70
     1
102
RTVSPropertyOp29
 70
     1
102
RTVSPropertyOp30
 70
     1
102
RTVSPropertyOp31
 70
     1
102
RTVSPropertyOp32
 70
     1
102
RTVSPropertyOp33
 70
     1
102
RTVSPropertyOp34
 70
     1
102
RTVSPropertyOp35
 70
     1
102
RTVSPropertyOp36
 70
     1
102
RTVSPropertyOp37
 70
     1
102
RTVSPropertyOp38
 70
     1
102
RTVSPropertyOp39
 70
     1
102
RTVSPropertyOp40
 70
     1
102
RTVSPropertyOp41
 70
     1
102
RTVSPropertyOp42
 70
     1
102
RTVSPropertyOp43
 70
     1
102
RTVSPropertyOp44
 70
     1
102
RTVSPropertyOp45
 70
     1
102
RTVSPropertyOp46
 70
     1
102
RTVSPropertyOp47
 70
     1
102
RTVSPropertyOp48
 70
     1
102
RTVSPropertyOp49
 70
     1
102
RTVSPropertyOp50
 70
     1
102
RTVSPropertyOp51
 70
     0
102
RTVSPropertyOp52
 70
     0
102
RTVSPropertyOp53
 70
     1
102
RTVSPropertyOp54
 70
     1
102
RTVSPropertyOp55
 70
     1
102
RTVSPropertyOp56
 70
     1
102
RTVSPropertyOp57
 70
     1
102
RTVSPropertyOp58
 70
     1
102
RTVSPropertyOp59
 70
     1
102
RTVSPropertyOp60
 70
     1
102
RTVSPropertyOp61
 70
     1
102
RTVSPropertyOp62
 70
     1
  0
XRECORD
  5
4B49
102
{ACAD_REACTORS
330
4B48
102
}
330
4B48
100
AcDbXrecord
280
     1
102
RTVSPost2010Prop28
280
     0
102
RTVSPost2010PropOp28
 70
     1
102
RTVSPost2010Prop29
280
     1
102
RTVSPost2010PropOp29
 70
     1
102
RTVSPost2010Prop30
280
     1
102
RTVSPost2010PropOp30
 70
     1
102
RTVSPost2010Prop31
280
     0
102
RTVSPost2010PropOp31
 70
     1
102
RTVSPost2010Prop32
280
     0
102
RTVSPost2010PropOp32
 70
     1
102
RTVSPost2010Prop33
280
     0
102
RTVSPost2010PropOp33
 70
     1
102
RTVSPost2010Prop34
280
     0
102
RTVSPost2010PropOp34
 70
     1
102
RTVSPost2010Prop35
280
     0
102
RTVSPost2010PropOp35
 70
     1
102
RTVSPost2010Prop36
280
     0
102
RTVSPost2010PropOp36
 70
     1
102
RTVSPost2010Prop37
 90
       50
102
RTVSPost2010PropOp37
 70
     1
102
RTVSPost2010Prop38
140
0.0
102
RTVSPost2010PropOp38
 70
     1
102
RTVSPost2010Prop39
140
1.0
102
RTVSPost2010PropOp39
 70
     1
102
RTVSPost2010Prop40
 90
        0
102
RTVSPost2010PropOp40
 70
     1
102
RTVSPost2010Prop41ColorIndex
 90
       18
102
RTVSPost2010Prop41ColorRGB
 90
        0
102
RTVSPost2010PropOp41
 70
     1
102
RTVSPost2010Prop42
 90
       50
102
RTVSPost2010PropOp42
 70
     1
102
RTVSPost2010Prop43
 90
        3
102
RTVSPost2010PropOp43
 70
     1
102
RTVSPost2010Prop44ColorIndex
 90
        5
102
RTVSPost2010Prop44ColorRGB
 90
      255
102
RTVSPost2010PropOp44
 70
     1
102
RTVSPost2010Prop45
280
     0
102
RTVSPost2010PropOp45
 70
     1
102
RTVSPost2010Prop46
 90
       50
102
RTVSPost2010PropOp46
 70
     1
102
RTVSPost2010Prop47
 90
       50
102
RTVSPost2010PropOp47
 70
     1
102
RTVSPost2010Prop48
 90
       50
102
RTVSPost2010PropOp48
 70
     1
102
RTVSPost2010Prop49
280
     0
102
RTVSPost2010PropOp49
 70
     1
102
RTVSPost2010Prop50
 90
       50
102
RTVSPost2010PropOp50
 70
     1
102
RTVSPost2010Prop51ColorIndex
 90
      256
102
RTVSPost2010Prop51ColorRGB
 90
-16777216
102
RTVSPost2010PropOp51
 70
     0
102
RTVSPost2010Prop52
140
1.0
102
RTVSPost2010PropOp52
 70
     0
102
RTVSPost2010Prop53
 90
        2
102
RTVSPost2010PropOp53
 70
     1
102
RTVSPost2010Prop54
  1
strokes_ogs.tif
102
RTVSPost2010PropOp54
 70
     1
102
RTVSPost2010Prop55
280
     0
102
RTVSPost2010PropOp55
 70
     1
102
RTVSPost2010Prop56
140
1.0
102
RTVSPost2010PropOp56
 70
     1
102
RTVSPost2010Prop57
140
1.0
102
RTVSPost2010PropOp57
 70
     1
102
RTVSPropertyOp0
 70
     0
102
RTVSPropertyOp1
 70
     0
102
RTVSPropertyOp2
 70
     0
102
RTVSPropertyOp3
 70
     0
102
RTVSPropertyOp4
 70
     0
102
RTVSPropertyOp5
 70
     0
102
RTVSPropertyOp6
 70
     0
102
RTVSPropertyOp7
 70
     0
102
RTVSPropertyOp8
 70
     0
102
RTVSPropertyOp9
 70
     0
102
RTVSPropertyOp10
 70
     0
102
RTVSPropertyOp11
 70
     0
102
RTVSPropertyOp12
 70
     0
102
RTVSPropertyOp13
 70
     0
102
RTVSPropertyOp14
 70
     2
102
RTVSPropertyOp15
 70
     0
102
RTVSPropertyOp16
 70
     0
102
RTVSPropertyOp17
 70
     0
102
RTVSPropertyOp18
 70
     0
102
RTVSPropertyOp19
 70
     0
102
RTVSPropertyOp20
 70
     0
102
RTVSPropertyOp21
 70
     0
102
RTVSPropertyOp22
 70
     0
102
RTVSPropertyOp23
 70
     0
102
RTVSPropertyOp24
 70
     0
102
RTVSPropertyOp25
 70
     0
102
RTVSPropertyOp26
 70
     0
102
RTVSPropertyOp27
 70
     0
102
RTVSPropertyOp28
 70
     1
102
RTVSPropertyOp29
 70
     1
102
RTVSPropertyOp30
 70
     1
102
RTVSPropertyOp31
 70
     1
102
RTVSPropertyOp32
 70
     1
102
RTVSPropertyOp33
 70
     1
102
RTVSPropertyOp34
 70
     1
102
RTVSPropertyOp35
 70
     1
102
RTVSPropertyOp36
 70
     1
102
RTVSPropertyOp37
 70
     1
102
RTVSPropertyOp38
 70
     1
102
RTVSPropertyOp39
 70
     1
102
RTVSPropertyOp40
 70
     1
102
RTVSPropertyOp41
 70
     1
102
RTVSPropertyOp42
 70
     1
102
RTVSPropertyOp43
 70
     1
102
RTVSPropertyOp44
 70
     1
102
RTVSPropertyOp45
 70
     1
102
RTVSPropertyOp46
 70
     1
102
RTVSPropertyOp47
 70
     1
102
RTVSPropertyOp48
 70
     1
102
RTVSPropertyOp49
 70
     1
102
RTVSPropertyOp50
 70
     1
102
RTVSPropertyOp51
 70
     0
102
RTVSPropertyOp52
 70
     0
102
RTVSPropertyOp53
 70
     1
102
RTVSPropertyOp54
 70
     1
102
RTVSPropertyOp55
 70
     1
102
RTVSPropertyOp56
 70
     1
102
RTVSPropertyOp57
 70
     1
102
RTVSPropertyOp58
 70
     1
102
RTVSPropertyOp59
 70
     1
102
RTVSPropertyOp60
 70
     1
102
RTVSPropertyOp61
 70
     1
102
RTVSPropertyOp62
 70
     1
  0
XRECORD
  5
4B43
102
{ACAD_REACTORS
330
4B42
102
}
330
4B42
100
AcDbXrecord
280
     1
102
RTVSPost2010Prop28
280
     0
102
RTVSPost2010PropOp28
 70
     1
102
RTVSPost2010Prop29
280
     1
102
RTVSPost2010PropOp29
 70
     1
102
RTVSPost2010Prop30
280
     1
102
RTVSPost2010PropOp30
 70
     1
102
RTVSPost2010Prop31
280
     0
102
RTVSPost2010PropOp31
 70
     1
102
RTVSPost2010Prop32
280
     0
102
RTVSPost2010PropOp32
 70
     1
102
RTVSPost2010Prop33
280
     0
102
RTVSPost2010PropOp33
 70
     1
102
RTVSPost2010Prop34
280
     0
102
RTVSPost2010PropOp34
 70
     1
102
RTVSPost2010Prop35
280
     0
102
RTVSPost2010PropOp35
 70
     1
102
RTVSPost2010Prop36
280
     0
102
RTVSPost2010PropOp36
 70
     1
102
RTVSPost2010Prop37
 90
       50
102
RTVSPost2010PropOp37
 70
     1
102
RTVSPost2010Prop38
140
0.0
102
RTVSPost2010PropOp38
 70
     1
102
RTVSPost2010Prop39
140
1.0
102
RTVSPost2010PropOp39
 70
     1
102
RTVSPost2010Prop40
 90
        0
102
RTVSPost2010PropOp40
 70
     1
102
RTVSPost2010Prop41ColorIndex
 90
       18
102
RTVSPost2010Prop41ColorRGB
 90
        0
102
RTVSPost2010PropOp41
 70
     1
102
RTVSPost2010Prop42
 90
       50
102
RTVSPost2010PropOp42
 70
     1
102
RTVSPost2010Prop43
 90
        3
102
RTVSPost2010PropOp43
 70
     1
102
RTVSPost2010Prop44ColorIndex
 90
        5
102
RTVSPost2010Prop44ColorRGB
 90
      255
102
RTVSPost2010PropOp44
 70
     1
102
RTVSPost2010Prop45
280
     0
102
RTVSPost2010PropOp45
 70
     1
102
RTVSPost2010Prop46
 90
       50
102
RTVSPost2010PropOp46
 70
     1
102
RTVSPost2010Prop47
 90
       50
102
RTVSPost2010PropOp47
 70
     1
102
RTVSPost2010Prop48
 90
       50
102
RTVSPost2010PropOp48
 70
     1
102
RTVSPost2010Prop49
280
     0
102
RTVSPost2010PropOp49
 70
     1
102
RTVSPost2010Prop50
 90
       50
102
RTVSPost2010PropOp50
 70
     1
102
RTVSPost2010Prop51ColorIndex
 90
      256
102
RTVSPost2010Prop51ColorRGB
 90
-16777216
102
RTVSPost2010PropOp51
 70
     0
102
RTVSPost2010Prop52
140
1.0
102
RTVSPost2010PropOp52
 70
     0
102
RTVSPost2010Prop53
 90
        2
102
RTVSPost2010PropOp53
 70
     1
102
RTVSPost2010Prop54
  1
strokes_ogs.tif
102
RTVSPost2010PropOp54
 70
     1
102
RTVSPost2010Prop55
280
     0
102
RTVSPost2010PropOp55
 70
     1
102
RTVSPost2010Prop56
140
1.0
102
RTVSPost2010PropOp56
 70
     1
102
RTVSPost2010Prop57
140
1.0
102
RTVSPost2010PropOp57
 70
     1
102
RTVSPropertyOp0
 70
     1
102
RTVSPropertyOp1
 70
     1
102
RTVSPropertyOp2
 70
     1
102
RTVSPropertyOp3
 70
     1
102
RTVSPropertyOp4
 70
     1
102
RTVSPropertyOp5
 70
     1
102
RTVSPropertyOp6
 70
     1
102
RTVSPropertyOp7
 70
     1
102
RTVSPropertyOp8
 70
     1
102
RTVSPropertyOp9
 70
     1
102
RTVSPropertyOp10
 70
     1
102
RTVSPropertyOp11
 70
     1
102
RTVSPropertyOp12
 70
     1
102
RTVSPropertyOp13
 70
     1
102
RTVSPropertyOp14
 70
     1
102
RTVSPropertyOp15
 70
     1
102
RTVSPropertyOp16
 70
     1
102
RTVSPropertyOp17
 70
     1
102
RTVSPropertyOp18
 70
     1
102
RTVSPropertyOp19
 70
     1
102
RTVSPropertyOp20
 70
     1
102
RTVSPropertyOp21
 70
     1
102
RTVSPropertyOp22
 70
     1
102
RTVSPropertyOp23
 70
     1
102
RTVSPropertyOp24
 70
     1
102
RTVSPropertyOp25
 70
     1
102
RTVSPropertyOp26
 70
     1
102
RTVSPropertyOp27
 70
     1
102
RTVSPropertyOp28
 70
     1
102
RTVSPropertyOp29
 70
     1
102
RTVSPropertyOp30
 70
     1
102
RTVSPropertyOp31
 70
     1
102
RTVSPropertyOp32
 70
     1
102
RTVSPropertyOp33
 70
     1
102
RTVSPropertyOp34
 70
     1
102
RTVSPropertyOp35
 70
     1
102
RTVSPropertyOp36
 70
     1
102
RTVSPropertyOp37
 70
     1
102
RTVSPropertyOp38
 70
     1
102
RTVSPropertyOp39
 70
     1
102
RTVSPropertyOp40
 70
     1
102
RTVSPropertyOp41
 70
     1
102
RTVSPropertyOp42
 70
     1
102
RTVSPropertyOp43
 70
     1
102
RTVSPropertyOp44
 70
     1
102
RTVSPropertyOp45
 70
     1
102
RTVSPropertyOp46
 70
     1
102
RTVSPropertyOp47
 70
     1
102
RTVSPropertyOp48
 70
     1
102
RTVSPropertyOp49
 70
     1
102
RTVSPropertyOp50
 70
     1
102
RTVSPropertyOp51
 70
     0
102
RTVSPropertyOp52
 70
     0
102
RTVSPropertyOp53
 70
     1
102
RTVSPropertyOp54
 70
     1
102
RTVSPropertyOp55
 70
     1
102
RTVSPropertyOp56
 70
     1
102
RTVSPropertyOp57
 70
     1
102
RTVSPropertyOp58
 70
     1
102
RTVSPropertyOp59
 70
     1
102
RTVSPropertyOp60
 70
     1
102
RTVSPropertyOp61
 70
     1
102
RTVSPropertyOp62
 70
     1
  0
XRECORD
  5
4B4B
102
{ACAD_REACTORS
330
4B4A
102
}
330
4B4A
100
AcDbXrecord
280
     1
102
RTVSPost2010Prop28
280
     0
102
RTVSPost2010PropOp28
 70
     1
102
RTVSPost2010Prop29
280
     1
102
RTVSPost2010PropOp29
 70
     1
102
RTVSPost2010Prop30
280
     1
102
RTVSPost2010PropOp30
 70
     1
102
RTVSPost2010Prop31
280
     0
102
RTVSPost2010PropOp31
 70
     1
102
RTVSPost2010Prop32
280
     0
102
RTVSPost2010PropOp32
 70
     1
102
RTVSPost2010Prop33
280
     0
102
RTVSPost2010PropOp33
 70
     1
102
RTVSPost2010Prop34
280
     0
102
RTVSPost2010PropOp34
 70
     1
102
RTVSPost2010Prop35
280
     0
102
RTVSPost2010PropOp35
 70
     1
102
RTVSPost2010Prop36
280
     0
102
RTVSPost2010PropOp36
 70
     1
102
RTVSPost2010Prop37
 90
       50
102
RTVSPost2010PropOp37
 70
     1
102
RTVSPost2010Prop38
140
0.0
102
RTVSPost2010PropOp38
 70
     1
102
RTVSPost2010Prop39
140
1.0
102
RTVSPost2010PropOp39
 70
     1
102
RTVSPost2010Prop40
 90
        0
102
RTVSPost2010PropOp40
 70
     1
102
RTVSPost2010Prop41ColorIndex
 90
       18
102
RTVSPost2010Prop41ColorRGB
 90
        0
102
RTVSPost2010PropOp41
 70
     1
102
RTVSPost2010Prop42
 90
       50
102
RTVSPost2010PropOp42
 70
     1
102
RTVSPost2010Prop43
 90
        3
102
RTVSPost2010PropOp43
 70
     1
102
RTVSPost2010Prop44ColorIndex
 90
        5
102
RTVSPost2010Prop44ColorRGB
 90
      255
102
RTVSPost2010PropOp44
 70
     1
102
RTVSPost2010Prop45
280
     0
102
RTVSPost2010PropOp45
 70
     1
102
RTVSPost2010Prop46
 90
       50
102
RTVSPost2010PropOp46
 70
     1
102
RTVSPost2010Prop47
 90
       50
102
RTVSPost2010PropOp47
 70
     1
102
RTVSPost2010Prop48
 90
       50
102
RTVSPost2010PropOp48
 70
     1
102
RTVSPost2010Prop49
280
     0
102
RTVSPost2010PropOp49
 70
     1
102
RTVSPost2010Prop50
 90
       50
102
RTVSPost2010PropOp50
 70
     1
102
RTVSPost2010Prop51ColorIndex
 90
      256
102
RTVSPost2010Prop51ColorRGB
 90
-16777216
102
RTVSPost2010PropOp51
 70
     0
102
RTVSPost2010Prop52
140
1.0
102
RTVSPost2010PropOp52
 70
     0
102
RTVSPost2010Prop53
 90
        2
102
RTVSPost2010PropOp53
 70
     1
102
RTVSPost2010Prop54
  1
strokes_ogs.tif
102
RTVSPost2010PropOp54
 70
     1
102
RTVSPost2010Prop55
280
     0
102
RTVSPost2010PropOp55
 70
     1
102
RTVSPost2010Prop56
140
1.0
102
RTVSPost2010PropOp56
 70
     1
102
RTVSPost2010Prop57
140
1.0
102
RTVSPost2010PropOp57
 70
     1
102
RTVSPropertyOp0
 70
     0
102
RTVSPropertyOp1
 70
     0
102
RTVSPropertyOp2
 70
     0
102
RTVSPropertyOp3
 70
     0
102
RTVSPropertyOp4
 70
     0
102
RTVSPropertyOp5
 70
     0
102
RTVSPropertyOp6
 70
     0
102
RTVSPropertyOp7
 70
     0
102
RTVSPropertyOp8
 70
     0
102
RTVSPropertyOp9
 70
     0
102
RTVSPropertyOp10
 70
     0
102
RTVSPropertyOp11
 70
     0
102
RTVSPropertyOp12
 70
     0
102
RTVSPropertyOp13
 70
     0
102
RTVSPropertyOp14
 70
     2
102
RTVSPropertyOp15
 70
     0
102
RTVSPropertyOp16
 70
     0
102
RTVSPropertyOp17
 70
     0
102
RTVSPropertyOp18
 70
     0
102
RTVSPropertyOp19
 70
     0
102
RTVSPropertyOp20
 70
     0
102
RTVSPropertyOp21
 70
     0
102
RTVSPropertyOp22
 70
     0
102
RTVSPropertyOp23
 70
     0
102
RTVSPropertyOp24
 70
     0
102
RTVSPropertyOp25
 70
     0
102
RTVSPropertyOp26
 70
     0
102
RTVSPropertyOp27
 70
     0
102
RTVSPropertyOp28
 70
     1
102
RTVSPropertyOp29
 70
     1
102
RTVSPropertyOp30
 70
     1
102
RTVSPropertyOp31
 70
     1
102
RTVSPropertyOp32
 70
     1
102
RTVSPropertyOp33
 70
     1
102
RTVSPropertyOp34
 70
     1
102
RTVSPropertyOp35
 70
     1
102
RTVSPropertyOp36
 70
     1
102
RTVSPropertyOp37
 70
     1
102
RTVSPropertyOp38
 70
     1
102
RTVSPropertyOp39
 70
     1
102
RTVSPropertyOp40
 70
     1
102
RTVSPropertyOp41
 70
     1
102
RTVSPropertyOp42
 70
     1
102
RTVSPropertyOp43
 70
     1
102
RTVSPropertyOp44
 70
     1
102
RTVSPropertyOp45
 70
     1
102
RTVSPropertyOp46
 70
     1
102
RTVSPropertyOp47
 70
     1
102
RTVSPropertyOp48
 70
     1
102
RTVSPropertyOp49
 70
     1
102
RTVSPropertyOp50
 70
     1
102
RTVSPropertyOp51
 70
     0
102
RTVSPropertyOp52
 70
     0
102
RTVSPropertyOp53
 70
     1
102
RTVSPropertyOp54
 70
     1
102
RTVSPropertyOp55
 70
     1
102
RTVSPropertyOp56
 70
     1
102
RTVSPropertyOp57
 70
     1
102
RTVSPropertyOp58
 70
     1
102
RTVSPropertyOp59
 70
     1
102
RTVSPropertyOp60
 70
     1
102
RTVSPropertyOp61
 70
     1
102
RTVSPropertyOp62
 70
     1
  0
XRECORD
  5
4B3B
102
{ACAD_REACTORS
330
4B3A
102
}
330
4B3A
100
AcDbXrecord
280
     1
102
RTVSPost2010Prop28
280
     0
102
RTVSPost2010PropOp28
 70
     1
102
RTVSPost2010Prop29
280
     1
102
RTVSPost2010PropOp29
 70
     1
102
RTVSPost2010Prop30
280
     1
102
RTVSPost2010PropOp30
 70
     1
102
RTVSPost2010Prop31
280
     0
102
RTVSPost2010PropOp31
 70
     1
102
RTVSPost2010Prop32
280
     0
102
RTVSPost2010PropOp32
 70
     1
102
RTVSPost2010Prop33
280
     0
102
RTVSPost2010PropOp33
 70
     1
102
RTVSPost2010Prop34
280
     0
102
RTVSPost2010PropOp34
 70
     1
102
RTVSPost2010Prop35
280
     0
102
RTVSPost2010PropOp35
 70
     1
102
RTVSPost2010Prop36
280
     0
102
RTVSPost2010PropOp36
 70
     1
102
RTVSPost2010Prop37
 90
       50
102
RTVSPost2010PropOp37
 70
     1
102
RTVSPost2010Prop38
140
0.0
102
RTVSPost2010PropOp38
 70
     1
102
RTVSPost2010Prop39
140
1.0
102
RTVSPost2010PropOp39
 70
     1
102
RTVSPost2010Prop40
 90
        0
102
RTVSPost2010PropOp40
 70
     1
102
RTVSPost2010Prop41ColorIndex
 90
       18
102
RTVSPost2010Prop41ColorRGB
 90
        0
102
RTVSPost2010PropOp41
 70
     1
102
RTVSPost2010Prop42
 90
       50
102
RTVSPost2010PropOp42
 70
     1
102
RTVSPost2010Prop43
 90
        3
102
RTVSPost2010PropOp43
 70
     1
102
RTVSPost2010Prop44ColorIndex
 90
        5
102
RTVSPost2010Prop44ColorRGB
 90
      255
102
RTVSPost2010PropOp44
 70
     1
102
RTVSPost2010Prop45
280
     0
102
RTVSPost2010PropOp45
 70
     1
102
RTVSPost2010Prop46
 90
       50
102
RTVSPost2010PropOp46
 70
     1
102
RTVSPost2010Prop47
 90
       50
102
RTVSPost2010PropOp47
 70
     1
102
RTVSPost2010Prop48
 90
       50
102
RTVSPost2010PropOp48
 70
     1
102
RTVSPost2010Prop49
280
     0
102
RTVSPost2010PropOp49
 70
     1
102
RTVSPost2010Prop50
 90
       50
102
RTVSPost2010PropOp50
 70
     1
102
RTVSPost2010Prop51ColorIndex
 90
      256
102
RTVSPost2010Prop51ColorRGB
 90
-16777216
102
RTVSPost2010PropOp51
 70
     0
102
RTVSPost2010Prop52
140
1.0
102
RTVSPost2010PropOp52
 70
     0
102
RTVSPost2010Prop53
 90
        2
102
RTVSPost2010PropOp53
 70
     1
102
RTVSPost2010Prop54
  1
strokes_ogs.tif
102
RTVSPost2010PropOp54
 70
     1
102
RTVSPost2010Prop55
280
     0
102
RTVSPost2010PropOp55
 70
     1
102
RTVSPost2010Prop56
140
1.0
102
RTVSPost2010PropOp56
 70
     1
102
RTVSPost2010Prop57
140
1.0
102
RTVSPost2010PropOp57
 70
     1
102
RTVSPropertyOp0
 70
     1
102
RTVSPropertyOp1
 70
     1
102
RTVSPropertyOp2
 70
     1
102
RTVSPropertyOp3
 70
     1
102
RTVSPropertyOp4
 70
     1
102
RTVSPropertyOp5
 70
     1
102
RTVSPropertyOp6
 70
     1
102
RTVSPropertyOp7
 70
     1
102
RTVSPropertyOp8
 70
     1
102
RTVSPropertyOp9
 70
     1
102
RTVSPropertyOp10
 70
     1
102
RTVSPropertyOp11
 70
     1
102
RTVSPropertyOp12
 70
     1
102
RTVSPropertyOp13
 70
     1
102
RTVSPropertyOp14
 70
     1
102
RTVSPropertyOp15
 70
     1
102
RTVSPropertyOp16
 70
     1
102
RTVSPropertyOp17
 70
     1
102
RTVSPropertyOp18
 70
     1
102
RTVSPropertyOp19
 70
     1
102
RTVSPropertyOp20
 70
     1
102
RTVSPropertyOp21
 70
     1
102
RTVSPropertyOp22
 70
     1
102
RTVSPropertyOp23
 70
     1
102
RTVSPropertyOp24
 70
     1
102
RTVSPropertyOp25
 70
     1
102
RTVSPropertyOp26
 70
     1
102
RTVSPropertyOp27
 70
     1
102
RTVSPropertyOp28
 70
     1
102
RTVSPropertyOp29
 70
     1
102
RTVSPropertyOp30
 70
     1
102
RTVSPropertyOp31
 70
     1
102
RTVSPropertyOp32
 70
     1
102
RTVSPropertyOp33
 70
     1
102
RTVSPropertyOp34
 70
     1
102
RTVSPropertyOp35
 70
     1
102
RTVSPropertyOp36
 70
     1
102
RTVSPropertyOp37
 70
     1
102
RTVSPropertyOp38
 70
     1
102
RTVSPropertyOp39
 70
     1
102
RTVSPropertyOp40
 70
     1
102
RTVSPropertyOp41
 70
     1
102
RTVSPropertyOp42
 70
     1
102
RTVSPropertyOp43
 70
     1
102
RTVSPropertyOp44
 70
     1
102
RTVSPropertyOp45
 70
     1
102
RTVSPropertyOp46
 70
     1
102
RTVSPropertyOp47
 70
     1
102
RTVSPropertyOp48
 70
     1
102
RTVSPropertyOp49
 70
     1
102
RTVSPropertyOp50
 70
     1
102
RTVSPropertyOp51
 70
     0
102
RTVSPropertyOp52
 70
     0
102
RTVSPropertyOp53
 70
     1
102
RTVSPropertyOp54
 70
     1
102
RTVSPropertyOp55
 70
     1
102
RTVSPropertyOp56
 70
     1
102
RTVSPropertyOp57
 70
     1
102
RTVSPropertyOp58
 70
     1
102
RTVSPropertyOp59
 70
     1
102
RTVSPropertyOp60
 70
     1
102
RTVSPropertyOp61
 70
     1
102
RTVSPropertyOp62
 70
     1
  0
XRECORD
  5
4B5C
102
{ACAD_REACTORS
330
4B5B
102
}
330
4B5B
100
AcDbXrecord
280
     1
102
RTVSPost2010Prop28
280
     0
102
RTVSPost2010PropOp28
 70
     1
102
RTVSPost2010Prop29
280
     1
102
RTVSPost2010PropOp29
 70
     1
102
RTVSPost2010Prop30
280
     1
102
RTVSPost2010PropOp30
 70
     1
102
RTVSPost2010Prop31
280
     0
102
RTVSPost2010PropOp31
 70
     1
102
RTVSPost2010Prop32
280
     0
102
RTVSPost2010PropOp32
 70
     1
102
RTVSPost2010Prop33
280
     0
102
RTVSPost2010PropOp33
 70
     1
102
RTVSPost2010Prop34
280
     0
102
RTVSPost2010PropOp34
 70
     1
102
RTVSPost2010Prop35
280
     0
102
RTVSPost2010PropOp35
 70
     1
102
RTVSPost2010Prop36
280
     0
102
RTVSPost2010PropOp36
 70
     1
102
RTVSPost2010Prop37
 90
       50
102
RTVSPost2010PropOp37
 70
     1
102
RTVSPost2010Prop38
140
0.0
102
RTVSPost2010PropOp38
 70
     1
102
RTVSPost2010Prop39
140
1.0
102
RTVSPost2010PropOp39
 70
     1
102
RTVSPost2010Prop40
 90
        0
102
RTVSPost2010PropOp40
 70
     1
102
RTVSPost2010Prop41ColorIndex
 90
       18
102
RTVSPost2010Prop41ColorRGB
 90
        0
102
RTVSPost2010PropOp41
 70
     1
102
RTVSPost2010Prop42
 90
       50
102
RTVSPost2010PropOp42
 70
     1
102
RTVSPost2010Prop43
 90
        3
102
RTVSPost2010PropOp43
 70
     1
102
RTVSPost2010Prop44ColorIndex
 90
        5
102
RTVSPost2010Prop44ColorRGB
 90
      255
102
RTVSPost2010PropOp44
 70
     1
102
RTVSPost2010Prop45
280
     0
102
RTVSPost2010PropOp45
 70
     1
102
RTVSPost2010Prop46
 90
       50
102
RTVSPost2010PropOp46
 70
     1
102
RTVSPost2010Prop47
 90
       50
102
RTVSPost2010PropOp47
 70
     1
102
RTVSPost2010Prop48
 90
       50
102
RTVSPost2010PropOp48
 70
     1
102
RTVSPost2010Prop49
280
     0
102
RTVSPost2010PropOp49
 70
     1
102
RTVSPost2010Prop50
 90
       50
102
RTVSPost2010PropOp50
 70
     1
102
RTVSPost2010Prop51ColorIndex
 90
      256
102
RTVSPost2010Prop51ColorRGB
 90
-16777216
102
RTVSPost2010PropOp51
 70
     0
102
RTVSPost2010Prop52
140
1.0
102
RTVSPost2010PropOp52
 70
     0
102
RTVSPost2010Prop53
 90
        2
102
RTVSPost2010PropOp53
 70
     1
102
RTVSPost2010Prop54
  1
strokes_ogs.tif
102
RTVSPost2010PropOp54
 70
     1
102
RTVSPost2010Prop55
280
     0
102
RTVSPost2010PropOp55
 70
     1
102
RTVSPost2010Prop56
140
1.0
102
RTVSPost2010PropOp56
 70
     1
102
RTVSPost2010Prop57
140
1.0
102
RTVSPost2010PropOp57
 70
     1
102
RTVSPropertyOp0
 70
     1
102
RTVSPropertyOp1
 70
     1
102
RTVSPropertyOp2
 70
     1
102
RTVSPropertyOp3
 70
     1
102
RTVSPropertyOp4
 70
     1
102
RTVSPropertyOp5
 70
     1
102
RTVSPropertyOp6
 70
     1
102
RTVSPropertyOp7
 70
     1
102
RTVSPropertyOp8
 70
     1
102
RTVSPropertyOp9
 70
     1
102
RTVSPropertyOp10
 70
     1
102
RTVSPropertyOp11
 70
     1
102
RTVSPropertyOp12
 70
     1
102
RTVSPropertyOp13
 70
     1
102
RTVSPropertyOp14
 70
     1
102
RTVSPropertyOp15
 70
     1
102
RTVSPropertyOp16
 70
     1
102
RTVSPropertyOp17
 70
     1
102
RTVSPropertyOp18
 70
     1
102
RTVSPropertyOp19
 70
     1
102
RTVSPropertyOp20
 70
     1
102
RTVSPropertyOp21
 70
     1
102
RTVSPropertyOp22
 70
     1
102
RTVSPropertyOp23
 70
     1
102
RTVSPropertyOp24
 70
     1
102
RTVSPropertyOp25
 70
     1
102
RTVSPropertyOp26
 70
     1
102
RTVSPropertyOp27
 70
     1
102
RTVSPropertyOp28
 70
     1
102
RTVSPropertyOp29
 70
     1
102
RTVSPropertyOp30
 70
     1
102
RTVSPropertyOp31
 70
     1
102
RTVSPropertyOp32
 70
     1
102
RTVSPropertyOp33
 70
     1
102
RTVSPropertyOp34
 70
     1
102
RTVSPropertyOp35
 70
     1
102
RTVSPropertyOp36
 70
     1
102
RTVSPropertyOp37
 70
     1
102
RTVSPropertyOp38
 70
     1
102
RTVSPropertyOp39
 70
     1
102
RTVSPropertyOp40
 70
     1
102
RTVSPropertyOp41
 70
     1
102
RTVSPropertyOp42
 70
     1
102
RTVSPropertyOp43
 70
     1
102
RTVSPropertyOp44
 70
     1
102
RTVSPropertyOp45
 70
     1
102
RTVSPropertyOp46
 70
     1
102
RTVSPropertyOp47
 70
     1
102
RTVSPropertyOp48
 70
     1
102
RTVSPropertyOp49
 70
     1
102
RTVSPropertyOp50
 70
     1
102
RTVSPropertyOp51
 70
     0
102
RTVSPropertyOp52
 70
     0
102
RTVSPropertyOp53
 70
     1
102
RTVSPropertyOp54
 70
     1
102
RTVSPropertyOp55
 70
     1
102
RTVSPropertyOp56
 70
     1
102
RTVSPropertyOp57
 70
     1
102
RTVSPropertyOp58
 70
     1
102
RTVSPropertyOp59
 70
     1
102
RTVSPropertyOp60
 70
     1
102
RTVSPropertyOp61
 70
     1
102
RTVSPropertyOp62
 70
     1
  0
XRECORD
  5
4B5A
102
{ACAD_REACTORS
330
4B59
102
}
330
4B59
100
AcDbXrecord
280
     1
102
RTVSPost2010Prop28
280
     0
102
RTVSPost2010PropOp28
 70
     1
102
RTVSPost2010Prop29
280
     1
102
RTVSPost2010PropOp29
 70
     1
102
RTVSPost2010Prop30
280
     1
102
RTVSPost2010PropOp30
 70
     1
102
RTVSPost2010Prop31
280
     0
102
RTVSPost2010PropOp31
 70
     1
102
RTVSPost2010Prop32
280
     0
102
RTVSPost2010PropOp32
 70
     1
102
RTVSPost2010Prop33
280
     0
102
RTVSPost2010PropOp33
 70
     1
102
RTVSPost2010Prop34
280
     0
102
RTVSPost2010PropOp34
 70
     1
102
RTVSPost2010Prop35
280
     0
102
RTVSPost2010PropOp35
 70
     1
102
RTVSPost2010Prop36
280
     0
102
RTVSPost2010PropOp36
 70
     1
102
RTVSPost2010Prop37
 90
       50
102
RTVSPost2010PropOp37
 70
     1
102
RTVSPost2010Prop38
140
0.0
102
RTVSPost2010PropOp38
 70
     1
102
RTVSPost2010Prop39
140
1.0
102
RTVSPost2010PropOp39
 70
     1
102
RTVSPost2010Prop40
 90
        0
102
RTVSPost2010PropOp40
 70
     1
102
RTVSPost2010Prop41ColorIndex
 90
       18
102
RTVSPost2010Prop41ColorRGB
 90
        0
102
RTVSPost2010PropOp41
 70
     1
102
RTVSPost2010Prop42
 90
       50
102
RTVSPost2010PropOp42
 70
     1
102
RTVSPost2010Prop43
 90
        3
102
RTVSPost2010PropOp43
 70
     1
102
RTVSPost2010Prop44ColorIndex
 90
        5
102
RTVSPost2010Prop44ColorRGB
 90
      255
102
RTVSPost2010PropOp44
 70
     1
102
RTVSPost2010Prop45
280
     0
102
RTVSPost2010PropOp45
 70
     1
102
RTVSPost2010Prop46
 90
       50
102
RTVSPost2010PropOp46
 70
     1
102
RTVSPost2010Prop47
 90
       50
102
RTVSPost2010PropOp47
 70
     1
102
RTVSPost2010Prop48
 90
       50
102
RTVSPost2010PropOp48
 70
     1
102
RTVSPost2010Prop49
280
     0
102
RTVSPost2010PropOp49
 70
     1
102
RTVSPost2010Prop50
 90
       50
102
RTVSPost2010PropOp50
 70
     1
102
RTVSPost2010Prop51ColorIndex
 90
      256
102
RTVSPost2010Prop51ColorRGB
 90
-16777216
102
RTVSPost2010PropOp51
 70
     0
102
RTVSPost2010Prop52
140
1.0
102
RTVSPost2010PropOp52
 70
     0
102
RTVSPost2010Prop53
 90
        2
102
RTVSPost2010PropOp53
 70
     1
102
RTVSPost2010Prop54
  1
strokes_ogs.tif
102
RTVSPost2010PropOp54
 70
     1
102
RTVSPost2010Prop55
280
     0
102
RTVSPost2010PropOp55
 70
     1
102
RTVSPost2010Prop56
140
1.0
102
RTVSPost2010PropOp56
 70
     1
102
RTVSPost2010Prop57
140
1.0
102
RTVSPost2010PropOp57
 70
     1
102
RTVSPropertyOp0
 70
     1
102
RTVSPropertyOp1
 70
     1
102
RTVSPropertyOp2
 70
     1
102
RTVSPropertyOp3
 70
     1
102
RTVSPropertyOp4
 70
     1
102
RTVSPropertyOp5
 70
     1
102
RTVSPropertyOp6
 70
     1
102
RTVSPropertyOp7
 70
     1
102
RTVSPropertyOp8
 70
     1
102
RTVSPropertyOp9
 70
     1
102
RTVSPropertyOp10
 70
     1
102
RTVSPropertyOp11
 70
     1
102
RTVSPropertyOp12
 70
     1
102
RTVSPropertyOp13
 70
     1
102
RTVSPropertyOp14
 70
     1
102
RTVSPropertyOp15
 70
     1
102
RTVSPropertyOp16
 70
     1
102
RTVSPropertyOp17
 70
     1
102
RTVSPropertyOp18
 70
     1
102
RTVSPropertyOp19
 70
     1
102
RTVSPropertyOp20
 70
     1
102
RTVSPropertyOp21
 70
     1
102
RTVSPropertyOp22
 70
     1
102
RTVSPropertyOp23
 70
     1
102
RTVSPropertyOp24
 70
     1
102
RTVSPropertyOp25
 70
     1
102
RTVSPropertyOp26
 70
     1
102
RTVSPropertyOp27
 70
     1
102
RTVSPropertyOp28
 70
     1
102
RTVSPropertyOp29
 70
     1
102
RTVSPropertyOp30
 70
     1
102
RTVSPropertyOp31
 70
     1
102
RTVSPropertyOp32
 70
     1
102
RTVSPropertyOp33
 70
     1
102
RTVSPropertyOp34
 70
     1
102
RTVSPropertyOp35
 70
     1
102
RTVSPropertyOp36
 70
     1
102
RTVSPropertyOp37
 70
     1
102
RTVSPropertyOp38
 70
     1
102
RTVSPropertyOp39
 70
     1
102
RTVSPropertyOp40
 70
     1
102
RTVSPropertyOp41
 70
     1
102
RTVSPropertyOp42
 70
     1
102
RTVSPropertyOp43
 70
     1
102
RTVSPropertyOp44
 70
     1
102
RTVSPropertyOp45
 70
     1
102
RTVSPropertyOp46
 70
     1
102
RTVSPropertyOp47
 70
     1
102
RTVSPropertyOp48
 70
     1
102
RTVSPropertyOp49
 70
     1
102
RTVSPropertyOp50
 70
     1
102
RTVSPropertyOp51
 70
     0
102
RTVSPropertyOp52
 70
     0
102
RTVSPropertyOp53
 70
     1
102
RTVSPropertyOp54
 70
     1
102
RTVSPropertyOp55
 70
     1
102
RTVSPropertyOp56
 70
     1
102
RTVSPropertyOp57
 70
     1
102
RTVSPropertyOp58
 70
     1
102
RTVSPropertyOp59
 70
     1
102
RTVSPropertyOp60
 70
     1
102
RTVSPropertyOp61
 70
     1
102
RTVSPropertyOp62
 70
     1
  0
XRECORD
  5
4B54
102
{ACAD_REACTORS
330
4B53
102
}
330
4B53
100
AcDbXrecord
280
     1
102
RTVSPost2010Prop28
280
     0
102
RTVSPost2010PropOp28
 70
     1
102
RTVSPost2010Prop29
280
     1
102
RTVSPost2010PropOp29
 70
     1
102
RTVSPost2010Prop30
280
     1
102
RTVSPost2010PropOp30
 70
     1
102
RTVSPost2010Prop31
280
     0
102
RTVSPost2010PropOp31
 70
     1
102
RTVSPost2010Prop32
280
     0
102
RTVSPost2010PropOp32
 70
     1
102
RTVSPost2010Prop33
280
     0
102
RTVSPost2010PropOp33
 70
     1
102
RTVSPost2010Prop34
280
     0
102
RTVSPost2010PropOp34
 70
     1
102
RTVSPost2010Prop35
280
     0
102
RTVSPost2010PropOp35
 70
     1
102
RTVSPost2010Prop36
280
     0
102
RTVSPost2010PropOp36
 70
     1
102
RTVSPost2010Prop37
 90
       50
102
RTVSPost2010PropOp37
 70
     1
102
RTVSPost2010Prop38
140
0.0
102
RTVSPost2010PropOp38
 70
     1
102
RTVSPost2010Prop39
140
1.0
102
RTVSPost2010PropOp39
 70
     1
102
RTVSPost2010Prop40
 90
        0
102
RTVSPost2010PropOp40
 70
     1
102
RTVSPost2010Prop41ColorIndex
 90
       18
102
RTVSPost2010Prop41ColorRGB
 90
        0
102
RTVSPost2010PropOp41
 70
     1
102
RTVSPost2010Prop42
 90
       50
102
RTVSPost2010PropOp42
 70
     1
102
RTVSPost2010Prop43
 90
        3
102
RTVSPost2010PropOp43
 70
     1
102
RTVSPost2010Prop44ColorIndex
 90
        5
102
RTVSPost2010Prop44ColorRGB
 90
      255
102
RTVSPost2010PropOp44
 70
     1
102
RTVSPost2010Prop45
280
     0
102
RTVSPost2010PropOp45
 70
     1
102
RTVSPost2010Prop46
 90
       50
102
RTVSPost2010PropOp46
 70
     1
102
RTVSPost2010Prop47
 90
       50
102
RTVSPost2010PropOp47
 70
     1
102
RTVSPost2010Prop48
 90
       50
102
RTVSPost2010PropOp48
 70
     1
102
RTVSPost2010Prop49
280
     0
102
RTVSPost2010PropOp49
 70
     1
102
RTVSPost2010Prop50
 90
       50
102
RTVSPost2010PropOp50
 70
     1
102
RTVSPost2010Prop51ColorIndex
 90
      256
102
RTVSPost2010Prop51ColorRGB
 90
-16777216
102
RTVSPost2010PropOp51
 70
     0
102
RTVSPost2010Prop52
140
1.0
102
RTVSPost2010PropOp52
 70
     0
102
RTVSPost2010Prop53
 90
        2
102
RTVSPost2010PropOp53
 70
     1
102
RTVSPost2010Prop54
  1
strokes_ogs.tif
102
RTVSPost2010PropOp54
 70
     1
102
RTVSPost2010Prop55
280
     0
102
RTVSPost2010PropOp55
 70
     1
102
RTVSPost2010Prop56
140
1.0
102
RTVSPost2010PropOp56
 70
     1
102
RTVSPost2010Prop57
140
1.0
102
RTVSPost2010PropOp57
 70
     1
102
RTVSPropertyOp0
 70
     1
102
RTVSPropertyOp1
 70
     1
102
RTVSPropertyOp2
 70
     1
102
RTVSPropertyOp3
 70
     1
102
RTVSPropertyOp4
 70
     1
102
RTVSPropertyOp5
 70
     1
102
RTVSPropertyOp6
 70
     1
102
RTVSPropertyOp7
 70
     1
102
RTVSPropertyOp8
 70
     1
102
RTVSPropertyOp9
 70
     1
102
RTVSPropertyOp10
 70
     1
102
RTVSPropertyOp11
 70
     1
102
RTVSPropertyOp12
 70
     1
102
RTVSPropertyOp13
 70
     1
102
RTVSPropertyOp14
 70
     1
102
RTVSPropertyOp15
 70
     1
102
RTVSPropertyOp16
 70
     1
102
RTVSPropertyOp17
 70
     1
102
RTVSPropertyOp18
 70
     1
102
RTVSPropertyOp19
 70
     1
102
RTVSPropertyOp20
 70
     1
102
RTVSPropertyOp21
 70
     1
102
RTVSPropertyOp22
 70
     1
102
RTVSPropertyOp23
 70
     1
102
RTVSPropertyOp24
 70
     1
102
RTVSPropertyOp25
 70
     1
102
RTVSPropertyOp26
 70
     1
102
RTVSPropertyOp27
 70
     1
102
RTVSPropertyOp28
 70
     1
102
RTVSPropertyOp29
 70
     1
102
RTVSPropertyOp30
 70
     1
102
RTVSPropertyOp31
 70
     1
102
RTVSPropertyOp32
 70
     1
102
RTVSPropertyOp33
 70
     1
102
RTVSPropertyOp34
 70
     1
102
RTVSPropertyOp35
 70
     1
102
RTVSPropertyOp36
 70
     1
102
RTVSPropertyOp37
 70
     1
102
RTVSPropertyOp38
 70
     1
102
RTVSPropertyOp39
 70
     1
102
RTVSPropertyOp40
 70
     1
102
RTVSPropertyOp41
 70
     1
102
RTVSPropertyOp42
 70
     1
102
RTVSPropertyOp43
 70
     1
102
RTVSPropertyOp44
 70
     1
102
RTVSPropertyOp45
 70
     1
102
RTVSPropertyOp46
 70
     1
102
RTVSPropertyOp47
 70
     1
102
RTVSPropertyOp48
 70
     1
102
RTVSPropertyOp49
 70
     1
102
RTVSPropertyOp50
 70
     1
102
RTVSPropertyOp51
 70
     0
102
RTVSPropertyOp52
 70
     0
102
RTVSPropertyOp53
 70
     1
102
RTVSPropertyOp54
 70
     1
102
RTVSPropertyOp55
 70
     1
102
RTVSPropertyOp56
 70
     1
102
RTVSPropertyOp57
 70
     1
102
RTVSPropertyOp58
 70
     1
102
RTVSPropertyOp59
 70
     1
102
RTVSPropertyOp60
 70
     1
102
RTVSPropertyOp61
 70
     1
102
RTVSPropertyOp62
 70
     1
  0
XRECORD
  5
4B56
102
{ACAD_REACTORS
330
4B55
102
}
330
4B55
100
AcDbXrecord
280
     1
102
RTVSPost2010Prop28
280
     0
102
RTVSPost2010PropOp28
 70
     1
102
RTVSPost2010Prop29
280
     1
102
RTVSPost2010PropOp29
 70
     1
102
RTVSPost2010Prop30
280
     1
102
RTVSPost2010PropOp30
 70
     1
102
RTVSPost2010Prop31
280
     0
102
RTVSPost2010PropOp31
 70
     1
102
RTVSPost2010Prop32
280
     0
102
RTVSPost2010PropOp32
 70
     1
102
RTVSPost2010Prop33
280
     0
102
RTVSPost2010PropOp33
 70
     1
102
RTVSPost2010Prop34
280
     0
102
RTVSPost2010PropOp34
 70
     1
102
RTVSPost2010Prop35
280
     0
102
RTVSPost2010PropOp35
 70
     1
102
RTVSPost2010Prop36
280
     0
102
RTVSPost2010PropOp36
 70
     1
102
RTVSPost2010Prop37
 90
       50
102
RTVSPost2010PropOp37
 70
     1
102
RTVSPost2010Prop38
140
0.0
102
RTVSPost2010PropOp38
 70
     1
102
RTVSPost2010Prop39
140
1.0
102
RTVSPost2010PropOp39
 70
     1
102
RTVSPost2010Prop40
 90
        0
102
RTVSPost2010PropOp40
 70
     1
102
RTVSPost2010Prop41ColorIndex
 90
       18
102
RTVSPost2010Prop41ColorRGB
 90
        0
102
RTVSPost2010PropOp41
 70
     1
102
RTVSPost2010Prop42
 90
       50
102
RTVSPost2010PropOp42
 70
     1
102
RTVSPost2010Prop43
 90
        3
102
RTVSPost2010PropOp43
 70
     1
102
RTVSPost2010Prop44ColorIndex
 90
        5
102
RTVSPost2010Prop44ColorRGB
 90
      255
102
RTVSPost2010PropOp44
 70
     1
102
RTVSPost2010Prop45
280
     0
102
RTVSPost2010PropOp45
 70
     1
102
RTVSPost2010Prop46
 90
       50
102
RTVSPost2010PropOp46
 70
     1
102
RTVSPost2010Prop47
 90
       50
102
RTVSPost2010PropOp47
 70
     1
102
RTVSPost2010Prop48
 90
       50
102
RTVSPost2010PropOp48
 70
     1
102
RTVSPost2010Prop49
280
     0
102
RTVSPost2010PropOp49
 70
     1
102
RTVSPost2010Prop50
 90
       50
102
RTVSPost2010PropOp50
 70
     1
102
RTVSPost2010Prop51ColorIndex
 90
      256
102
RTVSPost2010Prop51ColorRGB
 90
-16777216
102
RTVSPost2010PropOp51
 70
     0
102
RTVSPost2010Prop52
140
1.0
102
RTVSPost2010PropOp52
 70
     0
102
RTVSPost2010Prop53
 90
        2
102
RTVSPost2010PropOp53
 70
     1
102
RTVSPost2010Prop54
  1
strokes_ogs.tif
102
RTVSPost2010PropOp54
 70
     1
102
RTVSPost2010Prop55
280
     0
102
RTVSPost2010PropOp55
 70
     1
102
RTVSPost2010Prop56
140
1.0
102
RTVSPost2010PropOp56
 70
     1
102
RTVSPost2010Prop57
140
1.0
102
RTVSPost2010PropOp57
 70
     1
102
RTVSPropertyOp0
 70
     1
102
RTVSPropertyOp1
 70
     1
102
RTVSPropertyOp2
 70
     1
102
RTVSPropertyOp3
 70
     1
102
RTVSPropertyOp4
 70
     1
102
RTVSPropertyOp5
 70
     1
102
RTVSPropertyOp6
 70
     1
102
RTVSPropertyOp7
 70
     1
102
RTVSPropertyOp8
 70
     1
102
RTVSPropertyOp9
 70
     1
102
RTVSPropertyOp10
 70
     1
102
RTVSPropertyOp11
 70
     1
102
RTVSPropertyOp12
 70
     1
102
RTVSPropertyOp13
 70
     1
102
RTVSPropertyOp14
 70
     1
102
RTVSPropertyOp15
 70
     1
102
RTVSPropertyOp16
 70
     1
102
RTVSPropertyOp17
 70
     1
102
RTVSPropertyOp18
 70
     1
102
RTVSPropertyOp19
 70
     1
102
RTVSPropertyOp20
 70
     1
102
RTVSPropertyOp21
 70
     1
102
RTVSPropertyOp22
 70
     1
102
RTVSPropertyOp23
 70
     1
102
RTVSPropertyOp24
 70
     1
102
RTVSPropertyOp25
 70
     1
102
RTVSPropertyOp26
 70
     1
102
RTVSPropertyOp27
 70
     1
102
RTVSPropertyOp28
 70
     1
102
RTVSPropertyOp29
 70
     1
102
RTVSPropertyOp30
 70
     1
102
RTVSPropertyOp31
 70
     1
102
RTVSPropertyOp32
 70
     1
102
RTVSPropertyOp33
 70
     1
102
RTVSPropertyOp34
 70
     1
102
RTVSPropertyOp35
 70
     1
102
RTVSPropertyOp36
 70
     1
102
RTVSPropertyOp37
 70
     1
102
RTVSPropertyOp38
 70
     1
102
RTVSPropertyOp39
 70
     1
102
RTVSPropertyOp40
 70
     1
102
RTVSPropertyOp41
 70
     1
102
RTVSPropertyOp42
 70
     1
102
RTVSPropertyOp43
 70
     1
102
RTVSPropertyOp44
 70
     1
102
RTVSPropertyOp45
 70
     1
102
RTVSPropertyOp46
 70
     1
102
RTVSPropertyOp47
 70
     1
102
RTVSPropertyOp48
 70
     1
102
RTVSPropertyOp49
 70
     1
102
RTVSPropertyOp50
 70
     1
102
RTVSPropertyOp51
 70
     0
102
RTVSPropertyOp52
 70
     0
102
RTVSPropertyOp53
 70
     1
102
RTVSPropertyOp54
 70
     1
102
RTVSPropertyOp55
 70
     1
102
RTVSPropertyOp56
 70
     1
102
RTVSPropertyOp57
 70
     1
102
RTVSPropertyOp58
 70
     1
102
RTVSPropertyOp59
 70
     1
102
RTVSPropertyOp60
 70
     1
102
RTVSPropertyOp61
 70
     1
102
RTVSPropertyOp62
 70
     1
  0
XRECORD
  5
4B41
102
{ACAD_REACTORS
330
4B40
102
}
330
4B40
100
AcDbXrecord
280
     1
102
RTVSPost2010Prop28
280
     0
102
RTVSPost2010PropOp28
 70
     1
102
RTVSPost2010Prop29
280
     1
102
RTVSPost2010PropOp29
 70
     1
102
RTVSPost2010Prop30
280
     1
102
RTVSPost2010PropOp30
 70
     1
102
RTVSPost2010Prop31
280
     0
102
RTVSPost2010PropOp31
 70
     1
102
RTVSPost2010Prop32
280
     0
102
RTVSPost2010PropOp32
 70
     1
102
RTVSPost2010Prop33
280
     0
102
RTVSPost2010PropOp33
 70
     1
102
RTVSPost2010Prop34
280
     0
102
RTVSPost2010PropOp34
 70
     1
102
RTVSPost2010Prop35
280
     0
102
RTVSPost2010PropOp35
 70
     1
102
RTVSPost2010Prop36
280
     0
102
RTVSPost2010PropOp36
 70
     1
102
RTVSPost2010Prop37
 90
       50
102
RTVSPost2010PropOp37
 70
     1
102
RTVSPost2010Prop38
140
0.0
102
RTVSPost2010PropOp38
 70
     1
102
RTVSPost2010Prop39
140
1.0
102
RTVSPost2010PropOp39
 70
     1
102
RTVSPost2010Prop40
 90
        0
102
RTVSPost2010PropOp40
 70
     1
102
RTVSPost2010Prop41ColorIndex
 90
       18
102
RTVSPost2010Prop41ColorRGB
 90
        0
102
RTVSPost2010PropOp41
 70
     1
102
RTVSPost2010Prop42
 90
       50
102
RTVSPost2010PropOp42
 70
     1
102
RTVSPost2010Prop43
 90
        3
102
RTVSPost2010PropOp43
 70
     1
102
RTVSPost2010Prop44ColorIndex
 90
        5
102
RTVSPost2010Prop44ColorRGB
 90
      255
102
RTVSPost2010PropOp44
 70
     1
102
RTVSPost2010Prop45
280
     0
102
RTVSPost2010PropOp45
 70
     1
102
RTVSPost2010Prop46
 90
       50
102
RTVSPost2010PropOp46
 70
     1
102
RTVSPost2010Prop47
 90
       50
102
RTVSPost2010PropOp47
 70
     1
102
RTVSPost2010Prop48
 90
       50
102
RTVSPost2010PropOp48
 70
     1
102
RTVSPost2010Prop49
280
     0
102
RTVSPost2010PropOp49
 70
     1
102
RTVSPost2010Prop50
 90
       50
102
RTVSPost2010PropOp50
 70
     1
102
RTVSPost2010Prop51ColorIndex
 90
      256
102
RTVSPost2010Prop51ColorRGB
 90
-16777216
102
RTVSPost2010PropOp51
 70
     0
102
RTVSPost2010Prop52
140
1.0
102
RTVSPost2010PropOp52
 70
     0
102
RTVSPost2010Prop53
 90
        2
102
RTVSPost2010PropOp53
 70
     1
102
RTVSPost2010Prop54
  1
strokes_ogs.tif
102
RTVSPost2010PropOp54
 70
     1
102
RTVSPost2010Prop55
280
     0
102
RTVSPost2010PropOp55
 70
     1
102
RTVSPost2010Prop56
140
1.0
102
RTVSPost2010PropOp56
 70
     1
102
RTVSPost2010Prop57
140
1.0
102
RTVSPost2010PropOp57
 70
     1
102
RTVSPropertyOp0
 70
     1
102
RTVSPropertyOp1
 70
     1
102
RTVSPropertyOp2
 70
     1
102
RTVSPropertyOp3
 70
     1
102
RTVSPropertyOp4
 70
     1
102
RTVSPropertyOp5
 70
     1
102
RTVSPropertyOp6
 70
     1
102
RTVSPropertyOp7
 70
     1
102
RTVSPropertyOp8
 70
     1
102
RTVSPropertyOp9
 70
     1
102
RTVSPropertyOp10
 70
     1
102
RTVSPropertyOp11
 70
     1
102
RTVSPropertyOp12
 70
     1
102
RTVSPropertyOp13
 70
     1
102
RTVSPropertyOp14
 70
     1
102
RTVSPropertyOp15
 70
     1
102
RTVSPropertyOp16
 70
     1
102
RTVSPropertyOp17
 70
     1
102
RTVSPropertyOp18
 70
     1
102
RTVSPropertyOp19
 70
     1
102
RTVSPropertyOp20
 70
     1
102
RTVSPropertyOp21
 70
     1
102
RTVSPropertyOp22
 70
     1
102
RTVSPropertyOp23
 70
     1
102
RTVSPropertyOp24
 70
     1
102
RTVSPropertyOp25
 70
     1
102
RTVSPropertyOp26
 70
     1
102
RTVSPropertyOp27
 70
     1
102
RTVSPropertyOp28
 70
     1
102
RTVSPropertyOp29
 70
     1
102
RTVSPropertyOp30
 70
     1
102
RTVSPropertyOp31
 70
     1
102
RTVSPropertyOp32
 70
     1
102
RTVSPropertyOp33
 70
     1
102
RTVSPropertyOp34
 70
     1
102
RTVSPropertyOp35
 70
     1
102
RTVSPropertyOp36
 70
     1
102
RTVSPropertyOp37
 70
     1
102
RTVSPropertyOp38
 70
     1
102
RTVSPropertyOp39
 70
     1
102
RTVSPropertyOp40
 70
     1
102
RTVSPropertyOp41
 70
     1
102
RTVSPropertyOp42
 70
     1
102
RTVSPropertyOp43
 70
     1
102
RTVSPropertyOp44
 70
     1
102
RTVSPropertyOp45
 70
     1
102
RTVSPropertyOp46
 70
     1
102
RTVSPropertyOp47
 70
     1
102
RTVSPropertyOp48
 70
     1
102
RTVSPropertyOp49
 70
     1
102
RTVSPropertyOp50
 70
     1
102
RTVSPropertyOp51
 70
     0
102
RTVSPropertyOp52
 70
     0
102
RTVSPropertyOp53
 70
     1
102
RTVSPropertyOp54
 70
     1
102
RTVSPropertyOp55
 70
     1
102
RTVSPropertyOp56
 70
     1
102
RTVSPropertyOp57
 70
     1
102
RTVSPropertyOp58
 70
     1
102
RTVSPropertyOp59
 70
     1
102
RTVSPropertyOp60
 70
     1
102
RTVSPropertyOp61
 70
     1
102
RTVSPropertyOp62
 70
     1
  0
XRECORD
  5
4B50
102
{ACAD_REACTORS
330
4B4F
102
}
330
4B4F
100
AcDbXrecord
280
     1
102
RTVSPost2010Prop28
280
     0
102
RTVSPost2010PropOp28
 70
     1
102
RTVSPost2010Prop29
280
     1
102
RTVSPost2010PropOp29
 70
     1
102
RTVSPost2010Prop30
280
     1
102
RTVSPost2010PropOp30
 70
     1
102
RTVSPost2010Prop31
280
     0
102
RTVSPost2010PropOp31
 70
     1
102
RTVSPost2010Prop32
280
     0
102
RTVSPost2010PropOp32
 70
     1
102
RTVSPost2010Prop33
280
     0
102
RTVSPost2010PropOp33
 70
     1
102
RTVSPost2010Prop34
280
     0
102
RTVSPost2010PropOp34
 70
     1
102
RTVSPost2010Prop35
280
     0
102
RTVSPost2010PropOp35
 70
     1
102
RTVSPost2010Prop36
280
     0
102
RTVSPost2010PropOp36
 70
     1
102
RTVSPost2010Prop37
 90
       50
102
RTVSPost2010PropOp37
 70
     1
102
RTVSPost2010Prop38
140
0.0
102
RTVSPost2010PropOp38
 70
     1
102
RTVSPost2010Prop39
140
1.0
102
RTVSPost2010PropOp39
 70
     1
102
RTVSPost2010Prop40
 90
        0
102
RTVSPost2010PropOp40
 70
     1
102
RTVSPost2010Prop41ColorIndex
 90
       18
102
RTVSPost2010Prop41ColorRGB
 90
        0
102
RTVSPost2010PropOp41
 70
     1
102
RTVSPost2010Prop42
 90
       50
102
RTVSPost2010PropOp42
 70
     1
102
RTVSPost2010Prop43
 90
        3
102
RTVSPost2010PropOp43
 70
     1
102
RTVSPost2010Prop44ColorIndex
 90
        5
102
RTVSPost2010Prop44ColorRGB
 90
      255
102
RTVSPost2010PropOp44
 70
     1
102
RTVSPost2010Prop45
280
     0
102
RTVSPost2010PropOp45
 70
     1
102
RTVSPost2010Prop46
 90
       50
102
RTVSPost2010PropOp46
 70
     1
102
RTVSPost2010Prop47
 90
       50
102
RTVSPost2010PropOp47
 70
     1
102
RTVSPost2010Prop48
 90
       50
102
RTVSPost2010PropOp48
 70
     1
102
RTVSPost2010Prop49
280
     0
102
RTVSPost2010PropOp49
 70
     1
102
RTVSPost2010Prop50
 90
       50
102
RTVSPost2010PropOp50
 70
     1
102
RTVSPost2010Prop51ColorIndex
 90
      256
102
RTVSPost2010Prop51ColorRGB
 90
-16777216
102
RTVSPost2010PropOp51
 70
     0
102
RTVSPost2010Prop52
140
1.0
102
RTVSPost2010PropOp52
 70
     0
102
RTVSPost2010Prop53
 90
        2
102
RTVSPost2010PropOp53
 70
     1
102
RTVSPost2010Prop54
  1
strokes_ogs.tif
102
RTVSPost2010PropOp54
 70
     1
102
RTVSPost2010Prop55
280
     0
102
RTVSPost2010PropOp55
 70
     1
102
RTVSPost2010Prop56
140
1.0
102
RTVSPost2010PropOp56
 70
     1
102
RTVSPost2010Prop57
140
1.0
102
RTVSPost2010PropOp57
 70
     1
102
RTVSPropertyOp0
 70
     1
102
RTVSPropertyOp1
 70
     1
102
RTVSPropertyOp2
 70
     1
102
RTVSPropertyOp3
 70
     1
102
RTVSPropertyOp4
 70
     1
102
RTVSPropertyOp5
 70
     1
102
RTVSPropertyOp6
 70
     1
102
RTVSPropertyOp7
 70
     1
102
RTVSPropertyOp8
 70
     1
102
RTVSPropertyOp9
 70
     1
102
RTVSPropertyOp10
 70
     1
102
RTVSPropertyOp11
 70
     1
102
RTVSPropertyOp12
 70
     1
102
RTVSPropertyOp13
 70
     1
102
RTVSPropertyOp14
 70
     1
102
RTVSPropertyOp15
 70
     1
102
RTVSPropertyOp16
 70
     1
102
RTVSPropertyOp17
 70
     1
102
RTVSPropertyOp18
 70
     1
102
RTVSPropertyOp19
 70
     1
102
RTVSPropertyOp20
 70
     1
102
RTVSPropertyOp21
 70
     1
102
RTVSPropertyOp22
 70
     1
102
RTVSPropertyOp23
 70
     1
102
RTVSPropertyOp24
 70
     1
102
RTVSPropertyOp25
 70
     1
102
RTVSPropertyOp26
 70
     1
102
RTVSPropertyOp27
 70
     1
102
RTVSPropertyOp28
 70
     1
102
RTVSPropertyOp29
 70
     1
102
RTVSPropertyOp30
 70
     1
102
RTVSPropertyOp31
 70
     1
102
RTVSPropertyOp32
 70
     1
102
RTVSPropertyOp33
 70
     1
102
RTVSPropertyOp34
 70
     1
102
RTVSPropertyOp35
 70
     1
102
RTVSPropertyOp36
 70
     1
102
RTVSPropertyOp37
 70
     1
102
RTVSPropertyOp38
 70
     1
102
RTVSPropertyOp39
 70
     1
102
RTVSPropertyOp40
 70
     1
102
RTVSPropertyOp41
 70
     1
102
RTVSPropertyOp42
 70
     1
102
RTVSPropertyOp43
 70
     1
102
RTVSPropertyOp44
 70
     1
102
RTVSPropertyOp45
 70
     1
102
RTVSPropertyOp46
 70
     1
102
RTVSPropertyOp47
 70
     1
102
RTVSPropertyOp48
 70
     1
102
RTVSPropertyOp49
 70
     1
102
RTVSPropertyOp50
 70
     1
102
RTVSPropertyOp51
 70
     0
102
RTVSPropertyOp52
 70
     0
102
RTVSPropertyOp53
 70
     1
102
RTVSPropertyOp54
 70
     1
102
RTVSPropertyOp55
 70
     1
102
RTVSPropertyOp56
 70
     1
102
RTVSPropertyOp57
 70
     1
102
RTVSPropertyOp58
 70
     1
102
RTVSPropertyOp59
 70
     1
102
RTVSPropertyOp60
 70
     1
102
RTVSPropertyOp61
 70
     1
102
RTVSPropertyOp62
 70
     1
  0
XRECORD
  5
4B58
102
{ACAD_REACTORS
330
4B57
102
}
330
4B57
100
AcDbXrecord
280
     1
102
RTVSPost2010Prop28
280
     0
102
RTVSPost2010PropOp28
 70
     1
102
RTVSPost2010Prop29
280
     1
102
RTVSPost2010PropOp29
 70
     1
102
RTVSPost2010Prop30
280
     1
102
RTVSPost2010PropOp30
 70
     1
102
RTVSPost2010Prop31
280
     0
102
RTVSPost2010PropOp31
 70
     1
102
RTVSPost2010Prop32
280
     0
102
RTVSPost2010PropOp32
 70
     1
102
RTVSPost2010Prop33
280
     0
102
RTVSPost2010PropOp33
 70
     1
102
RTVSPost2010Prop34
280
     0
102
RTVSPost2010PropOp34
 70
     1
102
RTVSPost2010Prop35
280
     0
102
RTVSPost2010PropOp35
 70
     1
102
RTVSPost2010Prop36
280
     0
102
RTVSPost2010PropOp36
 70
     1
102
RTVSPost2010Prop37
 90
       50
102
RTVSPost2010PropOp37
 70
     1
102
RTVSPost2010Prop38
140
0.0
102
RTVSPost2010PropOp38
 70
     1
102
RTVSPost2010Prop39
140
1.0
102
RTVSPost2010PropOp39
 70
     1
102
RTVSPost2010Prop40
 90
        0
102
RTVSPost2010PropOp40
 70
     1
102
RTVSPost2010Prop41ColorIndex
 90
       18
102
RTVSPost2010Prop41ColorRGB
 90
        0
102
RTVSPost2010PropOp41
 70
     1
102
RTVSPost2010Prop42
 90
       50
102
RTVSPost2010PropOp42
 70
     1
102
RTVSPost2010Prop43
 90
        3
102
RTVSPost2010PropOp43
 70
     1
102
RTVSPost2010Prop44ColorIndex
 90
        5
102
RTVSPost2010Prop44ColorRGB
 90
      255
102
RTVSPost2010PropOp44
 70
     1
102
RTVSPost2010Prop45
280
     0
102
RTVSPost2010PropOp45
 70
     1
102
RTVSPost2010Prop46
 90
       50
102
RTVSPost2010PropOp46
 70
     1
102
RTVSPost2010Prop47
 90
       50
102
RTVSPost2010PropOp47
 70
     1
102
RTVSPost2010Prop48
 90
       50
102
RTVSPost2010PropOp48
 70
     1
102
RTVSPost2010Prop49
280
     0
102
RTVSPost2010PropOp49
 70
     1
102
RTVSPost2010Prop50
 90
       50
102
RTVSPost2010PropOp50
 70
     1
102
RTVSPost2010Prop51ColorIndex
 90
      256
102
RTVSPost2010Prop51ColorRGB
 90
-16777216
102
RTVSPost2010PropOp51
 70
     0
102
RTVSPost2010Prop52
140
1.0
102
RTVSPost2010PropOp52
 70
     0
102
RTVSPost2010Prop53
 90
        2
102
RTVSPost2010PropOp53
 70
     1
102
RTVSPost2010Prop54
  1
strokes_ogs.tif
102
RTVSPost2010PropOp54
 70
     1
102
RTVSPost2010Prop55
280
     0
102
RTVSPost2010PropOp55
 70
     1
102
RTVSPost2010Prop56
140
1.0
102
RTVSPost2010PropOp56
 70
     1
102
RTVSPost2010Prop57
140
1.0
102
RTVSPost2010PropOp57
 70
     1
102
RTVSPropertyOp0
 70
     1
102
RTVSPropertyOp1
 70
     1
102
RTVSPropertyOp2
 70
     1
102
RTVSPropertyOp3
 70
     1
102
RTVSPropertyOp4
 70
     1
102
RTVSPropertyOp5
 70
     1
102
RTVSPropertyOp6
 70
     1
102
RTVSPropertyOp7
 70
     1
102
RTVSPropertyOp8
 70
     1
102
RTVSPropertyOp9
 70
     1
102
RTVSPropertyOp10
 70
     1
102
RTVSPropertyOp11
 70
     1
102
RTVSPropertyOp12
 70
     1
102
RTVSPropertyOp13
 70
     1
102
RTVSPropertyOp14
 70
     1
102
RTVSPropertyOp15
 70
     1
102
RTVSPropertyOp16
 70
     1
102
RTVSPropertyOp17
 70
     1
102
RTVSPropertyOp18
 70
     1
102
RTVSPropertyOp19
 70
     1
102
RTVSPropertyOp20
 70
     1
102
RTVSPropertyOp21
 70
     1
102
RTVSPropertyOp22
 70
     1
102
RTVSPropertyOp23
 70
     1
102
RTVSPropertyOp24
 70
     1
102
RTVSPropertyOp25
 70
     1
102
RTVSPropertyOp26
 70
     1
102
RTVSPropertyOp27
 70
     1
102
RTVSPropertyOp28
 70
     1
102
RTVSPropertyOp29
 70
     1
102
RTVSPropertyOp30
 70
     1
102
RTVSPropertyOp31
 70
     1
102
RTVSPropertyOp32
 70
     1
102
RTVSPropertyOp33
 70
     1
102
RTVSPropertyOp34
 70
     1
102
RTVSPropertyOp35
 70
     1
102
RTVSPropertyOp36
 70
     1
102
RTVSPropertyOp37
 70
     1
102
RTVSPropertyOp38
 70
     1
102
RTVSPropertyOp39
 70
     1
102
RTVSPropertyOp40
 70
     1
102
RTVSPropertyOp41
 70
     1
102
RTVSPropertyOp42
 70
     1
102
RTVSPropertyOp43
 70
     1
102
RTVSPropertyOp44
 70
     1
102
RTVSPropertyOp45
 70
     1
102
RTVSPropertyOp46
 70
     1
102
RTVSPropertyOp47
 70
     1
102
RTVSPropertyOp48
 70
     1
102
RTVSPropertyOp49
 70
     1
102
RTVSPropertyOp50
 70
     1
102
RTVSPropertyOp51
 70
     0
102
RTVSPropertyOp52
 70
     0
102
RTVSPropertyOp53
 70
     1
102
RTVSPropertyOp54
 70
     1
102
RTVSPropertyOp55
 70
     1
102
RTVSPropertyOp56
 70
     1
102
RTVSPropertyOp57
 70
     1
102
RTVSPropertyOp58
 70
     1
102
RTVSPropertyOp59
 70
     1
102
RTVSPropertyOp60
 70
     1
102
RTVSPropertyOp61
 70
     1
102
RTVSPropertyOp62
 70
     1
  0
ENDSEC
  0
EOF
