  0
SECTION
  2
HEADER
  9
$ACADVER
  1
AC1015
  9
$ACADMAINTVER
 70
    20
  9
$DWGCODEPAGE
  3
ANSI_932
  9
$INSBASE
 10
0.0
 20
0.0
 30
0.0
  9
$EXTMIN
 10
-0.4210869431281026
 20
-0.2914039947208948
 30
-0.0015258207003583
  9
$EXTMAX
 10
5520.00001707481
 20
3820.000012191608
 30
0.0000000349246037
  9
$LIMMIN
 10
0.0
 20
0.0
  9
$LIMMAX
 10
2840.0
 20
1970.0
  9
$ORTHOMODE
 70
     0
  9
$REGENMODE
 70
     1
  9
$FILLMODE
 70
     1
  9
$QTEXTMODE
 70
     0
  9
$MIRRTEXT
 70
     1
  9
$LTSCALE
 40
1.0
  9
$ATTMODE
 70
     1
  9
$TEXTSIZE
 40
2.5
  9
$TRACEWID
 40
1.0
  9
$TEXTSTYLE
  7
Standard
  9
$CLAYER
  8
KUTAI
  9
$CELTYPE
  6
ByLayer
  9
$CECOLOR
 62
   256
  9
$CELTSCALE
 40
1.0
  9
$DISPSILH
 70
     0
  9
$DIMSCALE
 40
10.0
  9
$DIMASZ
 40
0.8
  9
$DIMEXO
 40
1.0
  9
$DIMDLI
 40
0.0
  9
$DIMRND
 40
0.0
  9
$DIMDLE
 40
0.0
  9
$DIMEXE
 40
0.0
  9
$DIMTP
 40
0.0
  9
$DIMTM
 40
0.0
  9
$DIMTXT
 40
2.0
  9
$DIMCEN
 40
2.5
  9
$DIMTSZ
 40
0.0
  9
$DIMTOL
 70
     0
  9
$DIMLIM
 70
     0
  9
$DIMTIH
 70
     0
  9
$DIMTOH
 70
     0
  9
$DIMSE1
 70
     0
  9
$DIMSE2
 70
     0
  9
$DIMTAD
 70
     2
  9
$DIMZIN
 70
     8
  9
$DIMBLK
  1

  9
$DIMASO
 70
     1
  9
$DIMSHO
 70
     1
  9
$DIMPOST
  1

  9
$DIMAPOST
  1

  9
$DIMALT
 70
     0
  9
$DIMALTD
 70
     4
  9
$DIMALTF
 40
0.0394
  9
$DIMLFAC
 40
1.0
  9
$DIMTOFL
 70
     1
  9
$DIMTVP
 40
0.0
  9
$DIMTIX
 70
     0
  9
$DIMSOXD
 70
     0
  9
$DIMSAH
 70
     1
  9
$DIMBLK1
  1
DOT
  9
$DIMBLK2
  1
DOT
  9
$DIMSTYLE
  2
STANDARD
  9
$DIMCLRD
 70
     0
  9
$DIMCLRE
 70
     0
  9
$DIMCLRT
 70
     0
  9
$DIMTFAC
 40
1.0
  9
$DIMGAP
 40
0.1
  9
$DIMJUST
 70
     0
  9
$DIMSD1
 70
     0
  9
$DIMSD2
 70
     0
  9
$DIMTOLJ
 70
     1
  9
$DIMTZIN
 70
     0
  9
$DIMALTZ
 70
     0
  9
$DIMALTTZ
 70
     0
  9
$DIMUPT
 70
     0
  9
$DIMDEC
 70
     8
  9
$DIMTDEC
 70
     8
  9
$DIMALTU
 70
     8
  9
$DIMALTTD
 70
     4
  9
$DIMTXSTY
  7
Standard
  9
$DIMAUNIT
 70
     0
  9
$DIMADEC
 70
     0
  9
$DIMALTRND
 40
0.0
  9
$DIMAZIN
 70
     0
  9
$DIMDSEP
 70
    46
  9
$DIMATFIT
 70
     3
  9
$DIMFRAC
 70
     0
  9
$DIMLDRBLK
  1
DOT
  9
$DIMLUNIT
 70
     2
  9
$DIMLWD
 70
    -2
  9
$DIMLWE
 70
    -2
  9
$DIMTMOVE
 70
     1
  9
$LUNITS
 70
     2
  9
$LUPREC
 70
     8
  9
$SKETCHINC
 40
1.0
  9
$FILLETRAD
 40
10.0
  9
$AUNITS
 70
     0
  9
$AUPREC
 70
     8
  9
$MENU
  1
.
  9
$ELEVATION
 40
0.0
  9
$PELEVATION
 40
0.0
  9
$THICKNESS
 40
0.0
  9
$LIMCHECK
 70
     0
  9
$CHAMFERA
 40
20.0
  9
$CHAMFERB
 40
20.0
  9
$CHAMFERC
 40
20.0
  9
$CHAMFERD
 40
0.0
  9
$SKPOLY
 70
     0
  9
$TDCREATE
 40
2453276.413761574
  9
$TDUCREATE
 40
2453276.038766620
  9
$TDUPDATE
 40
2459978.551956019
  9
$TDUUPDATE
 40
2459978.176956019
  9
$TDINDWG
 40
0.2681135417
  9
$TDUSRTIMER
 40
0.2681135417
  9
$USRTIMER
 70
     1
  9
$ANGBASE
 50
0.0
  9
$ANGDIR
 70
     0
  9
$PDMODE
 70
     0
  9
$PDSIZE
 40
0.0
  9
$PLINEWID
 40
0.0
  9
$SPLFRAME
 70
     0
  9
$SPLINETYPE
 70
     6
  9
$SPLINESEGS
 70
     8
  9
$HANDSEED
  5
3E85
  9
$SURFTAB1
 70
     6
  9
$SURFTAB2
 70
     6
  9
$SURFTYPE
 70
     6
  9
$SURFU
 70
     6
  9
$SURFV
 70
     6
  9
$UCSBASE
  2

  9
$UCSNAME
  2

  9
$UCSORG
 10
0.0
 20
0.0
 30
0.0
  9
$UCSXDIR
 10
1.0
 20
0.0
 30
0.0
  9
$UCSYDIR
 10
0.0
 20
1.0
 30
0.0
  9
$UCSORTHOREF
  2

  9
$UCSORTHOVIEW
 70
     0
  9
$UCSORGTOP
 10
0.0
 20
0.0
 30
0.0
  9
$UCSORGBOTTOM
 10
0.0
 20
0.0
 30
0.0
  9
$UCSORGLEFT
 10
0.0
 20
0.0
 30
0.0
  9
$UCSORGRIGHT
 10
0.0
 20
0.0
 30
0.0
  9
$UCSORGFRONT
 10
0.0
 20
0.0
 30
0.0
  9
$UCSORGBACK
 10
0.0
 20
0.0
 30
0.0
  9
$PUCSBASE
  2

  9
$PUCSNAME
  2

  9
$PUCSORG
 10
0.0
 20
0.0
 30
0.0
  9
$PUCSXDIR
 10
1.0
 20
0.0
 30
0.0
  9
$PUCSYDIR
 10
0.0
 20
1.0
 30
0.0
  9
$PUCSORTHOREF
  2

  9
$PUCSORTHOVIEW
 70
     0
  9
$PUCSORGTOP
 10
0.0
 20
0.0
 30
0.0
  9
$PUCSORGBOTTOM
 10
0.0
 20
0.0
 30
0.0
  9
$PUCSORGLEFT
 10
0.0
 20
0.0
 30
0.0
  9
$PUCSORGRIGHT
 10
0.0
 20
0.0
 30
0.0
  9
$PUCSORGFRONT
 10
0.0
 20
0.0
 30
0.0
  9
$PUCSORGBACK
 10
0.0
 20
0.0
 30
0.0
  9
$USERI1
 70
     0
  9
$USERI2
 70
     0
  9
$USERI3
 70
     0
  9
$USERI4
 70
     0
  9
$USERI5
 70
     0
  9
$USERR1
 40
0.0
  9
$USERR2
 40
0.0
  9
$USERR3
 40
0.0
  9
$USERR4
 40
0.0
  9
$USERR5
 40
0.0
  9
$WORLDVIEW
 70
     1
  9
$SHADEDGE
 70
     2
  9
$SHADEDIF
 70
    70
  9
$TILEMODE
 70
     1
  9
$MAXACTVP
 70
    64
  9
$PINSBASE
 10
0.0
 20
0.0
 30
0.0
  9
$PLIMCHECK
 70
     0
  9
$PEXTMIN
 10
0.0
 20
0.0
 30
0.0
  9
$PEXTMAX
 10
0.0
 20
0.0
 30
0.0
  9
$PLIMMIN
 10
0.0
 20
0.0
  9
$PLIMMAX
 10
12.0
 20
9.0
  9
$UNITMODE
 70
     0
  9
$VISRETAIN
 70
     1
  9
$PLINEGEN
 70
     0
  9
$PSLTSCALE
 70
     1
  9
$TREEDEPTH
 70
  3020
  9
$CMLSTYLE
  2
Standard
  9
$CMLJUST
 70
     0
  9
$CMLSCALE
 40
20.0
  9
$PROXYGRAPHICS
 70
     1
  9
$MEASUREMENT
 70
     1
  9
$CELWEIGHT
370
    -1
  9
$ENDCAPS
280
     0
  9
$JOINSTYLE
280
     0
  9
$LWDISPLAY
290
     0
  9
$INSUNITS
 70
     4
  9
$HYPERLINKBASE
  1

  9
$STYLESHEET
  1
monochrome.stb
  9
$XEDIT
290
     1
  9
$CEPSNTYPE
380
     0
  9
$PSTYLEMODE
290
     1
  9
$FINGERPRINTGUID
  2
{B4E61C12-08AD-407D-A83C-7C7812CA1D8B}
  9
$VERSIONGUID
  2
{B7DB8F73-DBE3-DD42-9FA3-91B8628AD463}
  9
$EXTNAMES
290
     1
  9
$PSVPSCALE
 40
0.0
  9
$OLESTARTUP
290
     0
  0
ENDSEC
  0
SECTION
  2
CLASSES
  0
CLASS
  1
ACDBDICTIONARYWDFLT
  2
AcDbDictionaryWithDefault
  3
ObjectDBX Classes
 90
        0
280
     0
281
     0
  0
CLASS
  1
ACDBPLACEHOLDER
  2
AcDbPlaceHolder
  3
ObjectDBX Classes
 90
        0
280
     0
281
     0
  0
CLASS
  1
LAYOUT
  2
AcDbLayout
  3
ObjectDBX Classes
 90
        0
280
     0
281
     0
  0
CLASS
  1
DICTIONARYVAR
  2
AcDbDictionaryVar
  3
ObjectDBX Classes
 90
        0
280
     0
281
     0
  0
CLASS
  1
SORTENTSTABLE
  2
AcDbSortentsTable
  3
ObjectDBX Classes
 90
        0
280
     0
281
     0
  0
CLASS
  1
MATERIAL
  2
AcDbMaterial
  3
ObjectDBX Classes
 90
     1153
280
     0
281
     0
  0
CLASS
  1
VISUALSTYLE
  2
AcDbVisualStyle
  3
ObjectDBX Classes
 90
     4095
280
     0
281
     0
  0
CLASS
  1
TABLESTYLE
  2
AcDbTableStyle
  3
ObjectDBX Classes
 90
     4095
280
     0
281
     0
  0
CLASS
  1
SCALE
  2
AcDbScale
  3
ObjectDBX Classes
 90
     1153
280
     0
281
     0
  0
CLASS
  1
MLEADERSTYLE
  2
AcDbMLeaderStyle
  3
ACDB_MLEADERSTYLE_CLASS
 90
     4095
280
     0
281
     0
  0
CLASS
  1
CELLSTYLEMAP
  2
AcDbCellStyleMap
  3
ObjectDBX Classes
 90
     1152
280
     0
281
     0
  0
CLASS
  1
ACDBSECTIONVIEWSTYLE
  2
AcDbSectionViewStyle
  3
ObjectDBX Classes
 90
     1025
280
     0
281
     0
  0
CLASS
  1
ACDBDETAILVIEWSTYLE
  2
AcDbDetailViewStyle
  3
ObjectDBX Classes
 90
     1025
280
     0
281
     0
  0
ENDSEC
  0
SECTION
  2
TABLES
  0
TABLE
  2
VPORT
  5
8
102
{ACAD_XDICTIONARY
360
362F
102
}
330
0
100
AcDbSymbolTable
 70
     1
  0
VPORT
  5
35CE
330
8
100
AcDbSymbolTableRecord
100
AcDbViewportTableRecord
  2
*Active
 70
     0
 10
0.0
 20
0.0
 11
1.0
 21
1.0
 12
2759.789465065841
 22
1909.854304098443
 13
0.0
 23
0.0
 14
10.0
 24
10.0
 15
10.0
 25
10.0
 16
0.0
 26
0.0
 36
1.0
 17
0.0
 27
0.0
 37
0.0
 40
3961.783690859897
 41
2.590062111801242
 42
50.0
 43
0.0
 44
0.0
 50
0.0
 51
0.0
 71
     0
 72
   100
 73
     1
 74
     3
 75
     0
 76
     0
 77
     0
 78
     0
281
     0
 65
     1
110
0.0
120
0.0
130
0.0
111
1.0
121
0.0
131
0.0
112
0.0
122
1.0
132
0.0
 79
     0
146
0.0
1001
ACAD_NAV_VCDISPLAY
1070
     3
  0
ENDTAB
  0
TABLE
  2
LTYPE
  5
5
330
0
100
AcDbSymbolTable
 70
     1
  0
LTYPE
  5
14
330
5
100
AcDbSymbolTableRecord
100
AcDbLinetypeTableRecord
  2
ByBlock
 70
     0
  3

 72
    65
 73
     0
 40
0.0
  0
LTYPE
  5
15
330
5
100
AcDbSymbolTableRecord
100
AcDbLinetypeTableRecord
  2
ByLayer
 70
     0
  3

 72
    65
 73
     0
 40
0.0
  0
LTYPE
  5
16
330
5
100
AcDbSymbolTableRecord
100
AcDbLinetypeTableRecord
  2
Continuous
 70
     0
  3
Solid line
 72
    65
 73
     0
 40
0.0
  0
ENDTAB
  0
TABLE
  2
LAYER
  5
2
102
{ACAD_XDICTIONARY
360
2D
102
}
330
0
100
AcDbSymbolTable
 70
     8
  0
LAYER
  5
10
102
{ACAD_XDICTIONARY
360
3621
102
}
330
2
100
AcDbSymbolTableRecord
100
AcDbLayerTableRecord
  2
0
 70
     0
 62
     7
  6
Continuous
370
    -3
390
29
  0
LAYER
  5
235F
102
{ACAD_XDICTIONARY
360
3623
102
}
330
2
100
AcDbSymbolTableRecord
100
AcDbLayerTableRecord
  2
KUTAI
 70
     0
 62
     3
  6
Continuous
370
    -3
390
29
  0
LAYER
  5
2361
102
{ACAD_XDICTIONARY
360
3625
102
}
330
2
100
AcDbSymbolTableRecord
100
AcDbLayerTableRecord
  2
MOJI
 70
     0
 62
     7
  6
Continuous
370
    -3
390
29
  0
LAYER
  5
275A
102
{ACAD_XDICTIONARY
360
3627
102
}
330
2
100
AcDbSymbolTableRecord
100
AcDbLayerTableRecord
  2
KANAMONO
 70
     0
 62
     4
  6
Continuous
370
    -3
390
F
  0
LAYER
  5
275B
102
{ACAD_XDICTIONARY
360
3629
102
}
330
2
100
AcDbSymbolTableRecord
100
AcDbLayerTableRecord
  2
single
 70
     0
 62
     6
  6
Continuous
370
    -3
390
F
  0
LAYER
  5
33C9
330
2
100
AcDbSymbolTableRecord
100
AcDbLayerTableRecord
  2
DEFPOINTS
 70
     0
 62
     7
  6
Continuous
290
     0
370
    -3
390
F
  0
LAYER
  5
38D8
102
{ACAD_XDICTIONARY
360
38D9
102
}
330
2
100
AcDbSymbolTableRecord
100
AcDbLayerTableRecord
  2
HATCH
 70
     0
 62
     9
  6
Continuous
370
    -3
390
29
  0
LAYER
  5
38DA
102
{ACAD_XDICTIONARY
360
38DB
102
}
330
2
100
AcDbSymbolTableRecord
100
AcDbLayerTableRecord
  2
WAKU
 70
     0
 62
     7
  6
Continuous
370
    -3
390
29
  0
ENDTAB
  0
TABLE
  2
STYLE
  5
3
330
0
100
AcDbSymbolTable
 70
     2
  0
STYLE
  5
11
330
3
100
AcDbSymbolTableRecord
100
AcDbTextStyleTableRecord
  2
Standard
 70
     0
 40
0.0
 41
1.0
 50
0.0
 71
     0
 42
2.5
  3

  4

1001
ACAD
1000
MS Gothic
1071
    32817
  0
STYLE
  5
38DC
330
3
100
AcDbSymbolTableRecord
100
AcDbTextStyleTableRecord
  2
MSゴシック
 70
     0
 40
0.0
 41
1.0
 50
0.0
 71
     0
 42
2.5
  3

  4

1001
ACAD
1000
MS Gothic
1071
    32817
  0
ENDTAB
  0
TABLE
  2
VIEW
  5
6
330
0
100
AcDbSymbolTable
 70
     0
  0
ENDTAB
  0
TABLE
  2
UCS
  5
7
330
0
100
AcDbSymbolTable
 70
     0
  0
ENDTAB
  0
TABLE
  2
APPID
  5
9
330
0
100
AcDbSymbolTable
 70
     8
  0
APPID
  5
12
330
9
100
AcDbSymbolTableRecord
100
AcDbRegAppTableRecord
  2
ACAD
 70
     0
  0
APPID
  5
365F
330
9
100
AcDbSymbolTableRecord
100
AcDbRegAppTableRecord
  2
ACAD_MLEADERVER
 70
     0
  0
APPID
  5
36A4
330
9
100
AcDbSymbolTableRecord
100
AcDbRegAppTableRecord
  2
AcLayerTools
 70
     0
  0
APPID
  5
38DD
330
9
100
AcDbSymbolTableRecord
100
AcDbRegAppTableRecord
  2
ACAD_PSEXT
 70
     0
  0
APPID
  5
38DE
330
9
100
AcDbSymbolTableRecord
100
AcDbRegAppTableRecord
  2
ACAD_NAV_VCDISPLAY
 70
     0
  0
APPID
  5
393B
330
9
100
AcDbSymbolTableRecord
100
AcDbRegAppTableRecord
  2
ACAD_EXEMPT_FROM_CAD_STANDARDS
 70
     0
  0
APPID
  5
3B88
330
9
100
AcDbSymbolTableRecord
100
AcDbRegAppTableRecord
  2
AcadAnnoPO
 70
     0
  0
APPID
  5
3BD2
330
9
100
AcDbSymbolTableRecord
100
AcDbRegAppTableRecord
  2
Acad_TC
 70
     0
  0
ENDTAB
  0
TABLE
  2
DIMSTYLE
  5
A
330
0
100
AcDbSymbolTable
 70
     1
100
AcDbDimStyleTable
 71
     1
340
22E4
  0
DIMSTYLE
105
22E4
330
A
100
AcDbSymbolTableRecord
100
AcDbDimStyleTableRecord
  2
STANDARD
 70
     0
 40
10.0
 41
0.8
 42
1.0
 43
0.0
 44
0.0
 73
     0
 74
     0
 77
     2
 78
     8
140
2.0
141
2.5
143
0.0394
147
0.1
171
     4
172
     1
173
     1
271
     8
272
     8
273
     8
274
     4
279
     1
340
11
341
903
343
903
344
903
  0
ENDTAB
  0
TABLE
  2
BLOCK_RECORD
  5
1
330
0
100
AcDbSymbolTable
 70
     8
  0
BLOCK_RECORD
  5
1F
102
{ACAD_XDICTIONARY
360
1C62
102
}
330
1
100
AcDbSymbolTableRecord
100
AcDbBlockTableRecord
  2
*Model_Space
340
22
  0
BLOCK_RECORD
  5
1CD0
330
1
100
AcDbSymbolTableRecord
100
AcDbBlockTableRecord
  2
*Paper_Space
340
1CD1
  0
BLOCK_RECORD
  5
903
330
1
100
AcDbSymbolTableRecord
100
AcDbBlockTableRecord
  2
_DOT
340
0
102
{BLKREFS
331
3C0D
331
3C0E
331
3C16
331
3C17
331
3C1F
331
3C20
331
3C28
331
3C29
331
3C31
331
3C32
331
3C3A
331
3C3B
331
3C8C
331
3C8D
331
3C92
331
3C93
331
3C98
331
3C99
331
3C9E
331
3C9F
331
3CB4
331
3CB5
331
3CBA
331
3CBB
102
}
  0
BLOCK_RECORD
  5
3514
330
1
100
AcDbSymbolTableRecord
100
AcDbBlockTableRecord
  2
*D1
340
0
  0
BLOCK_RECORD
  5
3520
330
1
100
AcDbSymbolTableRecord
100
AcDbBlockTableRecord
  2
*D2
340
0
  0
BLOCK_RECORD
  5
352C
330
1
100
AcDbSymbolTableRecord
100
AcDbBlockTableRecord
  2
*D3
340
0
  0
BLOCK_RECORD
  5
3538
330
1
100
AcDbSymbolTableRecord
100
AcDbBlockTableRecord
  2
*D4
340
0
  0
BLOCK_RECORD
  5
3544
330
1
100
AcDbSymbolTableRecord
100
AcDbBlockTableRecord
  2
*D5
340
0
  0
BLOCK_RECORD
  5
3550
330
1
100
AcDbSymbolTableRecord
100
AcDbBlockTableRecord
  2
*D6
340
0
  0
BLOCK_RECORD
  5
392D
102
{ACAD_XDICTIONARY
360
3936
102
}
330
1
100
AcDbSymbolTableRecord
100
AcDbBlockTableRecord
  2
A$C18601C1C
340
0
1001
ACAD
1000
DesignCenter Data
1002
{
1070
     1
1070
     4
1002
}
  0
ENDTAB
  0
ENDSEC
  0
SECTION
  2
BLOCKS
  0
BLOCK
  5
20
330
1F
100
AcDbEntity
  8
0
100
AcDbBlockBegin
  2
*Model_Space
 70
     0
 10
0.0
 20
0.0
 30
0.0
  3
*Model_Space
  1

  0
ENDBLK
  5
21
330
1F
100
AcDbEntity
  8
0
100
AcDbBlockEnd
  0
BLOCK
  5
1CD2
330
1CD0
100
AcDbEntity
 67
     1
  8
0
100
AcDbBlockBegin
  2
*Paper_Space
 70
     0
 10
0.0
 20
0.0
 30
0.0
  3
*Paper_Space
  1

  0
ENDBLK
  5
1CD3
330
1CD0
100
AcDbEntity
 67
     1
  8
0
100
AcDbBlockEnd
  0
BLOCK
  5
906
330
903
100
AcDbEntity
  8
0
100
AcDbBlockBegin
  2
_DOT
 70
     0
 10
0.0
 20
0.0
 30
0.0
  3
_DOT
  1

  0
LWPOLYLINE
  5
904
330
903
100
AcDbEntity
  8
0
  6
ByBlock
 62
     0
100
AcDbPolyline
 90
        2
 70
     1
 43
0.5
 10
-0.25
 20
0.0
 42
1.0
 10
0.25
 20
0.0
 42
1.0
  0
LINE
  5
905
330
903
100
AcDbEntity
  8
0
  6
ByBlock
 62
     0
100
AcDbLine
 10
-0.5
 20
0.0
 30
0.0
 11
-1.0
 21
0.0
 31
0.0
  0
ENDBLK
  5
907
330
903
100
AcDbEntity
  8
0
100
AcDbBlockEnd
  0
BLOCK
  5
351E
330
3514
100
AcDbEntity
  8
0
100
AcDbBlockBegin
  2
*D1
 70
     1
 10
0.0
 20
0.0
 30
0.0
  3
*D1
  1

  0
LINE
  5
3C0A
330
3514
100
AcDbEntity
  8
MOJI
 62
     0
370
    -2
100
AcDbLine
 10
2560.805208522528
 20
1842.260778068584
 30
0.0
 11
2560.805208522528
 21
810.4231158131101
 31
0.0
  0
LINE
  5
3C0B
330
3514
100
AcDbEntity
  8
MOJI
 62
     0
370
    -2
100
AcDbLine
 10
3018.305208522529
 20
1422.260778068584
 30
0.0
 11
3018.305208522529
 21
810.4231158131103
 31
0.0
  0
LINE
  5
3C0C
330
3514
100
AcDbEntity
  8
MOJI
 62
     0
370
    -2
100
AcDbLine
 10
2576.805208522528
 20
810.4231158131103
 30
0.0
 11
3002.305208522529
 21
810.4231158131103
 31
0.0
  0
INSERT
  5
3C0D
330
3514
100
AcDbEntity
  8
MOJI
 62
     0
370
    -2
100
AcDbBlockReference
  2
_DOT
 10
2560.805208522528
 20
810.4231158131103
 30
0.0
 41
16.0
 42
16.0
 43
16.0
 50
180.0
  0
INSERT
  5
3C0E
330
3514
100
AcDbEntity
  8
MOJI
 62
     0
370
    -2
100
AcDbBlockReference
  2
_DOT
 10
3018.305208522529
 20
810.4231158131103
 30
0.0
 41
16.0
 42
16.0
 43
16.0
  0
MTEXT
  5
3C0F
330
3514
100
AcDbEntity
  8
MOJI
 62
     0
100
AcDbMText
 10
2789.555208522529
 20
788.4231158131102
 30
0.0
 40
40.0
 41
0.0
 71
     5
 72
     1
  1
\A1;457.5
  7
MSゴシック
 73
     1
 44
1.0
1001
ACAD
1000
MTEXTBEGIN
1070
    73
1070
     1
1070
    44
1040
1.0
1070
    74
1070
     0
1000
MTEXTEND
  0
POINT
  5
3C10
330
3514
100
AcDbEntity
  8
DEFPOINTS
 62
     0
100
AcDbPoint
 10
2560.805208522528
 20
1852.260778068584
 30
0.0
  0
POINT
  5
3C11
330
3514
100
AcDbEntity
  8
DEFPOINTS
 62
     0
100
AcDbPoint
 10
3018.305208522529
 20
1432.260778068584
 30
0.0
  0
POINT
  5
3C12
330
3514
100
AcDbEntity
  8
DEFPOINTS
 62
     0
100
AcDbPoint
 10
3018.305208522529
 20
810.4231158131103
 30
0.0
  0
ENDBLK
  5
351F
330
3514
100
AcDbEntity
  8
0
100
AcDbBlockEnd
  0
BLOCK
  5
352A
330
3520
100
AcDbEntity
  8
0
100
AcDbBlockBegin
  2
*D2
 70
     1
 10
0.0
 20
0.0
 30
0.0
  3
*D2
  1

  0
LINE
  5
3C13
330
3520
100
AcDbEntity
  8
MOJI
 62
     0
370
    -2
100
AcDbLine
 10
2103.305208522529
 20
1422.260778068584
 30
0.0
 11
2103.305208522529
 21
810.4231158131103
 31
0.0
  0
LINE
  5
3C14
330
3520
100
AcDbEntity
  8
MOJI
 62
     0
370
    -2
100
AcDbLine
 10
2560.805208522528
 20
1842.260778068584
 30
0.0
 11
2560.805208522528
 21
810.4231158131101
 31
0.0
  0
LINE
  5
3C15
330
3520
100
AcDbEntity
  8
MOJI
 62
     0
370
    -2
100
AcDbLine
 10
2119.305208522529
 20
810.4231158131103
 30
0.0
 11
2544.805208522528
 21
810.4231158131103
 31
0.0
  0
INSERT
  5
3C16
330
3520
100
AcDbEntity
  8
MOJI
 62
     0
370
    -2
100
AcDbBlockReference
  2
_DOT
 10
2103.305208522529
 20
810.4231158131103
 30
0.0
 41
16.0
 42
16.0
 43
16.0
 50
180.0
  0
INSERT
  5
3C17
330
3520
100
AcDbEntity
  8
MOJI
 62
     0
370
    -2
100
AcDbBlockReference
  2
_DOT
 10
2560.805208522528
 20
810.4231158131103
 30
0.0
 41
16.0
 42
16.0
 43
16.0
  0
MTEXT
  5
3C18
330
3520
100
AcDbEntity
  8
MOJI
 62
     0
100
AcDbMText
 10
2332.055208522529
 20
788.4231158131102
 30
0.0
 40
40.0
 41
0.0
 71
     5
 72
     1
  1
\A1;457.5
  7
MSゴシック
 73
     1
 44
1.0
1001
ACAD
1000
MTEXTBEGIN
1070
    73
1070
     1
1070
    44
1040
1.0
1070
    74
1070
     0
1000
MTEXTEND
  0
POINT
  5
3C19
330
3520
100
AcDbEntity
  8
DEFPOINTS
 62
     0
100
AcDbPoint
 10
2103.305208522529
 20
1432.260778068584
 30
0.0
  0
POINT
  5
3C1A
330
3520
100
AcDbEntity
  8
DEFPOINTS
 62
     0
100
AcDbPoint
 10
2560.805208522528
 20
1852.260778068584
 30
0.0
  0
POINT
  5
3C1B
330
3520
100
AcDbEntity
  8
DEFPOINTS
 62
     0
100
AcDbPoint
 10
2560.805208522528
 20
810.4231158131103
 30
0.0
  0
ENDBLK
  5
352B
330
3520
100
AcDbEntity
  8
0
100
AcDbBlockEnd
  0
BLOCK
  5
3536
330
352C
100
AcDbEntity
  8
0
100
AcDbBlockBegin
  2
*D3
 70
     1
 10
0.0
 20
0.0
 30
0.0
  3
*D3
  1

  0
LINE
  5
3C1C
330
352C
100
AcDbEntity
  8
MOJI
 62
     0
370
    -2
100
AcDbLine
 10
1645.805208522528
 20
1842.260778068584
 30
0.0
 11
1645.805208522528
 21
810.4231158131101
 31
0.0
  0
LINE
  5
3C1D
330
352C
100
AcDbEntity
  8
MOJI
 62
     0
370
    -2
100
AcDbLine
 10
2103.305208522529
 20
1422.260778068584
 30
0.0
 11
2103.305208522529
 21
810.4231158131103
 31
0.0
  0
LINE
  5
3C1E
330
352C
100
AcDbEntity
  8
MOJI
 62
     0
370
    -2
100
AcDbLine
 10
1661.805208522528
 20
810.4231158131103
 30
0.0
 11
2087.305208522529
 21
810.4231158131103
 31
0.0
  0
INSERT
  5
3C1F
330
352C
100
AcDbEntity
  8
MOJI
 62
     0
370
    -2
100
AcDbBlockReference
  2
_DOT
 10
1645.805208522528
 20
810.4231158131103
 30
0.0
 41
16.0
 42
16.0
 43
16.0
 50
180.0
  0
INSERT
  5
3C20
330
352C
100
AcDbEntity
  8
MOJI
 62
     0
370
    -2
100
AcDbBlockReference
  2
_DOT
 10
2103.305208522529
 20
810.4231158131103
 30
0.0
 41
16.0
 42
16.0
 43
16.0
  0
MTEXT
  5
3C21
330
352C
100
AcDbEntity
  8
MOJI
 62
     0
100
AcDbMText
 10
1874.555208522528
 20
788.4231158131102
 30
0.0
 40
40.0
 41
0.0
 71
     5
 72
     1
  1
\A1;457.5
  7
MSゴシック
 73
     1
 44
1.0
1001
ACAD
1000
MTEXTBEGIN
1070
    73
1070
     1
1070
    44
1040
1.0
1070
    74
1070
     0
1000
MTEXTEND
  0
POINT
  5
3C22
330
352C
100
AcDbEntity
  8
DEFPOINTS
 62
     0
100
AcDbPoint
 10
1645.805208522528
 20
1852.260778068584
 30
0.0
  0
POINT
  5
3C23
330
352C
100
AcDbEntity
  8
DEFPOINTS
 62
     0
100
AcDbPoint
 10
2103.305208522529
 20
1432.260778068584
 30
0.0
  0
POINT
  5
3C24
330
352C
100
AcDbEntity
  8
DEFPOINTS
 62
     0
100
AcDbPoint
 10
2103.305208522529
 20
810.4231158131103
 30
0.0
  0
ENDBLK
  5
3537
330
352C
100
AcDbEntity
  8
0
100
AcDbBlockEnd
  0
BLOCK
  5
3542
330
3538
100
AcDbEntity
  8
0
100
AcDbBlockBegin
  2
*D4
 70
     1
 10
0.0
 20
0.0
 30
0.0
  3
*D4
  1

  0
LINE
  5
3C25
330
3538
100
AcDbEntity
  8
MOJI
 62
     0
370
    -2
100
AcDbLine
 10
1188.305208522528
 20
1422.260778068584
 30
0.0
 11
1188.305208522528
 21
810.4231158131103
 31
0.0
  0
LINE
  5
3C26
330
3538
100
AcDbEntity
  8
MOJI
 62
     0
370
    -2
100
AcDbLine
 10
1645.805208522528
 20
1842.260778068584
 30
0.0
 11
1645.805208522528
 21
810.4231158131101
 31
0.0
  0
LINE
  5
3C27
330
3538
100
AcDbEntity
  8
MOJI
 62
     0
370
    -2
100
AcDbLine
 10
1204.305208522528
 20
810.4231158131103
 30
0.0
 11
1629.805208522528
 21
810.4231158131103
 31
0.0
  0
INSERT
  5
3C28
330
3538
100
AcDbEntity
  8
MOJI
 62
     0
370
    -2
100
AcDbBlockReference
  2
_DOT
 10
1188.305208522528
 20
810.4231158131103
 30
0.0
 41
16.0
 42
16.0
 43
16.0
 50
180.0
  0
INSERT
  5
3C29
330
3538
100
AcDbEntity
  8
MOJI
 62
     0
370
    -2
100
AcDbBlockReference
  2
_DOT
 10
1645.805208522528
 20
810.4231158131103
 30
0.0
 41
16.0
 42
16.0
 43
16.0
  0
MTEXT
  5
3C2A
330
3538
100
AcDbEntity
  8
MOJI
 62
     0
100
AcDbMText
 10
1417.055208522528
 20
788.4231158131102
 30
0.0
 40
40.0
 41
0.0
 71
     5
 72
     1
  1
\A1;457.5
  7
MSゴシック
 73
     1
 44
1.0
1001
ACAD
1000
MTEXTBEGIN
1070
    73
1070
     1
1070
    44
1040
1.0
1070
    74
1070
     0
1000
MTEXTEND
  0
POINT
  5
3C2B
330
3538
100
AcDbEntity
  8
DEFPOINTS
 62
     0
100
AcDbPoint
 10
1188.305208522528
 20
1432.260778068584
 30
0.0
  0
POINT
  5
3C2C
330
3538
100
AcDbEntity
  8
DEFPOINTS
 62
     0
100
AcDbPoint
 10
1645.805208522528
 20
1852.260778068584
 30
0.0
  0
POINT
  5
3C2D
330
3538
100
AcDbEntity
  8
DEFPOINTS
 62
     0
100
AcDbPoint
 10
1645.805208522528
 20
810.4231158131103
 30
0.0
  0
ENDBLK
  5
3543
330
3538
100
AcDbEntity
  8
0
100
AcDbBlockEnd
  0
BLOCK
  5
354E
330
3544
100
AcDbEntity
  8
0
100
AcDbBlockBegin
  2
*D5
 70
     1
 10
0.0
 20
0.0
 30
0.0
  3
*D5
  1

  0
LINE
  5
3C2E
330
3544
100
AcDbEntity
  8
MOJI
 62
     0
370
    -2
100
AcDbLine
 10
4054.766094082992
 20
1502.260778068585
 30
0.0
 11
4191.275241107554
 21
1502.260778068585
 31
0.0
  0
LINE
  5
3C2F
330
3544
100
AcDbEntity
  8
MOJI
 62
     0
370
    -2
100
AcDbLine
 10
4054.766094082992
 20
1922.260778068585
 30
0.0
 11
4191.275241107554
 21
1922.260778068585
 31
0.0
  0
LINE
  5
3C30
330
3544
100
AcDbEntity
  8
MOJI
 62
     0
370
    -2
100
AcDbLine
 10
4191.275241107554
 20
1518.260778068585
 30
0.0
 11
4191.275241107554
 21
1906.260778068585
 31
0.0
  0
INSERT
  5
3C31
330
3544
100
AcDbEntity
  8
MOJI
 62
     0
370
    -2
100
AcDbBlockReference
  2
_DOT
 10
4191.275241107554
 20
1502.260778068585
 30
0.0
 41
16.0
 42
16.0
 43
16.0
 50
270.0
  0
INSERT
  5
3C32
330
3544
100
AcDbEntity
  8
MOJI
 62
     0
370
    -2
100
AcDbBlockReference
  2
_DOT
 10
4191.275241107554
 20
1922.260778068585
 30
0.0
 41
16.0
 42
16.0
 43
16.0
 50
90.0
  0
MTEXT
  5
3C33
330
3544
100
AcDbEntity
  8
MOJI
 62
     0
100
AcDbMText
 10
4213.275241107553
 20
1712.260778068583
 30
0.0
 40
40.0
 41
0.0
 71
     5
 72
     1
  1
\A1;420
  7
MSゴシック
 11
0.0000000000000001
 21
1.0
 31
0.0
 73
     1
 44
1.0
1001
ACAD
1000
MTEXTBEGIN
1070
    73
1070
     1
1070
    44
1040
1.0
1070
    74
1070
     0
1000
MTEXTEND
  0
POINT
  5
3C34
330
3544
100
AcDbEntity
  8
DEFPOINTS
 62
     0
100
AcDbPoint
 10
4044.766094082993
 20
1502.260778068585
 30
0.0
  0
POINT
  5
3C35
330
3544
100
AcDbEntity
  8
DEFPOINTS
 62
     0
100
AcDbPoint
 10
4044.766094082993
 20
1922.260778068585
 30
0.0
  0
POINT
  5
3C36
330
3544
100
AcDbEntity
  8
DEFPOINTS
 62
     0
100
AcDbPoint
 10
4191.275241107554
 20
1922.260778068585
 30
0.0
  0
ENDBLK
  5
354F
330
3544
100
AcDbEntity
  8
0
100
AcDbBlockEnd
  0
BLOCK
  5
355A
330
3550
100
AcDbEntity
  8
0
100
AcDbBlockBegin
  2
*D6
 70
     1
 10
0.0
 20
0.0
 30
0.0
  3
*D6
  1

  0
LINE
  5
3C37
330
3550
100
AcDbEntity
  8
MOJI
 62
     0
370
    -2
100
AcDbLine
 10
3018.305208522529
 20
1422.260778068584
 30
0.0
 11
3018.305208522529
 21
810.4231158131103
 31
0.0
  0
LINE
  5
3C38
330
3550
100
AcDbEntity
  8
MOJI
 62
     0
370
    -2
100
AcDbLine
 10
3475.805208522528
 20
1842.260778068584
 30
0.0
 11
3475.805208522528
 21
810.4231158131101
 31
0.0
  0
LINE
  5
3C39
330
3550
100
AcDbEntity
  8
MOJI
 62
     0
370
    -2
100
AcDbLine
 10
3034.305208522529
 20
810.4231158131103
 30
0.0
 11
3459.805208522528
 21
810.4231158131103
 31
0.0
  0
INSERT
  5
3C3A
330
3550
100
AcDbEntity
  8
MOJI
 62
     0
370
    -2
100
AcDbBlockReference
  2
_DOT
 10
3018.305208522529
 20
810.4231158131103
 30
0.0
 41
16.0
 42
16.0
 43
16.0
 50
180.0
  0
INSERT
  5
3C3B
330
3550
100
AcDbEntity
  8
MOJI
 62
     0
370
    -2
100
AcDbBlockReference
  2
_DOT
 10
3475.805208522528
 20
810.4231158131103
 30
0.0
 41
16.0
 42
16.0
 43
16.0
  0
MTEXT
  5
3C3C
330
3550
100
AcDbEntity
  8
MOJI
 62
     0
100
AcDbMText
 10
3247.055208522529
 20
788.4231158131102
 30
0.0
 40
40.0
 41
0.0
 71
     5
 72
     1
  1
\A1;457.5
  7
MSゴシック
 73
     1
 44
1.0
1001
ACAD
1000
MTEXTBEGIN
1070
    73
1070
     1
1070
    44
1040
1.0
1070
    74
1070
     0
1000
MTEXTEND
  0
POINT
  5
3C3D
330
3550
100
AcDbEntity
  8
DEFPOINTS
 62
     0
100
AcDbPoint
 10
3018.305208522529
 20
1432.260778068584
 30
0.0
  0
POINT
  5
3C3E
330
3550
100
AcDbEntity
  8
DEFPOINTS
 62
     0
100
AcDbPoint
 10
3475.805208522528
 20
1852.260778068584
 30
0.0
  0
POINT
  5
3C3F
330
3550
100
AcDbEntity
  8
DEFPOINTS
 62
     0
100
AcDbPoint
 10
3475.805208522528
 20
810.4231158131103
 30
0.0
  0
ENDBLK
  5
355B
330
3550
100
AcDbEntity
  8
0
100
AcDbBlockEnd
  0
BLOCK
  5
3938
330
392D
100
AcDbEntity
  8
0
100
AcDbBlockBegin
  2
A$C18601C1C
 70
     0
 10
0.0
 20
0.0
 30
0.0
  3
A$C18601C1C
  1

  0
LWPOLYLINE
  5
392E
330
392D
100
AcDbEntity
  8
WAKU
100
AcDbPolyline
 90
        4
 70
     1
 43
0.0
 10
-0.0000043164154704
 20
0.0000006404816304
 10
2759.999995683585
 20
0.0000006404816304
 10
2759.999995683585
 20
1910.000000640481
 10
-0.0000043164154704
 20
1910.000000640481
  0
LWPOLYLINE
  5
392F
330
392D
100
AcDbEntity
  8
WAKU
100
AcDbPolyline
 90
        4
 70
     1
 43
0.0
 10
2759.999995683585
 20
1790.000000640481
 10
-0.0000043164154704
 20
1790.000000640481
 10
-0.0000043164154704
 20
1910.000000640481
 10
2759.999995683585
 20
1910.000000640481
  0
LINE
  5
3930
330
392D
100
AcDbEntity
  8
0
100
AcDbLine
 10
-0.0000043164154704
 20
1850.00000064048
 30
0.0
 11
2759.999995683585
 21
1850.000000640477
 31
0.0
  0
TEXT
  5
3931
330
392D
100
AcDbEntity
  8
WAKU
100
AcDbText
 10
2589.060909389169
 20
1860.000000640481
 30
0.0
 40
30.0
  1
1-covt-5
  7
MSゴシック
 72
     2
 11
2744.999995683585
 21
1860.000000640481
 31
0.0
100
AcDbText
  0
TEXT
  5
3932
330
392D
100
AcDbEntity
  8
WAKU
100
AcDbText
 10
14.99999568358453
 20
1860.000000640481
 30
0.0
 40
40.0
  1
コンポジットシステムＶＴ工法
  7
MSゴシック
100
AcDbText
  0
TEXT
  5
3933
330
392D
100
AcDbEntity
  8
WAKU
100
AcDbText
 10
14.99999568358453
 20
1800.000000640485
 30
0.0
 40
30.0
  1
立上り部
  7
MSゴシック
100
AcDbText
  0
TEXT
  5
3934
330
392D
100
AcDbEntity
  8
WAKU
100
AcDbText
 10
2589.060909389169
 20
1800.000000640487
 30
0.0
 40
30.0
  1
1/10(A4)
  7
MSゴシック
 72
     2
 11
2744.999995683585
 21
1800.000000640487
 31
0.0
100
AcDbText
  0
LWPOLYLINE
  5
3935
330
392D
100
AcDbEntity
  8
0
100
AcDbPolyline
 90
        2
 70
     0
 43
0.0
 10
-0.0000043164154704
 20
0.0000006404816304
 10
2759.999995683585
 20
1790.000000640481
  0
ENDBLK
  5
3939
330
392D
100
AcDbEntity
  8
0
100
AcDbBlockEnd
  0
ENDSEC
  0
SECTION
  2
ENTITIES
  0
LINE
  5
3472
330
1F
100
AcDbEntity
  8
single
100
AcDbLine
 10
4044.76609408299
 20
942.2607780685845
 30
0.0
 11
960.0000000000004
 21
942.2607780685845
 31
0.0
  0
HATCH
  5
349C
330
1F
100
AcDbEntity
  8
KANAMONO
100
AcDbHatch
 10
0.0
 20
0.0
 30
0.0
210
0.0
220
0.0
230
1.0
  2
SOLID
 70
     1
 71
     0
 91
        1
 92
        7
 72
     0
 73
     1
 93
        4
 10
1213.305208522529
 20
1502.260778068584
 10
1163.305208522529
 20
1502.260778068584
 10
1163.305208522529
 20
1432.260778068584
 10
1213.305208522529
 20
1432.260778068584
 97
        0
 75
     0
 76
     1
 47
2.288445108802175
 98
        1
 10
1195.224182296297
 20
1454.434521250816
  0
HATCH
  5
34AC
330
1F
100
AcDbEntity
  8
KANAMONO
100
AcDbHatch
 10
0.0
 20
0.0
 30
0.0
210
0.0
220
0.0
230
1.0
  2
SOLID
 70
     1
 71
     0
 91
        1
 92
        7
 72
     0
 73
     1
 93
        4
 10
2128.305208522529
 20
1502.260778068584
 10
2078.305208522529
 20
1502.260778068584
 10
2078.305208522529
 20
1432.260778068584
 10
2128.305208522529
 20
1432.260778068584
 97
        0
 75
     0
 76
     1
 47
2.288445108802175
 98
        1
 10
2110.224182296298
 20
1454.434521250816
  0
HATCH
  5
34CA
330
1F
100
AcDbEntity
  8
KANAMONO
100
AcDbHatch
 10
0.0
 20
0.0
 30
0.0
210
0.0
220
0.0
230
1.0
  2
SOLID
 70
     1
 71
     0
 91
        1
 92
        7
 72
     0
 73
     1
 93
        4
 10
1670.805208522528
 20
1922.260778068584
 10
1620.805208522528
 20
1922.260778068584
 10
1620.805208522528
 20
1852.260778068584
 10
1670.805208522528
 20
1852.260778068584
 97
        0
 75
     0
 76
     1
 47
2.288445108802175
 98
        1
 10
1652.724182296297
 20
1874.434521250816
  0
HATCH
  5
34CF
330
1F
100
AcDbEntity
  8
KANAMONO
100
AcDbHatch
 10
0.0
 20
0.0
 30
0.0
210
0.0
220
0.0
230
1.0
  2
SOLID
 70
     1
 71
     0
 91
        1
 92
        7
 72
     0
 73
     1
 93
        4
 10
2585.805208522528
 20
1922.260778068584
 10
2535.805208522528
 20
1922.260778068584
 10
2535.805208522528
 20
1852.260778068584
 10
2585.805208522528
 20
1852.260778068584
 97
        0
 75
     0
 76
     1
 47
2.288445108802175
 98
        1
 10
2567.724182296297
 20
1874.434521250816
  0
HATCH
  5
34ED
330
1F
100
AcDbEntity
  8
KANAMONO
100
AcDbHatch
 10
0.0
 20
0.0
 30
0.0
210
0.0
220
0.0
230
1.0
  2
SOLID
 70
     1
 71
     0
 91
        1
 92
        7
 72
     0
 73
     1
 93
        4
 10
3043.305208522529
 20
1502.260778068584
 10
2993.305208522529
 20
1502.260778068584
 10
2993.305208522529
 20
1432.260778068584
 10
3043.305208522529
 20
1432.260778068584
 97
        0
 75
     0
 76
     1
 47
2.288445108802175
 98
        1
 10
3025.224182296298
 20
1454.434521250816
  0
HATCH
  5
3509
330
1F
100
AcDbEntity
  8
KANAMONO
100
AcDbHatch
 10
0.0
 20
0.0
 30
0.0
210
0.0
220
0.0
230
1.0
  2
SOLID
 70
     1
 71
     0
 91
        1
 92
        7
 72
     0
 73
     1
 93
        4
 10
3500.805208522528
 20
1922.260778068584
 10
3450.805208522528
 20
1922.260778068584
 10
3450.805208522528
 20
1852.260778068584
 10
3500.805208522528
 20
1852.260778068584
 97
        0
 75
     0
 76
     1
 47
2.288445108802175
 98
        1
 10
3482.724182296297
 20
1874.434521250816
  0
LINE
  5
3803
330
1F
100
AcDbEntity
  8
single
100
AcDbLine
 10
4044.76609408299
 20
1082.260778068584
 30
0.0
 11
1112.5
 21
1082.260778068584
 31
0.0
  0
LINE
  5
38F0
330
1F
100
AcDbEntity
  8
0
100
AcDbLine
 10
0.0
 20
3699.999999999997
 30
0.0
 11
5520.000000000002
 21
3699.999999999991
 31
0.0
  0
TEXT
  5
38F1
330
1F
100
AcDbEntity
  8
WAKU
100
AcDbText
 10
5256.091370558377
 20
3720.000000000001
 30
0.0
 40
60.0
  1
s-to-2
  7
MSゴシック
 72
     2
 11
5490.000000000001
 21
3720.000000000001
 31
0.0
100
AcDbText
  0
TEXT
  5
38F2
330
1F
100
AcDbEntity
  8
WAKU
100
AcDbText
 10
30.0
 20
3720.000000000001
 30
0.0
 40
80.0
  1
勾配屋根／シングル
  7
MSゴシック
100
AcDbText
  0
TEXT
  5
38F3
330
1F
100
AcDbEntity
  8
WAKU
100
AcDbText
 10
30.0
 20
3600.000000000008
 30
0.0
 40
60.0
  1
特殊部位／雪止金具 割付
  7
MSゴシック
100
AcDbText
  0
TEXT
  5
38F4
330
1F
100
AcDbEntity
  8
WAKU
100
AcDbText
 10
5178.12182741117
 20
3600.000000000011
 30
0.0
 40
60.0
  1
1/20(A4)
  7
MSゴシック
 72
     2
 11
5490.000000000001
 21
3600.000000000011
 31
0.0
100
AcDbText
  0
LINE
  5
3C85
330
1F
100
AcDbEntity
  8
WAKU
100
AcDbLine
 10
960.0000000000004
 20
590.0000000000001
 30
0.0
 11
4560.000000000001
 21
590.0000000000001
 31
0.0
  0
LINE
  5
3C86
330
1F
100
AcDbEntity
  8
WAKU
100
AcDbLine
 10
4560.000000000001
 20
590.0000000000001
 30
0.0
 11
4560.000000000001
 21
2990.000000000001
 31
0.0
  0
LINE
  5
3C87
330
1F
100
AcDbEntity
  8
WAKU
100
AcDbLine
 10
4560.000000000001
 20
2990.000000000001
 30
0.0
 11
960.0000000000004
 21
2990.000000000001
 31
0.0
  0
LINE
  5
3C88
330
1F
100
AcDbEntity
  8
WAKU
100
AcDbLine
 10
960.0000000000004
 20
2990.000000000001
 30
0.0
 11
960.0000000000004
 21
590.0000000000001
 31
0.0
  0
LINE
  5
3C89
330
1F
100
AcDbEntity
  8
MOJI
100
AcDbLine
 10
2560.805208522528
 20
1842.260778068584
 30
0.0
 11
2560.805208522528
 21
810.4231158131101
 31
0.0
  0
LINE
  5
3C8A
330
1F
100
AcDbEntity
  8
MOJI
100
AcDbLine
 10
3018.305208522529
 20
1422.260778068584
 30
0.0
 11
3018.305208522529
 21
810.4231158131103
 31
0.0
  0
LINE
  5
3C8B
330
1F
100
AcDbEntity
  8
MOJI
100
AcDbLine
 10
2576.805208522528
 20
810.4231158131103
 30
0.0
 11
3002.305208522529
 21
810.4231158131103
 31
0.0
  0
INSERT
  5
3C8C
330
1F
100
AcDbEntity
  8
MOJI
100
AcDbBlockReference
  2
_DOT
 10
2560.805208522528
 20
810.4231158131103
 30
0.0
 41
16.0
 42
16.0
 43
16.0
 50
180.0
  0
INSERT
  5
3C8D
330
1F
100
AcDbEntity
  8
MOJI
100
AcDbBlockReference
  2
_DOT
 10
3018.305208522529
 20
810.4231158131103
 30
0.0
 41
16.0
 42
16.0
 43
16.0
  0
MTEXT
  5
3C8E
330
1F
100
AcDbEntity
  8
MOJI
100
AcDbMText
 10
2789.555208522529
 20
788.4231158131102
 30
0.0
 40
40.0
 41
0.0
 71
     5
 72
     1
  1
\A1;457.5
  7
MSゴシック
 73
     1
 44
1.0
1001
ACAD
1000
MTEXTBEGIN
1070
    73
1070
     1
1070
    44
1040
1.0
1070
    74
1070
     0
1000
MTEXTEND
  0
LINE
  5
3C8F
330
1F
100
AcDbEntity
  8
MOJI
100
AcDbLine
 10
2103.305208522529
 20
1422.260778068584
 30
0.0
 11
2103.305208522529
 21
810.4231158131103
 31
0.0
  0
LINE
  5
3C90
330
1F
100
AcDbEntity
  8
MOJI
100
AcDbLine
 10
2560.805208522528
 20
1842.260778068584
 30
0.0
 11
2560.805208522528
 21
810.4231158131101
 31
0.0
  0
LINE
  5
3C91
330
1F
100
AcDbEntity
  8
MOJI
100
AcDbLine
 10
2119.305208522529
 20
810.4231158131103
 30
0.0
 11
2544.805208522528
 21
810.4231158131103
 31
0.0
  0
INSERT
  5
3C92
330
1F
100
AcDbEntity
  8
MOJI
100
AcDbBlockReference
  2
_DOT
 10
2103.305208522529
 20
810.4231158131103
 30
0.0
 41
16.0
 42
16.0
 43
16.0
 50
180.0
  0
INSERT
  5
3C93
330
1F
100
AcDbEntity
  8
MOJI
100
AcDbBlockReference
  2
_DOT
 10
2560.805208522528
 20
810.4231158131103
 30
0.0
 41
16.0
 42
16.0
 43
16.0
  0
MTEXT
  5
3C94
330
1F
100
AcDbEntity
  8
MOJI
100
AcDbMText
 10
2332.055208522529
 20
788.4231158131102
 30
0.0
 40
40.0
 41
0.0
 71
     5
 72
     1
  1
\A1;457.5
  7
MSゴシック
 73
     1
 44
1.0
1001
ACAD
1000
MTEXTBEGIN
1070
    73
1070
     1
1070
    44
1040
1.0
1070
    74
1070
     0
1000
MTEXTEND
  0
LINE
  5
3C95
330
1F
100
AcDbEntity
  8
MOJI
100
AcDbLine
 10
1645.805208522528
 20
1842.260778068584
 30
0.0
 11
1645.805208522528
 21
810.4231158131101
 31
0.0
  0
LINE
  5
3C96
330
1F
100
AcDbEntity
  8
MOJI
100
AcDbLine
 10
2103.305208522529
 20
1422.260778068584
 30
0.0
 11
2103.305208522529
 21
810.4231158131103
 31
0.0
  0
LINE
  5
3C97
330
1F
100
AcDbEntity
  8
MOJI
100
AcDbLine
 10
1661.805208522528
 20
810.4231158131103
 30
0.0
 11
2087.305208522529
 21
810.4231158131103
 31
0.0
  0
INSERT
  5
3C98
330
1F
100
AcDbEntity
  8
MOJI
100
AcDbBlockReference
  2
_DOT
 10
1645.805208522528
 20
810.4231158131103
 30
0.0
 41
16.0
 42
16.0
 43
16.0
 50
180.0
  0
INSERT
  5
3C99
330
1F
100
AcDbEntity
  8
MOJI
100
AcDbBlockReference
  2
_DOT
 10
2103.305208522529
 20
810.4231158131103
 30
0.0
 41
16.0
 42
16.0
 43
16.0
  0
MTEXT
  5
3C9A
330
1F
100
AcDbEntity
  8
MOJI
100
AcDbMText
 10
1874.555208522528
 20
788.4231158131102
 30
0.0
 40
40.0
 41
0.0
 71
     5
 72
     1
  1
\A1;457.5
  7
MSゴシック
 73
     1
 44
1.0
1001
ACAD
1000
MTEXTBEGIN
1070
    73
1070
     1
1070
    44
1040
1.0
1070
    74
1070
     0
1000
MTEXTEND
  0
LINE
  5
3C9B
330
1F
100
AcDbEntity
  8
MOJI
100
AcDbLine
 10
1188.305208522528
 20
1422.260778068584
 30
0.0
 11
1188.305208522528
 21
810.4231158131103
 31
0.0
  0
LINE
  5
3C9C
330
1F
100
AcDbEntity
  8
MOJI
100
AcDbLine
 10
1645.805208522528
 20
1842.260778068584
 30
0.0
 11
1645.805208522528
 21
810.4231158131101
 31
0.0
  0
LINE
  5
3C9D
330
1F
100
AcDbEntity
  8
MOJI
100
AcDbLine
 10
1204.305208522528
 20
810.4231158131103
 30
0.0
 11
1629.805208522528
 21
810.4231158131103
 31
0.0
  0
INSERT
  5
3C9E
330
1F
100
AcDbEntity
  8
MOJI
100
AcDbBlockReference
  2
_DOT
 10
1188.305208522528
 20
810.4231158131103
 30
0.0
 41
16.0
 42
16.0
 43
16.0
 50
180.0
  0
INSERT
  5
3C9F
330
1F
100
AcDbEntity
  8
MOJI
100
AcDbBlockReference
  2
_DOT
 10
1645.805208522528
 20
810.4231158131103
 30
0.0
 41
16.0
 42
16.0
 43
16.0
  0
MTEXT
  5
3CA0
330
1F
100
AcDbEntity
  8
MOJI
100
AcDbMText
 10
1417.055208522528
 20
788.4231158131102
 30
0.0
 40
40.0
 41
0.0
 71
     5
 72
     1
  1
\A1;457.5
  7
MSゴシック
 73
     1
 44
1.0
1001
ACAD
1000
MTEXTBEGIN
1070
    73
1070
     1
1070
    44
1040
1.0
1070
    74
1070
     0
1000
MTEXTEND
  0
LINE
  5
3CA1
330
1F
100
AcDbEntity
  8
KANAMONO
100
AcDbLine
 10
1163.305208522529
 20
1432.260778068584
 30
0.0
 11
1163.305208522529
 21
1502.260778068584
 31
0.0
  0
LINE
  5
3CA2
330
1F
100
AcDbEntity
  8
KANAMONO
100
AcDbLine
 10
1163.305208522529
 20
1502.260778068584
 30
0.0
 11
1213.305208522529
 21
1502.260778068584
 31
0.0
  0
LINE
  5
3CA3
330
1F
100
AcDbEntity
  8
KANAMONO
100
AcDbLine
 10
1213.305208522529
 20
1502.260778068584
 30
0.0
 11
1213.305208522529
 21
1432.260778068584
 31
0.0
  0
LINE
  5
3CA4
330
1F
100
AcDbEntity
  8
KANAMONO
100
AcDbLine
 10
1213.305208522529
 20
1432.260778068584
 30
0.0
 11
1163.305208522529
 21
1432.260778068584
 31
0.0
  0
LINE
  5
3CA5
330
1F
100
AcDbEntity
  8
KANAMONO
100
AcDbLine
 10
2078.305208522529
 20
1432.260778068584
 30
0.0
 11
2078.305208522529
 21
1502.260778068584
 31
0.0
  0
LINE
  5
3CA6
330
1F
100
AcDbEntity
  8
KANAMONO
100
AcDbLine
 10
2078.305208522529
 20
1502.260778068584
 30
0.0
 11
2128.305208522529
 21
1502.260778068584
 31
0.0
  0
LINE
  5
3CA7
330
1F
100
AcDbEntity
  8
KANAMONO
100
AcDbLine
 10
2128.305208522529
 20
1502.260778068584
 30
0.0
 11
2128.305208522529
 21
1432.260778068584
 31
0.0
  0
LINE
  5
3CA8
330
1F
100
AcDbEntity
  8
KANAMONO
100
AcDbLine
 10
2128.305208522529
 20
1432.260778068584
 30
0.0
 11
2078.305208522529
 21
1432.260778068584
 31
0.0
  0
LINE
  5
3CA9
330
1F
100
AcDbEntity
  8
KANAMONO
100
AcDbLine
 10
1620.805208522528
 20
1852.260778068584
 30
0.0
 11
1620.805208522528
 21
1922.260778068584
 31
0.0
  0
LINE
  5
3CAA
330
1F
100
AcDbEntity
  8
KANAMONO
100
AcDbLine
 10
1620.805208522528
 20
1922.260778068584
 30
0.0
 11
1670.805208522528
 21
1922.260778068584
 31
0.0
  0
LINE
  5
3CAB
330
1F
100
AcDbEntity
  8
KANAMONO
100
AcDbLine
 10
1670.805208522528
 20
1922.260778068584
 30
0.0
 11
1670.805208522528
 21
1852.260778068584
 31
0.0
  0
LINE
  5
3CAC
330
1F
100
AcDbEntity
  8
KANAMONO
100
AcDbLine
 10
1670.805208522528
 20
1852.260778068584
 30
0.0
 11
1620.805208522528
 21
1852.260778068584
 31
0.0
  0
LINE
  5
3CAD
330
1F
100
AcDbEntity
  8
KANAMONO
100
AcDbLine
 10
2535.805208522528
 20
1852.260778068584
 30
0.0
 11
2535.805208522528
 21
1922.260778068584
 31
0.0
  0
LINE
  5
3CAE
330
1F
100
AcDbEntity
  8
KANAMONO
100
AcDbLine
 10
2535.805208522528
 20
1922.260778068584
 30
0.0
 11
2585.805208522528
 21
1922.260778068584
 31
0.0
  0
LINE
  5
3CAF
330
1F
100
AcDbEntity
  8
KANAMONO
100
AcDbLine
 10
2585.805208522528
 20
1922.260778068584
 30
0.0
 11
2585.805208522528
 21
1852.260778068584
 31
0.0
  0
LINE
  5
3CB0
330
1F
100
AcDbEntity
  8
KANAMONO
100
AcDbLine
 10
2585.805208522528
 20
1852.260778068584
 30
0.0
 11
2535.805208522528
 21
1852.260778068584
 31
0.0
  0
LINE
  5
3CB1
330
1F
100
AcDbEntity
  8
MOJI
100
AcDbLine
 10
4054.766094082992
 20
1502.260778068585
 30
0.0
 11
4191.275241107554
 21
1502.260778068585
 31
0.0
  0
LINE
  5
3CB2
330
1F
100
AcDbEntity
  8
MOJI
100
AcDbLine
 10
4054.766094082992
 20
1922.260778068585
 30
0.0
 11
4191.275241107554
 21
1922.260778068585
 31
0.0
  0
LINE
  5
3CB3
330
1F
100
AcDbEntity
  8
MOJI
100
AcDbLine
 10
4191.275241107554
 20
1518.260778068585
 30
0.0
 11
4191.275241107554
 21
1906.260778068585
 31
0.0
  0
INSERT
  5
3CB4
330
1F
100
AcDbEntity
  8
MOJI
100
AcDbBlockReference
  2
_DOT
 10
4191.275241107554
 20
1502.260778068585
 30
0.0
 41
16.0
 42
16.0
 43
16.0
 50
270.0
  0
INSERT
  5
3CB5
330
1F
100
AcDbEntity
  8
MOJI
100
AcDbBlockReference
  2
_DOT
 10
4191.275241107554
 20
1922.260778068585
 30
0.0
 41
16.0
 42
16.0
 43
16.0
 50
90.0
  0
MTEXT
  5
3CB6
330
1F
100
AcDbEntity
  8
MOJI
100
AcDbMText
 10
4213.275241107553
 20
1712.260778068583
 30
0.0
 40
40.0
 41
0.0
 71
     5
 72
     1
  1
\A1;420
  7
MSゴシック
 11
0.0000000000000001
 21
1.0
 31
0.0
 73
     1
 44
1.0
1001
ACAD
1000
MTEXTBEGIN
1070
    73
1070
     1
1070
    44
1040
1.0
1070
    74
1070
     0
1000
MTEXTEND
  0
LINE
  5
3CB7
330
1F
100
AcDbEntity
  8
MOJI
100
AcDbLine
 10
3018.305208522529
 20
1422.260778068584
 30
0.0
 11
3018.305208522529
 21
810.4231158131103
 31
0.0
  0
LINE
  5
3CB8
330
1F
100
AcDbEntity
  8
MOJI
100
AcDbLine
 10
3475.805208522528
 20
1842.260778068584
 30
0.0
 11
3475.805208522528
 21
810.4231158131101
 31
0.0
  0
LINE
  5
3CB9
330
1F
100
AcDbEntity
  8
MOJI
100
AcDbLine
 10
3034.305208522529
 20
810.4231158131103
 30
0.0
 11
3459.805208522528
 21
810.4231158131103
 31
0.0
  0
INSERT
  5
3CBA
330
1F
100
AcDbEntity
  8
MOJI
100
AcDbBlockReference
  2
_DOT
 10
3018.305208522529
 20
810.4231158131103
 30
0.0
 41
16.0
 42
16.0
 43
16.0
 50
180.0
  0
INSERT
  5
3CBB
330
1F
100
AcDbEntity
  8
MOJI
100
AcDbBlockReference
  2
_DOT
 10
3475.805208522528
 20
810.4231158131103
 30
0.0
 41
16.0
 42
16.0
 43
16.0
  0
MTEXT
  5
3CBC
330
1F
100
AcDbEntity
  8
MOJI
100
AcDbMText
 10
3247.055208522529
 20
788.4231158131102
 30
0.0
 40
40.0
 41
0.0
 71
     5
 72
     1
  1
\A1;457.5
  7
MSゴシック
 73
     1
 44
1.0
1001
ACAD
1000
MTEXTBEGIN
1070
    73
1070
     1
1070
    44
1040
1.0
1070
    74
1070
     0
1000
MTEXTEND
  0
LINE
  5
3CBD
330
1F
100
AcDbEntity
  8
KANAMONO
100
AcDbLine
 10
2993.305208522529
 20
1432.260778068584
 30
0.0
 11
2993.305208522529
 21
1502.260778068584
 31
0.0
  0
LINE
  5
3CBE
330
1F
100
AcDbEntity
  8
KANAMONO
100
AcDbLine
 10
2993.305208522529
 20
1502.260778068584
 30
0.0
 11
3043.305208522529
 21
1502.260778068584
 31
0.0
  0
LINE
  5
3CBF
330
1F
100
AcDbEntity
  8
KANAMONO
100
AcDbLine
 10
3043.305208522529
 20
1502.260778068584
 30
0.0
 11
3043.305208522529
 21
1432.260778068584
 31
0.0
  0
LINE
  5
3CC0
330
1F
100
AcDbEntity
  8
KANAMONO
100
AcDbLine
 10
3043.305208522529
 20
1432.260778068584
 30
0.0
 11
2993.305208522529
 21
1432.260778068584
 31
0.0
  0
LINE
  5
3CC1
330
1F
100
AcDbEntity
  8
KANAMONO
100
AcDbLine
 10
3450.805208522528
 20
1852.260778068584
 30
0.0
 11
3450.805208522528
 21
1922.260778068584
 31
0.0
  0
LINE
  5
3CC2
330
1F
100
AcDbEntity
  8
KANAMONO
100
AcDbLine
 10
3450.805208522528
 20
1922.260778068584
 30
0.0
 11
3500.805208522528
 21
1922.260778068584
 31
0.0
  0
LINE
  5
3CC3
330
1F
100
AcDbEntity
  8
KANAMONO
100
AcDbLine
 10
3500.805208522528
 20
1922.260778068584
 30
0.0
 11
3500.805208522528
 21
1852.260778068584
 31
0.0
  0
LINE
  5
3CC4
330
1F
100
AcDbEntity
  8
KANAMONO
100
AcDbLine
 10
3500.805208522528
 20
1852.260778068584
 30
0.0
 11
3450.805208522528
 21
1852.260778068584
 31
0.0
  0
LINE
  5
3CC5
330
1F
100
AcDbEntity
  8
single
100
AcDbLine
 10
1040.305208522529
 20
1082.260778068584
 30
0.0
 11
1040.305208522529
 21
942.2607780685845
 31
0.0
  0
LINE
  5
3CC6
330
1F
100
AcDbEntity
  8
single
100
AcDbLine
 10
1040.305208522529
 20
942.2607780685845
 30
0.0
 11
1336.305208522529
 21
942.2607780685845
 31
0.0
  0
LINE
  5
3CC7
330
1F
100
AcDbEntity
  8
single
100
AcDbLine
 10
1336.305208522529
 20
942.2607780685845
 30
0.0
 11
1336.305208522529
 21
1082.260778068584
 31
0.0
  0
LINE
  5
3CC8
330
1F
100
AcDbEntity
  8
single
100
AcDbLine
 10
960.0000000000004
 20
942.2607780685845
 30
0.0
 11
1031.305208522529
 21
942.2607780685845
 31
0.0
  0
LINE
  5
3CC9
330
1F
100
AcDbEntity
  8
single
100
AcDbLine
 10
1031.305208522529
 20
942.2607780685845
 30
0.0
 11
1031.305208522529
 21
1082.260778068584
 31
0.0
  0
LINE
  5
3CCA
330
1F
100
AcDbEntity
  8
single
100
AcDbLine
 10
1345.305208522528
 20
1082.260778068584
 30
0.0
 11
1345.305208522529
 21
942.2607780685845
 31
0.0
  0
LINE
  5
3CCB
330
1F
100
AcDbEntity
  8
single
100
AcDbLine
 10
1345.305208522529
 20
942.2607780685845
 30
0.0
 11
1641.305208522529
 21
942.2607780685845
 31
0.0
  0
LINE
  5
3CCC
330
1F
100
AcDbEntity
  8
single
100
AcDbLine
 10
1641.305208522529
 20
942.2607780685845
 30
0.0
 11
1641.305208522529
 21
1082.260778068584
 31
0.0
  0
LINE
  5
3CCD
330
1F
100
AcDbEntity
  8
single
100
AcDbLine
 10
1650.305208522529
 20
1082.260778068584
 30
0.0
 11
1650.305208522529
 21
942.2607780685845
 31
0.0
  0
LINE
  5
3CCE
330
1F
100
AcDbEntity
  8
single
100
AcDbLine
 10
1650.305208522529
 20
942.2607780685845
 30
0.0
 11
1946.305208522529
 21
942.2607780685845
 31
0.0
  0
LINE
  5
3CCF
330
1F
100
AcDbEntity
  8
single
100
AcDbLine
 10
1946.305208522529
 20
942.2607780685845
 30
0.0
 11
1946.305208522529
 21
1082.260778068584
 31
0.0
  0
LINE
  5
3CD0
330
1F
100
AcDbEntity
  8
single
100
AcDbLine
 10
1955.305208522529
 20
1082.260778068584
 30
0.0
 11
1955.305208522529
 21
942.2607780685845
 31
0.0
  0
LINE
  5
3CD1
330
1F
100
AcDbEntity
  8
single
100
AcDbLine
 10
1955.305208522529
 20
942.2607780685845
 30
0.0
 11
2251.305208522529
 21
942.2607780685845
 31
0.0
  0
LINE
  5
3CD2
330
1F
100
AcDbEntity
  8
single
100
AcDbLine
 10
2251.305208522529
 20
942.2607780685845
 30
0.0
 11
2251.305208522529
 21
1082.260778068584
 31
0.0
  0
LINE
  5
3CD3
330
1F
100
AcDbEntity
  8
single
100
AcDbLine
 10
2260.305208522529
 20
1082.260778068584
 30
0.0
 11
2260.305208522529
 21
942.2607780685845
 31
0.0
  0
LINE
  5
3CD4
330
1F
100
AcDbEntity
  8
single
100
AcDbLine
 10
2260.305208522529
 20
942.2607780685845
 30
0.0
 11
2556.305208522529
 21
942.2607780685845
 31
0.0
  0
LINE
  5
3CD5
330
1F
100
AcDbEntity
  8
single
100
AcDbLine
 10
2556.305208522529
 20
942.2607780685845
 30
0.0
 11
2556.305208522529
 21
1082.260778068584
 31
0.0
  0
LINE
  5
3CD6
330
1F
100
AcDbEntity
  8
single
100
AcDbLine
 10
2565.305208522529
 20
1082.260778068584
 30
0.0
 11
2565.305208522529
 21
942.2607780685845
 31
0.0
  0
LINE
  5
3CD7
330
1F
100
AcDbEntity
  8
single
100
AcDbLine
 10
2565.305208522529
 20
942.2607780685845
 30
0.0
 11
2861.305208522529
 21
942.2607780685845
 31
0.0
  0
LINE
  5
3CD8
330
1F
100
AcDbEntity
  8
single
100
AcDbLine
 10
2861.305208522529
 20
942.2607780685845
 30
0.0
 11
2861.305208522529
 21
1082.260778068584
 31
0.0
  0
LINE
  5
3CD9
330
1F
100
AcDbEntity
  8
single
100
AcDbLine
 10
2870.305208522529
 20
1082.260778068584
 30
0.0
 11
2870.305208522529
 21
942.2607780685845
 31
0.0
  0
LINE
  5
3CDA
330
1F
100
AcDbEntity
  8
single
100
AcDbLine
 10
2870.305208522529
 20
942.2607780685845
 30
0.0
 11
3166.305208522529
 21
942.2607780685845
 31
0.0
  0
LINE
  5
3CDB
330
1F
100
AcDbEntity
  8
single
100
AcDbLine
 10
3166.305208522529
 20
942.2607780685845
 30
0.0
 11
3166.305208522529
 21
1082.260778068584
 31
0.0
  0
LINE
  5
3CDC
330
1F
100
AcDbEntity
  8
single
100
AcDbLine
 10
3175.305208522529
 20
1082.260778068584
 30
0.0
 11
3175.305208522529
 21
942.2607780685845
 31
0.0
  0
LINE
  5
3CDD
330
1F
100
AcDbEntity
  8
single
100
AcDbLine
 10
3175.305208522529
 20
942.2607780685845
 30
0.0
 11
3471.305208522529
 21
942.2607780685845
 31
0.0
  0
LINE
  5
3CDE
330
1F
100
AcDbEntity
  8
single
100
AcDbLine
 10
3471.305208522529
 20
942.2607780685845
 30
0.0
 11
3471.305208522529
 21
1082.260778068584
 31
0.0
  0
LINE
  5
3CDF
330
1F
100
AcDbEntity
  8
single
100
AcDbLine
 10
3480.305208522529
 20
1082.260778068584
 30
0.0
 11
3480.305208522529
 21
942.2607780685845
 31
0.0
  0
LINE
  5
3CE0
330
1F
100
AcDbEntity
  8
single
100
AcDbLine
 10
3480.305208522529
 20
942.2607780685845
 30
0.0
 11
3776.305208522529
 21
942.2607780685845
 31
0.0
  0
LINE
  5
3CE1
330
1F
100
AcDbEntity
  8
single
100
AcDbLine
 10
3776.305208522529
 20
942.2607780685845
 30
0.0
 11
3776.305208522529
 21
1082.260778068584
 31
0.0
  0
LINE
  5
3CE2
330
1F
100
AcDbEntity
  8
single
100
AcDbLine
 10
3785.30520852253
 20
1082.260778068584
 30
0.0
 11
3785.30520852253
 21
942.2607780685845
 31
0.0
  0
LINE
  5
3CE3
330
1F
100
AcDbEntity
  8
single
100
AcDbLine
 10
3785.30520852253
 20
942.2607780685845
 30
0.0
 11
4044.76609408299
 21
942.2607780685845
 31
0.0
  0
LINE
  5
3CE4
330
1F
100
AcDbEntity
  8
single
100
AcDbLine
 10
1192.805208522528
 20
1222.260778068584
 30
0.0
 11
1192.805208522529
 21
1082.260778068584
 31
0.0
  0
LINE
  5
3CE5
330
1F
100
AcDbEntity
  8
single
100
AcDbLine
 10
1192.805208522529
 20
1082.260778068584
 30
0.0
 11
1488.805208522529
 21
1082.260778068584
 31
0.0
  0
LINE
  5
3CE6
330
1F
100
AcDbEntity
  8
single
100
AcDbLine
 10
1488.805208522529
 20
1082.260778068584
 30
0.0
 11
1488.805208522529
 21
1222.260778068584
 31
0.0
  0
LINE
  5
3CE7
330
1F
100
AcDbEntity
  8
single
100
AcDbLine
 10
960.0000000000004
 20
1082.260778068584
 30
0.0
 11
1183.805208522529
 21
1082.260778068584
 31
0.0
  0
LINE
  5
3CE8
330
1F
100
AcDbEntity
  8
single
100
AcDbLine
 10
1183.805208522529
 20
1082.260778068584
 30
0.0
 11
1183.805208522529
 21
1222.260778068584
 31
0.0
  0
LINE
  5
3CE9
330
1F
100
AcDbEntity
  8
single
100
AcDbLine
 10
1497.805208522529
 20
1222.260778068584
 30
0.0
 11
1497.805208522529
 21
1082.260778068584
 31
0.0
  0
LINE
  5
3CEA
330
1F
100
AcDbEntity
  8
single
100
AcDbLine
 10
1497.805208522529
 20
1082.260778068584
 30
0.0
 11
1793.805208522529
 21
1082.260778068584
 31
0.0
  0
LINE
  5
3CEB
330
1F
100
AcDbEntity
  8
single
100
AcDbLine
 10
1793.805208522529
 20
1082.260778068584
 30
0.0
 11
1793.805208522529
 21
1222.260778068584
 31
0.0
  0
LINE
  5
3CEC
330
1F
100
AcDbEntity
  8
single
100
AcDbLine
 10
1802.805208522529
 20
1222.260778068584
 30
0.0
 11
1802.805208522529
 21
1082.260778068584
 31
0.0
  0
LINE
  5
3CED
330
1F
100
AcDbEntity
  8
single
100
AcDbLine
 10
1802.805208522529
 20
1082.260778068584
 30
0.0
 11
2098.805208522529
 21
1082.260778068584
 31
0.0
  0
LINE
  5
3CEE
330
1F
100
AcDbEntity
  8
single
100
AcDbLine
 10
2098.805208522529
 20
1082.260778068584
 30
0.0
 11
2098.805208522529
 21
1222.260778068584
 31
0.0
  0
LINE
  5
3CEF
330
1F
100
AcDbEntity
  8
single
100
AcDbLine
 10
2107.805208522529
 20
1222.260778068584
 30
0.0
 11
2107.805208522529
 21
1082.260778068584
 31
0.0
  0
LINE
  5
3CF0
330
1F
100
AcDbEntity
  8
single
100
AcDbLine
 10
2107.805208522529
 20
1082.260778068584
 30
0.0
 11
2403.805208522529
 21
1082.260778068584
 31
0.0
  0
LINE
  5
3CF1
330
1F
100
AcDbEntity
  8
single
100
AcDbLine
 10
2403.805208522529
 20
1082.260778068584
 30
0.0
 11
2403.805208522529
 21
1222.260778068584
 31
0.0
  0
LINE
  5
3CF2
330
1F
100
AcDbEntity
  8
single
100
AcDbLine
 10
2412.805208522529
 20
1222.260778068584
 30
0.0
 11
2412.805208522529
 21
1082.260778068584
 31
0.0
  0
LINE
  5
3CF3
330
1F
100
AcDbEntity
  8
single
100
AcDbLine
 10
2412.805208522529
 20
1082.260778068584
 30
0.0
 11
2708.805208522529
 21
1082.260778068584
 31
0.0
  0
LINE
  5
3CF4
330
1F
100
AcDbEntity
  8
single
100
AcDbLine
 10
2708.805208522529
 20
1082.260778068584
 30
0.0
 11
2708.805208522529
 21
1222.260778068584
 31
0.0
  0
LINE
  5
3CF5
330
1F
100
AcDbEntity
  8
single
100
AcDbLine
 10
2717.805208522529
 20
1222.260778068584
 30
0.0
 11
2717.805208522529
 21
1082.260778068584
 31
0.0
  0
LINE
  5
3CF6
330
1F
100
AcDbEntity
  8
single
100
AcDbLine
 10
2717.805208522529
 20
1082.260778068584
 30
0.0
 11
3013.805208522529
 21
1082.260778068584
 31
0.0
  0
LINE
  5
3CF7
330
1F
100
AcDbEntity
  8
single
100
AcDbLine
 10
3013.805208522529
 20
1082.260778068584
 30
0.0
 11
3013.805208522529
 21
1222.260778068584
 31
0.0
  0
LINE
  5
3CF8
330
1F
100
AcDbEntity
  8
single
100
AcDbLine
 10
3022.805208522529
 20
1222.260778068584
 30
0.0
 11
3022.805208522529
 21
1082.260778068584
 31
0.0
  0
LINE
  5
3CF9
330
1F
100
AcDbEntity
  8
single
100
AcDbLine
 10
3022.805208522529
 20
1082.260778068584
 30
0.0
 11
3318.80520852253
 21
1082.260778068584
 31
0.0
  0
LINE
  5
3CFA
330
1F
100
AcDbEntity
  8
single
100
AcDbLine
 10
3318.80520852253
 20
1082.260778068584
 30
0.0
 11
3318.80520852253
 21
1222.260778068584
 31
0.0
  0
LINE
  5
3CFB
330
1F
100
AcDbEntity
  8
single
100
AcDbLine
 10
3327.805208522529
 20
1222.260778068584
 30
0.0
 11
3327.805208522529
 21
1082.260778068584
 31
0.0
  0
LINE
  5
3CFC
330
1F
100
AcDbEntity
  8
single
100
AcDbLine
 10
3327.805208522529
 20
1082.260778068584
 30
0.0
 11
3623.805208522529
 21
1082.260778068584
 31
0.0
  0
LINE
  5
3CFD
330
1F
100
AcDbEntity
  8
single
100
AcDbLine
 10
3623.805208522529
 20
1082.260778068584
 30
0.0
 11
3623.805208522529
 21
1222.260778068584
 31
0.0
  0
LINE
  5
3CFE
330
1F
100
AcDbEntity
  8
single
100
AcDbLine
 10
3632.805208522529
 20
1222.260778068584
 30
0.0
 11
3632.805208522529
 21
1082.260778068584
 31
0.0
  0
LINE
  5
3CFF
330
1F
100
AcDbEntity
  8
single
100
AcDbLine
 10
3632.805208522529
 20
1082.260778068584
 30
0.0
 11
3928.805208522529
 21
1082.260778068584
 31
0.0
  0
LINE
  5
3D00
330
1F
100
AcDbEntity
  8
single
100
AcDbLine
 10
3928.805208522529
 20
1082.260778068584
 30
0.0
 11
3928.805208522529
 21
1222.260778068584
 31
0.0
  0
LINE
  5
3D01
330
1F
100
AcDbEntity
  8
single
100
AcDbLine
 10
3937.805208522529
 20
1222.260778068584
 30
0.0
 11
3937.805208522529
 21
1082.260778068584
 31
0.0
  0
LINE
  5
3D02
330
1F
100
AcDbEntity
  8
single
100
AcDbLine
 10
3937.805208522529
 20
1082.260778068584
 30
0.0
 11
4044.76609408299
 21
1082.260778068584
 31
0.0
  0
LINE
  5
3D03
330
1F
100
AcDbEntity
  8
single
100
AcDbLine
 10
1040.305208522529
 20
1362.260778068584
 30
0.0
 11
1040.305208522529
 21
1222.260778068584
 31
0.0
  0
LINE
  5
3D04
330
1F
100
AcDbEntity
  8
single
100
AcDbLine
 10
1040.305208522529
 20
1222.260778068584
 30
0.0
 11
1336.305208522529
 21
1222.260778068584
 31
0.0
  0
LINE
  5
3D05
330
1F
100
AcDbEntity
  8
single
100
AcDbLine
 10
1336.305208522529
 20
1222.260778068584
 30
0.0
 11
1336.305208522529
 21
1362.260778068584
 31
0.0
  0
LINE
  5
3D06
330
1F
100
AcDbEntity
  8
single
100
AcDbLine
 10
960.0000000000004
 20
1222.260778068584
 30
0.0
 11
1031.305208522529
 21
1222.260778068584
 31
0.0
  0
LINE
  5
3D07
330
1F
100
AcDbEntity
  8
single
100
AcDbLine
 10
1031.305208522529
 20
1222.260778068584
 30
0.0
 11
1031.305208522529
 21
1362.260778068584
 31
0.0
  0
LINE
  5
3D08
330
1F
100
AcDbEntity
  8
single
100
AcDbLine
 10
1345.305208522528
 20
1362.260778068584
 30
0.0
 11
1345.305208522529
 21
1222.260778068584
 31
0.0
  0
LINE
  5
3D09
330
1F
100
AcDbEntity
  8
single
100
AcDbLine
 10
1345.305208522529
 20
1222.260778068584
 30
0.0
 11
1641.305208522529
 21
1222.260778068584
 31
0.0
  0
LINE
  5
3D0A
330
1F
100
AcDbEntity
  8
single
100
AcDbLine
 10
1641.305208522529
 20
1222.260778068584
 30
0.0
 11
1641.305208522529
 21
1362.260778068584
 31
0.0
  0
LINE
  5
3D0B
330
1F
100
AcDbEntity
  8
single
100
AcDbLine
 10
1650.305208522529
 20
1362.260778068584
 30
0.0
 11
1650.305208522529
 21
1222.260778068584
 31
0.0
  0
LINE
  5
3D0C
330
1F
100
AcDbEntity
  8
single
100
AcDbLine
 10
1650.305208522529
 20
1222.260778068584
 30
0.0
 11
1946.305208522529
 21
1222.260778068584
 31
0.0
  0
LINE
  5
3D0D
330
1F
100
AcDbEntity
  8
single
100
AcDbLine
 10
1946.305208522529
 20
1222.260778068584
 30
0.0
 11
1946.305208522529
 21
1362.260778068584
 31
0.0
  0
LINE
  5
3D0E
330
1F
100
AcDbEntity
  8
single
100
AcDbLine
 10
1955.305208522529
 20
1362.260778068584
 30
0.0
 11
1955.305208522529
 21
1222.260778068584
 31
0.0
  0
LINE
  5
3D0F
330
1F
100
AcDbEntity
  8
single
100
AcDbLine
 10
1955.305208522529
 20
1222.260778068584
 30
0.0
 11
2251.305208522529
 21
1222.260778068584
 31
0.0
  0
LINE
  5
3D10
330
1F
100
AcDbEntity
  8
single
100
AcDbLine
 10
2251.305208522529
 20
1222.260778068584
 30
0.0
 11
2251.305208522529
 21
1362.260778068584
 31
0.0
  0
LINE
  5
3D11
330
1F
100
AcDbEntity
  8
single
100
AcDbLine
 10
2260.305208522529
 20
1362.260778068584
 30
0.0
 11
2260.305208522529
 21
1222.260778068584
 31
0.0
  0
LINE
  5
3D12
330
1F
100
AcDbEntity
  8
single
100
AcDbLine
 10
2260.305208522529
 20
1222.260778068584
 30
0.0
 11
2556.305208522529
 21
1222.260778068584
 31
0.0
  0
LINE
  5
3D13
330
1F
100
AcDbEntity
  8
single
100
AcDbLine
 10
2556.305208522529
 20
1222.260778068584
 30
0.0
 11
2556.305208522529
 21
1362.260778068584
 31
0.0
  0
LINE
  5
3D14
330
1F
100
AcDbEntity
  8
single
100
AcDbLine
 10
2565.305208522529
 20
1362.260778068584
 30
0.0
 11
2565.305208522529
 21
1222.260778068584
 31
0.0
  0
LINE
  5
3D15
330
1F
100
AcDbEntity
  8
single
100
AcDbLine
 10
2565.305208522529
 20
1222.260778068584
 30
0.0
 11
2861.305208522529
 21
1222.260778068584
 31
0.0
  0
LINE
  5
3D16
330
1F
100
AcDbEntity
  8
single
100
AcDbLine
 10
2861.305208522529
 20
1222.260778068584
 30
0.0
 11
2861.305208522529
 21
1362.260778068584
 31
0.0
  0
LINE
  5
3D17
330
1F
100
AcDbEntity
  8
single
100
AcDbLine
 10
2870.305208522529
 20
1362.260778068584
 30
0.0
 11
2870.305208522529
 21
1222.260778068584
 31
0.0
  0
LINE
  5
3D18
330
1F
100
AcDbEntity
  8
single
100
AcDbLine
 10
2870.305208522529
 20
1222.260778068584
 30
0.0
 11
3166.305208522529
 21
1222.260778068584
 31
0.0
  0
LINE
  5
3D19
330
1F
100
AcDbEntity
  8
single
100
AcDbLine
 10
3166.305208522529
 20
1222.260778068584
 30
0.0
 11
3166.305208522529
 21
1362.260778068584
 31
0.0
  0
LINE
  5
3D1A
330
1F
100
AcDbEntity
  8
single
100
AcDbLine
 10
3175.305208522529
 20
1362.260778068584
 30
0.0
 11
3175.305208522529
 21
1222.260778068584
 31
0.0
  0
LINE
  5
3D1B
330
1F
100
AcDbEntity
  8
single
100
AcDbLine
 10
3175.305208522529
 20
1222.260778068584
 30
0.0
 11
3471.305208522529
 21
1222.260778068584
 31
0.0
  0
LINE
  5
3D1C
330
1F
100
AcDbEntity
  8
single
100
AcDbLine
 10
3471.305208522529
 20
1222.260778068584
 30
0.0
 11
3471.305208522529
 21
1362.260778068584
 31
0.0
  0
LINE
  5
3D1D
330
1F
100
AcDbEntity
  8
single
100
AcDbLine
 10
3480.305208522529
 20
1362.260778068584
 30
0.0
 11
3480.305208522529
 21
1222.260778068584
 31
0.0
  0
LINE
  5
3D1E
330
1F
100
AcDbEntity
  8
single
100
AcDbLine
 10
3480.305208522529
 20
1222.260778068584
 30
0.0
 11
3776.305208522529
 21
1222.260778068584
 31
0.0
  0
LINE
  5
3D1F
330
1F
100
AcDbEntity
  8
single
100
AcDbLine
 10
3776.305208522529
 20
1222.260778068584
 30
0.0
 11
3776.305208522529
 21
1362.260778068584
 31
0.0
  0
LINE
  5
3D20
330
1F
100
AcDbEntity
  8
single
100
AcDbLine
 10
3785.30520852253
 20
1362.260778068584
 30
0.0
 11
3785.30520852253
 21
1222.260778068584
 31
0.0
  0
LINE
  5
3D21
330
1F
100
AcDbEntity
  8
single
100
AcDbLine
 10
3785.30520852253
 20
1222.260778068584
 30
0.0
 11
4044.76609408299
 21
1222.260778068584
 31
0.0
  0
LINE
  5
3D22
330
1F
100
AcDbEntity
  8
single
100
AcDbLine
 10
1192.805208522528
 20
1502.260778068584
 30
0.0
 11
1192.805208522529
 21
1362.260778068584
 31
0.0
  0
LINE
  5
3D23
330
1F
100
AcDbEntity
  8
single
100
AcDbLine
 10
1192.805208522529
 20
1362.260778068584
 30
0.0
 11
1488.805208522529
 21
1362.260778068584
 31
0.0
  0
LINE
  5
3D24
330
1F
100
AcDbEntity
  8
single
100
AcDbLine
 10
1488.805208522529
 20
1362.260778068584
 30
0.0
 11
1488.805208522529
 21
1502.260778068584
 31
0.0
  0
LINE
  5
3D25
330
1F
100
AcDbEntity
  8
single
100
AcDbLine
 10
960.0000000000004
 20
1362.260778068584
 30
0.0
 11
1183.805208522529
 21
1362.260778068584
 31
0.0
  0
LINE
  5
3D26
330
1F
100
AcDbEntity
  8
single
100
AcDbLine
 10
1183.805208522529
 20
1362.260778068584
 30
0.0
 11
1183.805208522529
 21
1502.260778068584
 31
0.0
  0
LINE
  5
3D27
330
1F
100
AcDbEntity
  8
single
100
AcDbLine
 10
1497.805208522529
 20
1502.260778068584
 30
0.0
 11
1497.805208522529
 21
1362.260778068584
 31
0.0
  0
LINE
  5
3D28
330
1F
100
AcDbEntity
  8
single
100
AcDbLine
 10
1497.805208522529
 20
1362.260778068584
 30
0.0
 11
1793.805208522529
 21
1362.260778068584
 31
0.0
  0
LINE
  5
3D29
330
1F
100
AcDbEntity
  8
single
100
AcDbLine
 10
1793.805208522529
 20
1362.260778068584
 30
0.0
 11
1793.805208522529
 21
1502.260778068584
 31
0.0
  0
LINE
  5
3D2A
330
1F
100
AcDbEntity
  8
single
100
AcDbLine
 10
1802.805208522529
 20
1502.260778068584
 30
0.0
 11
1802.805208522529
 21
1362.260778068584
 31
0.0
  0
LINE
  5
3D2B
330
1F
100
AcDbEntity
  8
single
100
AcDbLine
 10
1802.805208522529
 20
1362.260778068584
 30
0.0
 11
2098.805208522529
 21
1362.260778068584
 31
0.0
  0
LINE
  5
3D2C
330
1F
100
AcDbEntity
  8
single
100
AcDbLine
 10
2098.805208522529
 20
1362.260778068584
 30
0.0
 11
2098.805208522529
 21
1502.260778068584
 31
0.0
  0
LINE
  5
3D2D
330
1F
100
AcDbEntity
  8
single
100
AcDbLine
 10
2107.805208522529
 20
1502.260778068584
 30
0.0
 11
2107.805208522529
 21
1362.260778068584
 31
0.0
  0
LINE
  5
3D2E
330
1F
100
AcDbEntity
  8
single
100
AcDbLine
 10
2107.805208522529
 20
1362.260778068584
 30
0.0
 11
2403.805208522529
 21
1362.260778068584
 31
0.0
  0
LINE
  5
3D2F
330
1F
100
AcDbEntity
  8
single
100
AcDbLine
 10
2403.805208522529
 20
1362.260778068584
 30
0.0
 11
2403.805208522529
 21
1502.260778068584
 31
0.0
  0
LINE
  5
3D30
330
1F
100
AcDbEntity
  8
single
100
AcDbLine
 10
2412.805208522529
 20
1502.260778068584
 30
0.0
 11
2412.805208522529
 21
1362.260778068584
 31
0.0
  0
LINE
  5
3D31
330
1F
100
AcDbEntity
  8
single
100
AcDbLine
 10
2412.805208522529
 20
1362.260778068584
 30
0.0
 11
2708.805208522529
 21
1362.260778068584
 31
0.0
  0
LINE
  5
3D32
330
1F
100
AcDbEntity
  8
single
100
AcDbLine
 10
2708.805208522529
 20
1362.260778068584
 30
0.0
 11
2708.805208522529
 21
1502.260778068584
 31
0.0
  0
LINE
  5
3D33
330
1F
100
AcDbEntity
  8
single
100
AcDbLine
 10
2717.805208522529
 20
1502.260778068584
 30
0.0
 11
2717.805208522529
 21
1362.260778068584
 31
0.0
  0
LINE
  5
3D34
330
1F
100
AcDbEntity
  8
single
100
AcDbLine
 10
2717.805208522529
 20
1362.260778068584
 30
0.0
 11
3013.805208522529
 21
1362.260778068584
 31
0.0
  0
LINE
  5
3D35
330
1F
100
AcDbEntity
  8
single
100
AcDbLine
 10
3013.805208522529
 20
1362.260778068584
 30
0.0
 11
3013.805208522529
 21
1502.260778068584
 31
0.0
  0
LINE
  5
3D36
330
1F
100
AcDbEntity
  8
single
100
AcDbLine
 10
3022.805208522529
 20
1502.260778068584
 30
0.0
 11
3022.805208522529
 21
1362.260778068584
 31
0.0
  0
LINE
  5
3D37
330
1F
100
AcDbEntity
  8
single
100
AcDbLine
 10
3022.805208522529
 20
1362.260778068584
 30
0.0
 11
3318.80520852253
 21
1362.260778068584
 31
0.0
  0
LINE
  5
3D38
330
1F
100
AcDbEntity
  8
single
100
AcDbLine
 10
3318.80520852253
 20
1362.260778068584
 30
0.0
 11
3318.80520852253
 21
1502.260778068584
 31
0.0
  0
LINE
  5
3D39
330
1F
100
AcDbEntity
  8
single
100
AcDbLine
 10
3327.805208522529
 20
1502.260778068584
 30
0.0
 11
3327.805208522529
 21
1362.260778068584
 31
0.0
  0
LINE
  5
3D3A
330
1F
100
AcDbEntity
  8
single
100
AcDbLine
 10
3327.805208522529
 20
1362.260778068584
 30
0.0
 11
3623.805208522529
 21
1362.260778068584
 31
0.0
  0
LINE
  5
3D3B
330
1F
100
AcDbEntity
  8
single
100
AcDbLine
 10
3623.805208522529
 20
1362.260778068584
 30
0.0
 11
3623.805208522529
 21
1502.260778068584
 31
0.0
  0
LINE
  5
3D3C
330
1F
100
AcDbEntity
  8
single
100
AcDbLine
 10
3632.805208522529
 20
1502.260778068584
 30
0.0
 11
3632.805208522529
 21
1362.260778068584
 31
0.0
  0
LINE
  5
3D3D
330
1F
100
AcDbEntity
  8
single
100
AcDbLine
 10
3632.805208522529
 20
1362.260778068584
 30
0.0
 11
3928.805208522529
 21
1362.260778068584
 31
0.0
  0
LINE
  5
3D3E
330
1F
100
AcDbEntity
  8
single
100
AcDbLine
 10
3928.805208522529
 20
1362.260778068584
 30
0.0
 11
3928.805208522529
 21
1502.260778068584
 31
0.0
  0
LINE
  5
3D3F
330
1F
100
AcDbEntity
  8
single
100
AcDbLine
 10
3937.805208522529
 20
1502.260778068584
 30
0.0
 11
3937.805208522529
 21
1362.260778068584
 31
0.0
  0
LINE
  5
3D40
330
1F
100
AcDbEntity
  8
single
100
AcDbLine
 10
3937.805208522529
 20
1362.260778068584
 30
0.0
 11
4044.76609408299
 21
1362.260778068584
 31
0.0
  0
LINE
  5
3D41
330
1F
100
AcDbEntity
  8
single
100
AcDbLine
 10
1040.305208522529
 20
1642.260778068584
 30
0.0
 11
1040.305208522529
 21
1502.260778068584
 31
0.0
  0
LINE
  5
3D42
330
1F
100
AcDbEntity
  8
single
100
AcDbLine
 10
1040.305208522529
 20
1502.260778068584
 30
0.0
 11
1336.305208522529
 21
1502.260778068584
 31
0.0
  0
LINE
  5
3D43
330
1F
100
AcDbEntity
  8
single
100
AcDbLine
 10
1336.305208522529
 20
1502.260778068584
 30
0.0
 11
1336.305208522529
 21
1642.260778068584
 31
0.0
  0
LINE
  5
3D44
330
1F
100
AcDbEntity
  8
single
100
AcDbLine
 10
960.0000000000004
 20
1502.260778068584
 30
0.0
 11
1031.305208522529
 21
1502.260778068584
 31
0.0
  0
LINE
  5
3D45
330
1F
100
AcDbEntity
  8
single
100
AcDbLine
 10
1031.305208522529
 20
1502.260778068584
 30
0.0
 11
1031.305208522529
 21
1642.260778068584
 31
0.0
  0
LINE
  5
3D46
330
1F
100
AcDbEntity
  8
single
100
AcDbLine
 10
1345.305208522528
 20
1642.260778068584
 30
0.0
 11
1345.305208522529
 21
1502.260778068584
 31
0.0
  0
LINE
  5
3D47
330
1F
100
AcDbEntity
  8
single
100
AcDbLine
 10
1345.305208522529
 20
1502.260778068584
 30
0.0
 11
1641.305208522529
 21
1502.260778068584
 31
0.0
  0
LINE
  5
3D48
330
1F
100
AcDbEntity
  8
single
100
AcDbLine
 10
1641.305208522529
 20
1502.260778068584
 30
0.0
 11
1641.305208522529
 21
1642.260778068584
 31
0.0
  0
LINE
  5
3D49
330
1F
100
AcDbEntity
  8
single
100
AcDbLine
 10
1650.305208522529
 20
1642.260778068584
 30
0.0
 11
1650.305208522529
 21
1502.260778068584
 31
0.0
  0
LINE
  5
3D4A
330
1F
100
AcDbEntity
  8
single
100
AcDbLine
 10
1650.305208522529
 20
1502.260778068584
 30
0.0
 11
1946.305208522529
 21
1502.260778068584
 31
0.0
  0
LINE
  5
3D4B
330
1F
100
AcDbEntity
  8
single
100
AcDbLine
 10
1946.305208522529
 20
1502.260778068584
 30
0.0
 11
1946.305208522529
 21
1642.260778068584
 31
0.0
  0
LINE
  5
3D4C
330
1F
100
AcDbEntity
  8
single
100
AcDbLine
 10
1955.305208522529
 20
1642.260778068584
 30
0.0
 11
1955.305208522529
 21
1502.260778068584
 31
0.0
  0
LINE
  5
3D4D
330
1F
100
AcDbEntity
  8
single
100
AcDbLine
 10
1955.305208522529
 20
1502.260778068584
 30
0.0
 11
2251.305208522529
 21
1502.260778068584
 31
0.0
  0
LINE
  5
3D4E
330
1F
100
AcDbEntity
  8
single
100
AcDbLine
 10
2251.305208522529
 20
1502.260778068584
 30
0.0
 11
2251.305208522529
 21
1642.260778068584
 31
0.0
  0
LINE
  5
3D4F
330
1F
100
AcDbEntity
  8
single
100
AcDbLine
 10
2260.305208522529
 20
1642.260778068584
 30
0.0
 11
2260.305208522529
 21
1502.260778068584
 31
0.0
  0
LINE
  5
3D50
330
1F
100
AcDbEntity
  8
single
100
AcDbLine
 10
2260.305208522529
 20
1502.260778068584
 30
0.0
 11
2556.305208522529
 21
1502.260778068584
 31
0.0
  0
LINE
  5
3D51
330
1F
100
AcDbEntity
  8
single
100
AcDbLine
 10
2556.305208522529
 20
1502.260778068584
 30
0.0
 11
2556.305208522529
 21
1642.260778068584
 31
0.0
  0
LINE
  5
3D52
330
1F
100
AcDbEntity
  8
single
100
AcDbLine
 10
2565.305208522529
 20
1642.260778068584
 30
0.0
 11
2565.305208522529
 21
1502.260778068584
 31
0.0
  0
LINE
  5
3D53
330
1F
100
AcDbEntity
  8
single
100
AcDbLine
 10
2565.305208522529
 20
1502.260778068584
 30
0.0
 11
2861.305208522529
 21
1502.260778068584
 31
0.0
  0
LINE
  5
3D54
330
1F
100
AcDbEntity
  8
single
100
AcDbLine
 10
2861.305208522529
 20
1502.260778068584
 30
0.0
 11
2861.305208522529
 21
1642.260778068584
 31
0.0
  0
LINE
  5
3D55
330
1F
100
AcDbEntity
  8
single
100
AcDbLine
 10
2870.305208522529
 20
1642.260778068584
 30
0.0
 11
2870.305208522529
 21
1502.260778068584
 31
0.0
  0
LINE
  5
3D56
330
1F
100
AcDbEntity
  8
single
100
AcDbLine
 10
2870.305208522529
 20
1502.260778068584
 30
0.0
 11
3166.305208522529
 21
1502.260778068584
 31
0.0
  0
LINE
  5
3D57
330
1F
100
AcDbEntity
  8
single
100
AcDbLine
 10
3166.305208522529
 20
1502.260778068584
 30
0.0
 11
3166.305208522529
 21
1642.260778068584
 31
0.0
  0
LINE
  5
3D58
330
1F
100
AcDbEntity
  8
single
100
AcDbLine
 10
3175.305208522529
 20
1642.260778068584
 30
0.0
 11
3175.305208522529
 21
1502.260778068584
 31
0.0
  0
LINE
  5
3D59
330
1F
100
AcDbEntity
  8
single
100
AcDbLine
 10
3175.305208522529
 20
1502.260778068584
 30
0.0
 11
3471.305208522529
 21
1502.260778068584
 31
0.0
  0
LINE
  5
3D5A
330
1F
100
AcDbEntity
  8
single
100
AcDbLine
 10
3471.305208522529
 20
1502.260778068584
 30
0.0
 11
3471.305208522529
 21
1642.260778068584
 31
0.0
  0
LINE
  5
3D5B
330
1F
100
AcDbEntity
  8
single
100
AcDbLine
 10
3480.305208522529
 20
1642.260778068584
 30
0.0
 11
3480.305208522529
 21
1502.260778068584
 31
0.0
  0
LINE
  5
3D5C
330
1F
100
AcDbEntity
  8
single
100
AcDbLine
 10
3480.305208522529
 20
1502.260778068584
 30
0.0
 11
3776.305208522529
 21
1502.260778068584
 31
0.0
  0
LINE
  5
3D5D
330
1F
100
AcDbEntity
  8
single
100
AcDbLine
 10
3776.305208522529
 20
1502.260778068584
 30
0.0
 11
3776.305208522529
 21
1642.260778068584
 31
0.0
  0
LINE
  5
3D5E
330
1F
100
AcDbEntity
  8
single
100
AcDbLine
 10
3785.30520852253
 20
1642.260778068584
 30
0.0
 11
3785.30520852253
 21
1502.260778068584
 31
0.0
  0
LINE
  5
3D5F
330
1F
100
AcDbEntity
  8
single
100
AcDbLine
 10
3785.30520852253
 20
1502.260778068584
 30
0.0
 11
4044.76609408299
 21
1502.260778068584
 31
0.0
  0
LINE
  5
3D60
330
1F
100
AcDbEntity
  8
single
100
AcDbLine
 10
1192.805208522528
 20
1782.260778068584
 30
0.0
 11
1192.805208522529
 21
1642.260778068584
 31
0.0
  0
LINE
  5
3D61
330
1F
100
AcDbEntity
  8
single
100
AcDbLine
 10
1192.805208522529
 20
1642.260778068584
 30
0.0
 11
1488.805208522529
 21
1642.260778068584
 31
0.0
  0
LINE
  5
3D62
330
1F
100
AcDbEntity
  8
single
100
AcDbLine
 10
1488.805208522529
 20
1642.260778068584
 30
0.0
 11
1488.805208522529
 21
1782.260778068584
 31
0.0
  0
LINE
  5
3D63
330
1F
100
AcDbEntity
  8
single
100
AcDbLine
 10
960.0000000000004
 20
1642.260778068584
 30
0.0
 11
1183.805208522529
 21
1642.260778068584
 31
0.0
  0
LINE
  5
3D64
330
1F
100
AcDbEntity
  8
single
100
AcDbLine
 10
1183.805208522529
 20
1642.260778068584
 30
0.0
 11
1183.805208522529
 21
1782.260778068584
 31
0.0
  0
LINE
  5
3D65
330
1F
100
AcDbEntity
  8
single
100
AcDbLine
 10
1497.805208522529
 20
1782.260778068584
 30
0.0
 11
1497.805208522529
 21
1642.260778068584
 31
0.0
  0
LINE
  5
3D66
330
1F
100
AcDbEntity
  8
single
100
AcDbLine
 10
1497.805208522529
 20
1642.260778068584
 30
0.0
 11
1793.805208522529
 21
1642.260778068584
 31
0.0
  0
LINE
  5
3D67
330
1F
100
AcDbEntity
  8
single
100
AcDbLine
 10
1793.805208522529
 20
1642.260778068584
 30
0.0
 11
1793.805208522529
 21
1782.260778068584
 31
0.0
  0
LINE
  5
3D68
330
1F
100
AcDbEntity
  8
single
100
AcDbLine
 10
1802.805208522529
 20
1782.260778068584
 30
0.0
 11
1802.805208522529
 21
1642.260778068584
 31
0.0
  0
LINE
  5
3D69
330
1F
100
AcDbEntity
  8
single
100
AcDbLine
 10
1802.805208522529
 20
1642.260778068584
 30
0.0
 11
2098.805208522529
 21
1642.260778068584
 31
0.0
  0
LINE
  5
3D6A
330
1F
100
AcDbEntity
  8
single
100
AcDbLine
 10
2098.805208522529
 20
1642.260778068584
 30
0.0
 11
2098.805208522529
 21
1782.260778068584
 31
0.0
  0
LINE
  5
3D6B
330
1F
100
AcDbEntity
  8
single
100
AcDbLine
 10
2107.805208522529
 20
1782.260778068584
 30
0.0
 11
2107.805208522529
 21
1642.260778068584
 31
0.0
  0
LINE
  5
3D6C
330
1F
100
AcDbEntity
  8
single
100
AcDbLine
 10
2107.805208522529
 20
1642.260778068584
 30
0.0
 11
2403.805208522529
 21
1642.260778068584
 31
0.0
  0
LINE
  5
3D6D
330
1F
100
AcDbEntity
  8
single
100
AcDbLine
 10
2403.805208522529
 20
1642.260778068584
 30
0.0
 11
2403.805208522529
 21
1782.260778068584
 31
0.0
  0
LINE
  5
3D6E
330
1F
100
AcDbEntity
  8
single
100
AcDbLine
 10
2412.805208522529
 20
1782.260778068584
 30
0.0
 11
2412.805208522529
 21
1642.260778068584
 31
0.0
  0
LINE
  5
3D6F
330
1F
100
AcDbEntity
  8
single
100
AcDbLine
 10
2412.805208522529
 20
1642.260778068584
 30
0.0
 11
2708.805208522529
 21
1642.260778068584
 31
0.0
  0
LINE
  5
3D70
330
1F
100
AcDbEntity
  8
single
100
AcDbLine
 10
2708.805208522529
 20
1642.260778068584
 30
0.0
 11
2708.805208522529
 21
1782.260778068584
 31
0.0
  0
LINE
  5
3D71
330
1F
100
AcDbEntity
  8
single
100
AcDbLine
 10
2717.805208522529
 20
1782.260778068584
 30
0.0
 11
2717.805208522529
 21
1642.260778068584
 31
0.0
  0
LINE
  5
3D72
330
1F
100
AcDbEntity
  8
single
100
AcDbLine
 10
2717.805208522529
 20
1642.260778068584
 30
0.0
 11
3013.805208522529
 21
1642.260778068584
 31
0.0
  0
LINE
  5
3D73
330
1F
100
AcDbEntity
  8
single
100
AcDbLine
 10
3013.805208522529
 20
1642.260778068584
 30
0.0
 11
3013.805208522529
 21
1782.260778068584
 31
0.0
  0
LINE
  5
3D74
330
1F
100
AcDbEntity
  8
single
100
AcDbLine
 10
3022.805208522529
 20
1782.260778068584
 30
0.0
 11
3022.805208522529
 21
1642.260778068584
 31
0.0
  0
LINE
  5
3D75
330
1F
100
AcDbEntity
  8
single
100
AcDbLine
 10
3022.805208522529
 20
1642.260778068584
 30
0.0
 11
3318.80520852253
 21
1642.260778068584
 31
0.0
  0
LINE
  5
3D76
330
1F
100
AcDbEntity
  8
single
100
AcDbLine
 10
3318.80520852253
 20
1642.260778068584
 30
0.0
 11
3318.80520852253
 21
1782.260778068584
 31
0.0
  0
LINE
  5
3D77
330
1F
100
AcDbEntity
  8
single
100
AcDbLine
 10
3327.805208522529
 20
1782.260778068584
 30
0.0
 11
3327.805208522529
 21
1642.260778068584
 31
0.0
  0
LINE
  5
3D78
330
1F
100
AcDbEntity
  8
single
100
AcDbLine
 10
3327.805208522529
 20
1642.260778068584
 30
0.0
 11
3623.805208522529
 21
1642.260778068584
 31
0.0
  0
LINE
  5
3D79
330
1F
100
AcDbEntity
  8
single
100
AcDbLine
 10
3623.805208522529
 20
1642.260778068584
 30
0.0
 11
3623.805208522529
 21
1782.260778068584
 31
0.0
  0
LINE
  5
3D7A
330
1F
100
AcDbEntity
  8
single
100
AcDbLine
 10
3632.805208522529
 20
1782.260778068584
 30
0.0
 11
3632.805208522529
 21
1642.260778068584
 31
0.0
  0
LINE
  5
3D7B
330
1F
100
AcDbEntity
  8
single
100
AcDbLine
 10
3632.805208522529
 20
1642.260778068584
 30
0.0
 11
3928.805208522529
 21
1642.260778068584
 31
0.0
  0
LINE
  5
3D7C
330
1F
100
AcDbEntity
  8
single
100
AcDbLine
 10
3928.805208522529
 20
1642.260778068584
 30
0.0
 11
3928.805208522529
 21
1782.260778068584
 31
0.0
  0
LINE
  5
3D7D
330
1F
100
AcDbEntity
  8
single
100
AcDbLine
 10
3937.805208522529
 20
1782.260778068584
 30
0.0
 11
3937.805208522529
 21
1642.260778068584
 31
0.0
  0
LINE
  5
3D7E
330
1F
100
AcDbEntity
  8
single
100
AcDbLine
 10
3937.805208522529
 20
1642.260778068584
 30
0.0
 11
4044.76609408299
 21
1642.260778068584
 31
0.0
  0
LINE
  5
3D7F
330
1F
100
AcDbEntity
  8
single
100
AcDbLine
 10
1040.305208522529
 20
1922.260778068584
 30
0.0
 11
1040.305208522529
 21
1782.260778068584
 31
0.0
  0
LINE
  5
3D80
330
1F
100
AcDbEntity
  8
single
100
AcDbLine
 10
1040.305208522529
 20
1782.260778068584
 30
0.0
 11
1336.305208522529
 21
1782.260778068584
 31
0.0
  0
LINE
  5
3D81
330
1F
100
AcDbEntity
  8
single
100
AcDbLine
 10
1336.305208522529
 20
1782.260778068584
 30
0.0
 11
1336.305208522529
 21
1922.260778068584
 31
0.0
  0
LINE
  5
3D82
330
1F
100
AcDbEntity
  8
single
100
AcDbLine
 10
960.0000000000004
 20
1782.260778068584
 30
0.0
 11
1031.305208522529
 21
1782.260778068584
 31
0.0
  0
LINE
  5
3D83
330
1F
100
AcDbEntity
  8
single
100
AcDbLine
 10
1031.305208522529
 20
1782.260778068584
 30
0.0
 11
1031.305208522529
 21
1922.260778068584
 31
0.0
  0
LINE
  5
3D84
330
1F
100
AcDbEntity
  8
single
100
AcDbLine
 10
1345.305208522528
 20
1922.260778068584
 30
0.0
 11
1345.305208522529
 21
1782.260778068584
 31
0.0
  0
LINE
  5
3D85
330
1F
100
AcDbEntity
  8
single
100
AcDbLine
 10
1345.305208522529
 20
1782.260778068584
 30
0.0
 11
1641.305208522529
 21
1782.260778068584
 31
0.0
  0
LINE
  5
3D86
330
1F
100
AcDbEntity
  8
single
100
AcDbLine
 10
1641.305208522529
 20
1782.260778068584
 30
0.0
 11
1641.305208522529
 21
1922.260778068584
 31
0.0
  0
LINE
  5
3D87
330
1F
100
AcDbEntity
  8
single
100
AcDbLine
 10
1650.305208522529
 20
1922.260778068584
 30
0.0
 11
1650.305208522529
 21
1782.260778068584
 31
0.0
  0
LINE
  5
3D88
330
1F
100
AcDbEntity
  8
single
100
AcDbLine
 10
1650.305208522529
 20
1782.260778068584
 30
0.0
 11
1946.305208522529
 21
1782.260778068584
 31
0.0
  0
LINE
  5
3D89
330
1F
100
AcDbEntity
  8
single
100
AcDbLine
 10
1946.305208522529
 20
1782.260778068584
 30
0.0
 11
1946.305208522529
 21
1922.260778068584
 31
0.0
  0
LINE
  5
3D8A
330
1F
100
AcDbEntity
  8
single
100
AcDbLine
 10
1955.305208522529
 20
1922.260778068584
 30
0.0
 11
1955.305208522529
 21
1782.260778068584
 31
0.0
  0
LINE
  5
3D8B
330
1F
100
AcDbEntity
  8
single
100
AcDbLine
 10
1955.305208522529
 20
1782.260778068584
 30
0.0
 11
2251.305208522529
 21
1782.260778068584
 31
0.0
  0
LINE
  5
3D8C
330
1F
100
AcDbEntity
  8
single
100
AcDbLine
 10
2251.305208522529
 20
1782.260778068584
 30
0.0
 11
2251.305208522529
 21
1922.260778068584
 31
0.0
  0
LINE
  5
3D8D
330
1F
100
AcDbEntity
  8
single
100
AcDbLine
 10
2260.305208522529
 20
1922.260778068584
 30
0.0
 11
2260.305208522529
 21
1782.260778068584
 31
0.0
  0
LINE
  5
3D8E
330
1F
100
AcDbEntity
  8
single
100
AcDbLine
 10
2260.305208522529
 20
1782.260778068584
 30
0.0
 11
2556.305208522529
 21
1782.260778068584
 31
0.0
  0
LINE
  5
3D8F
330
1F
100
AcDbEntity
  8
single
100
AcDbLine
 10
2556.305208522529
 20
1782.260778068584
 30
0.0
 11
2556.305208522529
 21
1922.260778068584
 31
0.0
  0
LINE
  5
3D90
330
1F
100
AcDbEntity
  8
single
100
AcDbLine
 10
2565.305208522529
 20
1922.260778068584
 30
0.0
 11
2565.305208522529
 21
1782.260778068584
 31
0.0
  0
LINE
  5
3D91
330
1F
100
AcDbEntity
  8
single
100
AcDbLine
 10
2565.305208522529
 20
1782.260778068584
 30
0.0
 11
2861.305208522529
 21
1782.260778068584
 31
0.0
  0
LINE
  5
3D92
330
1F
100
AcDbEntity
  8
single
100
AcDbLine
 10
2861.305208522529
 20
1782.260778068584
 30
0.0
 11
2861.305208522529
 21
1922.260778068584
 31
0.0
  0
LINE
  5
3D93
330
1F
100
AcDbEntity
  8
single
100
AcDbLine
 10
2870.305208522529
 20
1922.260778068584
 30
0.0
 11
2870.305208522529
 21
1782.260778068584
 31
0.0
  0
LINE
  5
3D94
330
1F
100
AcDbEntity
  8
single
100
AcDbLine
 10
2870.305208522529
 20
1782.260778068584
 30
0.0
 11
3166.305208522529
 21
1782.260778068584
 31
0.0
  0
LINE
  5
3D95
330
1F
100
AcDbEntity
  8
single
100
AcDbLine
 10
3166.305208522529
 20
1782.260778068584
 30
0.0
 11
3166.305208522529
 21
1922.260778068584
 31
0.0
  0
LINE
  5
3D96
330
1F
100
AcDbEntity
  8
single
100
AcDbLine
 10
3175.305208522529
 20
1922.260778068584
 30
0.0
 11
3175.305208522529
 21
1782.260778068584
 31
0.0
  0
LINE
  5
3D97
330
1F
100
AcDbEntity
  8
single
100
AcDbLine
 10
3175.305208522529
 20
1782.260778068584
 30
0.0
 11
3471.305208522529
 21
1782.260778068584
 31
0.0
  0
LINE
  5
3D98
330
1F
100
AcDbEntity
  8
single
100
AcDbLine
 10
3471.305208522529
 20
1782.260778068584
 30
0.0
 11
3471.305208522529
 21
1922.260778068584
 31
0.0
  0
LINE
  5
3D99
330
1F
100
AcDbEntity
  8
single
100
AcDbLine
 10
3480.305208522529
 20
1922.260778068584
 30
0.0
 11
3480.305208522529
 21
1782.260778068584
 31
0.0
  0
LINE
  5
3D9A
330
1F
100
AcDbEntity
  8
single
100
AcDbLine
 10
3480.305208522529
 20
1782.260778068584
 30
0.0
 11
3776.305208522529
 21
1782.260778068584
 31
0.0
  0
LINE
  5
3D9B
330
1F
100
AcDbEntity
  8
single
100
AcDbLine
 10
3776.305208522529
 20
1782.260778068584
 30
0.0
 11
3776.305208522529
 21
1922.260778068584
 31
0.0
  0
LINE
  5
3D9C
330
1F
100
AcDbEntity
  8
single
100
AcDbLine
 10
3785.30520852253
 20
1922.260778068584
 30
0.0
 11
3785.30520852253
 21
1782.260778068584
 31
0.0
  0
LINE
  5
3D9D
330
1F
100
AcDbEntity
  8
single
100
AcDbLine
 10
3785.30520852253
 20
1782.260778068584
 30
0.0
 11
4044.76609408299
 21
1782.260778068584
 31
0.0
  0
LINE
  5
3D9E
330
1F
100
AcDbEntity
  8
single
100
AcDbLine
 10
1192.805208522528
 20
2062.260778068584
 30
0.0
 11
1192.805208522529
 21
1922.260778068584
 31
0.0
  0
LINE
  5
3D9F
330
1F
100
AcDbEntity
  8
single
100
AcDbLine
 10
1192.805208522529
 20
1922.260778068584
 30
0.0
 11
1488.805208522529
 21
1922.260778068584
 31
0.0
  0
LINE
  5
3DA0
330
1F
100
AcDbEntity
  8
single
100
AcDbLine
 10
1488.805208522529
 20
1922.260778068584
 30
0.0
 11
1488.805208522529
 21
2062.260778068584
 31
0.0
  0
LINE
  5
3DA1
330
1F
100
AcDbEntity
  8
single
100
AcDbLine
 10
960.0000000000004
 20
1922.260778068584
 30
0.0
 11
1183.805208522529
 21
1922.260778068584
 31
0.0
  0
LINE
  5
3DA2
330
1F
100
AcDbEntity
  8
single
100
AcDbLine
 10
1183.805208522529
 20
1922.260778068584
 30
0.0
 11
1183.805208522529
 21
2062.260778068584
 31
0.0
  0
LINE
  5
3DA3
330
1F
100
AcDbEntity
  8
single
100
AcDbLine
 10
1497.805208522529
 20
2062.260778068584
 30
0.0
 11
1497.805208522529
 21
1922.260778068584
 31
0.0
  0
LINE
  5
3DA4
330
1F
100
AcDbEntity
  8
single
100
AcDbLine
 10
1497.805208522529
 20
1922.260778068584
 30
0.0
 11
1793.805208522529
 21
1922.260778068584
 31
0.0
  0
LINE
  5
3DA5
330
1F
100
AcDbEntity
  8
single
100
AcDbLine
 10
1793.805208522529
 20
1922.260778068584
 30
0.0
 11
1793.805208522529
 21
2062.260778068584
 31
0.0
  0
LINE
  5
3DA6
330
1F
100
AcDbEntity
  8
single
100
AcDbLine
 10
1802.805208522529
 20
2062.260778068584
 30
0.0
 11
1802.805208522529
 21
1922.260778068584
 31
0.0
  0
LINE
  5
3DA7
330
1F
100
AcDbEntity
  8
single
100
AcDbLine
 10
1802.805208522529
 20
1922.260778068584
 30
0.0
 11
2098.805208522529
 21
1922.260778068584
 31
0.0
  0
LINE
  5
3DA8
330
1F
100
AcDbEntity
  8
single
100
AcDbLine
 10
2098.805208522529
 20
1922.260778068584
 30
0.0
 11
2098.805208522529
 21
2062.260778068584
 31
0.0
  0
LINE
  5
3DA9
330
1F
100
AcDbEntity
  8
single
100
AcDbLine
 10
2107.805208522529
 20
2062.260778068584
 30
0.0
 11
2107.805208522529
 21
1922.260778068584
 31
0.0
  0
LINE
  5
3DAA
330
1F
100
AcDbEntity
  8
single
100
AcDbLine
 10
2107.805208522529
 20
1922.260778068584
 30
0.0
 11
2403.805208522529
 21
1922.260778068584
 31
0.0
  0
LINE
  5
3DAB
330
1F
100
AcDbEntity
  8
single
100
AcDbLine
 10
2403.805208522529
 20
1922.260778068584
 30
0.0
 11
2403.805208522529
 21
2062.260778068584
 31
0.0
  0
LINE
  5
3DAC
330
1F
100
AcDbEntity
  8
single
100
AcDbLine
 10
2412.805208522529
 20
2062.260778068584
 30
0.0
 11
2412.805208522529
 21
1922.260778068584
 31
0.0
  0
LINE
  5
3DAD
330
1F
100
AcDbEntity
  8
single
100
AcDbLine
 10
2412.805208522529
 20
1922.260778068584
 30
0.0
 11
2708.805208522529
 21
1922.260778068584
 31
0.0
  0
LINE
  5
3DAE
330
1F
100
AcDbEntity
  8
single
100
AcDbLine
 10
2708.805208522529
 20
1922.260778068584
 30
0.0
 11
2708.805208522529
 21
2062.260778068584
 31
0.0
  0
LINE
  5
3DAF
330
1F
100
AcDbEntity
  8
single
100
AcDbLine
 10
2717.805208522529
 20
2062.260778068584
 30
0.0
 11
2717.805208522529
 21
1922.260778068584
 31
0.0
  0
LINE
  5
3DB0
330
1F
100
AcDbEntity
  8
single
100
AcDbLine
 10
2717.805208522529
 20
1922.260778068584
 30
0.0
 11
3013.805208522529
 21
1922.260778068584
 31
0.0
  0
LINE
  5
3DB1
330
1F
100
AcDbEntity
  8
single
100
AcDbLine
 10
3013.805208522529
 20
1922.260778068584
 30
0.0
 11
3013.805208522529
 21
2062.260778068584
 31
0.0
  0
LINE
  5
3DB2
330
1F
100
AcDbEntity
  8
single
100
AcDbLine
 10
3022.805208522529
 20
2062.260778068584
 30
0.0
 11
3022.805208522529
 21
1922.260778068584
 31
0.0
  0
LINE
  5
3DB3
330
1F
100
AcDbEntity
  8
single
100
AcDbLine
 10
3022.805208522529
 20
1922.260778068584
 30
0.0
 11
3318.80520852253
 21
1922.260778068584
 31
0.0
  0
LINE
  5
3DB4
330
1F
100
AcDbEntity
  8
single
100
AcDbLine
 10
3318.80520852253
 20
1922.260778068584
 30
0.0
 11
3318.80520852253
 21
2062.260778068584
 31
0.0
  0
LINE
  5
3DB5
330
1F
100
AcDbEntity
  8
single
100
AcDbLine
 10
3327.805208522529
 20
2062.260778068584
 30
0.0
 11
3327.805208522529
 21
1922.260778068584
 31
0.0
  0
LINE
  5
3DB6
330
1F
100
AcDbEntity
  8
single
100
AcDbLine
 10
3327.805208522529
 20
1922.260778068584
 30
0.0
 11
3623.805208522529
 21
1922.260778068584
 31
0.0
  0
LINE
  5
3DB7
330
1F
100
AcDbEntity
  8
single
100
AcDbLine
 10
3623.805208522529
 20
1922.260778068584
 30
0.0
 11
3623.805208522529
 21
2062.260778068584
 31
0.0
  0
LINE
  5
3DB8
330
1F
100
AcDbEntity
  8
single
100
AcDbLine
 10
3632.805208522529
 20
2062.260778068584
 30
0.0
 11
3632.805208522529
 21
1922.260778068584
 31
0.0
  0
LINE
  5
3DB9
330
1F
100
AcDbEntity
  8
single
100
AcDbLine
 10
3632.805208522529
 20
1922.260778068584
 30
0.0
 11
3928.805208522529
 21
1922.260778068584
 31
0.0
  0
LINE
  5
3DBA
330
1F
100
AcDbEntity
  8
single
100
AcDbLine
 10
3928.805208522529
 20
1922.260778068584
 30
0.0
 11
3928.805208522529
 21
2062.260778068584
 31
0.0
  0
LINE
  5
3DBB
330
1F
100
AcDbEntity
  8
single
100
AcDbLine
 10
3937.805208522529
 20
2062.260778068584
 30
0.0
 11
3937.805208522529
 21
1922.260778068584
 31
0.0
  0
LINE
  5
3DBC
330
1F
100
AcDbEntity
  8
single
100
AcDbLine
 10
3937.805208522529
 20
1922.260778068584
 30
0.0
 11
4044.76609408299
 21
1922.260778068584
 31
0.0
  0
LINE
  5
3DBD
330
1F
100
AcDbEntity
  8
single
100
AcDbLine
 10
1040.305208522529
 20
2202.260778068585
 30
0.0
 11
1040.305208522529
 21
2062.260778068584
 31
0.0
  0
LINE
  5
3DBE
330
1F
100
AcDbEntity
  8
single
100
AcDbLine
 10
1040.305208522529
 20
2062.260778068584
 30
0.0
 11
1336.305208522529
 21
2062.260778068584
 31
0.0
  0
LINE
  5
3DBF
330
1F
100
AcDbEntity
  8
single
100
AcDbLine
 10
1336.305208522529
 20
2062.260778068584
 30
0.0
 11
1336.305208522529
 21
2202.260778068585
 31
0.0
  0
LINE
  5
3DC0
330
1F
100
AcDbEntity
  8
single
100
AcDbLine
 10
960.0000000000004
 20
2062.260778068584
 30
0.0
 11
1031.305208522529
 21
2062.260778068584
 31
0.0
  0
LINE
  5
3DC1
330
1F
100
AcDbEntity
  8
single
100
AcDbLine
 10
1031.305208522529
 20
2062.260778068584
 30
0.0
 11
1031.305208522529
 21
2202.260778068585
 31
0.0
  0
LINE
  5
3DC2
330
1F
100
AcDbEntity
  8
single
100
AcDbLine
 10
1345.305208522528
 20
2202.260778068585
 30
0.0
 11
1345.305208522529
 21
2062.260778068584
 31
0.0
  0
LINE
  5
3DC3
330
1F
100
AcDbEntity
  8
single
100
AcDbLine
 10
1345.305208522529
 20
2062.260778068584
 30
0.0
 11
1641.305208522529
 21
2062.260778068584
 31
0.0
  0
LINE
  5
3DC4
330
1F
100
AcDbEntity
  8
single
100
AcDbLine
 10
1641.305208522529
 20
2062.260778068584
 30
0.0
 11
1641.305208522529
 21
2202.260778068585
 31
0.0
  0
LINE
  5
3DC5
330
1F
100
AcDbEntity
  8
single
100
AcDbLine
 10
1650.305208522529
 20
2202.260778068585
 30
0.0
 11
1650.305208522529
 21
2062.260778068584
 31
0.0
  0
LINE
  5
3DC6
330
1F
100
AcDbEntity
  8
single
100
AcDbLine
 10
1650.305208522529
 20
2062.260778068584
 30
0.0
 11
1946.305208522529
 21
2062.260778068584
 31
0.0
  0
LINE
  5
3DC7
330
1F
100
AcDbEntity
  8
single
100
AcDbLine
 10
1946.305208522529
 20
2062.260778068584
 30
0.0
 11
1946.305208522529
 21
2202.260778068585
 31
0.0
  0
LINE
  5
3DC8
330
1F
100
AcDbEntity
  8
single
100
AcDbLine
 10
1955.305208522529
 20
2202.260778068585
 30
0.0
 11
1955.305208522529
 21
2062.260778068584
 31
0.0
  0
LINE
  5
3DC9
330
1F
100
AcDbEntity
  8
single
100
AcDbLine
 10
1955.305208522529
 20
2062.260778068584
 30
0.0
 11
2251.305208522529
 21
2062.260778068584
 31
0.0
  0
LINE
  5
3DCA
330
1F
100
AcDbEntity
  8
single
100
AcDbLine
 10
2251.305208522529
 20
2062.260778068584
 30
0.0
 11
2251.305208522529
 21
2202.260778068585
 31
0.0
  0
LINE
  5
3DCB
330
1F
100
AcDbEntity
  8
single
100
AcDbLine
 10
2260.305208522529
 20
2202.260778068585
 30
0.0
 11
2260.305208522529
 21
2062.260778068584
 31
0.0
  0
LINE
  5
3DCC
330
1F
100
AcDbEntity
  8
single
100
AcDbLine
 10
2260.305208522529
 20
2062.260778068584
 30
0.0
 11
2556.305208522529
 21
2062.260778068584
 31
0.0
  0
LINE
  5
3DCD
330
1F
100
AcDbEntity
  8
single
100
AcDbLine
 10
2556.305208522529
 20
2062.260778068584
 30
0.0
 11
2556.305208522529
 21
2202.260778068585
 31
0.0
  0
LINE
  5
3DCE
330
1F
100
AcDbEntity
  8
single
100
AcDbLine
 10
2565.305208522529
 20
2202.260778068585
 30
0.0
 11
2565.305208522529
 21
2062.260778068584
 31
0.0
  0
LINE
  5
3DCF
330
1F
100
AcDbEntity
  8
single
100
AcDbLine
 10
2565.305208522529
 20
2062.260778068584
 30
0.0
 11
2861.305208522529
 21
2062.260778068584
 31
0.0
  0
LINE
  5
3DD0
330
1F
100
AcDbEntity
  8
single
100
AcDbLine
 10
2861.305208522529
 20
2062.260778068584
 30
0.0
 11
2861.305208522529
 21
2202.260778068585
 31
0.0
  0
LINE
  5
3DD1
330
1F
100
AcDbEntity
  8
single
100
AcDbLine
 10
2870.305208522529
 20
2202.260778068585
 30
0.0
 11
2870.305208522529
 21
2062.260778068584
 31
0.0
  0
LINE
  5
3DD2
330
1F
100
AcDbEntity
  8
single
100
AcDbLine
 10
2870.305208522529
 20
2062.260778068584
 30
0.0
 11
3166.305208522529
 21
2062.260778068584
 31
0.0
  0
LINE
  5
3DD3
330
1F
100
AcDbEntity
  8
single
100
AcDbLine
 10
3166.305208522529
 20
2062.260778068584
 30
0.0
 11
3166.305208522529
 21
2202.260778068585
 31
0.0
  0
LINE
  5
3DD4
330
1F
100
AcDbEntity
  8
single
100
AcDbLine
 10
3175.305208522529
 20
2202.260778068585
 30
0.0
 11
3175.305208522529
 21
2062.260778068584
 31
0.0
  0
LINE
  5
3DD5
330
1F
100
AcDbEntity
  8
single
100
AcDbLine
 10
3175.305208522529
 20
2062.260778068584
 30
0.0
 11
3471.305208522529
 21
2062.260778068584
 31
0.0
  0
LINE
  5
3DD6
330
1F
100
AcDbEntity
  8
single
100
AcDbLine
 10
3471.305208522529
 20
2062.260778068584
 30
0.0
 11
3471.305208522529
 21
2202.260778068585
 31
0.0
  0
LINE
  5
3DD7
330
1F
100
AcDbEntity
  8
single
100
AcDbLine
 10
3480.305208522529
 20
2202.260778068585
 30
0.0
 11
3480.305208522529
 21
2062.260778068584
 31
0.0
  0
LINE
  5
3DD8
330
1F
100
AcDbEntity
  8
single
100
AcDbLine
 10
3480.305208522529
 20
2062.260778068584
 30
0.0
 11
3776.305208522529
 21
2062.260778068584
 31
0.0
  0
LINE
  5
3DD9
330
1F
100
AcDbEntity
  8
single
100
AcDbLine
 10
3776.305208522529
 20
2062.260778068584
 30
0.0
 11
3776.305208522529
 21
2202.260778068585
 31
0.0
  0
LINE
  5
3DDA
330
1F
100
AcDbEntity
  8
single
100
AcDbLine
 10
3785.30520852253
 20
2202.260778068585
 30
0.0
 11
3785.30520852253
 21
2062.260778068584
 31
0.0
  0
LINE
  5
3DDB
330
1F
100
AcDbEntity
  8
single
100
AcDbLine
 10
3785.30520852253
 20
2062.260778068584
 30
0.0
 11
4044.76609408299
 21
2062.260778068584
 31
0.0
  0
LINE
  5
3DDC
330
1F
100
AcDbEntity
  8
single
100
AcDbLine
 10
1192.805208522528
 20
2342.260778068585
 30
0.0
 11
1192.805208522529
 21
2202.260778068585
 31
0.0
  0
LINE
  5
3DDD
330
1F
100
AcDbEntity
  8
single
100
AcDbLine
 10
1192.805208522529
 20
2202.260778068585
 30
0.0
 11
1488.805208522529
 21
2202.260778068585
 31
0.0
  0
LINE
  5
3DDE
330
1F
100
AcDbEntity
  8
single
100
AcDbLine
 10
1488.805208522529
 20
2202.260778068585
 30
0.0
 11
1488.805208522529
 21
2342.260778068585
 31
0.0
  0
LINE
  5
3DDF
330
1F
100
AcDbEntity
  8
single
100
AcDbLine
 10
960.0000000000004
 20
2202.260778068585
 30
0.0
 11
1183.805208522529
 21
2202.260778068585
 31
0.0
  0
LINE
  5
3DE0
330
1F
100
AcDbEntity
  8
single
100
AcDbLine
 10
1183.805208522529
 20
2202.260778068585
 30
0.0
 11
1183.805208522529
 21
2342.260778068585
 31
0.0
  0
LINE
  5
3DE1
330
1F
100
AcDbEntity
  8
single
100
AcDbLine
 10
1497.805208522529
 20
2342.260778068585
 30
0.0
 11
1497.805208522529
 21
2202.260778068585
 31
0.0
  0
LINE
  5
3DE2
330
1F
100
AcDbEntity
  8
single
100
AcDbLine
 10
1497.805208522529
 20
2202.260778068585
 30
0.0
 11
1793.805208522529
 21
2202.260778068585
 31
0.0
  0
LINE
  5
3DE3
330
1F
100
AcDbEntity
  8
single
100
AcDbLine
 10
1793.805208522529
 20
2202.260778068585
 30
0.0
 11
1793.805208522529
 21
2342.260778068585
 31
0.0
  0
LINE
  5
3DE4
330
1F
100
AcDbEntity
  8
single
100
AcDbLine
 10
1802.805208522529
 20
2342.260778068585
 30
0.0
 11
1802.805208522529
 21
2202.260778068585
 31
0.0
  0
LINE
  5
3DE5
330
1F
100
AcDbEntity
  8
single
100
AcDbLine
 10
1802.805208522529
 20
2202.260778068585
 30
0.0
 11
2098.805208522529
 21
2202.260778068585
 31
0.0
  0
LINE
  5
3DE6
330
1F
100
AcDbEntity
  8
single
100
AcDbLine
 10
2098.805208522529
 20
2202.260778068585
 30
0.0
 11
2098.805208522529
 21
2342.260778068585
 31
0.0
  0
LINE
  5
3DE7
330
1F
100
AcDbEntity
  8
single
100
AcDbLine
 10
2107.805208522529
 20
2342.260778068585
 30
0.0
 11
2107.805208522529
 21
2202.260778068585
 31
0.0
  0
LINE
  5
3DE8
330
1F
100
AcDbEntity
  8
single
100
AcDbLine
 10
2107.805208522529
 20
2202.260778068585
 30
0.0
 11
2403.805208522529
 21
2202.260778068585
 31
0.0
  0
LINE
  5
3DE9
330
1F
100
AcDbEntity
  8
single
100
AcDbLine
 10
2403.805208522529
 20
2202.260778068585
 30
0.0
 11
2403.805208522529
 21
2342.260778068585
 31
0.0
  0
LINE
  5
3DEA
330
1F
100
AcDbEntity
  8
single
100
AcDbLine
 10
2412.805208522529
 20
2342.260778068585
 30
0.0
 11
2412.805208522529
 21
2202.260778068585
 31
0.0
  0
LINE
  5
3DEB
330
1F
100
AcDbEntity
  8
single
100
AcDbLine
 10
2412.805208522529
 20
2202.260778068585
 30
0.0
 11
2708.805208522529
 21
2202.260778068585
 31
0.0
  0
LINE
  5
3DEC
330
1F
100
AcDbEntity
  8
single
100
AcDbLine
 10
2708.805208522529
 20
2202.260778068585
 30
0.0
 11
2708.805208522529
 21
2342.260778068585
 31
0.0
  0
LINE
  5
3DED
330
1F
100
AcDbEntity
  8
single
100
AcDbLine
 10
2717.805208522529
 20
2342.260778068585
 30
0.0
 11
2717.805208522529
 21
2202.260778068585
 31
0.0
  0
LINE
  5
3DEE
330
1F
100
AcDbEntity
  8
single
100
AcDbLine
 10
2717.805208522529
 20
2202.260778068585
 30
0.0
 11
3013.805208522529
 21
2202.260778068585
 31
0.0
  0
LINE
  5
3DEF
330
1F
100
AcDbEntity
  8
single
100
AcDbLine
 10
3013.805208522529
 20
2202.260778068585
 30
0.0
 11
3013.805208522529
 21
2342.260778068585
 31
0.0
  0
LINE
  5
3DF0
330
1F
100
AcDbEntity
  8
single
100
AcDbLine
 10
3022.805208522529
 20
2342.260778068585
 30
0.0
 11
3022.805208522529
 21
2202.260778068585
 31
0.0
  0
LINE
  5
3DF1
330
1F
100
AcDbEntity
  8
single
100
AcDbLine
 10
3022.805208522529
 20
2202.260778068585
 30
0.0
 11
3318.80520852253
 21
2202.260778068585
 31
0.0
  0
LINE
  5
3DF2
330
1F
100
AcDbEntity
  8
single
100
AcDbLine
 10
3318.80520852253
 20
2202.260778068585
 30
0.0
 11
3318.80520852253
 21
2342.260778068585
 31
0.0
  0
LINE
  5
3DF3
330
1F
100
AcDbEntity
  8
single
100
AcDbLine
 10
3327.805208522529
 20
2342.260778068585
 30
0.0
 11
3327.805208522529
 21
2202.260778068585
 31
0.0
  0
LINE
  5
3DF4
330
1F
100
AcDbEntity
  8
single
100
AcDbLine
 10
3327.805208522529
 20
2202.260778068585
 30
0.0
 11
3623.805208522529
 21
2202.260778068585
 31
0.0
  0
LINE
  5
3DF5
330
1F
100
AcDbEntity
  8
single
100
AcDbLine
 10
3623.805208522529
 20
2202.260778068585
 30
0.0
 11
3623.805208522529
 21
2342.260778068585
 31
0.0
  0
LINE
  5
3DF6
330
1F
100
AcDbEntity
  8
single
100
AcDbLine
 10
3632.805208522529
 20
2342.260778068585
 30
0.0
 11
3632.805208522529
 21
2202.260778068585
 31
0.0
  0
LINE
  5
3DF7
330
1F
100
AcDbEntity
  8
single
100
AcDbLine
 10
3632.805208522529
 20
2202.260778068585
 30
0.0
 11
3928.805208522529
 21
2202.260778068585
 31
0.0
  0
LINE
  5
3DF8
330
1F
100
AcDbEntity
  8
single
100
AcDbLine
 10
3928.805208522529
 20
2202.260778068585
 30
0.0
 11
3928.805208522529
 21
2342.260778068585
 31
0.0
  0
LINE
  5
3DF9
330
1F
100
AcDbEntity
  8
single
100
AcDbLine
 10
3937.805208522529
 20
2342.260778068585
 30
0.0
 11
3937.805208522529
 21
2202.260778068585
 31
0.0
  0
LINE
  5
3DFA
330
1F
100
AcDbEntity
  8
single
100
AcDbLine
 10
3937.805208522529
 20
2202.260778068585
 30
0.0
 11
4044.76609408299
 21
2202.260778068585
 31
0.0
  0
LINE
  5
3DFB
330
1F
100
AcDbEntity
  8
single
100
AcDbLine
 10
1040.305208522529
 20
2482.260778068584
 30
0.0
 11
1040.305208522529
 21
2342.260778068585
 31
0.0
  0
LINE
  5
3DFC
330
1F
100
AcDbEntity
  8
single
100
AcDbLine
 10
1040.305208522529
 20
2342.260778068585
 30
0.0
 11
1336.305208522529
 21
2342.260778068585
 31
0.0
  0
LINE
  5
3DFD
330
1F
100
AcDbEntity
  8
single
100
AcDbLine
 10
1336.305208522529
 20
2342.260778068585
 30
0.0
 11
1336.305208522529
 21
2482.260778068584
 31
0.0
  0
LINE
  5
3DFE
330
1F
100
AcDbEntity
  8
single
100
AcDbLine
 10
960.0000000000004
 20
2342.260778068585
 30
0.0
 11
1031.305208522529
 21
2342.260778068585
 31
0.0
  0
LINE
  5
3DFF
330
1F
100
AcDbEntity
  8
single
100
AcDbLine
 10
1031.305208522529
 20
2342.260778068585
 30
0.0
 11
1031.305208522529
 21
2482.260778068584
 31
0.0
  0
LINE
  5
3E00
330
1F
100
AcDbEntity
  8
single
100
AcDbLine
 10
1345.305208522528
 20
2482.260778068584
 30
0.0
 11
1345.305208522529
 21
2342.260778068585
 31
0.0
  0
LINE
  5
3E01
330
1F
100
AcDbEntity
  8
single
100
AcDbLine
 10
1345.305208522529
 20
2342.260778068585
 30
0.0
 11
1641.305208522529
 21
2342.260778068585
 31
0.0
  0
LINE
  5
3E02
330
1F
100
AcDbEntity
  8
single
100
AcDbLine
 10
1641.305208522529
 20
2342.260778068585
 30
0.0
 11
1641.305208522529
 21
2482.260778068584
 31
0.0
  0
LINE
  5
3E03
330
1F
100
AcDbEntity
  8
single
100
AcDbLine
 10
1650.305208522529
 20
2482.260778068584
 30
0.0
 11
1650.305208522529
 21
2342.260778068585
 31
0.0
  0
LINE
  5
3E04
330
1F
100
AcDbEntity
  8
single
100
AcDbLine
 10
1650.305208522529
 20
2342.260778068585
 30
0.0
 11
1946.305208522529
 21
2342.260778068585
 31
0.0
  0
LINE
  5
3E05
330
1F
100
AcDbEntity
  8
single
100
AcDbLine
 10
1946.305208522529
 20
2342.260778068585
 30
0.0
 11
1946.305208522529
 21
2482.260778068584
 31
0.0
  0
LINE
  5
3E06
330
1F
100
AcDbEntity
  8
single
100
AcDbLine
 10
1955.305208522529
 20
2482.260778068584
 30
0.0
 11
1955.305208522529
 21
2342.260778068585
 31
0.0
  0
LINE
  5
3E07
330
1F
100
AcDbEntity
  8
single
100
AcDbLine
 10
1955.305208522529
 20
2342.260778068585
 30
0.0
 11
2251.305208522529
 21
2342.260778068585
 31
0.0
  0
LINE
  5
3E08
330
1F
100
AcDbEntity
  8
single
100
AcDbLine
 10
2251.305208522529
 20
2342.260778068585
 30
0.0
 11
2251.305208522529
 21
2482.260778068584
 31
0.0
  0
LINE
  5
3E09
330
1F
100
AcDbEntity
  8
single
100
AcDbLine
 10
2260.305208522529
 20
2482.260778068584
 30
0.0
 11
2260.305208522529
 21
2342.260778068585
 31
0.0
  0
LINE
  5
3E0A
330
1F
100
AcDbEntity
  8
single
100
AcDbLine
 10
2260.305208522529
 20
2342.260778068585
 30
0.0
 11
2556.305208522529
 21
2342.260778068585
 31
0.0
  0
LINE
  5
3E0B
330
1F
100
AcDbEntity
  8
single
100
AcDbLine
 10
2556.305208522529
 20
2342.260778068585
 30
0.0
 11
2556.305208522529
 21
2482.260778068584
 31
0.0
  0
LINE
  5
3E0C
330
1F
100
AcDbEntity
  8
single
100
AcDbLine
 10
2565.305208522529
 20
2482.260778068584
 30
0.0
 11
2565.305208522529
 21
2342.260778068585
 31
0.0
  0
LINE
  5
3E0D
330
1F
100
AcDbEntity
  8
single
100
AcDbLine
 10
2565.305208522529
 20
2342.260778068585
 30
0.0
 11
2861.305208522529
 21
2342.260778068585
 31
0.0
  0
LINE
  5
3E0E
330
1F
100
AcDbEntity
  8
single
100
AcDbLine
 10
2861.305208522529
 20
2342.260778068585
 30
0.0
 11
2861.305208522529
 21
2482.260778068584
 31
0.0
  0
LINE
  5
3E0F
330
1F
100
AcDbEntity
  8
single
100
AcDbLine
 10
2870.305208522529
 20
2482.260778068584
 30
0.0
 11
2870.305208522529
 21
2342.260778068585
 31
0.0
  0
LINE
  5
3E10
330
1F
100
AcDbEntity
  8
single
100
AcDbLine
 10
2870.305208522529
 20
2342.260778068585
 30
0.0
 11
3166.305208522529
 21
2342.260778068585
 31
0.0
  0
LINE
  5
3E11
330
1F
100
AcDbEntity
  8
single
100
AcDbLine
 10
3166.305208522529
 20
2342.260778068585
 30
0.0
 11
3166.305208522529
 21
2482.260778068584
 31
0.0
  0
LINE
  5
3E12
330
1F
100
AcDbEntity
  8
single
100
AcDbLine
 10
3175.305208522529
 20
2482.260778068584
 30
0.0
 11
3175.305208522529
 21
2342.260778068585
 31
0.0
  0
LINE
  5
3E13
330
1F
100
AcDbEntity
  8
single
100
AcDbLine
 10
3175.305208522529
 20
2342.260778068585
 30
0.0
 11
3471.305208522529
 21
2342.260778068585
 31
0.0
  0
LINE
  5
3E14
330
1F
100
AcDbEntity
  8
single
100
AcDbLine
 10
3471.305208522529
 20
2342.260778068585
 30
0.0
 11
3471.305208522529
 21
2482.260778068584
 31
0.0
  0
LINE
  5
3E15
330
1F
100
AcDbEntity
  8
single
100
AcDbLine
 10
3480.305208522529
 20
2482.260778068584
 30
0.0
 11
3480.305208522529
 21
2342.260778068585
 31
0.0
  0
LINE
  5
3E16
330
1F
100
AcDbEntity
  8
single
100
AcDbLine
 10
3480.305208522529
 20
2342.260778068585
 30
0.0
 11
3776.305208522529
 21
2342.260778068585
 31
0.0
  0
LINE
  5
3E17
330
1F
100
AcDbEntity
  8
single
100
AcDbLine
 10
3776.305208522529
 20
2342.260778068585
 30
0.0
 11
3776.305208522529
 21
2482.260778068584
 31
0.0
  0
LINE
  5
3E18
330
1F
100
AcDbEntity
  8
single
100
AcDbLine
 10
3785.30520852253
 20
2482.260778068584
 30
0.0
 11
3785.30520852253
 21
2342.260778068585
 31
0.0
  0
LINE
  5
3E19
330
1F
100
AcDbEntity
  8
single
100
AcDbLine
 10
3785.30520852253
 20
2342.260778068585
 30
0.0
 11
4044.76609408299
 21
2342.260778068585
 31
0.0
  0
LINE
  5
3E1A
330
1F
100
AcDbEntity
  8
single
100
AcDbLine
 10
1192.805208522529
 20
2552.260778068585
 30
0.0
 11
1192.805208522529
 21
2482.260778068584
 31
0.0
  0
LINE
  5
3E1B
330
1F
100
AcDbEntity
  8
single
100
AcDbLine
 10
1192.805208522529
 20
2482.260778068584
 30
0.0
 11
1488.805208522529
 21
2482.260778068584
 31
0.0
  0
LINE
  5
3E1C
330
1F
100
AcDbEntity
  8
single
100
AcDbLine
 10
1488.805208522529
 20
2482.260778068584
 30
0.0
 11
1488.805208522529
 21
2552.260778068585
 31
0.0
  0
LINE
  5
3E1D
330
1F
100
AcDbEntity
  8
single
100
AcDbLine
 10
960.0000000000004
 20
2482.260778068584
 30
0.0
 11
1183.805208522529
 21
2482.260778068584
 31
0.0
  0
LINE
  5
3E1E
330
1F
100
AcDbEntity
  8
single
100
AcDbLine
 10
1183.805208522529
 20
2482.260778068584
 30
0.0
 11
1183.805208522529
 21
2552.260778068585
 31
0.0
  0
LINE
  5
3E1F
330
1F
100
AcDbEntity
  8
single
100
AcDbLine
 10
1497.805208522529
 20
2552.260778068585
 30
0.0
 11
1497.805208522529
 21
2482.260778068584
 31
0.0
  0
LINE
  5
3E20
330
1F
100
AcDbEntity
  8
single
100
AcDbLine
 10
1497.805208522529
 20
2482.260778068584
 30
0.0
 11
1793.805208522529
 21
2482.260778068584
 31
0.0
  0
LINE
  5
3E21
330
1F
100
AcDbEntity
  8
single
100
AcDbLine
 10
1793.805208522529
 20
2482.260778068584
 30
0.0
 11
1793.805208522529
 21
2552.260778068585
 31
0.0
  0
LINE
  5
3E22
330
1F
100
AcDbEntity
  8
single
100
AcDbLine
 10
1802.805208522529
 20
2552.260778068585
 30
0.0
 11
1802.805208522529
 21
2482.260778068584
 31
0.0
  0
LINE
  5
3E23
330
1F
100
AcDbEntity
  8
single
100
AcDbLine
 10
1802.805208522529
 20
2482.260778068584
 30
0.0
 11
2098.805208522529
 21
2482.260778068584
 31
0.0
  0
LINE
  5
3E24
330
1F
100
AcDbEntity
  8
single
100
AcDbLine
 10
2098.805208522529
 20
2482.260778068584
 30
0.0
 11
2098.805208522529
 21
2552.260778068585
 31
0.0
  0
LINE
  5
3E25
330
1F
100
AcDbEntity
  8
single
100
AcDbLine
 10
2107.805208522529
 20
2552.260778068585
 30
0.0
 11
2107.805208522529
 21
2482.260778068584
 31
0.0
  0
LINE
  5
3E26
330
1F
100
AcDbEntity
  8
single
100
AcDbLine
 10
2107.805208522529
 20
2482.260778068584
 30
0.0
 11
2403.805208522529
 21
2482.260778068584
 31
0.0
  0
LINE
  5
3E27
330
1F
100
AcDbEntity
  8
single
100
AcDbLine
 10
2403.805208522529
 20
2482.260778068584
 30
0.0
 11
2403.805208522529
 21
2552.260778068585
 31
0.0
  0
LINE
  5
3E28
330
1F
100
AcDbEntity
  8
single
100
AcDbLine
 10
2412.805208522529
 20
2552.260778068585
 30
0.0
 11
2412.805208522529
 21
2482.260778068584
 31
0.0
  0
LINE
  5
3E29
330
1F
100
AcDbEntity
  8
single
100
AcDbLine
 10
2412.805208522529
 20
2482.260778068584
 30
0.0
 11
2708.805208522529
 21
2482.260778068584
 31
0.0
  0
LINE
  5
3E2A
330
1F
100
AcDbEntity
  8
single
100
AcDbLine
 10
2708.805208522529
 20
2482.260778068584
 30
0.0
 11
2708.805208522529
 21
2552.260778068585
 31
0.0
  0
LINE
  5
3E2B
330
1F
100
AcDbEntity
  8
single
100
AcDbLine
 10
2717.805208522529
 20
2552.260778068585
 30
0.0
 11
2717.805208522529
 21
2482.260778068584
 31
0.0
  0
LINE
  5
3E2C
330
1F
100
AcDbEntity
  8
single
100
AcDbLine
 10
2717.805208522529
 20
2482.260778068584
 30
0.0
 11
3013.805208522529
 21
2482.260778068584
 31
0.0
  0
LINE
  5
3E2D
330
1F
100
AcDbEntity
  8
single
100
AcDbLine
 10
3013.805208522529
 20
2482.260778068584
 30
0.0
 11
3013.805208522529
 21
2552.260778068585
 31
0.0
  0
LINE
  5
3E2E
330
1F
100
AcDbEntity
  8
single
100
AcDbLine
 10
3022.805208522529
 20
2552.260778068585
 30
0.0
 11
3022.805208522529
 21
2482.260778068584
 31
0.0
  0
LINE
  5
3E2F
330
1F
100
AcDbEntity
  8
single
100
AcDbLine
 10
3022.805208522529
 20
2482.260778068584
 30
0.0
 11
3318.80520852253
 21
2482.260778068584
 31
0.0
  0
LINE
  5
3E30
330
1F
100
AcDbEntity
  8
single
100
AcDbLine
 10
3318.80520852253
 20
2482.260778068584
 30
0.0
 11
3318.80520852253
 21
2552.260778068585
 31
0.0
  0
LINE
  5
3E31
330
1F
100
AcDbEntity
  8
single
100
AcDbLine
 10
3327.805208522529
 20
2552.260778068585
 30
0.0
 11
3327.805208522529
 21
2482.260778068584
 31
0.0
  0
LINE
  5
3E32
330
1F
100
AcDbEntity
  8
single
100
AcDbLine
 10
3327.805208522529
 20
2482.260778068584
 30
0.0
 11
3623.805208522529
 21
2482.260778068584
 31
0.0
  0
LINE
  5
3E33
330
1F
100
AcDbEntity
  8
single
100
AcDbLine
 10
3623.805208522529
 20
2482.260778068584
 30
0.0
 11
3623.805208522529
 21
2552.260778068585
 31
0.0
  0
LINE
  5
3E34
330
1F
100
AcDbEntity
  8
single
100
AcDbLine
 10
3632.805208522529
 20
2552.260778068585
 30
0.0
 11
3632.805208522529
 21
2482.260778068584
 31
0.0
  0
LINE
  5
3E35
330
1F
100
AcDbEntity
  8
single
100
AcDbLine
 10
3632.805208522529
 20
2482.260778068584
 30
0.0
 11
3928.805208522529
 21
2482.260778068584
 31
0.0
  0
LINE
  5
3E36
330
1F
100
AcDbEntity
  8
single
100
AcDbLine
 10
3928.805208522529
 20
2482.260778068584
 30
0.0
 11
3928.805208522529
 21
2552.260778068585
 31
0.0
  0
LINE
  5
3E37
330
1F
100
AcDbEntity
  8
single
100
AcDbLine
 10
3937.805208522529
 20
2552.260778068585
 30
0.0
 11
3937.805208522529
 21
2482.260778068584
 31
0.0
  0
LINE
  5
3E38
330
1F
100
AcDbEntity
  8
single
100
AcDbLine
 10
3937.805208522529
 20
2482.260778068584
 30
0.0
 11
4044.76609408299
 21
2482.260778068584
 31
0.0
  0
LINE
  5
3E39
330
1F
100
AcDbEntity
  8
WAKU
100
AcDbLine
 10
0.0
 20
0.0
 30
0.0
 11
5520.000000000002
 21
0.0
 31
0.0
  0
LINE
  5
3E3A
330
1F
100
AcDbEntity
  8
WAKU
100
AcDbLine
 10
5520.000000000002
 20
0.0
 30
0.0
 11
5520.000000000002
 21
3820.0
 31
0.0
  0
LINE
  5
3E3B
330
1F
100
AcDbEntity
  8
WAKU
100
AcDbLine
 10
5520.000000000002
 20
3820.0
 30
0.0
 11
0.0
 21
3820.0
 31
0.0
  0
LINE
  5
3E3C
330
1F
100
AcDbEntity
  8
WAKU
100
AcDbLine
 10
0.0
 20
3820.0
 30
0.0
 11
0.0
 21
0.0
 31
0.0
  0
LINE
  5
3E3D
330
1F
100
AcDbEntity
  8
WAKU
100
AcDbLine
 10
5520.000000000002
 20
3580.0
 30
0.0
 11
0.0
 21
3580.0
 31
0.0
  0
LINE
  5
3E3E
330
1F
100
AcDbEntity
  8
WAKU
100
AcDbLine
 10
0.0
 20
3580.0
 30
0.0
 11
0.0
 21
3820.0
 31
0.0
  0
LINE
  5
3E3F
330
1F
100
AcDbEntity
  8
WAKU
100
AcDbLine
 10
0.0
 20
3820.0
 30
0.0
 11
5520.000000000002
 21
3820.0
 31
0.0
  0
LINE
  5
3E40
330
1F
100
AcDbEntity
  8
WAKU
100
AcDbLine
 10
5520.000000000002
 20
3820.0
 30
0.0
 11
5520.000000000002
 21
3580.0
 31
0.0
  0
ENDSEC
  0
SECTION
  2
OBJECTS
  0
DICTIONARY
  5
C
330
0
100
AcDbDictionary
281
     1
  3
ACAD_CIP_PREVIOUS_PRODUCT_INFO
350
3A21
  3
ACAD_COLOR
350
35FD
  3
ACAD_DETAILVIEWSTYLE
350
3A1A
  3
ACAD_GROUP
350
D
  3
ACAD_LAYOUT
350
1A
  3
ACAD_MATERIAL
350
35D0
  3
ACAD_MLEADERSTYLE
350
3612
  3
ACAD_MLINESTYLE
350
17
  3
ACAD_PLOTSETTINGS
350
19
  3
ACAD_PLOTSTYLENAME
350
E
  3
ACAD_SCALELIST
350
3600
  3
ACAD_SECTIONVIEWSTYLE
350
3A18
  3
ACAD_TABLESTYLE
350
35FE
  3
ACAD_VISUALSTYLE
350
35E9
  3
ACDB_RECOMPOSE_DATA
350
3E43
  3
AcDbVariableDictionary
350
1835
  3
DWGPROPS
350
3E44
  0
DICTIONARY
  5
362F
330
8
100
AcDbDictionary
280
     1
281
     1
  0
DICTIONARY
  5
2D
330
2
100
AcDbDictionary
280
     1
281
     1
  3
ACAD_LAYERFILTERS
360
2E
  3
ACAD_LAYERSTATES
360
918
  0
DICTIONARY
  5
3621
330
10
100
AcDbDictionary
280
     1
281
     1
  3
ADSK_XREC_LAYER_RECONCILED
360
3622
  0
DICTIONARY
  5
3623
330
235F
100
AcDbDictionary
280
     1
281
     1
  3
ADSK_XREC_LAYER_RECONCILED
360
3624
  0
DICTIONARY
  5
3625
330
2361
100
AcDbDictionary
280
     1
281
     1
  3
ADSK_XREC_LAYER_RECONCILED
360
3626
  0
DICTIONARY
  5
3627
330
275A
100
AcDbDictionary
280
     1
281
     1
  3
ADSK_XREC_LAYER_RECONCILED
360
3628
  0
DICTIONARY
  5
3629
330
275B
100
AcDbDictionary
280
     1
281
     1
  3
ADSK_XREC_LAYER_RECONCILED
360
362A
  0
DICTIONARY
  5
38D9
330
38D8
100
AcDbDictionary
280
     1
281
     1
  0
DICTIONARY
  5
38DB
330
38DA
100
AcDbDictionary
280
     1
281
     1
  0
DICTIONARY
  5
1C62
330
1F
100
AcDbDictionary
280
     1
281
     1
  3
ACAD_SORTENTS
360
1C63
  0
DICTIONARY
  5
3936
330
392D
100
AcDbDictionary
280
     1
281
     1
  3
ACAD_SORTENTS
360
3937
  0
XRECORD
  5
3A21
102
{ACAD_REACTORS
330
C
102
}
330
C
100
AcDbXrecord
280
     1
300
ACD
300
2022
300

  0
DICTIONARY
  5
35FD
102
{ACAD_REACTORS
330
C
102
}
330
C
100
AcDbDictionary
281
     1
  0
DICTIONARY
  5
3A1A
102
{ACAD_REACTORS
330
C
102
}
330
C
100
AcDbDictionary
281
     1
  3
Metric50
350
3A1B
  0
DICTIONARY
  5
D
102
{ACAD_REACTORS
330
C
102
}
330
C
100
AcDbDictionary
281
     1
  0
DICTIONARY
  5
1A
102
{ACAD_REACTORS
330
C
102
}
330
C
100
AcDbDictionary
281
     1
  3
Model
350
22
  3
\U+FF9A\U+FF72\U+FF71\U+FF73\U+FF841
350
1CD1
  0
DICTIONARY
  5
35D0
102
{ACAD_REACTORS
330
C
102
}
330
C
100
AcDbDictionary
281
     1
  3
ByBlock
350
35D9
  3
ByLayer
350
35D1
  3
Global
350
35E1
  0
DICTIONARY
  5
3612
102
{ACAD_REACTORS
330
C
102
}
330
C
100
AcDbDictionary
281
     1
  3
Standard
350
3613
  0
DICTIONARY
  5
17
102
{ACAD_REACTORS
330
C
102
}
330
C
100
AcDbDictionary
281
     1
  3
Standard
350
18
  0
DICTIONARY
  5
19
102
{ACAD_REACTORS
330
C
102
}
330
C
100
AcDbDictionary
281
     1
  0
ACDBDICTIONARYWDFLT
  5
E
102
{ACAD_REACTORS
330
C
102
}
330
C
100
AcDbDictionary
281
     1
  3
Normal
350
F
  3
通常
350
29
100
AcDbDictionaryWithDefault
340
F
  0
DICTIONARY
  5
3600
102
{ACAD_REACTORS
330
C
102
}
330
C
100
AcDbDictionary
281
     1
  3
A0
350
3601
  3
A1
350
3602
  3
A2
350
3603
  3
A3
350
3604
  3
A4
350
3605
  3
A5
350
3606
  3
A6
350
3607
  3
A7
350
3608
  3
A8
350
3609
  3
A9
350
360A
  3
B0
350
360B
  3
B1
350
360C
  3
B2
350
360D
  3
B3
350
360E
  3
B4
350
360F
  3
B5
350
3610
  3
B6
350
3611
  0
DICTIONARY
  5
3A18
102
{ACAD_REACTORS
330
C
102
}
330
C
100
AcDbDictionary
281
     1
  3
Metric50
350
3A19
  0
DICTIONARY
  5
35FE
102
{ACAD_REACTORS
330
C
102
}
330
C
100
AcDbDictionary
281
     1
  3
Standard
350
35FF
  0
DICTIONARY
  5
35E9
102
{ACAD_REACTORS
330
C
102
}
330
C
100
AcDbDictionary
281
     1
  3
2dWireframe
350
35EF
  3
3D Hidden
350
35F1
  3
3dWireframe
350
35F0
  3
Basic
350
35EE
  3
Brighten
350
35F5
  3
ColorChange
350
35F9
  3
Conceptual
350
35F2
  3
Dim
350
35F4
  3
EdgeColorOff
350
35FC
  3
Facepattern
350
35F8
  3
Flat
350
35EA
  3
FlatWithEdges
350
35EB
  3
Gouraud
350
35EC
  3
GouraudWithEdges
350
35ED
  3
Hidden
350
3A12
  3
JitterOff
350
35FA
  3
Linepattern
350
35F7
  3
OverhangOff
350
35FB
  3
Realistic
350
35F3
  3
Shaded
350
3A17
  3
Shaded with edges
350
3A16
  3
Shades of Gray
350
3A13
  3
Sketchy
350
3A14
  3
Thicken
350
35F6
  3
Wireframe
350
3A11
  3
X-Ray
350
3A15
  0
XRECORD
  5
3E43
102
{ACAD_REACTORS
330
C
102
}
330
C
100
AcDbXrecord
280
     1
 90
        1
330
35FF
  0
DICTIONARY
  5
1835
102
{ACAD_REACTORS
330
C
102
}
330
C
100
AcDbDictionary
281
     1
  3
CANNOSCALE
350
3662
  3
CMLEADERSTYLE
350
3661
  3
CTABLESTYLE
350
3660
  3
CVIEWDETAILSTYLE
350
3A67
  3
CVIEWSECTIONSTYLE
350
3A68
  3
DIMASSOC
350
3664
  3
INDEXCTL
350
3663
  3
SORTENTS
350
1836
  3
XCLIPFRAME
350
3E41
  0
XRECORD
  5
3E44
102
{ACAD_REACTORS
330
C
102
}
330
C
100
AcDbXrecord
280
     1
  1
DWGPROPS COOKIE
  2

  3

  4

  6

  7

  8
2020009
  9

300
=
301
=
302
=
303
=
304
=
305
=
306
=
307
=
308
=
309
=
 40
0.2681135416666667
 41
2453276.413761574
 42
2459978.551956019
  1

 90
        0
  0
DICTIONARY
  5
2E
102
{ACAD_REACTORS
330
2D
102
}
330
2D
100
AcDbDictionary
280
     1
281
     1
  0
DICTIONARY
  5
918
102
{ACAD_REACTORS
330
2D
102
}
330
2D
100
AcDbDictionary
281
     1
  0
XRECORD
  5
3622
102
{ACAD_REACTORS
330
3621
102
}
330
3621
100
AcDbXrecord
280
     1
290
     1
  0
XRECORD
  5
3624
102
{ACAD_REACTORS
330
3623
102
}
330
3623
100
AcDbXrecord
280
     1
290
     1
  0
XRECORD
  5
3626
102
{ACAD_REACTORS
330
3625
102
}
330
3625
100
AcDbXrecord
280
     1
290
     1
  0
XRECORD
  5
3628
102
{ACAD_REACTORS
330
3627
102
}
330
3627
100
AcDbXrecord
280
     1
290
     1
  0
XRECORD
  5
362A
102
{ACAD_REACTORS
330
3629
102
}
330
3629
100
AcDbXrecord
280
     1
290
     1
  0
SORTENTSTABLE
  5
1C63
102
{ACAD_REACTORS
330
1C62
102
}
330
1C62
100
AcDbSortentsTable
330
1F
331
3472
  5
3C88
331
3803
  5
3CDE
331
38F0
  5
3E3C
331
38F1
  5
3E3D
331
38F2
  5
3E3E
331
38F3
  5
3E3F
331
38F4
  5
3E40
331
3C85
  5
3472
331
3C86
  5
3803
331
3C87
  5
38F0
331
3C88
  5
38F1
331
3C89
  5
38F2
331
3C8A
  5
38F3
331
3C8B
  5
38F4
331
3C8C
  5
3C85
331
3C8D
  5
3C86
331
3C8E
  5
3C87
331
3C8F
  5
3C89
331
3C90
  5
3C8A
331
3C91
  5
3C8B
331
3C92
  5
3C8C
331
3C93
  5
3C8D
331
3C94
  5
3C8E
331
3C95
  5
3C8F
331
3C96
  5
3C90
331
3C97
  5
3C91
331
3C98
  5
3C92
331
3C99
  5
3C93
331
3C9A
  5
3C94
331
3C9B
  5
3C95
331
3C9C
  5
3C96
331
3C9D
  5
3C97
331
3C9E
  5
3C98
331
3C9F
  5
3C99
331
3CA0
  5
3C9A
331
3CA1
  5
3C9B
331
3CA2
  5
3C9C
331
3CA3
  5
3C9D
331
3CA4
  5
3C9E
331
3CA5
  5
3C9F
331
3CA6
  5
3CA0
331
3CA7
  5
3CA1
331
3CA8
  5
3CA2
331
3CA9
  5
3CA3
331
3CAA
  5
3CA4
331
3CAB
  5
3CA5
331
3CAC
  5
3CA6
331
3CAD
  5
3CA7
331
3CAE
  5
3CA8
331
3CAF
  5
3CA9
331
3CB0
  5
3CAA
331
3CB1
  5
3CAB
331
3CB2
  5
3CAC
331
3CB3
  5
3CAD
331
3CB4
  5
3CAE
331
3CB5
  5
3CAF
331
3CB6
  5
3CB0
331
3CB7
  5
3CB1
331
3CB8
  5
3CB2
331
3CB9
  5
3CB3
331
3CBA
  5
3CB4
331
3CBB
  5
3CB5
331
3CBC
  5
3CB6
331
3CBD
  5
3CB7
331
3CBE
  5
3CB8
331
3CBF
  5
3CB9
331
3CC0
  5
3CBA
331
3CC1
  5
3CBB
331
3CC2
  5
3CBC
331
3CC3
  5
3CBD
331
3CC4
  5
3CBE
331
3CC5
  5
3CBF
331
3CC6
  5
3CC0
331
3CC7
  5
3CC1
331
3CC8
  5
3CC2
331
3CC9
  5
3CC3
331
3CCA
  5
3CC4
331
3CCB
  5
3CC5
331
3CCC
  5
3CC6
331
3CCD
  5
3CC7
331
3CCE
  5
3CC8
331
3CCF
  5
3CC9
331
3CD0
  5
3CCA
331
3CD1
  5
3CCB
331
3CD2
  5
3CCC
331
3CD3
  5
3CCD
331
3CD4
  5
3CCE
331
3CD5
  5
3CCF
331
3CD6
  5
3CD0
331
3CD7
  5
3CD1
331
3CD8
  5
3CD2
331
3CD9
  5
3CD3
331
3CDA
  5
3CD4
331
3CDB
  5
3CD5
331
3CDC
  5
3CD6
331
3CDD
  5
3CD7
331
3CDE
  5
3CD8
331
3CDF
  5
3CD9
331
3CE0
  5
3CDA
331
3CE1
  5
3CDB
331
3CE2
  5
3CDC
331
3CE3
  5
3CDD
331
3CE4
  5
3CDF
331
3CE5
  5
3CE0
331
3CE6
  5
3CE1
331
3CE7
  5
3CE2
331
3CE8
  5
3CE3
331
3CE9
  5
3CE4
331
3CEA
  5
3CE5
331
3CEB
  5
3CE6
331
3CEC
  5
3CE7
331
3CED
  5
3CE8
331
3CEE
  5
3CE9
331
3CEF
  5
3CEA
331
3CF0
  5
3CEB
331
3CF1
  5
3CEC
331
3CF2
  5
3CED
331
3CF3
  5
3CEE
331
3CF4
  5
3CEF
331
3CF5
  5
3CF0
331
3CF6
  5
3CF1
331
3CF7
  5
3CF2
331
3CF8
  5
3CF3
331
3CF9
  5
3CF4
331
3CFA
  5
3CF5
331
3CFB
  5
3CF6
331
3CFC
  5
3CF7
331
3CFD
  5
3CF8
331
3CFE
  5
3CF9
331
3CFF
  5
3CFA
331
3D00
  5
3CFB
331
3D01
  5
3CFC
331
3D02
  5
3CFD
331
3D03
  5
3CFE
331
3D04
  5
3CFF
331
3D05
  5
3D00
331
3D06
  5
3D01
331
3D07
  5
3D02
331
3D08
  5
3D03
331
3D09
  5
3D04
331
3D0A
  5
3D05
331
3D0B
  5
3D06
331
3D0C
  5
3D07
331
3D0D
  5
3D08
331
3D0E
  5
3D09
331
3D0F
  5
3D0A
331
3D10
  5
3D0B
331
3D11
  5
3D0C
331
3D12
  5
3D0D
331
3D13
  5
3D0E
331
3D14
  5
3D0F
331
3D15
  5
3D10
331
3D16
  5
3D11
331
3D17
  5
3D12
331
3D18
  5
3D13
331
3D19
  5
3D14
331
3D1A
  5
3D15
331
3D1B
  5
3D16
331
3D1C
  5
3D17
331
3D1D
  5
3D18
331
3D1E
  5
3D19
331
3D1F
  5
3D1A
331
3D20
  5
3D1B
331
3D21
  5
3D1C
331
3D22
  5
3D1D
331
3D23
  5
3D1E
331
3D24
  5
3D1F
331
3D25
  5
3D20
331
3D26
  5
3D21
331
3D27
  5
3D22
331
3D28
  5
3D23
331
3D29
  5
3D24
331
3D2A
  5
3D25
331
3D2B
  5
3D26
331
3D2C
  5
3D27
331
3D2D
  5
3D28
331
3D2E
  5
3D29
331
3D2F
  5
3D2A
331
3D30
  5
3D2B
331
3D31
  5
3D2C
331
3D32
  5
3D2D
331
3D33
  5
3D2E
331
3D34
  5
3D2F
331
3D35
  5
3D30
331
3D36
  5
3D31
331
3D37
  5
3D32
331
3D38
  5
3D33
331
3D39
  5
3D34
331
3D3A
  5
3D35
331
3D3B
  5
3D36
331
3D3C
  5
3D37
331
3D3D
  5
3D38
331
3D3E
  5
3D39
331
3D3F
  5
3D3A
331
3D40
  5
3D3B
331
3D41
  5
3D3C
331
3D42
  5
3D3D
331
3D43
  5
3D3E
331
3D44
  5
3D3F
331
3D45
  5
3D40
331
3D46
  5
3D41
331
3D47
  5
3D42
331
3D48
  5
3D43
331
3D49
  5
3D44
331
3D4A
  5
3D45
331
3D4B
  5
3D46
331
3D4C
  5
3D47
331
3D4D
  5
3D48
331
3D4E
  5
3D49
331
3D4F
  5
3D4A
331
3D50
  5
3D4B
331
3D51
  5
3D4C
331
3D52
  5
3D4D
331
3D53
  5
3D4E
331
3D54
  5
3D4F
331
3D55
  5
3D50
331
3D56
  5
3D51
331
3D57
  5
3D52
331
3D58
  5
3D53
331
3D59
  5
3D54
331
3D5A
  5
3D55
331
3D5B
  5
3D56
331
3D5C
  5
3D57
331
3D5D
  5
3D58
331
3D5E
  5
3D59
331
3D5F
  5
3D5A
331
3D60
  5
3D5B
331
3D61
  5
3D5C
331
3D62
  5
3D5D
331
3D63
  5
3D5E
331
3D64
  5
3D5F
331
3D65
  5
3D60
331
3D66
  5
3D61
331
3D67
  5
3D62
331
3D68
  5
3D63
331
3D69
  5
3D64
331
3D6A
  5
3D65
331
3D6B
  5
3D66
331
3D6C
  5
3D67
331
3D6D
  5
3D68
331
3D6E
  5
3D69
331
3D6F
  5
3D6A
331
3D70
  5
3D6B
331
3D71
  5
3D6C
331
3D72
  5
3D6D
331
3D73
  5
3D6E
331
3D74
  5
3D6F
331
3D75
  5
3D70
331
3D76
  5
3D71
331
3D77
  5
3D72
331
3D78
  5
3D73
331
3D79
  5
3D74
331
3D7A
  5
3D75
331
3D7B
  5
3D76
331
3D7C
  5
3D77
331
3D7D
  5
3D78
331
3D7E
  5
3D79
331
3D7F
  5
3D7A
331
3D80
  5
3D7B
331
3D81
  5
3D7C
331
3D82
  5
3D7D
331
3D83
  5
3D7E
331
3D84
  5
3D7F
331
3D85
  5
3D80
331
3D86
  5
3D81
331
3D87
  5
3D82
331
3D88
  5
3D83
331
3D89
  5
3D84
331
3D8A
  5
3D85
331
3D8B
  5
3D86
331
3D8C
  5
3D87
331
3D8D
  5
3D88
331
3D8E
  5
3D89
331
3D8F
  5
3D8A
331
3D90
  5
3D8B
331
3D91
  5
3D8C
331
3D92
  5
3D8D
331
3D93
  5
3D8E
331
3D94
  5
3D8F
331
3D95
  5
3D90
331
3D96
  5
3D91
331
3D97
  5
3D92
331
3D98
  5
3D93
331
3D99
  5
3D94
331
3D9A
  5
3D95
331
3D9B
  5
3D96
331
3D9C
  5
3D97
331
3D9D
  5
3D98
331
3D9E
  5
3D99
331
3D9F
  5
3D9A
331
3DA0
  5
3D9B
331
3DA1
  5
3D9C
331
3DA2
  5
3D9D
331
3DA3
  5
3D9E
331
3DA4
  5
3D9F
331
3DA5
  5
3DA0
331
3DA6
  5
3DA1
331
3DA7
  5
3DA2
331
3DA8
  5
3DA3
331
3DA9
  5
3DA4
331
3DAA
  5
3DA5
331
3DAB
  5
3DA6
331
3DAC
  5
3DA7
331
3DAD
  5
3DA8
331
3DAE
  5
3DA9
331
3DAF
  5
3DAA
331
3DB0
  5
3DAB
331
3DB1
  5
3DAC
331
3DB2
  5
3DAD
331
3DB3
  5
3DAE
331
3DB4
  5
3DAF
331
3DB5
  5
3DB0
331
3DB6
  5
3DB1
331
3DB7
  5
3DB2
331
3DB8
  5
3DB3
331
3DB9
  5
3DB4
331
3DBA
  5
3DB5
331
3DBB
  5
3DB6
331
3DBC
  5
3DB7
331
3DBD
  5
3DB8
331
3DBE
  5
3DB9
331
3DBF
  5
3DBA
331
3DC0
  5
3DBB
331
3DC1
  5
3DBC
331
3DC2
  5
3DBD
331
3DC3
  5
3DBE
331
3DC4
  5
3DBF
331
3DC5
  5
3DC0
331
3DC6
  5
3DC1
331
3DC7
  5
3DC2
331
3DC8
  5
3DC3
331
3DC9
  5
3DC4
331
3DCA
  5
3DC5
331
3DCB
  5
3DC6
331
3DCC
  5
3DC7
331
3DCD
  5
3DC8
331
3DCE
  5
3DC9
331
3DCF
  5
3DCA
331
3DD0
  5
3DCB
331
3DD1
  5
3DCC
331
3DD2
  5
3DCD
331
3DD3
  5
3DCE
331
3DD4
  5
3DCF
331
3DD5
  5
3DD0
331
3DD6
  5
3DD1
331
3DD7
  5
3DD2
331
3DD8
  5
3DD3
331
3DD9
  5
3DD4
331
3DDA
  5
3DD5
331
3DDB
  5
3DD6
331
3DDC
  5
3DD7
331
3DDD
  5
3DD8
331
3DDE
  5
3DD9
331
3DDF
  5
3DDA
331
3DE0
  5
3DDB
331
3DE1
  5
3DDC
331
3DE2
  5
3DDD
331
3DE3
  5
3DDE
331
3DE4
  5
3DDF
331
3DE5
  5
3DE0
331
3DE6
  5
3DE1
331
3DE7
  5
3DE2
331
3DE8
  5
3DE3
331
3DE9
  5
3DE4
331
3DEA
  5
3DE5
331
3DEB
  5
3DE6
331
3DEC
  5
3DE7
331
3DED
  5
3DE8
331
3DEE
  5
3DE9
331
3DEF
  5
3DEA
331
3DF0
  5
3DEB
331
3DF1
  5
3DEC
331
3DF2
  5
3DED
331
3DF3
  5
3DEE
331
3DF4
  5
3DEF
331
3DF5
  5
3DF0
331
3DF6
  5
3DF1
331
3DF7
  5
3DF2
331
3DF8
  5
3DF3
331
3DF9
  5
3DF4
331
3DFA
  5
3DF5
331
3DFB
  5
3DF6
331
3DFC
  5
3DF7
331
3DFD
  5
3DF8
331
3DFE
  5
3DF9
331
3DFF
  5
3DFA
331
3E00
  5
3DFB
331
3E01
  5
3DFC
331
3E02
  5
3DFD
331
3E03
  5
3DFE
331
3E04
  5
3DFF
331
3E05
  5
3E00
331
3E06
  5
3E01
331
3E07
  5
3E02
331
3E08
  5
3E03
331
3E09
  5
3E04
331
3E0A
  5
3E05
331
3E0B
  5
3E06
331
3E0C
  5
3E07
331
3E0D
  5
3E08
331
3E0E
  5
3E09
331
3E0F
  5
3E0A
331
3E10
  5
3E0B
331
3E11
  5
3E0C
331
3E12
  5
3E0D
331
3E13
  5
3E0E
331
3E14
  5
3E0F
331
3E15
  5
3E10
331
3E16
  5
3E11
331
3E17
  5
3E12
331
3E18
  5
3E13
331
3E19
  5
3E14
331
3E1A
  5
3E15
331
3E1B
  5
3E16
331
3E1C
  5
3E17
331
3E1D
  5
3E18
331
3E1E
  5
3E19
331
3E1F
  5
3E1A
331
3E20
  5
3E1B
331
3E21
  5
3E1C
331
3E22
  5
3E1D
331
3E23
  5
3E1E
331
3E24
  5
3E1F
331
3E25
  5
3E20
331
3E26
  5
3E21
331
3E27
  5
3E22
331
3E28
  5
3E23
331
3E29
  5
3E24
331
3E2A
  5
3E25
331
3E2B
  5
3E26
331
3E2C
  5
3E27
331
3E2D
  5
3E28
331
3E2E
  5
3E29
331
3E2F
  5
3E2A
331
3E30
  5
3E2B
331
3E31
  5
3E2C
331
3E32
  5
3E2D
331
3E33
  5
3E2E
331
3E34
  5
3E2F
331
3E35
  5
3E30
331
3E36
  5
3E31
331
3E37
  5
3E32
331
3E38
  5
3E33
331
3E39
  5
3E34
331
3E3A
  5
3E35
331
3E3B
  5
3E36
331
3E3C
  5
3E37
331
3E3D
  5
3E38
331
3E3E
  5
3E39
331
3E3F
  5
3E3A
331
3E40
  5
3E3B
  0
SORTENTSTABLE
  5
3937
102
{ACAD_REACTORS
330
3936
102
}
330
3936
100
AcDbSortentsTable
330
392D
  0
ACDBDETAILVIEWSTYLE
  5
3A1B
102
{ACAD_XDICTIONARY
360
3E83
102
}
102
{ACAD_REACTORS
330
3A1A
102
}
330
3A1A
100
AcDbModelDocViewStyle
 70
     0
  3
Metric50
290
     0
100
AcDbDetailViewStyle
 70
     0
 71
     0
 90
        3
 71
     1
340
11
 40
5.0
340
0
 40
5.0
300

 40
0.0
280
     1
 71
     2
340
16
 90
       25
 71
     3
340
11
 40
5.0
 90
        0
 40
15.0
 90
        1
300
%<\AcVar ViewDetailId>% (%<\AcVar ViewScale \f "%sn">%)
 71
     4
340
16
 90
       25
340
16
 90
       25
280
     0
  0
LAYOUT
  5
22
102
{ACAD_XDICTIONARY
360
3E45
102
}
102
{ACAD_REACTORS
330
1A
102
}
330
1A
100
AcDbPlotSettings
  1

  2
Canon LBP3800 LIPSLX
  4
A4
  6

 40
5.873749732971191
 41
5.873747825622558
 42
5.873748779296875
 43
5.873748779296875
 44
209.9733276367187
 45
296.9259948730469
 46
0.61
 47
0.59
 48
444.9983463649091
 49
-1090.000000918417
140
2395.001653364909
141
1659.999999081583
142
1.0
143
10.0
 70
 11940
 72
     1
 73
     1
 74
     2
  7
monochrome.ctb
 75
     0
147
0.1
148
0.0
149
0.0
100
AcDbLayout
  1
Model
 70
     1
 71
     0
 10
0.0
 20
0.0
 11
12.0
 21
9.0
 12
0.0
 22
0.0
 32
0.0
 14
0.0
 24
0.0
 34
0.0
 15
0.0
 25
0.0
 35
0.0
146
0.0
 13
0.0
 23
0.0
 33
0.0
 16
1.0
 26
0.0
 36
0.0
 17
0.0
 27
1.0
 37
0.0
 76
     0
330
1F
331
35CE
  0
LAYOUT
  5
1CD1
102
{ACAD_XDICTIONARY
360
3E47
102
}
102
{ACAD_REACTORS
330
1A
102
}
330
1A
100
AcDbPlotSettings
  1

  2
\\ek_srv\Canon LBP-880 LIPS4
  4

  6

 40
0.0
 41
0.0
 42
0.0
 43
0.0
 44
0.0
 45
0.0
 46
0.0
 47
0.0
 48
0.0
 49
0.0
140
0.0
141
0.0
142
1.0
143
1.0
 70
   688
 72
     0
 73
     0
 74
     5
  7
monochrome.ctb
 75
    16
147
1.0
148
0.0
149
0.0
100
AcDbLayout
  1
\U+FF9A\U+FF72\U+FF71\U+FF73\U+FF841
 70
     1
 71
     1
 10
0.0
 20
0.0
 11
12.0
 21
9.0
 12
0.0
 22
0.0
 32
0.0
 14
0.0
 24
0.0
 34
0.0
 15
0.0
 25
0.0
 35
0.0
146
0.0
 13
0.0
 23
0.0
 33
0.0
 16
1.0
 26
0.0
 36
0.0
 17
0.0
 27
1.0
 37
0.0
 76
     0
330
1CD0
  0
MATERIAL
  5
35D9
102
{ACAD_XDICTIONARY
360
35DA
102
}
102
{ACAD_REACTORS
330
35D0
102
}
330
35D0
100
AcDbMaterial
  1
ByBlock
 72
     0
 43
0.0008202099737533
 43
0.0
 43
0.0
 43
0.0
 43
0.0
 43
0.0008202099737533
 43
0.0
 43
0.0
 43
0.0
 43
0.0
 43
1.0
 43
0.0
 43
0.0
 43
0.0
 43
0.0
 43
1.0
 77
     0
 47
0.0008202099737533
 47
0.0
 47
0.0
 47
0.0
 47
0.0
 47
0.0008202099737533
 47
0.0
 47
0.0
 47
0.0
 47
0.0
 47
1.0
 47
0.0
 47
0.0
 47
0.0
 47
0.0
 47
1.0
171
     0
 49
0.0008202099737533
 49
0.0
 49
0.0
 49
0.0
 49
0.0
 49
0.0008202099737533
 49
0.0
 49
0.0
 49
0.0
 49
0.0
 49
1.0
 49
0.0
 49
0.0
 49
0.0
 49
0.0
 49
1.0
175
     0
142
0.0008202099737533
142
0.0
142
0.0
142
0.0
142
0.0
142
0.0008202099737533
142
0.0
142
0.0
142
0.0
142
0.0
142
1.0
142
0.0
142
0.0
142
0.0
142
0.0
142
1.0
179
     0
144
0.0008202099737533
144
0.0
144
0.0
144
0.0
144
0.0
144
0.0008202099737533
144
0.0
144
0.0
144
0.0
144
0.0
144
1.0
144
0.0
144
0.0
144
0.0
144
0.0
144
1.0
147
0.0008202099737533
147
0.0
147
0.0
147
0.0
147
0.0
147
0.0008202099737533
147
0.0
147
0.0
147
0.0
147
0.0
147
1.0
147
0.0
147
0.0
147
0.0
147
0.0
147
1.0
  0
MATERIAL
  5
35D1
102
{ACAD_XDICTIONARY
360
35D2
102
}
102
{ACAD_REACTORS
330
35D0
102
}
330
35D0
100
AcDbMaterial
  1
ByLayer
 72
     0
 43
0.0008202099737533
 43
0.0
 43
0.0
 43
0.0
 43
0.0
 43
0.0008202099737533
 43
0.0
 43
0.0
 43
0.0
 43
0.0
 43
1.0
 43
0.0
 43
0.0
 43
0.0
 43
0.0
 43
1.0
 77
     0
 47
0.0008202099737533
 47
0.0
 47
0.0
 47
0.0
 47
0.0
 47
0.0008202099737533
 47
0.0
 47
0.0
 47
0.0
 47
0.0
 47
1.0
 47
0.0
 47
0.0
 47
0.0
 47
0.0
 47
1.0
171
     0
 49
0.0008202099737533
 49
0.0
 49
0.0
 49
0.0
 49
0.0
 49
0.0008202099737533
 49
0.0
 49
0.0
 49
0.0
 49
0.0
 49
1.0
 49
0.0
 49
0.0
 49
0.0
 49
0.0
 49
1.0
175
     0
142
0.0008202099737533
142
0.0
142
0.0
142
0.0
142
0.0
142
0.0008202099737533
142
0.0
142
0.0
142
0.0
142
0.0
142
1.0
142
0.0
142
0.0
142
0.0
142
0.0
142
1.0
179
     0
144
0.0008202099737533
144
0.0
144
0.0
144
0.0
144
0.0
144
0.0008202099737533
144
0.0
144
0.0
144
0.0
144
0.0
144
1.0
144
0.0
144
0.0
144
0.0
144
0.0
144
1.0
147
0.0008202099737533
147
0.0
147
0.0
147
0.0
147
0.0
147
0.0008202099737533
147
0.0
147
0.0
147
0.0
147
0.0
147
1.0
147
0.0
147
0.0
147
0.0
147
0.0
147
1.0
  0
MATERIAL
  5
35E1
102
{ACAD_XDICTIONARY
360
35E2
102
}
102
{ACAD_REACTORS
330
35D0
102
}
330
35D0
100
AcDbMaterial
  1
Global
 72
     0
 43
0.0008202099737533
 43
0.0
 43
0.0
 43
0.0
 43
0.0
 43
0.0008202099737533
 43
0.0
 43
0.0
 43
0.0
 43
0.0
 43
1.0
 43
0.0
 43
0.0
 43
0.0
 43
0.0
 43
1.0
 77
     0
 47
0.0008202099737533
 47
0.0
 47
0.0
 47
0.0
 47
0.0
 47
0.0008202099737533
 47
0.0
 47
0.0
 47
0.0
 47
0.0
 47
1.0
 47
0.0
 47
0.0
 47
0.0
 47
0.0
 47
1.0
171
     0
 49
0.0008202099737533
 49
0.0
 49
0.0
 49
0.0
 49
0.0
 49
0.0008202099737533
 49
0.0
 49
0.0
 49
0.0
 49
0.0
 49
1.0
 49
0.0
 49
0.0
 49
0.0
 49
0.0
 49
1.0
175
     0
142
0.0008202099737533
142
0.0
142
0.0
142
0.0
142
0.0
142
0.0008202099737533
142
0.0
142
0.0
142
0.0
142
0.0
142
1.0
142
0.0
142
0.0
142
0.0
142
0.0
142
1.0
179
     0
144
0.0008202099737533
144
0.0
144
0.0
144
0.0
144
0.0
144
0.0008202099737533
144
0.0
144
0.0
144
0.0
144
0.0
144
1.0
144
0.0
144
0.0
144
0.0
144
0.0
144
1.0
147
0.0008202099737533
147
0.0
147
0.0
147
0.0
147
0.0
147
0.0008202099737533
147
0.0
147
0.0
147
0.0
147
0.0
147
1.0
147
0.0
147
0.0
147
0.0
147
0.0
147
1.0
  0
MLEADERSTYLE
  5
3613
102
{ACAD_REACTORS
330
3612
102
}
330
3612
100
AcDbMLeaderStyle
170
     2
171
     1
172
     0
 90
        2
 40
0.0
 41
0.0
173
     1
 91
-1056964608
340
14
 92
       -2
290
     1
 42
2.0
291
     1
 43
0.36
  3
Standard
 44
4.0
300

342
11
174
     1
178
     6
175
     1
176
     0
 93
-1056964608
 45
4.0
292
     0
297
     0
 46
4.0
 94
-1056964608
 47
1.0
 49
1.0
140
1.0
293
     1
141
0.0
294
     1
177
     0
142
1.0
295
     0
296
     0
143
0.125
1001
ACAD_MLEADERVER
1070
     2
  0
MLINESTYLE
  5
18
102
{ACAD_REACTORS
330
17
102
}
330
17
100
AcDbMlineStyle
  2
STANDARD
 70
     0
  3

 62
   256
 51
90.0
 52
90.0
 71
     2
 49
0.5
 62
   256
  6
BYLAYER
 49
-0.5
 62
   256
  6
BYLAYER
  0
ACDBPLACEHOLDER
  5
F
102
{ACAD_REACTORS
330
E
102
}
330
E
  0
ACDBPLACEHOLDER
  5
29
102
{ACAD_REACTORS
330
E
102
}
330
E
  0
SCALE
  5
3601
102
{ACAD_REACTORS
330
3600
102
}
330
3600
100
AcDbScale
 70
     0
300
1:1
140
1.0
141
1.0
290
     1
  0
SCALE
  5
3602
102
{ACAD_REACTORS
330
3600
102
}
330
3600
100
AcDbScale
 70
     0
300
1:2
140
1.0
141
2.0
290
     0
  0
SCALE
  5
3603
102
{ACAD_REACTORS
330
3600
102
}
330
3600
100
AcDbScale
 70
     0
300
1:4
140
1.0
141
4.0
290
     0
  0
SCALE
  5
3604
102
{ACAD_REACTORS
330
3600
102
}
330
3600
100
AcDbScale
 70
     0
300
1:5
140
1.0
141
5.0
290
     0
  0
SCALE
  5
3605
102
{ACAD_REACTORS
330
3600
102
}
330
3600
100
AcDbScale
 70
     0
300
1:8
140
1.0
141
8.0
290
     0
  0
SCALE
  5
3606
102
{ACAD_REACTORS
330
3600
102
}
330
3600
100
AcDbScale
 70
     0
300
1:10
140
1.0
141
10.0
290
     0
  0
SCALE
  5
3607
102
{ACAD_REACTORS
330
3600
102
}
330
3600
100
AcDbScale
 70
     0
300
1:16
140
1.0
141
16.0
290
     0
  0
SCALE
  5
3608
102
{ACAD_REACTORS
330
3600
102
}
330
3600
100
AcDbScale
 70
     0
300
1:20
140
1.0
141
20.0
290
     0
  0
SCALE
  5
3609
102
{ACAD_REACTORS
330
3600
102
}
330
3600
100
AcDbScale
 70
     0
300
1:30
140
1.0
141
30.0
290
     0
  0
SCALE
  5
360A
102
{ACAD_REACTORS
330
3600
102
}
330
3600
100
AcDbScale
 70
     0
300
1:40
140
1.0
141
40.0
290
     0
  0
SCALE
  5
360B
102
{ACAD_REACTORS
330
3600
102
}
330
3600
100
AcDbScale
 70
     0
300
1:50
140
1.0
141
50.0
290
     0
  0
SCALE
  5
360C
102
{ACAD_REACTORS
330
3600
102
}
330
3600
100
AcDbScale
 70
     0
300
1:100
140
1.0
141
100.0
290
     0
  0
SCALE
  5
360D
102
{ACAD_REACTORS
330
3600
102
}
330
3600
100
AcDbScale
 70
     0
300
2:1
140
2.0
141
1.0
290
     0
  0
SCALE
  5
360E
102
{ACAD_REACTORS
330
3600
102
}
330
3600
100
AcDbScale
 70
     0
300
4:1
140
4.0
141
1.0
290
     0
  0
SCALE
  5
360F
102
{ACAD_REACTORS
330
3600
102
}
330
3600
100
AcDbScale
 70
     0
300
8:1
140
8.0
141
1.0
290
     0
  0
SCALE
  5
3610
102
{ACAD_REACTORS
330
3600
102
}
330
3600
100
AcDbScale
 70
     0
300
10:1
140
10.0
141
1.0
290
     0
  0
SCALE
  5
3611
102
{ACAD_REACTORS
330
3600
102
}
330
3600
100
AcDbScale
 70
     0
300
100:1
140
100.0
141
1.0
290
     0
  0
ACDBSECTIONVIEWSTYLE
  5
3A19
102
{ACAD_XDICTIONARY
360
3E81
102
}
102
{ACAD_REACTORS
330
3A18
102
}
330
3A18
100
AcDbModelDocViewStyle
 70
     0
  3
Metric50
290
     0
100
AcDbSectionViewStyle
 70
     0
 71
     0
 90
      102
 71
     1
340
11
 40
5.0
340
0
340
0
 40
5.0
300
I, O, Q, S, X, Z
 40
10.0
 90
        0
 40
2.5
 90
        0
 71
     2
340
16
 90
       25
340
16
 90
       50
 40
5.0
 40
2.5
 40
5.0
 71
     3
340
11
 40
5.0
 90
        0
 40
15.0
 90
        1
300
%<\AcVar ViewSectionStartId>%-%<\AcVar ViewSectionEndId>% (%<\AcVar ViewScale \f "%sn">%)
 71
     4
300
ANSI31
 40
1.0
 90
        0
290
     0
290
     0
 90
        6
 40
0.0
 40
1.570796326794896
 40
0.2617993877991494
 40
1.308996938995747
 40
-0.2617993877991494
 40
1.832595714594046
  0
TABLESTYLE
  5
35FF
102
{ACAD_XDICTIONARY
360
362B
102
}
102
{ACAD_REACTORS
330
35FE
102
}
330
35FE
100
AcDbTableStyle
  3
Standard
 70
     0
 71
     0
 40
1.5
 41
1.5
280
     0
281
     0
  7
Standard
140
4.5
170
     2
 62
     0
 63
     7
283
     0
274
    -2
284
     1
 64
     0
275
    -2
285
     1
 65
     0
276
    -2
286
     1
 66
     0
277
    -2
287
     1
 67
     0
278
    -2
288
     1
 68
     0
279
    -2
289
     1
 69
     0
  7
Standard
140
6.0
170
     5
 62
     0
 63
     7
283
     0
274
    -2
284
     1
 64
     0
275
    -2
285
     1
 65
     0
276
    -2
286
     1
 66
     0
277
    -2
287
     1
 67
     0
278
    -2
288
     1
 68
     0
279
    -2
289
     1
 69
     0
  7
Standard
140
4.5
170
     5
 62
     0
 63
     7
283
     0
274
    -2
284
     1
 64
     0
275
    -2
285
     1
 65
     0
276
    -2
286
     1
 66
     0
277
    -2
287
     1
 67
     0
278
    -2
288
     1
 68
     0
279
    -2
289
     1
 69
     0
  0
VISUALSTYLE
  5
35EF
102
{ACAD_XDICTIONARY
360
3E56
102
}
102
{ACAD_REACTORS
330
35E9
102
}
330
35E9
100
AcDbVisualStyle
  2
2dWireframe
 70
     4
 71
     0
 72
     2
 73
     0
 90
        0
 40
-0.6
 41
-30.0
 62
     5
 63
     7
 74
     1
 91
        4
 64
     7
 65
   257
 75
     1
175
     1
 42
1.0
 92
        0
 66
   257
 43
1.0
 76
     1
 77
     6
 78
     2
 67
     7
 79
     5
170
     0
171
     0
290
     0
174
     0
 93
        1
 44
0.0
173
     0
291
     0
 45
0.0
1001
ACAD
1000
AcDbSavedByObjectVersion
1070
     0
  0
VISUALSTYLE
  5
35F1
102
{ACAD_XDICTIONARY
360
3E5A
102
}
102
{ACAD_REACTORS
330
35E9
102
}
330
35E9
100
AcDbVisualStyle
  2
3D Hidden
 70
     6
 71
     1
 72
     2
 73
     2
 90
        0
 40
-0.6
 41
-30.0
 62
     5
 63
     7
 74
     2
 91
        2
 64
     7
 65
   257
 75
     2
175
     1
 42
179.0
 92
        0
 66
   257
 43
1.0
 76
     1
 77
     6
 78
     2
 67
     7
 79
     3
170
     0
171
     0
290
     0
174
     0
 93
        1
 44
0.0
173
     0
291
     0
 45
0.0
1001
ACAD
1000
AcDbSavedByObjectVersion
1070
     0
  0
VISUALSTYLE
  5
35F0
102
{ACAD_XDICTIONARY
360
3E58
102
}
102
{ACAD_REACTORS
330
35E9
102
}
330
35E9
100
AcDbVisualStyle
  2
3dWireframe
 70
     5
 71
     0
 72
     2
 73
     0
 90
        0
 40
-0.6
 41
-30.0
 62
     5
 63
     7
 74
     1
 91
        4
 64
     7
 65
   257
 75
     1
175
     1
 42
1.0
 92
        0
 66
   257
 43
1.0
 76
     1
 77
     6
 78
     2
 67
     7
 79
     5
170
     0
171
     0
290
     0
174
     0
 93
        1
 44
0.0
173
     0
291
     0
 45
0.0
1001
ACAD
1000
AcDbSavedByObjectVersion
1070
     0
  0
VISUALSTYLE
  5
35EE
102
{ACAD_XDICTIONARY
360
3E54
102
}
102
{ACAD_REACTORS
330
35E9
102
}
330
35E9
100
AcDbVisualStyle
  2
Basic
 70
     7
 71
     1
 72
     0
 73
     1
 90
        0
 40
-0.6
 41
-30.0
 62
     5
 63
     7
 74
     0
 91
        4
 64
     7
 65
   257
 75
     1
175
     1
 42
1.0
 92
        8
 66
     7
 43
1.0
 76
     1
 77
     6
 78
     2
 67
     7
 79
     5
170
     0
171
     0
290
     0
174
     0
 93
        1
 44
0.0
173
     0
291
     1
 45
0.0
1001
ACAD
1000
AcDbSavedByObjectVersion
1070
     0
  0
VISUALSTYLE
  5
35F5
102
{ACAD_XDICTIONARY
360
3E62
102
}
102
{ACAD_REACTORS
330
35E9
102
}
330
35E9
100
AcDbVisualStyle
  2
Brighten
 70
    12
 71
     2
 72
     2
 73
     0
 90
        0
 40
-0.6
 41
-30.0
 62
     5
 63
     7
 74
     1
 91
        4
 64
     7
 65
   257
 75
     1
175
     1
 42
1.0
 92
        8
 66
     7
 43
1.0
 76
     1
 77
     6
 78
     2
 67
     7
 79
     5
170
     0
171
     0
290
     0
174
     0
 93
        1
 44
50.0
173
     0
291
     1
 45
0.0
1001
ACAD
1000
AcDbSavedByObjectVersion
1070
     0
  0
VISUALSTYLE
  5
35F9
102
{ACAD_XDICTIONARY
360
3E6A
102
}
102
{ACAD_REACTORS
330
35E9
102
}
330
35E9
100
AcDbVisualStyle
  2
ColorChange
 70
    16
 71
     2
 72
     2
 73
     3
 90
        0
 40
-0.6
 41
-30.0
 62
     5
 63
     8
 74
     1
 91
        4
 64
     7
 65
   257
 75
     1
175
     1
 42
1.0
 92
        8
 66
     8
 43
1.0
 76
     1
 77
     6
 78
     2
 67
     7
 79
     5
170
     0
171
     0
290
     0
174
     0
 93
        1
 44
0.0
173
     0
291
     1
 45
0.0
1001
ACAD
1000
AcDbSavedByObjectVersion
1070
     0
  0
VISUALSTYLE
  5
35F2
102
{ACAD_XDICTIONARY
360
3E5C
102
}
102
{ACAD_REACTORS
330
35E9
102
}
330
35E9
100
AcDbVisualStyle
  2
Conceptual
 70
     9
 71
     3
 72
     2
 73
     0
 90
        0
 40
-0.6
 41
-30.0
 62
     5
 63
     7
 74
     2
 91
        2
 64
     7
 65
   257
 75
     1
175
     1
 42
179.0
 92
        8
 66
     7
 43
1.0
 76
     1
 77
     6
 78
     2
 67
     7
 79
     3
170
     0
171
     0
290
     0
174
     0
 93
        1
 44
0.0
173
     0
291
     0
 45
0.0
1001
ACAD
1000
AcDbSavedByObjectVersion
1070
     0
  0
VISUALSTYLE
  5
35F4
102
{ACAD_XDICTIONARY
360
3E60
102
}
102
{ACAD_REACTORS
330
35E9
102
}
330
35E9
100
AcDbVisualStyle
  2
Dim
 70
    11
 71
     2
 72
     2
 73
     0
 90
        0
 40
-0.6
 41
-30.0
 62
     5
 63
     7
 74
     1
 91
        4
 64
     7
 65
   257
 75
     1
175
     1
 42
1.0
 92
        8
 66
     7
 43
1.0
 76
     1
 77
     6
 78
     2
 67
     7
 79
     5
170
     0
171
     0
290
     0
174
     0
 93
        1
 44
-50.0
173
     0
291
     1
 45
0.0
1001
ACAD
1000
AcDbSavedByObjectVersion
1070
     0
  0
VISUALSTYLE
  5
35FC
102
{ACAD_XDICTIONARY
360
3E70
102
}
102
{ACAD_REACTORS
330
35E9
102
}
330
35E9
100
AcDbVisualStyle
  2
EdgeColorOff
 70
    22
 71
     2
 72
     2
 73
     0
 90
        0
 40
-0.6
 41
-30.0
 62
     5
 63
     7
 74
     1
 91
        4
 64
     7
 65
   257
 75
     1
175
     1
 42
1.0
 92
        8
 66
     7
 43
1.0
 76
     1
 77
     6
 78
     2
 67
     7
 79
     5
170
     0
171
     0
290
     0
174
     0
 93
        1
 44
0.0
173
     0
291
     1
 45
0.0
1001
ACAD
1000
AcDbSavedByObjectVersion
1070
     0
  0
VISUALSTYLE
  5
35F8
102
{ACAD_XDICTIONARY
360
3E68
102
}
102
{ACAD_REACTORS
330
35E9
102
}
330
35E9
100
AcDbVisualStyle
  2
Facepattern
 70
    15
 71
     2
 72
     2
 73
     0
 90
        0
 40
-0.6
 41
-30.0
 62
     5
 63
     7
 74
     1
 91
        4
 64
     7
 65
   257
 75
     1
175
     1
 42
1.0
 92
        8
 66
     7
 43
1.0
 76
     1
 77
     6
 78
     2
 67
     7
 79
     5
170
     0
171
     0
290
     0
174
     0
 93
        1
 44
0.0
173
     0
291
     1
 45
0.0
1001
ACAD
1000
AcDbSavedByObjectVersion
1070
     0
  0
VISUALSTYLE
  5
35EA
102
{ACAD_XDICTIONARY
360
3E4C
102
}
102
{ACAD_REACTORS
330
35E9
102
}
330
35E9
100
AcDbVisualStyle
  2
Flat
 70
     0
 71
     2
 72
     1
 73
     1
 90
        2
 40
-0.6
 41
30.0
 62
     5
 63
     7
 74
     0
 91
        4
 64
     7
 65
   257
 75
     1
175
     1
 42
1.0
 92
        8
 66
     7
 43
1.0
 76
     1
 77
     6
 78
     2
 67
     7
 79
     5
170
     0
171
     0
290
     0
174
     0
 93
       13
 44
0.0
173
     0
291
     1
 45
0.0
1001
ACAD
1000
AcDbSavedByObjectVersion
1070
     0
  0
VISUALSTYLE
  5
35EB
102
{ACAD_XDICTIONARY
360
3E4E
102
}
102
{ACAD_REACTORS
330
35E9
102
}
330
35E9
100
AcDbVisualStyle
  2
FlatWithEdges
 70
     1
 71
     2
 72
     1
 73
     1
 90
        2
 40
-0.6
 41
30.0
 62
     5
 63
     7
 74
     1
 91
        4
 64
     7
 65
   257
 75
     1
175
     1
 42
1.0
 92
        0
 66
   257
 43
1.0
 76
     1
 77
     6
 78
     2
 67
     7
 79
     5
170
     0
171
     0
290
     0
174
     0
 93
       13
 44
0.0
173
     0
291
     1
 45
0.0
1001
ACAD
1000
AcDbSavedByObjectVersion
1070
     0
  0
VISUALSTYLE
  5
35EC
102
{ACAD_XDICTIONARY
360
3E50
102
}
102
{ACAD_REACTORS
330
35E9
102
}
330
35E9
100
AcDbVisualStyle
  2
Gouraud
 70
     2
 71
     2
 72
     2
 73
     1
 90
        2
 40
-0.6
 41
30.0
 62
     5
 63
     7
 74
     0
 91
        4
 64
     7
 65
   257
 75
     1
175
     1
 42
1.0
 92
        0
 66
     7
 43
1.0
 76
     1
 77
     6
 78
     2
 67
     7
 79
     5
170
     0
171
     0
290
     0
174
     0
 93
       13
 44
0.0
173
     0
291
     1
 45
0.0
1001
ACAD
1000
AcDbSavedByObjectVersion
1070
     0
  0
VISUALSTYLE
  5
35ED
102
{ACAD_XDICTIONARY
360
3E52
102
}
102
{ACAD_REACTORS
330
35E9
102
}
330
35E9
100
AcDbVisualStyle
  2
GouraudWithEdges
 70
     3
 71
     2
 72
     2
 73
     1
 90
        2
 40
-0.6
 41
30.0
 62
     5
 63
     7
 74
     1
 91
        4
 64
     7
 65
   257
 75
     1
175
     1
 42
1.0
 92
        0
 66
   257
 43
1.0
 76
     1
 77
     6
 78
     2
 67
     7
 79
     5
170
     0
171
     0
290
     0
174
     0
 93
       13
 44
0.0
173
     0
291
     1
 45
0.0
1001
ACAD
1000
AcDbSavedByObjectVersion
1070
     0
  0
VISUALSTYLE
  5
3A12
102
{ACAD_XDICTIONARY
360
3E75
102
}
102
{ACAD_REACTORS
330
35E9
102
}
330
35E9
100
AcDbVisualStyle
  2
Hidden
 70
     6
 71
     1
 72
     2
 73
     2
 90
        0
 40
-0.6
 41
-30.0
 62
     5
 63
     7
 74
     2
 91
        2
 64
     7
 65
   257
 75
     2
175
     1
 42
40.0
 92
        0
 66
   257
 43
1.0
 76
     1
 77
     6
 78
     2
 67
     7
 79
     3
170
     0
171
     0
290
     0
174
     0
 93
        1
 44
0.0
173
     0
291
     0
 45
0.0
1001
ACAD
1000
AcDbSavedByObjectVersion
1070
     0
  0
VISUALSTYLE
  5
35FA
102
{ACAD_XDICTIONARY
360
3E6C
102
}
102
{ACAD_REACTORS
330
35E9
102
}
330
35E9
100
AcDbVisualStyle
  2
JitterOff
 70
    20
 71
     2
 72
     2
 73
     0
 90
        0
 40
-0.6
 41
-30.0
 62
     5
 63
     7
 74
     1
 91
        4
 64
     7
 65
   257
 75
     1
175
     1
 42
1.0
 92
       10
 66
     7
 43
1.0
 76
     1
 77
     6
 78
     2
 67
     7
 79
     5
170
     0
171
     0
290
     0
174
     0
 93
        1
 44
0.0
173
     0
291
     1
 45
0.0
1001
ACAD
1000
AcDbSavedByObjectVersion
1070
     0
  0
VISUALSTYLE
  5
35F7
102
{ACAD_XDICTIONARY
360
3E66
102
}
102
{ACAD_REACTORS
330
35E9
102
}
330
35E9
100
AcDbVisualStyle
  2
Linepattern
 70
    14
 71
     2
 72
     2
 73
     0
 90
        0
 40
-0.6
 41
-30.0
 62
     5
 63
     7
 74
     1
 91
        4
 64
     7
 65
   257
 75
     7
175
     7
 42
1.0
 92
        8
 66
     7
 43
1.0
 76
     1
 77
     6
 78
     2
 67
     7
 79
     5
170
     0
171
     0
290
     0
174
     0
 93
        1
 44
0.0
173
     0
291
     1
 45
0.0
1001
ACAD
1000
AcDbSavedByObjectVersion
1070
     0
  0
VISUALSTYLE
  5
35FB
102
{ACAD_XDICTIONARY
360
3E6E
102
}
102
{ACAD_REACTORS
330
35E9
102
}
330
35E9
100
AcDbVisualStyle
  2
OverhangOff
 70
    21
 71
     2
 72
     2
 73
     0
 90
        0
 40
-0.6
 41
-30.0
 62
     5
 63
     7
 74
     1
 91
        4
 64
     7
 65
   257
 75
     1
175
     1
 42
1.0
 92
        9
 66
     7
 43
1.0
 76
     1
 77
     6
 78
     2
 67
     7
 79
     5
170
     0
171
     0
290
     0
174
     0
 93
        1
 44
0.0
173
     0
291
     1
 45
0.0
1001
ACAD
1000
AcDbSavedByObjectVersion
1070
     0
  0
VISUALSTYLE
  5
35F3
102
{ACAD_XDICTIONARY
360
3E5E
102
}
102
{ACAD_REACTORS
330
35E9
102
}
330
35E9
100
AcDbVisualStyle
  2
Realistic
 70
     8
 71
     2
 72
     2
 73
     0
 90
        0
 40
-0.6
 41
-30.0
 62
     5
 63
     7
 74
     1
 91
        0
 64
     7
 65
   257
 75
     1
175
     1
 42
1.0
 92
        8
 66
     8
 43
1.0
 76
     1
 77
     6
 78
     2
 67
     7
 79
     5
170
     0
171
     0
290
     0
174
     0
 93
       13
 44
0.0
173
     0
291
     0
 45
0.0
1001
ACAD
1000
AcDbSavedByObjectVersion
1070
     0
  0
VISUALSTYLE
  5
3A17
102
{ACAD_XDICTIONARY
360
3E7F
102
}
102
{ACAD_REACTORS
330
35E9
102
}
330
35E9
100
AcDbVisualStyle
  2
Shaded
 70
    27
 71
     2
 72
     2
 73
     1
 90
        2
 40
-0.6
 41
30.0
 62
     5
 63
     7
 74
     0
 91
        4
 64
     7
 65
   257
 75
     1
175
     1
 42
1.0
 92
        8
 66
   257
 43
1.0
 76
     1
 77
     6
 78
     2
 67
     8
 79
     3
170
     0
171
     0
290
     0
174
     0
 93
        5
 44
0.0
173
     0
291
     0
 45
0.0
1001
ACAD
1000
AcDbSavedByObjectVersion
1070
     0
  0
VISUALSTYLE
  5
3A16
102
{ACAD_XDICTIONARY
360
3E7D
102
}
102
{ACAD_REACTORS
330
35E9
102
}
330
35E9
100
AcDbVisualStyle
  2
Shaded with edges
 70
    26
 71
     2
 72
     2
 73
     1
 90
        2
 40
-0.6
 41
30.0
 62
     5
 63
     7
 74
     1
 91
        2
 64
     7
 65
   257
 75
     2
175
     1
 42
1.0
 92
        8
 66
   257
 43
1.0
 76
     1
 77
     6
 78
     2
 67
     7
 79
     3
170
     0
171
     0
290
     0
174
     0
 93
        5
 44
0.0
173
     0
291
     0
 45
0.0
1001
ACAD
1000
AcDbSavedByObjectVersion
1070
     0
  0
VISUALSTYLE
  5
3A13
102
{ACAD_XDICTIONARY
360
3E77
102
}
102
{ACAD_REACTORS
330
35E9
102
}
330
35E9
100
AcDbVisualStyle
  2
Shades of Gray
 70
    23
 71
     2
 72
     2
 73
     3
 90
        0
 40
-0.6
 41
-30.0
 62
     5
 63
     7
 74
     2
 91
        2
 64
     7
 65
     7
 75
     1
175
     1
 42
40.0
 92
        8
 66
     7
 43
1.0
 76
     1
 77
     6
 78
     2
 67
     7
 79
     3
170
     0
171
     0
290
     0
174
     0
 93
        1
 44
0.0
173
     0
291
     0
 45
0.0
1001
ACAD
1000
AcDbSavedByObjectVersion
1070
     0
  0
VISUALSTYLE
  5
3A14
102
{ACAD_XDICTIONARY
360
3E79
102
}
102
{ACAD_REACTORS
330
35E9
102
}
330
35E9
100
AcDbVisualStyle
  2
Sketchy
 70
    24
 71
     1
 72
     2
 73
     2
 90
        0
 40
-0.6
 41
-30.0
 62
     5
 63
     7
 74
     2
 91
        2
 64
     7
 65
     7
 75
     1
175
     1
 42
40.0
 92
       11
 66
     7
 43
1.0
 76
     1
 77
     6
 78
     2
 67
     7
 79
     6
170
     0
171
     0
290
     0
174
     0
 93
        1
 44
0.0
173
     0
291
     0
 45
0.0
1001
ACAD
1000
AcDbSavedByObjectVersion
1070
     0
  0
VISUALSTYLE
  5
35F6
102
{ACAD_XDICTIONARY
360
3E64
102
}
102
{ACAD_REACTORS
330
35E9
102
}
330
35E9
100
AcDbVisualStyle
  2
Thicken
 70
    13
 71
     2
 72
     2
 73
     0
 90
        0
 40
-0.6
 41
-30.0
 62
     5
 63
     7
 74
     1
 91
        4
 64
     7
 65
   257
 75
     1
175
     1
 42
1.0
 92
       12
 66
     7
 43
1.0
 76
     1
 77
     6
 78
     2
 67
     7
 79
     5
170
     0
171
     0
290
     0
174
     0
 93
        1
 44
0.0
173
     0
291
     1
 45
0.0
1001
ACAD
1000
AcDbSavedByObjectVersion
1070
     0
  0
VISUALSTYLE
  5
3A11
102
{ACAD_XDICTIONARY
360
3E73
102
}
102
{ACAD_REACTORS
330
35E9
102
}
330
35E9
100
AcDbVisualStyle
  2
Wireframe
 70
     5
 71
     0
 72
     2
 73
     0
 90
        0
 40
-0.6
 41
-30.0
 62
     5
 63
     7
 74
     1
 91
        4
 64
     7
 65
   257
 75
     1
175
     1
 42
1.0
 92
        0
 66
   257
 43
1.0
 76
     1
 77
     6
 78
     2
 67
     7
 79
     3
170
     0
171
     0
290
     0
174
     0
 93
        1
 44
0.0
173
     0
291
     0
 45
0.0
1001
ACAD
1000
AcDbSavedByObjectVersion
1070
     0
  0
VISUALSTYLE
  5
3A15
102
{ACAD_XDICTIONARY
360
3E7B
102
}
102
{ACAD_REACTORS
330
35E9
102
}
330
35E9
100
AcDbVisualStyle
  2
X-Ray
 70
    25
 71
     2
 72
     2
 73
     1
 90
        1
 40
0.5
 41
-30.0
 62
     5
 63
     7
 74
     1
 91
        0
 64
     7
 65
   257
 75
     1
175
     1
 42
1.0
 92
        8
 66
     7
 43
1.0
 76
     1
 77
     6
 78
     2
 67
     7
 79
     3
170
     0
171
     0
290
     0
174
     0
 93
       13
 44
0.0
173
     0
291
     0
 45
0.0
1001
ACAD
1000
AcDbSavedByObjectVersion
1070
     0
  0
DICTIONARYVAR
  5
3662
102
{ACAD_REACTORS
330
1835
102
}
330
1835
100
DictionaryVariables
280
     0
  1
1:1
  0
DICTIONARYVAR
  5
3661
102
{ACAD_REACTORS
330
1835
102
}
330
1835
100
DictionaryVariables
280
     0
  1
STANDARD
  0
DICTIONARYVAR
  5
3660
102
{ACAD_REACTORS
330
1835
102
}
330
1835
100
DictionaryVariables
280
     0
  1
STANDARD
  0
DICTIONARYVAR
  5
3A67
102
{ACAD_REACTORS
330
1835
102
}
330
1835
100
DictionaryVariables
280
     0
  1
Metric50
  0
DICTIONARYVAR
  5
3A68
102
{ACAD_REACTORS
330
1835
102
}
330
1835
100
DictionaryVariables
280
     0
  1
Metric50
  0
DICTIONARYVAR
  5
3664
102
{ACAD_REACTORS
330
1835
102
}
330
1835
100
DictionaryVariables
280
     0
  1
1
  0
DICTIONARYVAR
  5
3663
102
{ACAD_REACTORS
330
1835
102
}
330
1835
100
DictionaryVariables
280
     0
  1
0
  0
DICTIONARYVAR
  5
1836
102
{ACAD_REACTORS
330
1835
102
}
330
1835
100
DictionaryVariables
280
     0
  1
127
  0
DICTIONARYVAR
  5
3E41
102
{ACAD_REACTORS
330
1835
102
}
330
1835
100
DictionaryVariables
280
     0
  1
2
  0
DICTIONARY
  5
3E83
330
3A1B
100
AcDbDictionary
280
     1
281
     1
  3
ACAD_XREC_ROUNDTRIP
360
3E84
  0
DICTIONARY
  5
3E45
330
22
100
AcDbDictionary
280
     1
281
     1
  3
ACAD_XREC_ROUNDTRIP
360
3E46
  0
DICTIONARY
  5
3E47
330
1CD1
100
AcDbDictionary
280
     1
281
     1
  3
ACAD_XREC_ROUNDTRIP
360
3E48
  0
DICTIONARY
  5
35DA
330
35D9
100
AcDbDictionary
280
     1
281
     1
  3
ACAD_XREC_ROUNDTRIP
360
3E4A
  3
BUMPTILE
360
35DC
  3
DIFFUSETILE
360
35DB
  3
OPACITYTILE
360
35DF
  3
REFLECTIONTILE
360
35DE
  3
REFRACTIONTILE
360
35E0
  3
SPECULARTILE
360
35DD
  0
DICTIONARY
  5
35D2
330
35D1
100
AcDbDictionary
280
     1
281
     1
  3
ACAD_XREC_ROUNDTRIP
360
3E49
  3
BUMPTILE
360
35D4
  3
DIFFUSETILE
360
35D3
  3
OPACITYTILE
360
35D7
  3
REFLECTIONTILE
360
35D6
  3
REFRACTIONTILE
360
35D8
  3
SPECULARTILE
360
35D5
  0
DICTIONARY
  5
35E2
330
35E1
100
AcDbDictionary
280
     1
281
     1
  3
ACAD_XREC_ROUNDTRIP
360
3E4B
  3
BUMPTILE
360
35E4
  3
DIFFUSETILE
360
35E3
  3
OPACITYTILE
360
35E7
  3
REFLECTIONTILE
360
35E6
  3
REFRACTIONTILE
360
35E8
  3
SPECULARTILE
360
35E5
  0
DICTIONARY
  5
3E81
330
3A19
100
AcDbDictionary
280
     1
281
     1
  3
ACAD_XREC_ROUNDTRIP
360
3E82
  0
DICTIONARY
  5
362B
330
35FF
100
AcDbDictionary
280
     1
281
     1
  3
ACAD_ROUNDTRIP_2008_TABLESTYLE_CELLSTYLEMAP
360
3E42
  3
ACAD_XREC_ROUNDTRIP
360
3E72
  0
DICTIONARY
  5
3E56
330
35EF
100
AcDbDictionary
280
     1
281
     1
  3
ACAD_XREC_ROUNDTRIP
360
3E57
  0
DICTIONARY
  5
3E5A
330
35F1
100
AcDbDictionary
280
     1
281
     1
  3
ACAD_XREC_ROUNDTRIP
360
3E5B
  0
DICTIONARY
  5
3E58
330
35F0
100
AcDbDictionary
280
     1
281
     1
  3
ACAD_XREC_ROUNDTRIP
360
3E59
  0
DICTIONARY
  5
3E54
330
35EE
100
AcDbDictionary
280
     1
281
     1
  3
ACAD_XREC_ROUNDTRIP
360
3E55
  0
DICTIONARY
  5
3E62
330
35F5
100
AcDbDictionary
280
     1
281
     1
  3
ACAD_XREC_ROUNDTRIP
360
3E63
  0
DICTIONARY
  5
3E6A
330
35F9
100
AcDbDictionary
280
     1
281
     1
  3
ACAD_XREC_ROUNDTRIP
360
3E6B
  0
DICTIONARY
  5
3E5C
330
35F2
100
AcDbDictionary
280
     1
281
     1
  3
ACAD_XREC_ROUNDTRIP
360
3E5D
  0
DICTIONARY
  5
3E60
330
35F4
100
AcDbDictionary
280
     1
281
     1
  3
ACAD_XREC_ROUNDTRIP
360
3E61
  0
DICTIONARY
  5
3E70
330
35FC
100
AcDbDictionary
280
     1
281
     1
  3
ACAD_XREC_ROUNDTRIP
360
3E71
  0
DICTIONARY
  5
3E68
330
35F8
100
AcDbDictionary
280
     1
281
     1
  3
ACAD_XREC_ROUNDTRIP
360
3E69
  0
DICTIONARY
  5
3E4C
330
35EA
100
AcDbDictionary
280
     1
281
     1
  3
ACAD_XREC_ROUNDTRIP
360
3E4D
  0
DICTIONARY
  5
3E4E
330
35EB
100
AcDbDictionary
280
     1
281
     1
  3
ACAD_XREC_ROUNDTRIP
360
3E4F
  0
DICTIONARY
  5
3E50
330
35EC
100
AcDbDictionary
280
     1
281
     1
  3
ACAD_XREC_ROUNDTRIP
360
3E51
  0
DICTIONARY
  5
3E52
330
35ED
100
AcDbDictionary
280
     1
281
     1
  3
ACAD_XREC_ROUNDTRIP
360
3E53
  0
DICTIONARY
  5
3E75
330
3A12
100
AcDbDictionary
280
     1
281
     1
  3
ACAD_XREC_ROUNDTRIP
360
3E76
  0
DICTIONARY
  5
3E6C
330
35FA
100
AcDbDictionary
280
     1
281
     1
  3
ACAD_XREC_ROUNDTRIP
360
3E6D
  0
DICTIONARY
  5
3E66
330
35F7
100
AcDbDictionary
280
     1
281
     1
  3
ACAD_XREC_ROUNDTRIP
360
3E67
  0
DICTIONARY
  5
3E6E
330
35FB
100
AcDbDictionary
280
     1
281
     1
  3
ACAD_XREC_ROUNDTRIP
360
3E6F
  0
DICTIONARY
  5
3E5E
330
35F3
100
AcDbDictionary
280
     1
281
     1
  3
ACAD_XREC_ROUNDTRIP
360
3E5F
  0
DICTIONARY
  5
3E7F
330
3A17
100
AcDbDictionary
280
     1
281
     1
  3
ACAD_XREC_ROUNDTRIP
360
3E80
  0
DICTIONARY
  5
3E7D
330
3A16
100
AcDbDictionary
280
     1
281
     1
  3
ACAD_XREC_ROUNDTRIP
360
3E7E
  0
DICTIONARY
  5
3E77
330
3A13
100
AcDbDictionary
280
     1
281
     1
  3
ACAD_XREC_ROUNDTRIP
360
3E78
  0
DICTIONARY
  5
3E79
330
3A14
100
AcDbDictionary
280
     1
281
     1
  3
ACAD_XREC_ROUNDTRIP
360
3E7A
  0
DICTIONARY
  5
3E64
330
35F6
100
AcDbDictionary
280
     1
281
     1
  3
ACAD_XREC_ROUNDTRIP
360
3E65
  0
DICTIONARY
  5
3E73
330
3A11
100
AcDbDictionary
280
     1
281
     1
  3
ACAD_XREC_ROUNDTRIP
360
3E74
  0
DICTIONARY
  5
3E7B
330
3A15
100
AcDbDictionary
280
     1
281
     1
  3
ACAD_XREC_ROUNDTRIP
360
3E7C
  0
XRECORD
  5
3E84
102
{ACAD_REACTORS
330
3E83
102
}
330
3E83
100
AcDbXrecord
280
     1
102
DISPLAYNAME
  1
Metric50
102
FLAGS
 90
        0
  0
XRECORD
  5
3E46
102
{ACAD_REACTORS
330
3E45
102
}
330
3E45
100
AcDbXrecord
280
     1
102
SHADEPLOT
 70
     0
102
SHADEPLOTRESLEVEL
 70
     2
102
SHADEPLOTCUSTOMDPI
 70
   300
  0
XRECORD
  5
3E48
102
{ACAD_REACTORS
330
3E47
102
}
330
3E47
100
AcDbXrecord
280
     1
102
SHADEPLOT
 70
     0
102
SHADEPLOTRESLEVEL
 70
     2
102
SHADEPLOTCUSTOMDPI
 70
   300
  0
XRECORD
  5
3E4A
102
{ACAD_REACTORS
330
35DA
102
}
330
35DA
100
AcDbXrecord
280
     1
102
MATERIAL
148
0.0
149
0.0
149
0.0
 93
        0
 94
      127
282
     0
 72
     0
 77
     0
171
     0
175
     0
179
     0
273
     0
  0
XRECORD
  5
35DC
102
{ACAD_REACTORS
330
35DA
102
}
330
35DA
100
AcDbXrecord
280
     1
270
     1
271
     1
  0
XRECORD
  5
35DB
102
{ACAD_REACTORS
330
35DA
102
}
330
35DA
100
AcDbXrecord
280
     1
270
     1
271
     1
  0
XRECORD
  5
35DF
102
{ACAD_REACTORS
330
35DA
102
}
330
35DA
100
AcDbXrecord
280
     1
270
     1
271
     1
  0
XRECORD
  5
35DE
102
{ACAD_REACTORS
330
35DA
102
}
330
35DA
100
AcDbXrecord
280
     1
270
     1
271
     1
  0
XRECORD
  5
35E0
102
{ACAD_REACTORS
330
35DA
102
}
330
35DA
100
AcDbXrecord
280
     1
270
     1
271
     1
  0
XRECORD
  5
35DD
102
{ACAD_REACTORS
330
35DA
102
}
330
35DA
100
AcDbXrecord
280
     1
270
     1
271
     1
  0
XRECORD
  5
3E49
102
{ACAD_REACTORS
330
35D2
102
}
330
35D2
100
AcDbXrecord
280
     1
102
MATERIAL
148
0.0
149
0.0
149
0.0
 93
        0
 94
      127
282
     0
 72
     0
 77
     0
171
     0
175
     0
179
     0
273
     0
  0
XRECORD
  5
35D4
102
{ACAD_REACTORS
330
35D2
102
}
330
35D2
100
AcDbXrecord
280
     1
270
     1
271
     1
  0
XRECORD
  5
35D3
102
{ACAD_REACTORS
330
35D2
102
}
330
35D2
100
AcDbXrecord
280
     1
270
     1
271
     1
  0
XRECORD
  5
35D7
102
{ACAD_REACTORS
330
35D2
102
}
330
35D2
100
AcDbXrecord
280
     1
270
     1
271
     1
  0
XRECORD
  5
35D6
102
{ACAD_REACTORS
330
35D2
102
}
330
35D2
100
AcDbXrecord
280
     1
270
     1
271
     1
  0
XRECORD
  5
35D8
102
{ACAD_REACTORS
330
35D2
102
}
330
35D2
100
AcDbXrecord
280
     1
270
     1
271
     1
  0
XRECORD
  5
35D5
102
{ACAD_REACTORS
330
35D2
102
}
330
35D2
100
AcDbXrecord
280
     1
270
     1
271
     1
  0
XRECORD
  5
3E4B
102
{ACAD_REACTORS
330
35E2
102
}
330
35E2
100
AcDbXrecord
280
     1
102
MATERIAL
148
0.0
149
0.0
149
0.0
 93
        0
 94
      127
282
     0
 72
     0
 77
     0
171
     0
175
     0
179
     0
273
     0
  0
XRECORD
  5
35E4
102
{ACAD_REACTORS
330
35E2
102
}
330
35E2
100
AcDbXrecord
280
     1
270
     1
271
     1
  0
XRECORD
  5
35E3
102
{ACAD_REACTORS
330
35E2
102
}
330
35E2
100
AcDbXrecord
280
     1
270
     1
271
     1
  0
XRECORD
  5
35E7
102
{ACAD_REACTORS
330
35E2
102
}
330
35E2
100
AcDbXrecord
280
     1
270
     1
271
     1
  0
XRECORD
  5
35E6
102
{ACAD_REACTORS
330
35E2
102
}
330
35E2
100
AcDbXrecord
280
     1
270
     1
271
     1
  0
XRECORD
  5
35E8
102
{ACAD_REACTORS
330
35E2
102
}
330
35E2
100
AcDbXrecord
280
     1
270
     1
271
     1
  0
XRECORD
  5
35E5
102
{ACAD_REACTORS
330
35E2
102
}
330
35E2
100
AcDbXrecord
280
     1
270
     1
271
     1
  0
XRECORD
  5
3E82
102
{ACAD_REACTORS
330
3E81
102
}
330
3E81
100
AcDbXrecord
280
     1
102
DISPLAYNAME
  1
Metric50
102
FLAGS
 90
        0
  0
CELLSTYLEMAP
  5
3E42
102
{ACAD_REACTORS
330
362B
102
}
330
362B
100
AcDbCellStyleMap
 90
        3
300
CELLSTYLE
  1
TABLEFORMAT_BEGIN
 90
        5
170
     1
 91
        0
 92
    32768
 62
   257
 93
        1
300
CONTENTFORMAT
  1
CONTENTFORMAT_BEGIN
 90
        0
 91
        0
 92
      512
 93
        0
300

 40
0.0
140
1.0
 94
        5
 62
     0
340
11
144
6.0
309
CONTENTFORMAT_END
171
     1
301
MARGIN
  1
CELLMARGIN_BEGIN
 40
1.5
 40
1.5
 40
1.5
 40
1.5
 40
4.5
 40
4.5
309
CELLMARGIN_END
 94
        6
 95
        1
302
GRIDFORMAT
  1
GRIDFORMAT_BEGIN
 90
        0
 91
        1
 62
     0
 92
       -2
340
0
 93
        0
 40
1.125
309
GRIDFORMAT_END
 95
        2
302
GRIDFORMAT
  1
GRIDFORMAT_BEGIN
 90
        0
 91
        1
 62
     0
 92
       -2
340
0
 93
        0
 40
1.125
309
GRIDFORMAT_END
 95
        4
302
GRIDFORMAT
  1
GRIDFORMAT_BEGIN
 90
        0
 91
        1
 62
     0
 92
       -2
340
0
 93
        0
 40
1.125
309
GRIDFORMAT_END
 95
        8
302
GRIDFORMAT
  1
GRIDFORMAT_BEGIN
 90
        0
 91
        1
 62
     0
 92
       -2
340
0
 93
        0
 40
1.125
309
GRIDFORMAT_END
 95
       16
302
GRIDFORMAT
  1
GRIDFORMAT_BEGIN
 90
        0
 91
        1
 62
     0
 92
       -2
340
0
 93
        0
 40
1.125
309
GRIDFORMAT_END
 95
       32
302
GRIDFORMAT
  1
GRIDFORMAT_BEGIN
 90
        0
 91
        1
 62
     0
 92
       -2
340
0
 93
        0
 40
1.125
309
GRIDFORMAT_END
309
TABLEFORMAT_END
  1
CELLSTYLE_BEGIN
 90
        1
 91
        1
300
_TITLE
309
CELLSTYLE_END
300
CELLSTYLE
  1
TABLEFORMAT_BEGIN
 90
        5
170
     1
 91
        0
 92
        0
 62
   257
 93
        1
300
CONTENTFORMAT
  1
CONTENTFORMAT_BEGIN
 90
        0
 91
        0
 92
      512
 93
        0
300

 40
0.0
140
1.0
 94
        5
 62
     0
340
11
144
4.5
309
CONTENTFORMAT_END
171
     1
301
MARGIN
  1
CELLMARGIN_BEGIN
 40
1.5
 40
1.5
 40
1.5
 40
1.5
 40
4.5
 40
4.5
309
CELLMARGIN_END
 94
        6
 95
        1
302
GRIDFORMAT
  1
GRIDFORMAT_BEGIN
 90
        0
 91
        1
 62
     0
 92
       -2
340
0
 93
        0
 40
1.125
309
GRIDFORMAT_END
 95
        2
302
GRIDFORMAT
  1
GRIDFORMAT_BEGIN
 90
        0
 91
        1
 62
     0
 92
       -2
340
0
 93
        0
 40
1.125
309
GRIDFORMAT_END
 95
        4
302
GRIDFORMAT
  1
GRIDFORMAT_BEGIN
 90
        0
 91
        1
 62
     0
 92
       -2
340
0
 93
        0
 40
1.125
309
GRIDFORMAT_END
 95
        8
302
GRIDFORMAT
  1
GRIDFORMAT_BEGIN
 90
        0
 91
        1
 62
     0
 92
       -2
340
0
 93
        0
 40
1.125
309
GRIDFORMAT_END
 95
       16
302
GRIDFORMAT
  1
GRIDFORMAT_BEGIN
 90
        0
 91
        1
 62
     0
 92
       -2
340
0
 93
        0
 40
1.125
309
GRIDFORMAT_END
 95
       32
302
GRIDFORMAT
  1
GRIDFORMAT_BEGIN
 90
        0
 91
        1
 62
     0
 92
       -2
340
0
 93
        0
 40
1.125
309
GRIDFORMAT_END
309
TABLEFORMAT_END
  1
CELLSTYLE_BEGIN
 90
        2
 91
        1
300
_HEADER
309
CELLSTYLE_END
300
CELLSTYLE
  1
TABLEFORMAT_BEGIN
 90
        5
170
     1
 91
        0
 92
        0
 62
   257
 93
        1
300
CONTENTFORMAT
  1
CONTENTFORMAT_BEGIN
 90
        0
 91
        0
 92
      512
 93
        0
300

 40
0.0
140
1.0
 94
        2
 62
     0
340
11
144
4.5
309
CONTENTFORMAT_END
171
     1
301
MARGIN
  1
CELLMARGIN_BEGIN
 40
1.5
 40
1.5
 40
1.5
 40
1.5
 40
4.5
 40
4.5
309
CELLMARGIN_END
 94
        6
 95
        1
302
GRIDFORMAT
  1
GRIDFORMAT_BEGIN
 90
        0
 91
        1
 62
     0
 92
       -2
340
0
 93
        0
 40
1.125
309
GRIDFORMAT_END
 95
        2
302
GRIDFORMAT
  1
GRIDFORMAT_BEGIN
 90
        0
 91
        1
 62
     0
 92
       -2
340
0
 93
        0
 40
1.125
309
GRIDFORMAT_END
 95
        4
302
GRIDFORMAT
  1
GRIDFORMAT_BEGIN
 90
        0
 91
        1
 62
     0
 92
       -2
340
0
 93
        0
 40
1.125
309
GRIDFORMAT_END
 95
        8
302
GRIDFORMAT
  1
GRIDFORMAT_BEGIN
 90
        0
 91
        1
 62
     0
 92
       -2
340
0
 93
        0
 40
1.125
309
GRIDFORMAT_END
 95
       16
302
GRIDFORMAT
  1
GRIDFORMAT_BEGIN
 90
        0
 91
        1
 62
     0
 92
       -2
340
0
 93
        0
 40
1.125
309
GRIDFORMAT_END
 95
       32
302
GRIDFORMAT
  1
GRIDFORMAT_BEGIN
 90
        0
 91
        1
 62
     0
 92
       -2
340
0
 93
        0
 40
1.125
309
GRIDFORMAT_END
309
TABLEFORMAT_END
  1
CELLSTYLE_BEGIN
 90
        3
 91
        2
300
_DATA
309
CELLSTYLE_END
  0
XRECORD
  5
3E72
102
{ACAD_REACTORS
330
362B
102
}
330
362B
100
AcDbXrecord
280
     1
102
ACAD_ROUNDTRIP_PRE2007_TABLESTYLE
 90
      512
 91
        0
  1

 92
      512
 93
        0
  2

 94
      512
 95
        0
  3

  0
XRECORD
  5
3E57
102
{ACAD_REACTORS
330
3E56
102
}
330
3E56
100
AcDbXrecord
280
     1
102
RTVSPost2010Prop28
280
     1
102
RTVSPost2010PropOp28
 70
     1
102
RTVSPost2010Prop29
280
     1
102
RTVSPost2010PropOp29
 70
     1
102
RTVSPost2010Prop30
280
     0
102
RTVSPost2010PropOp30
 70
     1
102
RTVSPost2010Prop31
280
     0
102
RTVSPost2010PropOp31
 70
     1
102
RTVSPost2010Prop32
280
     0
102
RTVSPost2010PropOp32
 70
     1
102
RTVSPost2010Prop33
280
     0
102
RTVSPost2010PropOp33
 70
     1
102
RTVSPost2010Prop34
280
     0
102
RTVSPost2010PropOp34
 70
     1
102
RTVSPost2010Prop35
280
     0
102
RTVSPost2010PropOp35
 70
     1
102
RTVSPost2010Prop36
280
     0
102
RTVSPost2010PropOp36
 70
     1
102
RTVSPost2010Prop37
 90
       50
102
RTVSPost2010PropOp37
 70
     1
102
RTVSPost2010Prop38
140
0.0
102
RTVSPost2010PropOp38
 70
     1
102
RTVSPost2010Prop39
140
1.0
102
RTVSPost2010PropOp39
 70
     1
102
RTVSPost2010Prop40
 90
        0
102
RTVSPost2010PropOp40
 70
     1
102
RTVSPost2010Prop41ColorIndex
 90
       18
102
RTVSPost2010Prop41ColorRGB
 90
        0
102
RTVSPost2010PropOp41
 70
     1
102
RTVSPost2010Prop42
 90
       50
102
RTVSPost2010PropOp42
 70
     1
102
RTVSPost2010Prop43
 90
        3
102
RTVSPost2010PropOp43
 70
     1
102
RTVSPost2010Prop44ColorIndex
 90
        5
102
RTVSPost2010Prop44ColorRGB
 90
      255
102
RTVSPost2010PropOp44
 70
     1
102
RTVSPost2010Prop45
280
     0
102
RTVSPost2010PropOp45
 70
     1
102
RTVSPost2010Prop46
 90
       50
102
RTVSPost2010PropOp46
 70
     1
102
RTVSPost2010Prop47
 90
       50
102
RTVSPost2010PropOp47
 70
     1
102
RTVSPost2010Prop48
 90
       50
102
RTVSPost2010PropOp48
 70
     1
102
RTVSPost2010Prop49
280
     0
102
RTVSPost2010PropOp49
 70
     1
102
RTVSPost2010Prop50
 90
       50
102
RTVSPost2010PropOp50
 70
     1
102
RTVSPost2010Prop51ColorIndex
 90
      256
102
RTVSPost2010Prop51ColorRGB
 90
-16777216
102
RTVSPost2010PropOp51
 70
     0
102
RTVSPost2010Prop52
140
1.0
102
RTVSPost2010PropOp52
 70
     0
102
RTVSPost2010Prop53
 90
        2
102
RTVSPost2010PropOp53
 70
     1
102
RTVSPost2010Prop54
  1
strokes_ogs.tif
102
RTVSPost2010PropOp54
 70
     1
102
RTVSPost2010Prop55
280
     0
102
RTVSPost2010PropOp55
 70
     1
102
RTVSPost2010Prop56
140
1.0
102
RTVSPost2010PropOp56
 70
     1
102
RTVSPost2010Prop57
140
1.0
102
RTVSPost2010PropOp57
 70
     1
102
RTVSPropertyOp0
 70
     1
102
RTVSPropertyOp1
 70
     1
102
RTVSPropertyOp2
 70
     1
102
RTVSPropertyOp3
 70
     1
102
RTVSPropertyOp4
 70
     1
102
RTVSPropertyOp5
 70
     1
102
RTVSPropertyOp6
 70
     1
102
RTVSPropertyOp7
 70
     1
102
RTVSPropertyOp8
 70
     1
102
RTVSPropertyOp9
 70
     1
102
RTVSPropertyOp10
 70
     1
102
RTVSPropertyOp11
 70
     1
102
RTVSPropertyOp12
 70
     1
102
RTVSPropertyOp13
 70
     1
102
RTVSPropertyOp14
 70
     1
102
RTVSPropertyOp15
 70
     1
102
RTVSPropertyOp16
 70
     1
102
RTVSPropertyOp17
 70
     1
102
RTVSPropertyOp18
 70
     1
102
RTVSPropertyOp19
 70
     1
102
RTVSPropertyOp20
 70
     1
102
RTVSPropertyOp21
 70
     1
102
RTVSPropertyOp22
 70
     1
102
RTVSPropertyOp23
 70
     1
102
RTVSPropertyOp24
 70
     1
102
RTVSPropertyOp25
 70
     1
102
RTVSPropertyOp26
 70
     1
102
RTVSPropertyOp27
 70
     1
102
RTVSPropertyOp28
 70
     1
102
RTVSPropertyOp29
 70
     1
102
RTVSPropertyOp30
 70
     1
102
RTVSPropertyOp31
 70
     1
102
RTVSPropertyOp32
 70
     1
102
RTVSPropertyOp33
 70
     1
102
RTVSPropertyOp34
 70
     1
102
RTVSPropertyOp35
 70
     1
102
RTVSPropertyOp36
 70
     1
102
RTVSPropertyOp37
 70
     1
102
RTVSPropertyOp38
 70
     1
102
RTVSPropertyOp39
 70
     1
102
RTVSPropertyOp40
 70
     1
102
RTVSPropertyOp41
 70
     1
102
RTVSPropertyOp42
 70
     1
102
RTVSPropertyOp43
 70
     1
102
RTVSPropertyOp44
 70
     1
102
RTVSPropertyOp45
 70
     1
102
RTVSPropertyOp46
 70
     1
102
RTVSPropertyOp47
 70
     1
102
RTVSPropertyOp48
 70
     1
102
RTVSPropertyOp49
 70
     1
102
RTVSPropertyOp50
 70
     1
102
RTVSPropertyOp51
 70
     0
102
RTVSPropertyOp52
 70
     0
102
RTVSPropertyOp53
 70
     1
102
RTVSPropertyOp54
 70
     1
102
RTVSPropertyOp55
 70
     1
102
RTVSPropertyOp56
 70
     1
102
RTVSPropertyOp57
 70
     1
102
RTVSPropertyOp58
 70
     1
102
RTVSPropertyOp59
 70
     1
102
RTVSPropertyOp60
 70
     1
102
RTVSPropertyOp61
 70
     1
102
RTVSPropertyOp62
 70
     1
  0
XRECORD
  5
3E5B
102
{ACAD_REACTORS
330
3E5A
102
}
330
3E5A
100
AcDbXrecord
280
     1
102
RTVSPost2010Prop28
280
     0
102
RTVSPost2010PropOp28
 70
     1
102
RTVSPost2010Prop29
280
     1
102
RTVSPost2010PropOp29
 70
     1
102
RTVSPost2010Prop30
280
     1
102
RTVSPost2010PropOp30
 70
     1
102
RTVSPost2010Prop31
280
     0
102
RTVSPost2010PropOp31
 70
     1
102
RTVSPost2010Prop32
280
     0
102
RTVSPost2010PropOp32
 70
     1
102
RTVSPost2010Prop33
280
     0
102
RTVSPost2010PropOp33
 70
     1
102
RTVSPost2010Prop34
280
     0
102
RTVSPost2010PropOp34
 70
     1
102
RTVSPost2010Prop35
280
     0
102
RTVSPost2010PropOp35
 70
     1
102
RTVSPost2010Prop36
280
     0
102
RTVSPost2010PropOp36
 70
     1
102
RTVSPost2010Prop37
 90
       50
102
RTVSPost2010PropOp37
 70
     1
102
RTVSPost2010Prop38
140
0.0
102
RTVSPost2010PropOp38
 70
     1
102
RTVSPost2010Prop39
140
1.0
102
RTVSPost2010PropOp39
 70
     1
102
RTVSPost2010Prop40
 90
        0
102
RTVSPost2010PropOp40
 70
     1
102
RTVSPost2010Prop41ColorIndex
 90
       18
102
RTVSPost2010Prop41ColorRGB
 90
        0
102
RTVSPost2010PropOp41
 70
     1
102
RTVSPost2010Prop42
 90
       50
102
RTVSPost2010PropOp42
 70
     1
102
RTVSPost2010Prop43
 90
        3
102
RTVSPost2010PropOp43
 70
     1
102
RTVSPost2010Prop44ColorIndex
 90
        5
102
RTVSPost2010Prop44ColorRGB
 90
      255
102
RTVSPost2010PropOp44
 70
     1
102
RTVSPost2010Prop45
280
     0
102
RTVSPost2010PropOp45
 70
     1
102
RTVSPost2010Prop46
 90
       50
102
RTVSPost2010PropOp46
 70
     1
102
RTVSPost2010Prop47
 90
       50
102
RTVSPost2010PropOp47
 70
     1
102
RTVSPost2010Prop48
 90
       50
102
RTVSPost2010PropOp48
 70
     1
102
RTVSPost2010Prop49
280
     0
102
RTVSPost2010PropOp49
 70
     1
102
RTVSPost2010Prop50
 90
       50
102
RTVSPost2010PropOp50
 70
     1
102
RTVSPost2010Prop51ColorIndex
 90
      256
102
RTVSPost2010Prop51ColorRGB
 90
-16777216
102
RTVSPost2010PropOp51
 70
     0
102
RTVSPost2010Prop52
140
1.0
102
RTVSPost2010PropOp52
 70
     0
102
RTVSPost2010Prop53
 90
        2
102
RTVSPost2010PropOp53
 70
     1
102
RTVSPost2010Prop54
  1
strokes_ogs.tif
102
RTVSPost2010PropOp54
 70
     1
102
RTVSPost2010Prop55
280
     0
102
RTVSPost2010PropOp55
 70
     1
102
RTVSPost2010Prop56
140
1.0
102
RTVSPost2010PropOp56
 70
     1
102
RTVSPost2010Prop57
140
1.0
102
RTVSPost2010PropOp57
 70
     1
102
RTVSPropertyOp0
 70
     1
102
RTVSPropertyOp1
 70
     1
102
RTVSPropertyOp2
 70
     1
102
RTVSPropertyOp3
 70
     1
102
RTVSPropertyOp4
 70
     1
102
RTVSPropertyOp5
 70
     1
102
RTVSPropertyOp6
 70
     1
102
RTVSPropertyOp7
 70
     1
102
RTVSPropertyOp8
 70
     1
102
RTVSPropertyOp9
 70
     1
102
RTVSPropertyOp10
 70
     1
102
RTVSPropertyOp11
 70
     1
102
RTVSPropertyOp12
 70
     1
102
RTVSPropertyOp13
 70
     1
102
RTVSPropertyOp14
 70
     1
102
RTVSPropertyOp15
 70
     1
102
RTVSPropertyOp16
 70
     1
102
RTVSPropertyOp17
 70
     1
102
RTVSPropertyOp18
 70
     1
102
RTVSPropertyOp19
 70
     1
102
RTVSPropertyOp20
 70
     1
102
RTVSPropertyOp21
 70
     1
102
RTVSPropertyOp22
 70
     1
102
RTVSPropertyOp23
 70
     1
102
RTVSPropertyOp24
 70
     1
102
RTVSPropertyOp25
 70
     1
102
RTVSPropertyOp26
 70
     1
102
RTVSPropertyOp27
 70
     1
102
RTVSPropertyOp28
 70
     1
102
RTVSPropertyOp29
 70
     1
102
RTVSPropertyOp30
 70
     1
102
RTVSPropertyOp31
 70
     1
102
RTVSPropertyOp32
 70
     1
102
RTVSPropertyOp33
 70
     1
102
RTVSPropertyOp34
 70
     1
102
RTVSPropertyOp35
 70
     1
102
RTVSPropertyOp36
 70
     1
102
RTVSPropertyOp37
 70
     1
102
RTVSPropertyOp38
 70
     1
102
RTVSPropertyOp39
 70
     1
102
RTVSPropertyOp40
 70
     1
102
RTVSPropertyOp41
 70
     1
102
RTVSPropertyOp42
 70
     1
102
RTVSPropertyOp43
 70
     1
102
RTVSPropertyOp44
 70
     1
102
RTVSPropertyOp45
 70
     1
102
RTVSPropertyOp46
 70
     1
102
RTVSPropertyOp47
 70
     1
102
RTVSPropertyOp48
 70
     1
102
RTVSPropertyOp49
 70
     1
102
RTVSPropertyOp50
 70
     1
102
RTVSPropertyOp51
 70
     0
102
RTVSPropertyOp52
 70
     0
102
RTVSPropertyOp53
 70
     1
102
RTVSPropertyOp54
 70
     1
102
RTVSPropertyOp55
 70
     1
102
RTVSPropertyOp56
 70
     1
102
RTVSPropertyOp57
 70
     1
102
RTVSPropertyOp58
 70
     1
102
RTVSPropertyOp59
 70
     1
102
RTVSPropertyOp60
 70
     1
102
RTVSPropertyOp61
 70
     1
102
RTVSPropertyOp62
 70
     1
  0
XRECORD
  5
3E59
102
{ACAD_REACTORS
330
3E58
102
}
330
3E58
100
AcDbXrecord
280
     1
102
RTVSPost2010Prop28
280
     0
102
RTVSPost2010PropOp28
 70
     1
102
RTVSPost2010Prop29
280
     1
102
RTVSPost2010PropOp29
 70
     1
102
RTVSPost2010Prop30
280
     1
102
RTVSPost2010PropOp30
 70
     1
102
RTVSPost2010Prop31
280
     0
102
RTVSPost2010PropOp31
 70
     1
102
RTVSPost2010Prop32
280
     0
102
RTVSPost2010PropOp32
 70
     1
102
RTVSPost2010Prop33
280
     0
102
RTVSPost2010PropOp33
 70
     1
102
RTVSPost2010Prop34
280
     0
102
RTVSPost2010PropOp34
 70
     1
102
RTVSPost2010Prop35
280
     0
102
RTVSPost2010PropOp35
 70
     1
102
RTVSPost2010Prop36
280
     0
102
RTVSPost2010PropOp36
 70
     1
102
RTVSPost2010Prop37
 90
       50
102
RTVSPost2010PropOp37
 70
     1
102
RTVSPost2010Prop38
140
0.0
102
RTVSPost2010PropOp38
 70
     1
102
RTVSPost2010Prop39
140
1.0
102
RTVSPost2010PropOp39
 70
     1
102
RTVSPost2010Prop40
 90
        0
102
RTVSPost2010PropOp40
 70
     1
102
RTVSPost2010Prop41ColorIndex
 90
       18
102
RTVSPost2010Prop41ColorRGB
 90
        0
102
RTVSPost2010PropOp41
 70
     1
102
RTVSPost2010Prop42
 90
       50
102
RTVSPost2010PropOp42
 70
     1
102
RTVSPost2010Prop43
 90
        3
102
RTVSPost2010PropOp43
 70
     1
102
RTVSPost2010Prop44ColorIndex
 90
        5
102
RTVSPost2010Prop44ColorRGB
 90
      255
102
RTVSPost2010PropOp44
 70
     1
102
RTVSPost2010Prop45
280
     0
102
RTVSPost2010PropOp45
 70
     1
102
RTVSPost2010Prop46
 90
       50
102
RTVSPost2010PropOp46
 70
     1
102
RTVSPost2010Prop47
 90
       50
102
RTVSPost2010PropOp47
 70
     1
102
RTVSPost2010Prop48
 90
       50
102
RTVSPost2010PropOp48
 70
     1
102
RTVSPost2010Prop49
280
     0
102
RTVSPost2010PropOp49
 70
     1
102
RTVSPost2010Prop50
 90
       50
102
RTVSPost2010PropOp50
 70
     1
102
RTVSPost2010Prop51ColorIndex
 90
      256
102
RTVSPost2010Prop51ColorRGB
 90
-16777216
102
RTVSPost2010PropOp51
 70
     0
102
RTVSPost2010Prop52
140
1.0
102
RTVSPost2010PropOp52
 70
     0
102
RTVSPost2010Prop53
 90
        2
102
RTVSPost2010PropOp53
 70
     1
102
RTVSPost2010Prop54
  1
strokes_ogs.tif
102
RTVSPost2010PropOp54
 70
     1
102
RTVSPost2010Prop55
280
     0
102
RTVSPost2010PropOp55
 70
     1
102
RTVSPost2010Prop56
140
1.0
102
RTVSPost2010PropOp56
 70
     1
102
RTVSPost2010Prop57
140
1.0
102
RTVSPost2010PropOp57
 70
     1
102
RTVSPropertyOp0
 70
     1
102
RTVSPropertyOp1
 70
     1
102
RTVSPropertyOp2
 70
     1
102
RTVSPropertyOp3
 70
     1
102
RTVSPropertyOp4
 70
     1
102
RTVSPropertyOp5
 70
     1
102
RTVSPropertyOp6
 70
     1
102
RTVSPropertyOp7
 70
     1
102
RTVSPropertyOp8
 70
     1
102
RTVSPropertyOp9
 70
     1
102
RTVSPropertyOp10
 70
     1
102
RTVSPropertyOp11
 70
     1
102
RTVSPropertyOp12
 70
     1
102
RTVSPropertyOp13
 70
     1
102
RTVSPropertyOp14
 70
     1
102
RTVSPropertyOp15
 70
     1
102
RTVSPropertyOp16
 70
     1
102
RTVSPropertyOp17
 70
     1
102
RTVSPropertyOp18
 70
     1
102
RTVSPropertyOp19
 70
     1
102
RTVSPropertyOp20
 70
     1
102
RTVSPropertyOp21
 70
     1
102
RTVSPropertyOp22
 70
     1
102
RTVSPropertyOp23
 70
     1
102
RTVSPropertyOp24
 70
     1
102
RTVSPropertyOp25
 70
     1
102
RTVSPropertyOp26
 70
     1
102
RTVSPropertyOp27
 70
     1
102
RTVSPropertyOp28
 70
     1
102
RTVSPropertyOp29
 70
     1
102
RTVSPropertyOp30
 70
     1
102
RTVSPropertyOp31
 70
     1
102
RTVSPropertyOp32
 70
     1
102
RTVSPropertyOp33
 70
     1
102
RTVSPropertyOp34
 70
     1
102
RTVSPropertyOp35
 70
     1
102
RTVSPropertyOp36
 70
     1
102
RTVSPropertyOp37
 70
     1
102
RTVSPropertyOp38
 70
     1
102
RTVSPropertyOp39
 70
     1
102
RTVSPropertyOp40
 70
     1
102
RTVSPropertyOp41
 70
     1
102
RTVSPropertyOp42
 70
     1
102
RTVSPropertyOp43
 70
     1
102
RTVSPropertyOp44
 70
     1
102
RTVSPropertyOp45
 70
     1
102
RTVSPropertyOp46
 70
     1
102
RTVSPropertyOp47
 70
     1
102
RTVSPropertyOp48
 70
     1
102
RTVSPropertyOp49
 70
     1
102
RTVSPropertyOp50
 70
     1
102
RTVSPropertyOp51
 70
     0
102
RTVSPropertyOp52
 70
     0
102
RTVSPropertyOp53
 70
     1
102
RTVSPropertyOp54
 70
     1
102
RTVSPropertyOp55
 70
     1
102
RTVSPropertyOp56
 70
     1
102
RTVSPropertyOp57
 70
     1
102
RTVSPropertyOp58
 70
     1
102
RTVSPropertyOp59
 70
     1
102
RTVSPropertyOp60
 70
     1
102
RTVSPropertyOp61
 70
     1
102
RTVSPropertyOp62
 70
     1
  0
XRECORD
  5
3E55
102
{ACAD_REACTORS
330
3E54
102
}
330
3E54
100
AcDbXrecord
280
     1
102
RTVSPost2010Prop28
280
     0
102
RTVSPost2010PropOp28
 70
     1
102
RTVSPost2010Prop29
280
     1
102
RTVSPost2010PropOp29
 70
     1
102
RTVSPost2010Prop30
280
     1
102
RTVSPost2010PropOp30
 70
     1
102
RTVSPost2010Prop31
280
     0
102
RTVSPost2010PropOp31
 70
     1
102
RTVSPost2010Prop32
280
     0
102
RTVSPost2010PropOp32
 70
     1
102
RTVSPost2010Prop33
280
     0
102
RTVSPost2010PropOp33
 70
     1
102
RTVSPost2010Prop34
280
     0
102
RTVSPost2010PropOp34
 70
     1
102
RTVSPost2010Prop35
280
     0
102
RTVSPost2010PropOp35
 70
     1
102
RTVSPost2010Prop36
280
     0
102
RTVSPost2010PropOp36
 70
     1
102
RTVSPost2010Prop37
 90
       50
102
RTVSPost2010PropOp37
 70
     1
102
RTVSPost2010Prop38
140
0.0
102
RTVSPost2010PropOp38
 70
     1
102
RTVSPost2010Prop39
140
1.0
102
RTVSPost2010PropOp39
 70
     1
102
RTVSPost2010Prop40
 90
        0
102
RTVSPost2010PropOp40
 70
     1
102
RTVSPost2010Prop41ColorIndex
 90
       18
102
RTVSPost2010Prop41ColorRGB
 90
        0
102
RTVSPost2010PropOp41
 70
     1
102
RTVSPost2010Prop42
 90
       50
102
RTVSPost2010PropOp42
 70
     1
102
RTVSPost2010Prop43
 90
        3
102
RTVSPost2010PropOp43
 70
     1
102
RTVSPost2010Prop44ColorIndex
 90
        5
102
RTVSPost2010Prop44ColorRGB
 90
      255
102
RTVSPost2010PropOp44
 70
     1
102
RTVSPost2010Prop45
280
     0
102
RTVSPost2010PropOp45
 70
     1
102
RTVSPost2010Prop46
 90
       50
102
RTVSPost2010PropOp46
 70
     1
102
RTVSPost2010Prop47
 90
       50
102
RTVSPost2010PropOp47
 70
     1
102
RTVSPost2010Prop48
 90
       50
102
RTVSPost2010PropOp48
 70
     1
102
RTVSPost2010Prop49
280
     0
102
RTVSPost2010PropOp49
 70
     1
102
RTVSPost2010Prop50
 90
       50
102
RTVSPost2010PropOp50
 70
     1
102
RTVSPost2010Prop51ColorIndex
 90
      256
102
RTVSPost2010Prop51ColorRGB
 90
-16777216
102
RTVSPost2010PropOp51
 70
     0
102
RTVSPost2010Prop52
140
1.0
102
RTVSPost2010PropOp52
 70
     0
102
RTVSPost2010Prop53
 90
        2
102
RTVSPost2010PropOp53
 70
     1
102
RTVSPost2010Prop54
  1
strokes_ogs.tif
102
RTVSPost2010PropOp54
 70
     1
102
RTVSPost2010Prop55
280
     0
102
RTVSPost2010PropOp55
 70
     1
102
RTVSPost2010Prop56
140
1.0
102
RTVSPost2010PropOp56
 70
     1
102
RTVSPost2010Prop57
140
1.0
102
RTVSPost2010PropOp57
 70
     1
102
RTVSPropertyOp0
 70
     1
102
RTVSPropertyOp1
 70
     1
102
RTVSPropertyOp2
 70
     1
102
RTVSPropertyOp3
 70
     1
102
RTVSPropertyOp4
 70
     1
102
RTVSPropertyOp5
 70
     1
102
RTVSPropertyOp6
 70
     1
102
RTVSPropertyOp7
 70
     1
102
RTVSPropertyOp8
 70
     1
102
RTVSPropertyOp9
 70
     1
102
RTVSPropertyOp10
 70
     1
102
RTVSPropertyOp11
 70
     1
102
RTVSPropertyOp12
 70
     1
102
RTVSPropertyOp13
 70
     1
102
RTVSPropertyOp14
 70
     1
102
RTVSPropertyOp15
 70
     1
102
RTVSPropertyOp16
 70
     1
102
RTVSPropertyOp17
 70
     1
102
RTVSPropertyOp18
 70
     1
102
RTVSPropertyOp19
 70
     1
102
RTVSPropertyOp20
 70
     1
102
RTVSPropertyOp21
 70
     1
102
RTVSPropertyOp22
 70
     1
102
RTVSPropertyOp23
 70
     1
102
RTVSPropertyOp24
 70
     1
102
RTVSPropertyOp25
 70
     1
102
RTVSPropertyOp26
 70
     1
102
RTVSPropertyOp27
 70
     1
102
RTVSPropertyOp28
 70
     1
102
RTVSPropertyOp29
 70
     1
102
RTVSPropertyOp30
 70
     1
102
RTVSPropertyOp31
 70
     1
102
RTVSPropertyOp32
 70
     1
102
RTVSPropertyOp33
 70
     1
102
RTVSPropertyOp34
 70
     1
102
RTVSPropertyOp35
 70
     1
102
RTVSPropertyOp36
 70
     1
102
RTVSPropertyOp37
 70
     1
102
RTVSPropertyOp38
 70
     1
102
RTVSPropertyOp39
 70
     1
102
RTVSPropertyOp40
 70
     1
102
RTVSPropertyOp41
 70
     1
102
RTVSPropertyOp42
 70
     1
102
RTVSPropertyOp43
 70
     1
102
RTVSPropertyOp44
 70
     1
102
RTVSPropertyOp45
 70
     1
102
RTVSPropertyOp46
 70
     1
102
RTVSPropertyOp47
 70
     1
102
RTVSPropertyOp48
 70
     1
102
RTVSPropertyOp49
 70
     1
102
RTVSPropertyOp50
 70
     1
102
RTVSPropertyOp51
 70
     0
102
RTVSPropertyOp52
 70
     0
102
RTVSPropertyOp53
 70
     1
102
RTVSPropertyOp54
 70
     1
102
RTVSPropertyOp55
 70
     1
102
RTVSPropertyOp56
 70
     1
102
RTVSPropertyOp57
 70
     1
102
RTVSPropertyOp58
 70
     1
102
RTVSPropertyOp59
 70
     1
102
RTVSPropertyOp60
 70
     1
102
RTVSPropertyOp61
 70
     1
102
RTVSPropertyOp62
 70
     1
  0
XRECORD
  5
3E63
102
{ACAD_REACTORS
330
3E62
102
}
330
3E62
100
AcDbXrecord
280
     1
102
RTVSPost2010Prop28
280
     0
102
RTVSPost2010PropOp28
 70
     1
102
RTVSPost2010Prop29
280
     1
102
RTVSPost2010PropOp29
 70
     1
102
RTVSPost2010Prop30
280
     1
102
RTVSPost2010PropOp30
 70
     1
102
RTVSPost2010Prop31
280
     0
102
RTVSPost2010PropOp31
 70
     1
102
RTVSPost2010Prop32
280
     0
102
RTVSPost2010PropOp32
 70
     1
102
RTVSPost2010Prop33
280
     0
102
RTVSPost2010PropOp33
 70
     1
102
RTVSPost2010Prop34
280
     0
102
RTVSPost2010PropOp34
 70
     1
102
RTVSPost2010Prop35
280
     0
102
RTVSPost2010PropOp35
 70
     1
102
RTVSPost2010Prop36
280
     0
102
RTVSPost2010PropOp36
 70
     1
102
RTVSPost2010Prop37
 90
       50
102
RTVSPost2010PropOp37
 70
     1
102
RTVSPost2010Prop38
140
0.0
102
RTVSPost2010PropOp38
 70
     1
102
RTVSPost2010Prop39
140
1.0
102
RTVSPost2010PropOp39
 70
     1
102
RTVSPost2010Prop40
 90
        0
102
RTVSPost2010PropOp40
 70
     1
102
RTVSPost2010Prop41ColorIndex
 90
       18
102
RTVSPost2010Prop41ColorRGB
 90
        0
102
RTVSPost2010PropOp41
 70
     1
102
RTVSPost2010Prop42
 90
       50
102
RTVSPost2010PropOp42
 70
     1
102
RTVSPost2010Prop43
 90
        3
102
RTVSPost2010PropOp43
 70
     1
102
RTVSPost2010Prop44ColorIndex
 90
        5
102
RTVSPost2010Prop44ColorRGB
 90
      255
102
RTVSPost2010PropOp44
 70
     1
102
RTVSPost2010Prop45
280
     0
102
RTVSPost2010PropOp45
 70
     1
102
RTVSPost2010Prop46
 90
       50
102
RTVSPost2010PropOp46
 70
     1
102
RTVSPost2010Prop47
 90
       50
102
RTVSPost2010PropOp47
 70
     1
102
RTVSPost2010Prop48
 90
       50
102
RTVSPost2010PropOp48
 70
     1
102
RTVSPost2010Prop49
280
     0
102
RTVSPost2010PropOp49
 70
     1
102
RTVSPost2010Prop50
 90
       50
102
RTVSPost2010PropOp50
 70
     1
102
RTVSPost2010Prop51ColorIndex
 90
      256
102
RTVSPost2010Prop51ColorRGB
 90
-16777216
102
RTVSPost2010PropOp51
 70
     0
102
RTVSPost2010Prop52
140
1.0
102
RTVSPost2010PropOp52
 70
     0
102
RTVSPost2010Prop53
 90
        2
102
RTVSPost2010PropOp53
 70
     1
102
RTVSPost2010Prop54
  1
strokes_ogs.tif
102
RTVSPost2010PropOp54
 70
     1
102
RTVSPost2010Prop55
280
     0
102
RTVSPost2010PropOp55
 70
     1
102
RTVSPost2010Prop56
140
1.0
102
RTVSPost2010PropOp56
 70
     1
102
RTVSPost2010Prop57
140
1.0
102
RTVSPost2010PropOp57
 70
     1
102
RTVSPropertyOp0
 70
     1
102
RTVSPropertyOp1
 70
     1
102
RTVSPropertyOp2
 70
     1
102
RTVSPropertyOp3
 70
     1
102
RTVSPropertyOp4
 70
     1
102
RTVSPropertyOp5
 70
     1
102
RTVSPropertyOp6
 70
     1
102
RTVSPropertyOp7
 70
     1
102
RTVSPropertyOp8
 70
     1
102
RTVSPropertyOp9
 70
     1
102
RTVSPropertyOp10
 70
     1
102
RTVSPropertyOp11
 70
     1
102
RTVSPropertyOp12
 70
     1
102
RTVSPropertyOp13
 70
     1
102
RTVSPropertyOp14
 70
     1
102
RTVSPropertyOp15
 70
     1
102
RTVSPropertyOp16
 70
     1
102
RTVSPropertyOp17
 70
     1
102
RTVSPropertyOp18
 70
     1
102
RTVSPropertyOp19
 70
     1
102
RTVSPropertyOp20
 70
     1
102
RTVSPropertyOp21
 70
     1
102
RTVSPropertyOp22
 70
     1
102
RTVSPropertyOp23
 70
     1
102
RTVSPropertyOp24
 70
     1
102
RTVSPropertyOp25
 70
     1
102
RTVSPropertyOp26
 70
     1
102
RTVSPropertyOp27
 70
     1
102
RTVSPropertyOp28
 70
     1
102
RTVSPropertyOp29
 70
     1
102
RTVSPropertyOp30
 70
     1
102
RTVSPropertyOp31
 70
     1
102
RTVSPropertyOp32
 70
     1
102
RTVSPropertyOp33
 70
     1
102
RTVSPropertyOp34
 70
     1
102
RTVSPropertyOp35
 70
     1
102
RTVSPropertyOp36
 70
     1
102
RTVSPropertyOp37
 70
     1
102
RTVSPropertyOp38
 70
     1
102
RTVSPropertyOp39
 70
     1
102
RTVSPropertyOp40
 70
     1
102
RTVSPropertyOp41
 70
     1
102
RTVSPropertyOp42
 70
     1
102
RTVSPropertyOp43
 70
     1
102
RTVSPropertyOp44
 70
     1
102
RTVSPropertyOp45
 70
     1
102
RTVSPropertyOp46
 70
     1
102
RTVSPropertyOp47
 70
     1
102
RTVSPropertyOp48
 70
     1
102
RTVSPropertyOp49
 70
     1
102
RTVSPropertyOp50
 70
     1
102
RTVSPropertyOp51
 70
     0
102
RTVSPropertyOp52
 70
     0
102
RTVSPropertyOp53
 70
     1
102
RTVSPropertyOp54
 70
     1
102
RTVSPropertyOp55
 70
     1
102
RTVSPropertyOp56
 70
     1
102
RTVSPropertyOp57
 70
     1
102
RTVSPropertyOp58
 70
     1
102
RTVSPropertyOp59
 70
     1
102
RTVSPropertyOp60
 70
     1
102
RTVSPropertyOp61
 70
     1
102
RTVSPropertyOp62
 70
     1
  0
XRECORD
  5
3E6B
102
{ACAD_REACTORS
330
3E6A
102
}
330
3E6A
100
AcDbXrecord
280
     1
102
RTVSPost2010Prop28
280
     0
102
RTVSPost2010PropOp28
 70
     1
102
RTVSPost2010Prop29
280
     1
102
RTVSPost2010PropOp29
 70
     1
102
RTVSPost2010Prop30
280
     1
102
RTVSPost2010PropOp30
 70
     1
102
RTVSPost2010Prop31
280
     0
102
RTVSPost2010PropOp31
 70
     1
102
RTVSPost2010Prop32
280
     0
102
RTVSPost2010PropOp32
 70
     1
102
RTVSPost2010Prop33
280
     0
102
RTVSPost2010PropOp33
 70
     1
102
RTVSPost2010Prop34
280
     0
102
RTVSPost2010PropOp34
 70
     1
102
RTVSPost2010Prop35
280
     0
102
RTVSPost2010PropOp35
 70
     1
102
RTVSPost2010Prop36
280
     0
102
RTVSPost2010PropOp36
 70
     1
102
RTVSPost2010Prop37
 90
       50
102
RTVSPost2010PropOp37
 70
     1
102
RTVSPost2010Prop38
140
0.0
102
RTVSPost2010PropOp38
 70
     1
102
RTVSPost2010Prop39
140
1.0
102
RTVSPost2010PropOp39
 70
     1
102
RTVSPost2010Prop40
 90
        0
102
RTVSPost2010PropOp40
 70
     1
102
RTVSPost2010Prop41ColorIndex
 90
       18
102
RTVSPost2010Prop41ColorRGB
 90
        0
102
RTVSPost2010PropOp41
 70
     1
102
RTVSPost2010Prop42
 90
       50
102
RTVSPost2010PropOp42
 70
     1
102
RTVSPost2010Prop43
 90
        3
102
RTVSPost2010PropOp43
 70
     1
102
RTVSPost2010Prop44ColorIndex
 90
        5
102
RTVSPost2010Prop44ColorRGB
 90
      255
102
RTVSPost2010PropOp44
 70
     1
102
RTVSPost2010Prop45
280
     0
102
RTVSPost2010PropOp45
 70
     1
102
RTVSPost2010Prop46
 90
       50
102
RTVSPost2010PropOp46
 70
     1
102
RTVSPost2010Prop47
 90
       50
102
RTVSPost2010PropOp47
 70
     1
102
RTVSPost2010Prop48
 90
       50
102
RTVSPost2010PropOp48
 70
     1
102
RTVSPost2010Prop49
280
     0
102
RTVSPost2010PropOp49
 70
     1
102
RTVSPost2010Prop50
 90
       50
102
RTVSPost2010PropOp50
 70
     1
102
RTVSPost2010Prop51ColorIndex
 90
      256
102
RTVSPost2010Prop51ColorRGB
 90
-16777216
102
RTVSPost2010PropOp51
 70
     0
102
RTVSPost2010Prop52
140
1.0
102
RTVSPost2010PropOp52
 70
     0
102
RTVSPost2010Prop53
 90
        2
102
RTVSPost2010PropOp53
 70
     1
102
RTVSPost2010Prop54
  1
strokes_ogs.tif
102
RTVSPost2010PropOp54
 70
     1
102
RTVSPost2010Prop55
280
     0
102
RTVSPost2010PropOp55
 70
     1
102
RTVSPost2010Prop56
140
1.0
102
RTVSPost2010PropOp56
 70
     1
102
RTVSPost2010Prop57
140
1.0
102
RTVSPost2010PropOp57
 70
     1
102
RTVSPropertyOp0
 70
     1
102
RTVSPropertyOp1
 70
     1
102
RTVSPropertyOp2
 70
     1
102
RTVSPropertyOp3
 70
     1
102
RTVSPropertyOp4
 70
     1
102
RTVSPropertyOp5
 70
     1
102
RTVSPropertyOp6
 70
     1
102
RTVSPropertyOp7
 70
     1
102
RTVSPropertyOp8
 70
     1
102
RTVSPropertyOp9
 70
     1
102
RTVSPropertyOp10
 70
     1
102
RTVSPropertyOp11
 70
     1
102
RTVSPropertyOp12
 70
     1
102
RTVSPropertyOp13
 70
     1
102
RTVSPropertyOp14
 70
     1
102
RTVSPropertyOp15
 70
     1
102
RTVSPropertyOp16
 70
     1
102
RTVSPropertyOp17
 70
     1
102
RTVSPropertyOp18
 70
     1
102
RTVSPropertyOp19
 70
     1
102
RTVSPropertyOp20
 70
     1
102
RTVSPropertyOp21
 70
     1
102
RTVSPropertyOp22
 70
     1
102
RTVSPropertyOp23
 70
     1
102
RTVSPropertyOp24
 70
     1
102
RTVSPropertyOp25
 70
     1
102
RTVSPropertyOp26
 70
     1
102
RTVSPropertyOp27
 70
     1
102
RTVSPropertyOp28
 70
     1
102
RTVSPropertyOp29
 70
     1
102
RTVSPropertyOp30
 70
     1
102
RTVSPropertyOp31
 70
     1
102
RTVSPropertyOp32
 70
     1
102
RTVSPropertyOp33
 70
     1
102
RTVSPropertyOp34
 70
     1
102
RTVSPropertyOp35
 70
     1
102
RTVSPropertyOp36
 70
     1
102
RTVSPropertyOp37
 70
     1
102
RTVSPropertyOp38
 70
     1
102
RTVSPropertyOp39
 70
     1
102
RTVSPropertyOp40
 70
     1
102
RTVSPropertyOp41
 70
     1
102
RTVSPropertyOp42
 70
     1
102
RTVSPropertyOp43
 70
     1
102
RTVSPropertyOp44
 70
     1
102
RTVSPropertyOp45
 70
     1
102
RTVSPropertyOp46
 70
     1
102
RTVSPropertyOp47
 70
     1
102
RTVSPropertyOp48
 70
     1
102
RTVSPropertyOp49
 70
     1
102
RTVSPropertyOp50
 70
     1
102
RTVSPropertyOp51
 70
     0
102
RTVSPropertyOp52
 70
     0
102
RTVSPropertyOp53
 70
     1
102
RTVSPropertyOp54
 70
     1
102
RTVSPropertyOp55
 70
     1
102
RTVSPropertyOp56
 70
     1
102
RTVSPropertyOp57
 70
     1
102
RTVSPropertyOp58
 70
     1
102
RTVSPropertyOp59
 70
     1
102
RTVSPropertyOp60
 70
     1
102
RTVSPropertyOp61
 70
     1
102
RTVSPropertyOp62
 70
     1
  0
XRECORD
  5
3E5D
102
{ACAD_REACTORS
330
3E5C
102
}
330
3E5C
100
AcDbXrecord
280
     1
102
RTVSPost2010Prop28
280
     0
102
RTVSPost2010PropOp28
 70
     1
102
RTVSPost2010Prop29
280
     1
102
RTVSPost2010PropOp29
 70
     1
102
RTVSPost2010Prop30
280
     1
102
RTVSPost2010PropOp30
 70
     1
102
RTVSPost2010Prop31
280
     0
102
RTVSPost2010PropOp31
 70
     1
102
RTVSPost2010Prop32
280
     0
102
RTVSPost2010PropOp32
 70
     1
102
RTVSPost2010Prop33
280
     0
102
RTVSPost2010PropOp33
 70
     1
102
RTVSPost2010Prop34
280
     0
102
RTVSPost2010PropOp34
 70
     1
102
RTVSPost2010Prop35
280
     0
102
RTVSPost2010PropOp35
 70
     1
102
RTVSPost2010Prop36
280
     0
102
RTVSPost2010PropOp36
 70
     1
102
RTVSPost2010Prop37
 90
       50
102
RTVSPost2010PropOp37
 70
     1
102
RTVSPost2010Prop38
140
0.0
102
RTVSPost2010PropOp38
 70
     1
102
RTVSPost2010Prop39
140
1.0
102
RTVSPost2010PropOp39
 70
     1
102
RTVSPost2010Prop40
 90
        0
102
RTVSPost2010PropOp40
 70
     1
102
RTVSPost2010Prop41ColorIndex
 90
       18
102
RTVSPost2010Prop41ColorRGB
 90
        0
102
RTVSPost2010PropOp41
 70
     1
102
RTVSPost2010Prop42
 90
       50
102
RTVSPost2010PropOp42
 70
     1
102
RTVSPost2010Prop43
 90
        3
102
RTVSPost2010PropOp43
 70
     1
102
RTVSPost2010Prop44ColorIndex
 90
        5
102
RTVSPost2010Prop44ColorRGB
 90
      255
102
RTVSPost2010PropOp44
 70
     1
102
RTVSPost2010Prop45
280
     0
102
RTVSPost2010PropOp45
 70
     1
102
RTVSPost2010Prop46
 90
       50
102
RTVSPost2010PropOp46
 70
     1
102
RTVSPost2010Prop47
 90
       50
102
RTVSPost2010PropOp47
 70
     1
102
RTVSPost2010Prop48
 90
       50
102
RTVSPost2010PropOp48
 70
     1
102
RTVSPost2010Prop49
280
     0
102
RTVSPost2010PropOp49
 70
     1
102
RTVSPost2010Prop50
 90
       50
102
RTVSPost2010PropOp50
 70
     1
102
RTVSPost2010Prop51ColorIndex
 90
      256
102
RTVSPost2010Prop51ColorRGB
 90
-16777216
102
RTVSPost2010PropOp51
 70
     0
102
RTVSPost2010Prop52
140
1.0
102
RTVSPost2010PropOp52
 70
     0
102
RTVSPost2010Prop53
 90
        2
102
RTVSPost2010PropOp53
 70
     1
102
RTVSPost2010Prop54
  1
strokes_ogs.tif
102
RTVSPost2010PropOp54
 70
     1
102
RTVSPost2010Prop55
280
     0
102
RTVSPost2010PropOp55
 70
     1
102
RTVSPost2010Prop56
140
1.0
102
RTVSPost2010PropOp56
 70
     1
102
RTVSPost2010Prop57
140
1.0
102
RTVSPost2010PropOp57
 70
     1
102
RTVSPropertyOp0
 70
     1
102
RTVSPropertyOp1
 70
     1
102
RTVSPropertyOp2
 70
     1
102
RTVSPropertyOp3
 70
     1
102
RTVSPropertyOp4
 70
     1
102
RTVSPropertyOp5
 70
     1
102
RTVSPropertyOp6
 70
     1
102
RTVSPropertyOp7
 70
     1
102
RTVSPropertyOp8
 70
     1
102
RTVSPropertyOp9
 70
     1
102
RTVSPropertyOp10
 70
     1
102
RTVSPropertyOp11
 70
     1
102
RTVSPropertyOp12
 70
     1
102
RTVSPropertyOp13
 70
     1
102
RTVSPropertyOp14
 70
     1
102
RTVSPropertyOp15
 70
     1
102
RTVSPropertyOp16
 70
     1
102
RTVSPropertyOp17
 70
     1
102
RTVSPropertyOp18
 70
     1
102
RTVSPropertyOp19
 70
     1
102
RTVSPropertyOp20
 70
     1
102
RTVSPropertyOp21
 70
     1
102
RTVSPropertyOp22
 70
     1
102
RTVSPropertyOp23
 70
     1
102
RTVSPropertyOp24
 70
     1
102
RTVSPropertyOp25
 70
     1
102
RTVSPropertyOp26
 70
     1
102
RTVSPropertyOp27
 70
     1
102
RTVSPropertyOp28
 70
     1
102
RTVSPropertyOp29
 70
     1
102
RTVSPropertyOp30
 70
     1
102
RTVSPropertyOp31
 70
     1
102
RTVSPropertyOp32
 70
     1
102
RTVSPropertyOp33
 70
     1
102
RTVSPropertyOp34
 70
     1
102
RTVSPropertyOp35
 70
     1
102
RTVSPropertyOp36
 70
     1
102
RTVSPropertyOp37
 70
     1
102
RTVSPropertyOp38
 70
     1
102
RTVSPropertyOp39
 70
     1
102
RTVSPropertyOp40
 70
     1
102
RTVSPropertyOp41
 70
     1
102
RTVSPropertyOp42
 70
     1
102
RTVSPropertyOp43
 70
     1
102
RTVSPropertyOp44
 70
     1
102
RTVSPropertyOp45
 70
     1
102
RTVSPropertyOp46
 70
     1
102
RTVSPropertyOp47
 70
     1
102
RTVSPropertyOp48
 70
     1
102
RTVSPropertyOp49
 70
     1
102
RTVSPropertyOp50
 70
     1
102
RTVSPropertyOp51
 70
     0
102
RTVSPropertyOp52
 70
     0
102
RTVSPropertyOp53
 70
     1
102
RTVSPropertyOp54
 70
     1
102
RTVSPropertyOp55
 70
     1
102
RTVSPropertyOp56
 70
     1
102
RTVSPropertyOp57
 70
     1
102
RTVSPropertyOp58
 70
     1
102
RTVSPropertyOp59
 70
     1
102
RTVSPropertyOp60
 70
     1
102
RTVSPropertyOp61
 70
     1
102
RTVSPropertyOp62
 70
     1
  0
XRECORD
  5
3E61
102
{ACAD_REACTORS
330
3E60
102
}
330
3E60
100
AcDbXrecord
280
     1
102
RTVSPost2010Prop28
280
     0
102
RTVSPost2010PropOp28
 70
     1
102
RTVSPost2010Prop29
280
     1
102
RTVSPost2010PropOp29
 70
     1
102
RTVSPost2010Prop30
280
     1
102
RTVSPost2010PropOp30
 70
     1
102
RTVSPost2010Prop31
280
     0
102
RTVSPost2010PropOp31
 70
     1
102
RTVSPost2010Prop32
280
     0
102
RTVSPost2010PropOp32
 70
     1
102
RTVSPost2010Prop33
280
     0
102
RTVSPost2010PropOp33
 70
     1
102
RTVSPost2010Prop34
280
     0
102
RTVSPost2010PropOp34
 70
     1
102
RTVSPost2010Prop35
280
     0
102
RTVSPost2010PropOp35
 70
     1
102
RTVSPost2010Prop36
280
     0
102
RTVSPost2010PropOp36
 70
     1
102
RTVSPost2010Prop37
 90
       50
102
RTVSPost2010PropOp37
 70
     1
102
RTVSPost2010Prop38
140
0.0
102
RTVSPost2010PropOp38
 70
     1
102
RTVSPost2010Prop39
140
1.0
102
RTVSPost2010PropOp39
 70
     1
102
RTVSPost2010Prop40
 90
        0
102
RTVSPost2010PropOp40
 70
     1
102
RTVSPost2010Prop41ColorIndex
 90
       18
102
RTVSPost2010Prop41ColorRGB
 90
        0
102
RTVSPost2010PropOp41
 70
     1
102
RTVSPost2010Prop42
 90
       50
102
RTVSPost2010PropOp42
 70
     1
102
RTVSPost2010Prop43
 90
        3
102
RTVSPost2010PropOp43
 70
     1
102
RTVSPost2010Prop44ColorIndex
 90
        5
102
RTVSPost2010Prop44ColorRGB
 90
      255
102
RTVSPost2010PropOp44
 70
     1
102
RTVSPost2010Prop45
280
     0
102
RTVSPost2010PropOp45
 70
     1
102
RTVSPost2010Prop46
 90
       50
102
RTVSPost2010PropOp46
 70
     1
102
RTVSPost2010Prop47
 90
       50
102
RTVSPost2010PropOp47
 70
     1
102
RTVSPost2010Prop48
 90
       50
102
RTVSPost2010PropOp48
 70
     1
102
RTVSPost2010Prop49
280
     0
102
RTVSPost2010PropOp49
 70
     1
102
RTVSPost2010Prop50
 90
       50
102
RTVSPost2010PropOp50
 70
     1
102
RTVSPost2010Prop51ColorIndex
 90
      256
102
RTVSPost2010Prop51ColorRGB
 90
-16777216
102
RTVSPost2010PropOp51
 70
     0
102
RTVSPost2010Prop52
140
1.0
102
RTVSPost2010PropOp52
 70
     0
102
RTVSPost2010Prop53
 90
        2
102
RTVSPost2010PropOp53
 70
     1
102
RTVSPost2010Prop54
  1
strokes_ogs.tif
102
RTVSPost2010PropOp54
 70
     1
102
RTVSPost2010Prop55
280
     0
102
RTVSPost2010PropOp55
 70
     1
102
RTVSPost2010Prop56
140
1.0
102
RTVSPost2010PropOp56
 70
     1
102
RTVSPost2010Prop57
140
1.0
102
RTVSPost2010PropOp57
 70
     1
102
RTVSPropertyOp0
 70
     1
102
RTVSPropertyOp1
 70
     1
102
RTVSPropertyOp2
 70
     1
102
RTVSPropertyOp3
 70
     1
102
RTVSPropertyOp4
 70
     1
102
RTVSPropertyOp5
 70
     1
102
RTVSPropertyOp6
 70
     1
102
RTVSPropertyOp7
 70
     1
102
RTVSPropertyOp8
 70
     1
102
RTVSPropertyOp9
 70
     1
102
RTVSPropertyOp10
 70
     1
102
RTVSPropertyOp11
 70
     1
102
RTVSPropertyOp12
 70
     1
102
RTVSPropertyOp13
 70
     1
102
RTVSPropertyOp14
 70
     1
102
RTVSPropertyOp15
 70
     1
102
RTVSPropertyOp16
 70
     1
102
RTVSPropertyOp17
 70
     1
102
RTVSPropertyOp18
 70
     1
102
RTVSPropertyOp19
 70
     1
102
RTVSPropertyOp20
 70
     1
102
RTVSPropertyOp21
 70
     1
102
RTVSPropertyOp22
 70
     1
102
RTVSPropertyOp23
 70
     1
102
RTVSPropertyOp24
 70
     1
102
RTVSPropertyOp25
 70
     1
102
RTVSPropertyOp26
 70
     1
102
RTVSPropertyOp27
 70
     1
102
RTVSPropertyOp28
 70
     1
102
RTVSPropertyOp29
 70
     1
102
RTVSPropertyOp30
 70
     1
102
RTVSPropertyOp31
 70
     1
102
RTVSPropertyOp32
 70
     1
102
RTVSPropertyOp33
 70
     1
102
RTVSPropertyOp34
 70
     1
102
RTVSPropertyOp35
 70
     1
102
RTVSPropertyOp36
 70
     1
102
RTVSPropertyOp37
 70
     1
102
RTVSPropertyOp38
 70
     1
102
RTVSPropertyOp39
 70
     1
102
RTVSPropertyOp40
 70
     1
102
RTVSPropertyOp41
 70
     1
102
RTVSPropertyOp42
 70
     1
102
RTVSPropertyOp43
 70
     1
102
RTVSPropertyOp44
 70
     1
102
RTVSPropertyOp45
 70
     1
102
RTVSPropertyOp46
 70
     1
102
RTVSPropertyOp47
 70
     1
102
RTVSPropertyOp48
 70
     1
102
RTVSPropertyOp49
 70
     1
102
RTVSPropertyOp50
 70
     1
102
RTVSPropertyOp51
 70
     0
102
RTVSPropertyOp52
 70
     0
102
RTVSPropertyOp53
 70
     1
102
RTVSPropertyOp54
 70
     1
102
RTVSPropertyOp55
 70
     1
102
RTVSPropertyOp56
 70
     1
102
RTVSPropertyOp57
 70
     1
102
RTVSPropertyOp58
 70
     1
102
RTVSPropertyOp59
 70
     1
102
RTVSPropertyOp60
 70
     1
102
RTVSPropertyOp61
 70
     1
102
RTVSPropertyOp62
 70
     1
  0
XRECORD
  5
3E71
102
{ACAD_REACTORS
330
3E70
102
}
330
3E70
100
AcDbXrecord
280
     1
102
RTVSPost2010Prop28
280
     0
102
RTVSPost2010PropOp28
 70
     1
102
RTVSPost2010Prop29
280
     1
102
RTVSPost2010PropOp29
 70
     1
102
RTVSPost2010Prop30
280
     1
102
RTVSPost2010PropOp30
 70
     1
102
RTVSPost2010Prop31
280
     0
102
RTVSPost2010PropOp31
 70
     1
102
RTVSPost2010Prop32
280
     0
102
RTVSPost2010PropOp32
 70
     1
102
RTVSPost2010Prop33
280
     0
102
RTVSPost2010PropOp33
 70
     1
102
RTVSPost2010Prop34
280
     0
102
RTVSPost2010PropOp34
 70
     1
102
RTVSPost2010Prop35
280
     0
102
RTVSPost2010PropOp35
 70
     1
102
RTVSPost2010Prop36
280
     0
102
RTVSPost2010PropOp36
 70
     1
102
RTVSPost2010Prop37
 90
       50
102
RTVSPost2010PropOp37
 70
     1
102
RTVSPost2010Prop38
140
0.0
102
RTVSPost2010PropOp38
 70
     1
102
RTVSPost2010Prop39
140
1.0
102
RTVSPost2010PropOp39
 70
     1
102
RTVSPost2010Prop40
 90
        0
102
RTVSPost2010PropOp40
 70
     1
102
RTVSPost2010Prop41ColorIndex
 90
       18
102
RTVSPost2010Prop41ColorRGB
 90
        0
102
RTVSPost2010PropOp41
 70
     1
102
RTVSPost2010Prop42
 90
       50
102
RTVSPost2010PropOp42
 70
     1
102
RTVSPost2010Prop43
 90
        3
102
RTVSPost2010PropOp43
 70
     1
102
RTVSPost2010Prop44ColorIndex
 90
        5
102
RTVSPost2010Prop44ColorRGB
 90
      255
102
RTVSPost2010PropOp44
 70
     1
102
RTVSPost2010Prop45
280
     0
102
RTVSPost2010PropOp45
 70
     1
102
RTVSPost2010Prop46
 90
       50
102
RTVSPost2010PropOp46
 70
     1
102
RTVSPost2010Prop47
 90
       50
102
RTVSPost2010PropOp47
 70
     1
102
RTVSPost2010Prop48
 90
       50
102
RTVSPost2010PropOp48
 70
     1
102
RTVSPost2010Prop49
280
     0
102
RTVSPost2010PropOp49
 70
     1
102
RTVSPost2010Prop50
 90
       50
102
RTVSPost2010PropOp50
 70
     1
102
RTVSPost2010Prop51ColorIndex
 90
      256
102
RTVSPost2010Prop51ColorRGB
 90
-16777216
102
RTVSPost2010PropOp51
 70
     0
102
RTVSPost2010Prop52
140
1.0
102
RTVSPost2010PropOp52
 70
     0
102
RTVSPost2010Prop53
 90
        2
102
RTVSPost2010PropOp53
 70
     1
102
RTVSPost2010Prop54
  1
strokes_ogs.tif
102
RTVSPost2010PropOp54
 70
     1
102
RTVSPost2010Prop55
280
     0
102
RTVSPost2010PropOp55
 70
     1
102
RTVSPost2010Prop56
140
1.0
102
RTVSPost2010PropOp56
 70
     1
102
RTVSPost2010Prop57
140
1.0
102
RTVSPost2010PropOp57
 70
     1
102
RTVSPropertyOp0
 70
     0
102
RTVSPropertyOp1
 70
     0
102
RTVSPropertyOp2
 70
     0
102
RTVSPropertyOp3
 70
     0
102
RTVSPropertyOp4
 70
     0
102
RTVSPropertyOp5
 70
     0
102
RTVSPropertyOp6
 70
     0
102
RTVSPropertyOp7
 70
     0
102
RTVSPropertyOp8
 70
     0
102
RTVSPropertyOp9
 70
     0
102
RTVSPropertyOp10
 70
     0
102
RTVSPropertyOp11
 70
     0
102
RTVSPropertyOp12
 70
     0
102
RTVSPropertyOp13
 70
     0
102
RTVSPropertyOp14
 70
     2
102
RTVSPropertyOp15
 70
     0
102
RTVSPropertyOp16
 70
     0
102
RTVSPropertyOp17
 70
     0
102
RTVSPropertyOp18
 70
     0
102
RTVSPropertyOp19
 70
     0
102
RTVSPropertyOp20
 70
     0
102
RTVSPropertyOp21
 70
     0
102
RTVSPropertyOp22
 70
     0
102
RTVSPropertyOp23
 70
     0
102
RTVSPropertyOp24
 70
     0
102
RTVSPropertyOp25
 70
     0
102
RTVSPropertyOp26
 70
     0
102
RTVSPropertyOp27
 70
     0
102
RTVSPropertyOp28
 70
     1
102
RTVSPropertyOp29
 70
     1
102
RTVSPropertyOp30
 70
     1
102
RTVSPropertyOp31
 70
     1
102
RTVSPropertyOp32
 70
     1
102
RTVSPropertyOp33
 70
     1
102
RTVSPropertyOp34
 70
     1
102
RTVSPropertyOp35
 70
     1
102
RTVSPropertyOp36
 70
     1
102
RTVSPropertyOp37
 70
     1
102
RTVSPropertyOp38
 70
     1
102
RTVSPropertyOp39
 70
     1
102
RTVSPropertyOp40
 70
     1
102
RTVSPropertyOp41
 70
     1
102
RTVSPropertyOp42
 70
     1
102
RTVSPropertyOp43
 70
     1
102
RTVSPropertyOp44
 70
     1
102
RTVSPropertyOp45
 70
     1
102
RTVSPropertyOp46
 70
     1
102
RTVSPropertyOp47
 70
     1
102
RTVSPropertyOp48
 70
     1
102
RTVSPropertyOp49
 70
     1
102
RTVSPropertyOp50
 70
     1
102
RTVSPropertyOp51
 70
     0
102
RTVSPropertyOp52
 70
     0
102
RTVSPropertyOp53
 70
     1
102
RTVSPropertyOp54
 70
     1
102
RTVSPropertyOp55
 70
     1
102
RTVSPropertyOp56
 70
     1
102
RTVSPropertyOp57
 70
     1
102
RTVSPropertyOp58
 70
     1
102
RTVSPropertyOp59
 70
     1
102
RTVSPropertyOp60
 70
     1
102
RTVSPropertyOp61
 70
     1
102
RTVSPropertyOp62
 70
     1
  0
XRECORD
  5
3E69
102
{ACAD_REACTORS
330
3E68
102
}
330
3E68
100
AcDbXrecord
280
     1
102
RTVSPost2010Prop28
280
     0
102
RTVSPost2010PropOp28
 70
     1
102
RTVSPost2010Prop29
280
     1
102
RTVSPost2010PropOp29
 70
     1
102
RTVSPost2010Prop30
280
     1
102
RTVSPost2010PropOp30
 70
     1
102
RTVSPost2010Prop31
280
     0
102
RTVSPost2010PropOp31
 70
     1
102
RTVSPost2010Prop32
280
     0
102
RTVSPost2010PropOp32
 70
     1
102
RTVSPost2010Prop33
280
     0
102
RTVSPost2010PropOp33
 70
     1
102
RTVSPost2010Prop34
280
     0
102
RTVSPost2010PropOp34
 70
     1
102
RTVSPost2010Prop35
280
     0
102
RTVSPost2010PropOp35
 70
     1
102
RTVSPost2010Prop36
280
     0
102
RTVSPost2010PropOp36
 70
     1
102
RTVSPost2010Prop37
 90
       50
102
RTVSPost2010PropOp37
 70
     1
102
RTVSPost2010Prop38
140
0.0
102
RTVSPost2010PropOp38
 70
     1
102
RTVSPost2010Prop39
140
1.0
102
RTVSPost2010PropOp39
 70
     1
102
RTVSPost2010Prop40
 90
        0
102
RTVSPost2010PropOp40
 70
     1
102
RTVSPost2010Prop41ColorIndex
 90
       18
102
RTVSPost2010Prop41ColorRGB
 90
        0
102
RTVSPost2010PropOp41
 70
     1
102
RTVSPost2010Prop42
 90
       50
102
RTVSPost2010PropOp42
 70
     1
102
RTVSPost2010Prop43
 90
        3
102
RTVSPost2010PropOp43
 70
     1
102
RTVSPost2010Prop44ColorIndex
 90
        5
102
RTVSPost2010Prop44ColorRGB
 90
      255
102
RTVSPost2010PropOp44
 70
     1
102
RTVSPost2010Prop45
280
     0
102
RTVSPost2010PropOp45
 70
     1
102
RTVSPost2010Prop46
 90
       50
102
RTVSPost2010PropOp46
 70
     1
102
RTVSPost2010Prop47
 90
       50
102
RTVSPost2010PropOp47
 70
     1
102
RTVSPost2010Prop48
 90
       50
102
RTVSPost2010PropOp48
 70
     1
102
RTVSPost2010Prop49
280
     0
102
RTVSPost2010PropOp49
 70
     1
102
RTVSPost2010Prop50
 90
       50
102
RTVSPost2010PropOp50
 70
     1
102
RTVSPost2010Prop51ColorIndex
 90
      256
102
RTVSPost2010Prop51ColorRGB
 90
-16777216
102
RTVSPost2010PropOp51
 70
     0
102
RTVSPost2010Prop52
140
1.0
102
RTVSPost2010PropOp52
 70
     0
102
RTVSPost2010Prop53
 90
        2
102
RTVSPost2010PropOp53
 70
     1
102
RTVSPost2010Prop54
  1
strokes_ogs.tif
102
RTVSPost2010PropOp54
 70
     1
102
RTVSPost2010Prop55
280
     0
102
RTVSPost2010PropOp55
 70
     1
102
RTVSPost2010Prop56
140
1.0
102
RTVSPost2010PropOp56
 70
     1
102
RTVSPost2010Prop57
140
1.0
102
RTVSPost2010PropOp57
 70
     1
102
RTVSPropertyOp0
 70
     1
102
RTVSPropertyOp1
 70
     1
102
RTVSPropertyOp2
 70
     1
102
RTVSPropertyOp3
 70
     1
102
RTVSPropertyOp4
 70
     1
102
RTVSPropertyOp5
 70
     1
102
RTVSPropertyOp6
 70
     1
102
RTVSPropertyOp7
 70
     1
102
RTVSPropertyOp8
 70
     1
102
RTVSPropertyOp9
 70
     1
102
RTVSPropertyOp10
 70
     1
102
RTVSPropertyOp11
 70
     1
102
RTVSPropertyOp12
 70
     1
102
RTVSPropertyOp13
 70
     1
102
RTVSPropertyOp14
 70
     1
102
RTVSPropertyOp15
 70
     1
102
RTVSPropertyOp16
 70
     1
102
RTVSPropertyOp17
 70
     1
102
RTVSPropertyOp18
 70
     1
102
RTVSPropertyOp19
 70
     1
102
RTVSPropertyOp20
 70
     1
102
RTVSPropertyOp21
 70
     1
102
RTVSPropertyOp22
 70
     1
102
RTVSPropertyOp23
 70
     1
102
RTVSPropertyOp24
 70
     1
102
RTVSPropertyOp25
 70
     1
102
RTVSPropertyOp26
 70
     1
102
RTVSPropertyOp27
 70
     1
102
RTVSPropertyOp28
 70
     1
102
RTVSPropertyOp29
 70
     1
102
RTVSPropertyOp30
 70
     1
102
RTVSPropertyOp31
 70
     1
102
RTVSPropertyOp32
 70
     1
102
RTVSPropertyOp33
 70
     1
102
RTVSPropertyOp34
 70
     1
102
RTVSPropertyOp35
 70
     1
102
RTVSPropertyOp36
 70
     1
102
RTVSPropertyOp37
 70
     1
102
RTVSPropertyOp38
 70
     1
102
RTVSPropertyOp39
 70
     1
102
RTVSPropertyOp40
 70
     1
102
RTVSPropertyOp41
 70
     1
102
RTVSPropertyOp42
 70
     1
102
RTVSPropertyOp43
 70
     1
102
RTVSPropertyOp44
 70
     1
102
RTVSPropertyOp45
 70
     1
102
RTVSPropertyOp46
 70
     1
102
RTVSPropertyOp47
 70
     1
102
RTVSPropertyOp48
 70
     1
102
RTVSPropertyOp49
 70
     1
102
RTVSPropertyOp50
 70
     1
102
RTVSPropertyOp51
 70
     0
102
RTVSPropertyOp52
 70
     0
102
RTVSPropertyOp53
 70
     1
102
RTVSPropertyOp54
 70
     1
102
RTVSPropertyOp55
 70
     1
102
RTVSPropertyOp56
 70
     1
102
RTVSPropertyOp57
 70
     1
102
RTVSPropertyOp58
 70
     1
102
RTVSPropertyOp59
 70
     1
102
RTVSPropertyOp60
 70
     1
102
RTVSPropertyOp61
 70
     1
102
RTVSPropertyOp62
 70
     1
  0
XRECORD
  5
3E4D
102
{ACAD_REACTORS
330
3E4C
102
}
330
3E4C
100
AcDbXrecord
280
     1
102
RTVSPost2010Prop28
280
     0
102
RTVSPost2010PropOp28
 70
     1
102
RTVSPost2010Prop29
280
     1
102
RTVSPost2010PropOp29
 70
     1
102
RTVSPost2010Prop30
280
     1
102
RTVSPost2010PropOp30
 70
     1
102
RTVSPost2010Prop31
280
     0
102
RTVSPost2010PropOp31
 70
     1
102
RTVSPost2010Prop32
280
     0
102
RTVSPost2010PropOp32
 70
     1
102
RTVSPost2010Prop33
280
     0
102
RTVSPost2010PropOp33
 70
     1
102
RTVSPost2010Prop34
280
     0
102
RTVSPost2010PropOp34
 70
     1
102
RTVSPost2010Prop35
280
     0
102
RTVSPost2010PropOp35
 70
     1
102
RTVSPost2010Prop36
280
     0
102
RTVSPost2010PropOp36
 70
     1
102
RTVSPost2010Prop37
 90
       50
102
RTVSPost2010PropOp37
 70
     1
102
RTVSPost2010Prop38
140
0.0
102
RTVSPost2010PropOp38
 70
     1
102
RTVSPost2010Prop39
140
1.0
102
RTVSPost2010PropOp39
 70
     1
102
RTVSPost2010Prop40
 90
        0
102
RTVSPost2010PropOp40
 70
     1
102
RTVSPost2010Prop41ColorIndex
 90
       18
102
RTVSPost2010Prop41ColorRGB
 90
        0
102
RTVSPost2010PropOp41
 70
     1
102
RTVSPost2010Prop42
 90
       50
102
RTVSPost2010PropOp42
 70
     1
102
RTVSPost2010Prop43
 90
        3
102
RTVSPost2010PropOp43
 70
     1
102
RTVSPost2010Prop44ColorIndex
 90
        5
102
RTVSPost2010Prop44ColorRGB
 90
      255
102
RTVSPost2010PropOp44
 70
     1
102
RTVSPost2010Prop45
280
     0
102
RTVSPost2010PropOp45
 70
     1
102
RTVSPost2010Prop46
 90
       50
102
RTVSPost2010PropOp46
 70
     1
102
RTVSPost2010Prop47
 90
       50
102
RTVSPost2010PropOp47
 70
     1
102
RTVSPost2010Prop48
 90
       50
102
RTVSPost2010PropOp48
 70
     1
102
RTVSPost2010Prop49
280
     0
102
RTVSPost2010PropOp49
 70
     1
102
RTVSPost2010Prop50
 90
       50
102
RTVSPost2010PropOp50
 70
     1
102
RTVSPost2010Prop51ColorIndex
 90
      256
102
RTVSPost2010Prop51ColorRGB
 90
-16777216
102
RTVSPost2010PropOp51
 70
     0
102
RTVSPost2010Prop52
140
1.0
102
RTVSPost2010PropOp52
 70
     0
102
RTVSPost2010Prop53
 90
        2
102
RTVSPost2010PropOp53
 70
     1
102
RTVSPost2010Prop54
  1
strokes_ogs.tif
102
RTVSPost2010PropOp54
 70
     1
102
RTVSPost2010Prop55
280
     0
102
RTVSPost2010PropOp55
 70
     1
102
RTVSPost2010Prop56
140
1.0
102
RTVSPost2010PropOp56
 70
     1
102
RTVSPost2010Prop57
140
1.0
102
RTVSPost2010PropOp57
 70
     1
102
RTVSPropertyOp0
 70
     1
102
RTVSPropertyOp1
 70
     1
102
RTVSPropertyOp2
 70
     1
102
RTVSPropertyOp3
 70
     1
102
RTVSPropertyOp4
 70
     1
102
RTVSPropertyOp5
 70
     1
102
RTVSPropertyOp6
 70
     1
102
RTVSPropertyOp7
 70
     1
102
RTVSPropertyOp8
 70
     1
102
RTVSPropertyOp9
 70
     1
102
RTVSPropertyOp10
 70
     1
102
RTVSPropertyOp11
 70
     1
102
RTVSPropertyOp12
 70
     1
102
RTVSPropertyOp13
 70
     1
102
RTVSPropertyOp14
 70
     1
102
RTVSPropertyOp15
 70
     1
102
RTVSPropertyOp16
 70
     1
102
RTVSPropertyOp17
 70
     1
102
RTVSPropertyOp18
 70
     1
102
RTVSPropertyOp19
 70
     1
102
RTVSPropertyOp20
 70
     1
102
RTVSPropertyOp21
 70
     1
102
RTVSPropertyOp22
 70
     1
102
RTVSPropertyOp23
 70
     1
102
RTVSPropertyOp24
 70
     1
102
RTVSPropertyOp25
 70
     1
102
RTVSPropertyOp26
 70
     1
102
RTVSPropertyOp27
 70
     1
102
RTVSPropertyOp28
 70
     1
102
RTVSPropertyOp29
 70
     1
102
RTVSPropertyOp30
 70
     1
102
RTVSPropertyOp31
 70
     1
102
RTVSPropertyOp32
 70
     1
102
RTVSPropertyOp33
 70
     1
102
RTVSPropertyOp34
 70
     1
102
RTVSPropertyOp35
 70
     1
102
RTVSPropertyOp36
 70
     1
102
RTVSPropertyOp37
 70
     1
102
RTVSPropertyOp38
 70
     1
102
RTVSPropertyOp39
 70
     1
102
RTVSPropertyOp40
 70
     1
102
RTVSPropertyOp41
 70
     1
102
RTVSPropertyOp42
 70
     1
102
RTVSPropertyOp43
 70
     1
102
RTVSPropertyOp44
 70
     1
102
RTVSPropertyOp45
 70
     1
102
RTVSPropertyOp46
 70
     1
102
RTVSPropertyOp47
 70
     1
102
RTVSPropertyOp48
 70
     1
102
RTVSPropertyOp49
 70
     1
102
RTVSPropertyOp50
 70
     1
102
RTVSPropertyOp51
 70
     0
102
RTVSPropertyOp52
 70
     0
102
RTVSPropertyOp53
 70
     1
102
RTVSPropertyOp54
 70
     1
102
RTVSPropertyOp55
 70
     1
102
RTVSPropertyOp56
 70
     1
102
RTVSPropertyOp57
 70
     1
102
RTVSPropertyOp58
 70
     1
102
RTVSPropertyOp59
 70
     1
102
RTVSPropertyOp60
 70
     1
102
RTVSPropertyOp61
 70
     1
102
RTVSPropertyOp62
 70
     1
  0
XRECORD
  5
3E4F
102
{ACAD_REACTORS
330
3E4E
102
}
330
3E4E
100
AcDbXrecord
280
     1
102
RTVSPost2010Prop28
280
     0
102
RTVSPost2010PropOp28
 70
     1
102
RTVSPost2010Prop29
280
     1
102
RTVSPost2010PropOp29
 70
     1
102
RTVSPost2010Prop30
280
     1
102
RTVSPost2010PropOp30
 70
     1
102
RTVSPost2010Prop31
280
     0
102
RTVSPost2010PropOp31
 70
     1
102
RTVSPost2010Prop32
280
     0
102
RTVSPost2010PropOp32
 70
     1
102
RTVSPost2010Prop33
280
     0
102
RTVSPost2010PropOp33
 70
     1
102
RTVSPost2010Prop34
280
     0
102
RTVSPost2010PropOp34
 70
     1
102
RTVSPost2010Prop35
280
     0
102
RTVSPost2010PropOp35
 70
     1
102
RTVSPost2010Prop36
280
     0
102
RTVSPost2010PropOp36
 70
     1
102
RTVSPost2010Prop37
 90
       50
102
RTVSPost2010PropOp37
 70
     1
102
RTVSPost2010Prop38
140
0.0
102
RTVSPost2010PropOp38
 70
     1
102
RTVSPost2010Prop39
140
1.0
102
RTVSPost2010PropOp39
 70
     1
102
RTVSPost2010Prop40
 90
        0
102
RTVSPost2010PropOp40
 70
     1
102
RTVSPost2010Prop41ColorIndex
 90
       18
102
RTVSPost2010Prop41ColorRGB
 90
        0
102
RTVSPost2010PropOp41
 70
     1
102
RTVSPost2010Prop42
 90
       50
102
RTVSPost2010PropOp42
 70
     1
102
RTVSPost2010Prop43
 90
        3
102
RTVSPost2010PropOp43
 70
     1
102
RTVSPost2010Prop44ColorIndex
 90
        5
102
RTVSPost2010Prop44ColorRGB
 90
      255
102
RTVSPost2010PropOp44
 70
     1
102
RTVSPost2010Prop45
280
     0
102
RTVSPost2010PropOp45
 70
     1
102
RTVSPost2010Prop46
 90
       50
102
RTVSPost2010PropOp46
 70
     1
102
RTVSPost2010Prop47
 90
       50
102
RTVSPost2010PropOp47
 70
     1
102
RTVSPost2010Prop48
 90
       50
102
RTVSPost2010PropOp48
 70
     1
102
RTVSPost2010Prop49
280
     0
102
RTVSPost2010PropOp49
 70
     1
102
RTVSPost2010Prop50
 90
       50
102
RTVSPost2010PropOp50
 70
     1
102
RTVSPost2010Prop51ColorIndex
 90
      256
102
RTVSPost2010Prop51ColorRGB
 90
-16777216
102
RTVSPost2010PropOp51
 70
     0
102
RTVSPost2010Prop52
140
1.0
102
RTVSPost2010PropOp52
 70
     0
102
RTVSPost2010Prop53
 90
        2
102
RTVSPost2010PropOp53
 70
     1
102
RTVSPost2010Prop54
  1
strokes_ogs.tif
102
RTVSPost2010PropOp54
 70
     1
102
RTVSPost2010Prop55
280
     0
102
RTVSPost2010PropOp55
 70
     1
102
RTVSPost2010Prop56
140
1.0
102
RTVSPost2010PropOp56
 70
     1
102
RTVSPost2010Prop57
140
1.0
102
RTVSPost2010PropOp57
 70
     1
102
RTVSPropertyOp0
 70
     1
102
RTVSPropertyOp1
 70
     1
102
RTVSPropertyOp2
 70
     1
102
RTVSPropertyOp3
 70
     1
102
RTVSPropertyOp4
 70
     1
102
RTVSPropertyOp5
 70
     1
102
RTVSPropertyOp6
 70
     1
102
RTVSPropertyOp7
 70
     1
102
RTVSPropertyOp8
 70
     1
102
RTVSPropertyOp9
 70
     1
102
RTVSPropertyOp10
 70
     1
102
RTVSPropertyOp11
 70
     1
102
RTVSPropertyOp12
 70
     1
102
RTVSPropertyOp13
 70
     1
102
RTVSPropertyOp14
 70
     1
102
RTVSPropertyOp15
 70
     1
102
RTVSPropertyOp16
 70
     1
102
RTVSPropertyOp17
 70
     1
102
RTVSPropertyOp18
 70
     1
102
RTVSPropertyOp19
 70
     1
102
RTVSPropertyOp20
 70
     1
102
RTVSPropertyOp21
 70
     1
102
RTVSPropertyOp22
 70
     1
102
RTVSPropertyOp23
 70
     1
102
RTVSPropertyOp24
 70
     1
102
RTVSPropertyOp25
 70
     1
102
RTVSPropertyOp26
 70
     1
102
RTVSPropertyOp27
 70
     1
102
RTVSPropertyOp28
 70
     1
102
RTVSPropertyOp29
 70
     1
102
RTVSPropertyOp30
 70
     1
102
RTVSPropertyOp31
 70
     1
102
RTVSPropertyOp32
 70
     1
102
RTVSPropertyOp33
 70
     1
102
RTVSPropertyOp34
 70
     1
102
RTVSPropertyOp35
 70
     1
102
RTVSPropertyOp36
 70
     1
102
RTVSPropertyOp37
 70
     1
102
RTVSPropertyOp38
 70
     1
102
RTVSPropertyOp39
 70
     1
102
RTVSPropertyOp40
 70
     1
102
RTVSPropertyOp41
 70
     1
102
RTVSPropertyOp42
 70
     1
102
RTVSPropertyOp43
 70
     1
102
RTVSPropertyOp44
 70
     1
102
RTVSPropertyOp45
 70
     1
102
RTVSPropertyOp46
 70
     1
102
RTVSPropertyOp47
 70
     1
102
RTVSPropertyOp48
 70
     1
102
RTVSPropertyOp49
 70
     1
102
RTVSPropertyOp50
 70
     1
102
RTVSPropertyOp51
 70
     0
102
RTVSPropertyOp52
 70
     0
102
RTVSPropertyOp53
 70
     1
102
RTVSPropertyOp54
 70
     1
102
RTVSPropertyOp55
 70
     1
102
RTVSPropertyOp56
 70
     1
102
RTVSPropertyOp57
 70
     1
102
RTVSPropertyOp58
 70
     1
102
RTVSPropertyOp59
 70
     1
102
RTVSPropertyOp60
 70
     1
102
RTVSPropertyOp61
 70
     1
102
RTVSPropertyOp62
 70
     1
  0
XRECORD
  5
3E51
102
{ACAD_REACTORS
330
3E50
102
}
330
3E50
100
AcDbXrecord
280
     1
102
RTVSPost2010Prop28
280
     0
102
RTVSPost2010PropOp28
 70
     1
102
RTVSPost2010Prop29
280
     1
102
RTVSPost2010PropOp29
 70
     1
102
RTVSPost2010Prop30
280
     1
102
RTVSPost2010PropOp30
 70
     1
102
RTVSPost2010Prop31
280
     0
102
RTVSPost2010PropOp31
 70
     1
102
RTVSPost2010Prop32
280
     0
102
RTVSPost2010PropOp32
 70
     1
102
RTVSPost2010Prop33
280
     0
102
RTVSPost2010PropOp33
 70
     1
102
RTVSPost2010Prop34
280
     0
102
RTVSPost2010PropOp34
 70
     1
102
RTVSPost2010Prop35
280
     0
102
RTVSPost2010PropOp35
 70
     1
102
RTVSPost2010Prop36
280
     0
102
RTVSPost2010PropOp36
 70
     1
102
RTVSPost2010Prop37
 90
       50
102
RTVSPost2010PropOp37
 70
     1
102
RTVSPost2010Prop38
140
0.0
102
RTVSPost2010PropOp38
 70
     1
102
RTVSPost2010Prop39
140
1.0
102
RTVSPost2010PropOp39
 70
     1
102
RTVSPost2010Prop40
 90
        0
102
RTVSPost2010PropOp40
 70
     1
102
RTVSPost2010Prop41ColorIndex
 90
       18
102
RTVSPost2010Prop41ColorRGB
 90
        0
102
RTVSPost2010PropOp41
 70
     1
102
RTVSPost2010Prop42
 90
       50
102
RTVSPost2010PropOp42
 70
     1
102
RTVSPost2010Prop43
 90
        3
102
RTVSPost2010PropOp43
 70
     1
102
RTVSPost2010Prop44ColorIndex
 90
        5
102
RTVSPost2010Prop44ColorRGB
 90
      255
102
RTVSPost2010PropOp44
 70
     1
102
RTVSPost2010Prop45
280
     0
102
RTVSPost2010PropOp45
 70
     1
102
RTVSPost2010Prop46
 90
       50
102
RTVSPost2010PropOp46
 70
     1
102
RTVSPost2010Prop47
 90
       50
102
RTVSPost2010PropOp47
 70
     1
102
RTVSPost2010Prop48
 90
       50
102
RTVSPost2010PropOp48
 70
     1
102
RTVSPost2010Prop49
280
     0
102
RTVSPost2010PropOp49
 70
     1
102
RTVSPost2010Prop50
 90
       50
102
RTVSPost2010PropOp50
 70
     1
102
RTVSPost2010Prop51ColorIndex
 90
      256
102
RTVSPost2010Prop51ColorRGB
 90
-16777216
102
RTVSPost2010PropOp51
 70
     0
102
RTVSPost2010Prop52
140
1.0
102
RTVSPost2010PropOp52
 70
     0
102
RTVSPost2010Prop53
 90
        2
102
RTVSPost2010PropOp53
 70
     1
102
RTVSPost2010Prop54
  1
strokes_ogs.tif
102
RTVSPost2010PropOp54
 70
     1
102
RTVSPost2010Prop55
280
     0
102
RTVSPost2010PropOp55
 70
     1
102
RTVSPost2010Prop56
140
1.0
102
RTVSPost2010PropOp56
 70
     1
102
RTVSPost2010Prop57
140
1.0
102
RTVSPost2010PropOp57
 70
     1
102
RTVSPropertyOp0
 70
     1
102
RTVSPropertyOp1
 70
     1
102
RTVSPropertyOp2
 70
     1
102
RTVSPropertyOp3
 70
     1
102
RTVSPropertyOp4
 70
     1
102
RTVSPropertyOp5
 70
     1
102
RTVSPropertyOp6
 70
     1
102
RTVSPropertyOp7
 70
     1
102
RTVSPropertyOp8
 70
     1
102
RTVSPropertyOp9
 70
     1
102
RTVSPropertyOp10
 70
     1
102
RTVSPropertyOp11
 70
     1
102
RTVSPropertyOp12
 70
     1
102
RTVSPropertyOp13
 70
     1
102
RTVSPropertyOp14
 70
     1
102
RTVSPropertyOp15
 70
     1
102
RTVSPropertyOp16
 70
     1
102
RTVSPropertyOp17
 70
     1
102
RTVSPropertyOp18
 70
     1
102
RTVSPropertyOp19
 70
     1
102
RTVSPropertyOp20
 70
     1
102
RTVSPropertyOp21
 70
     1
102
RTVSPropertyOp22
 70
     1
102
RTVSPropertyOp23
 70
     1
102
RTVSPropertyOp24
 70
     1
102
RTVSPropertyOp25
 70
     1
102
RTVSPropertyOp26
 70
     1
102
RTVSPropertyOp27
 70
     1
102
RTVSPropertyOp28
 70
     1
102
RTVSPropertyOp29
 70
     1
102
RTVSPropertyOp30
 70
     1
102
RTVSPropertyOp31
 70
     1
102
RTVSPropertyOp32
 70
     1
102
RTVSPropertyOp33
 70
     1
102
RTVSPropertyOp34
 70
     1
102
RTVSPropertyOp35
 70
     1
102
RTVSPropertyOp36
 70
     1
102
RTVSPropertyOp37
 70
     1
102
RTVSPropertyOp38
 70
     1
102
RTVSPropertyOp39
 70
     1
102
RTVSPropertyOp40
 70
     1
102
RTVSPropertyOp41
 70
     1
102
RTVSPropertyOp42
 70
     1
102
RTVSPropertyOp43
 70
     1
102
RTVSPropertyOp44
 70
     1
102
RTVSPropertyOp45
 70
     1
102
RTVSPropertyOp46
 70
     1
102
RTVSPropertyOp47
 70
     1
102
RTVSPropertyOp48
 70
     1
102
RTVSPropertyOp49
 70
     1
102
RTVSPropertyOp50
 70
     1
102
RTVSPropertyOp51
 70
     0
102
RTVSPropertyOp52
 70
     0
102
RTVSPropertyOp53
 70
     1
102
RTVSPropertyOp54
 70
     1
102
RTVSPropertyOp55
 70
     1
102
RTVSPropertyOp56
 70
     1
102
RTVSPropertyOp57
 70
     1
102
RTVSPropertyOp58
 70
     1
102
RTVSPropertyOp59
 70
     1
102
RTVSPropertyOp60
 70
     1
102
RTVSPropertyOp61
 70
     1
102
RTVSPropertyOp62
 70
     1
  0
XRECORD
  5
3E53
102
{ACAD_REACTORS
330
3E52
102
}
330
3E52
100
AcDbXrecord
280
     1
102
RTVSPost2010Prop28
280
     0
102
RTVSPost2010PropOp28
 70
     1
102
RTVSPost2010Prop29
280
     1
102
RTVSPost2010PropOp29
 70
     1
102
RTVSPost2010Prop30
280
     1
102
RTVSPost2010PropOp30
 70
     1
102
RTVSPost2010Prop31
280
     0
102
RTVSPost2010PropOp31
 70
     1
102
RTVSPost2010Prop32
280
     0
102
RTVSPost2010PropOp32
 70
     1
102
RTVSPost2010Prop33
280
     0
102
RTVSPost2010PropOp33
 70
     1
102
RTVSPost2010Prop34
280
     0
102
RTVSPost2010PropOp34
 70
     1
102
RTVSPost2010Prop35
280
     0
102
RTVSPost2010PropOp35
 70
     1
102
RTVSPost2010Prop36
280
     0
102
RTVSPost2010PropOp36
 70
     1
102
RTVSPost2010Prop37
 90
       50
102
RTVSPost2010PropOp37
 70
     1
102
RTVSPost2010Prop38
140
0.0
102
RTVSPost2010PropOp38
 70
     1
102
RTVSPost2010Prop39
140
1.0
102
RTVSPost2010PropOp39
 70
     1
102
RTVSPost2010Prop40
 90
        0
102
RTVSPost2010PropOp40
 70
     1
102
RTVSPost2010Prop41ColorIndex
 90
       18
102
RTVSPost2010Prop41ColorRGB
 90
        0
102
RTVSPost2010PropOp41
 70
     1
102
RTVSPost2010Prop42
 90
       50
102
RTVSPost2010PropOp42
 70
     1
102
RTVSPost2010Prop43
 90
        3
102
RTVSPost2010PropOp43
 70
     1
102
RTVSPost2010Prop44ColorIndex
 90
        5
102
RTVSPost2010Prop44ColorRGB
 90
      255
102
RTVSPost2010PropOp44
 70
     1
102
RTVSPost2010Prop45
280
     0
102
RTVSPost2010PropOp45
 70
     1
102
RTVSPost2010Prop46
 90
       50
102
RTVSPost2010PropOp46
 70
     1
102
RTVSPost2010Prop47
 90
       50
102
RTVSPost2010PropOp47
 70
     1
102
RTVSPost2010Prop48
 90
       50
102
RTVSPost2010PropOp48
 70
     1
102
RTVSPost2010Prop49
280
     0
102
RTVSPost2010PropOp49
 70
     1
102
RTVSPost2010Prop50
 90
       50
102
RTVSPost2010PropOp50
 70
     1
102
RTVSPost2010Prop51ColorIndex
 90
      256
102
RTVSPost2010Prop51ColorRGB
 90
-16777216
102
RTVSPost2010PropOp51
 70
     0
102
RTVSPost2010Prop52
140
1.0
102
RTVSPost2010PropOp52
 70
     0
102
RTVSPost2010Prop53
 90
        2
102
RTVSPost2010PropOp53
 70
     1
102
RTVSPost2010Prop54
  1
strokes_ogs.tif
102
RTVSPost2010PropOp54
 70
     1
102
RTVSPost2010Prop55
280
     0
102
RTVSPost2010PropOp55
 70
     1
102
RTVSPost2010Prop56
140
1.0
102
RTVSPost2010PropOp56
 70
     1
102
RTVSPost2010Prop57
140
1.0
102
RTVSPost2010PropOp57
 70
     1
102
RTVSPropertyOp0
 70
     1
102
RTVSPropertyOp1
 70
     1
102
RTVSPropertyOp2
 70
     1
102
RTVSPropertyOp3
 70
     1
102
RTVSPropertyOp4
 70
     1
102
RTVSPropertyOp5
 70
     1
102
RTVSPropertyOp6
 70
     1
102
RTVSPropertyOp7
 70
     1
102
RTVSPropertyOp8
 70
     1
102
RTVSPropertyOp9
 70
     1
102
RTVSPropertyOp10
 70
     1
102
RTVSPropertyOp11
 70
     1
102
RTVSPropertyOp12
 70
     1
102
RTVSPropertyOp13
 70
     1
102
RTVSPropertyOp14
 70
     1
102
RTVSPropertyOp15
 70
     1
102
RTVSPropertyOp16
 70
     1
102
RTVSPropertyOp17
 70
     1
102
RTVSPropertyOp18
 70
     1
102
RTVSPropertyOp19
 70
     1
102
RTVSPropertyOp20
 70
     1
102
RTVSPropertyOp21
 70
     1
102
RTVSPropertyOp22
 70
     1
102
RTVSPropertyOp23
 70
     1
102
RTVSPropertyOp24
 70
     1
102
RTVSPropertyOp25
 70
     1
102
RTVSPropertyOp26
 70
     1
102
RTVSPropertyOp27
 70
     1
102
RTVSPropertyOp28
 70
     1
102
RTVSPropertyOp29
 70
     1
102
RTVSPropertyOp30
 70
     1
102
RTVSPropertyOp31
 70
     1
102
RTVSPropertyOp32
 70
     1
102
RTVSPropertyOp33
 70
     1
102
RTVSPropertyOp34
 70
     1
102
RTVSPropertyOp35
 70
     1
102
RTVSPropertyOp36
 70
     1
102
RTVSPropertyOp37
 70
     1
102
RTVSPropertyOp38
 70
     1
102
RTVSPropertyOp39
 70
     1
102
RTVSPropertyOp40
 70
     1
102
RTVSPropertyOp41
 70
     1
102
RTVSPropertyOp42
 70
     1
102
RTVSPropertyOp43
 70
     1
102
RTVSPropertyOp44
 70
     1
102
RTVSPropertyOp45
 70
     1
102
RTVSPropertyOp46
 70
     1
102
RTVSPropertyOp47
 70
     1
102
RTVSPropertyOp48
 70
     1
102
RTVSPropertyOp49
 70
     1
102
RTVSPropertyOp50
 70
     1
102
RTVSPropertyOp51
 70
     0
102
RTVSPropertyOp52
 70
     0
102
RTVSPropertyOp53
 70
     1
102
RTVSPropertyOp54
 70
     1
102
RTVSPropertyOp55
 70
     1
102
RTVSPropertyOp56
 70
     1
102
RTVSPropertyOp57
 70
     1
102
RTVSPropertyOp58
 70
     1
102
RTVSPropertyOp59
 70
     1
102
RTVSPropertyOp60
 70
     1
102
RTVSPropertyOp61
 70
     1
102
RTVSPropertyOp62
 70
     1
  0
XRECORD
  5
3E76
102
{ACAD_REACTORS
330
3E75
102
}
330
3E75
100
AcDbXrecord
280
     1
102
RTVSPost2010Prop28
280
     0
102
RTVSPost2010PropOp28
 70
     1
102
RTVSPost2010Prop29
280
     1
102
RTVSPost2010PropOp29
 70
     1
102
RTVSPost2010Prop30
280
     1
102
RTVSPost2010PropOp30
 70
     1
102
RTVSPost2010Prop31
280
     0
102
RTVSPost2010PropOp31
 70
     1
102
RTVSPost2010Prop32
280
     0
102
RTVSPost2010PropOp32
 70
     1
102
RTVSPost2010Prop33
280
     0
102
RTVSPost2010PropOp33
 70
     1
102
RTVSPost2010Prop34
280
     0
102
RTVSPost2010PropOp34
 70
     1
102
RTVSPost2010Prop35
280
     0
102
RTVSPost2010PropOp35
 70
     1
102
RTVSPost2010Prop36
280
     0
102
RTVSPost2010PropOp36
 70
     1
102
RTVSPost2010Prop37
 90
       50
102
RTVSPost2010PropOp37
 70
     1
102
RTVSPost2010Prop38
140
0.0
102
RTVSPost2010PropOp38
 70
     1
102
RTVSPost2010Prop39
140
1.0
102
RTVSPost2010PropOp39
 70
     1
102
RTVSPost2010Prop40
 90
        0
102
RTVSPost2010PropOp40
 70
     1
102
RTVSPost2010Prop41ColorIndex
 90
       18
102
RTVSPost2010Prop41ColorRGB
 90
        0
102
RTVSPost2010PropOp41
 70
     1
102
RTVSPost2010Prop42
 90
       50
102
RTVSPost2010PropOp42
 70
     1
102
RTVSPost2010Prop43
 90
        3
102
RTVSPost2010PropOp43
 70
     1
102
RTVSPost2010Prop44ColorIndex
 90
        5
102
RTVSPost2010Prop44ColorRGB
 90
      255
102
RTVSPost2010PropOp44
 70
     1
102
RTVSPost2010Prop45
280
     0
102
RTVSPost2010PropOp45
 70
     1
102
RTVSPost2010Prop46
 90
       50
102
RTVSPost2010PropOp46
 70
     1
102
RTVSPost2010Prop47
 90
       50
102
RTVSPost2010PropOp47
 70
     1
102
RTVSPost2010Prop48
 90
       50
102
RTVSPost2010PropOp48
 70
     1
102
RTVSPost2010Prop49
280
     0
102
RTVSPost2010PropOp49
 70
     1
102
RTVSPost2010Prop50
 90
       50
102
RTVSPost2010PropOp50
 70
     1
102
RTVSPost2010Prop51ColorIndex
 90
      256
102
RTVSPost2010Prop51ColorRGB
 90
-16777216
102
RTVSPost2010PropOp51
 70
     0
102
RTVSPost2010Prop52
140
1.0
102
RTVSPost2010PropOp52
 70
     0
102
RTVSPost2010Prop53
 90
        2
102
RTVSPost2010PropOp53
 70
     1
102
RTVSPost2010Prop54
  1
strokes_ogs.tif
102
RTVSPost2010PropOp54
 70
     1
102
RTVSPost2010Prop55
280
     0
102
RTVSPost2010PropOp55
 70
     1
102
RTVSPost2010Prop56
140
1.0
102
RTVSPost2010PropOp56
 70
     1
102
RTVSPost2010Prop57
140
1.0
102
RTVSPost2010PropOp57
 70
     1
102
RTVSPropertyOp0
 70
     1
102
RTVSPropertyOp1
 70
     1
102
RTVSPropertyOp2
 70
     1
102
RTVSPropertyOp3
 70
     1
102
RTVSPropertyOp4
 70
     1
102
RTVSPropertyOp5
 70
     1
102
RTVSPropertyOp6
 70
     1
102
RTVSPropertyOp7
 70
     1
102
RTVSPropertyOp8
 70
     1
102
RTVSPropertyOp9
 70
     1
102
RTVSPropertyOp10
 70
     1
102
RTVSPropertyOp11
 70
     1
102
RTVSPropertyOp12
 70
     1
102
RTVSPropertyOp13
 70
     1
102
RTVSPropertyOp14
 70
     1
102
RTVSPropertyOp15
 70
     1
102
RTVSPropertyOp16
 70
     1
102
RTVSPropertyOp17
 70
     1
102
RTVSPropertyOp18
 70
     1
102
RTVSPropertyOp19
 70
     1
102
RTVSPropertyOp20
 70
     1
102
RTVSPropertyOp21
 70
     1
102
RTVSPropertyOp22
 70
     1
102
RTVSPropertyOp23
 70
     1
102
RTVSPropertyOp24
 70
     1
102
RTVSPropertyOp25
 70
     1
102
RTVSPropertyOp26
 70
     1
102
RTVSPropertyOp27
 70
     1
102
RTVSPropertyOp28
 70
     1
102
RTVSPropertyOp29
 70
     1
102
RTVSPropertyOp30
 70
     1
102
RTVSPropertyOp31
 70
     1
102
RTVSPropertyOp32
 70
     1
102
RTVSPropertyOp33
 70
     1
102
RTVSPropertyOp34
 70
     1
102
RTVSPropertyOp35
 70
     1
102
RTVSPropertyOp36
 70
     1
102
RTVSPropertyOp37
 70
     1
102
RTVSPropertyOp38
 70
     1
102
RTVSPropertyOp39
 70
     1
102
RTVSPropertyOp40
 70
     1
102
RTVSPropertyOp41
 70
     1
102
RTVSPropertyOp42
 70
     1
102
RTVSPropertyOp43
 70
     1
102
RTVSPropertyOp44
 70
     1
102
RTVSPropertyOp45
 70
     1
102
RTVSPropertyOp46
 70
     1
102
RTVSPropertyOp47
 70
     1
102
RTVSPropertyOp48
 70
     1
102
RTVSPropertyOp49
 70
     1
102
RTVSPropertyOp50
 70
     1
102
RTVSPropertyOp51
 70
     0
102
RTVSPropertyOp52
 70
     0
102
RTVSPropertyOp53
 70
     1
102
RTVSPropertyOp54
 70
     1
102
RTVSPropertyOp55
 70
     1
102
RTVSPropertyOp56
 70
     1
102
RTVSPropertyOp57
 70
     1
102
RTVSPropertyOp58
 70
     1
102
RTVSPropertyOp59
 70
     1
102
RTVSPropertyOp60
 70
     1
102
RTVSPropertyOp61
 70
     1
102
RTVSPropertyOp62
 70
     1
  0
XRECORD
  5
3E6D
102
{ACAD_REACTORS
330
3E6C
102
}
330
3E6C
100
AcDbXrecord
280
     1
102
RTVSPost2010Prop28
280
     0
102
RTVSPost2010PropOp28
 70
     1
102
RTVSPost2010Prop29
280
     1
102
RTVSPost2010PropOp29
 70
     1
102
RTVSPost2010Prop30
280
     1
102
RTVSPost2010PropOp30
 70
     1
102
RTVSPost2010Prop31
280
     0
102
RTVSPost2010PropOp31
 70
     1
102
RTVSPost2010Prop32
280
     0
102
RTVSPost2010PropOp32
 70
     1
102
RTVSPost2010Prop33
280
     0
102
RTVSPost2010PropOp33
 70
     1
102
RTVSPost2010Prop34
280
     0
102
RTVSPost2010PropOp34
 70
     1
102
RTVSPost2010Prop35
280
     0
102
RTVSPost2010PropOp35
 70
     1
102
RTVSPost2010Prop36
280
     0
102
RTVSPost2010PropOp36
 70
     1
102
RTVSPost2010Prop37
 90
       50
102
RTVSPost2010PropOp37
 70
     1
102
RTVSPost2010Prop38
140
0.0
102
RTVSPost2010PropOp38
 70
     1
102
RTVSPost2010Prop39
140
1.0
102
RTVSPost2010PropOp39
 70
     1
102
RTVSPost2010Prop40
 90
        0
102
RTVSPost2010PropOp40
 70
     1
102
RTVSPost2010Prop41ColorIndex
 90
       18
102
RTVSPost2010Prop41ColorRGB
 90
        0
102
RTVSPost2010PropOp41
 70
     1
102
RTVSPost2010Prop42
 90
       50
102
RTVSPost2010PropOp42
 70
     1
102
RTVSPost2010Prop43
 90
        3
102
RTVSPost2010PropOp43
 70
     1
102
RTVSPost2010Prop44ColorIndex
 90
        5
102
RTVSPost2010Prop44ColorRGB
 90
      255
102
RTVSPost2010PropOp44
 70
     1
102
RTVSPost2010Prop45
280
     0
102
RTVSPost2010PropOp45
 70
     1
102
RTVSPost2010Prop46
 90
       50
102
RTVSPost2010PropOp46
 70
     1
102
RTVSPost2010Prop47
 90
       50
102
RTVSPost2010PropOp47
 70
     1
102
RTVSPost2010Prop48
 90
       50
102
RTVSPost2010PropOp48
 70
     1
102
RTVSPost2010Prop49
280
     0
102
RTVSPost2010PropOp49
 70
     1
102
RTVSPost2010Prop50
 90
       50
102
RTVSPost2010PropOp50
 70
     1
102
RTVSPost2010Prop51ColorIndex
 90
      256
102
RTVSPost2010Prop51ColorRGB
 90
-16777216
102
RTVSPost2010PropOp51
 70
     0
102
RTVSPost2010Prop52
140
1.0
102
RTVSPost2010PropOp52
 70
     0
102
RTVSPost2010Prop53
 90
        2
102
RTVSPost2010PropOp53
 70
     1
102
RTVSPost2010Prop54
  1
strokes_ogs.tif
102
RTVSPost2010PropOp54
 70
     1
102
RTVSPost2010Prop55
280
     0
102
RTVSPost2010PropOp55
 70
     1
102
RTVSPost2010Prop56
140
1.0
102
RTVSPost2010PropOp56
 70
     1
102
RTVSPost2010Prop57
140
1.0
102
RTVSPost2010PropOp57
 70
     1
102
RTVSPropertyOp0
 70
     0
102
RTVSPropertyOp1
 70
     0
102
RTVSPropertyOp2
 70
     0
102
RTVSPropertyOp3
 70
     0
102
RTVSPropertyOp4
 70
     0
102
RTVSPropertyOp5
 70
     0
102
RTVSPropertyOp6
 70
     0
102
RTVSPropertyOp7
 70
     0
102
RTVSPropertyOp8
 70
     0
102
RTVSPropertyOp9
 70
     0
102
RTVSPropertyOp10
 70
     0
102
RTVSPropertyOp11
 70
     0
102
RTVSPropertyOp12
 70
     0
102
RTVSPropertyOp13
 70
     0
102
RTVSPropertyOp14
 70
     2
102
RTVSPropertyOp15
 70
     0
102
RTVSPropertyOp16
 70
     0
102
RTVSPropertyOp17
 70
     0
102
RTVSPropertyOp18
 70
     0
102
RTVSPropertyOp19
 70
     0
102
RTVSPropertyOp20
 70
     0
102
RTVSPropertyOp21
 70
     0
102
RTVSPropertyOp22
 70
     0
102
RTVSPropertyOp23
 70
     0
102
RTVSPropertyOp24
 70
     0
102
RTVSPropertyOp25
 70
     0
102
RTVSPropertyOp26
 70
     0
102
RTVSPropertyOp27
 70
     0
102
RTVSPropertyOp28
 70
     1
102
RTVSPropertyOp29
 70
     1
102
RTVSPropertyOp30
 70
     1
102
RTVSPropertyOp31
 70
     1
102
RTVSPropertyOp32
 70
     1
102
RTVSPropertyOp33
 70
     1
102
RTVSPropertyOp34
 70
     1
102
RTVSPropertyOp35
 70
     1
102
RTVSPropertyOp36
 70
     1
102
RTVSPropertyOp37
 70
     1
102
RTVSPropertyOp38
 70
     1
102
RTVSPropertyOp39
 70
     1
102
RTVSPropertyOp40
 70
     1
102
RTVSPropertyOp41
 70
     1
102
RTVSPropertyOp42
 70
     1
102
RTVSPropertyOp43
 70
     1
102
RTVSPropertyOp44
 70
     1
102
RTVSPropertyOp45
 70
     1
102
RTVSPropertyOp46
 70
     1
102
RTVSPropertyOp47
 70
     1
102
RTVSPropertyOp48
 70
     1
102
RTVSPropertyOp49
 70
     1
102
RTVSPropertyOp50
 70
     1
102
RTVSPropertyOp51
 70
     0
102
RTVSPropertyOp52
 70
     0
102
RTVSPropertyOp53
 70
     1
102
RTVSPropertyOp54
 70
     1
102
RTVSPropertyOp55
 70
     1
102
RTVSPropertyOp56
 70
     1
102
RTVSPropertyOp57
 70
     1
102
RTVSPropertyOp58
 70
     1
102
RTVSPropertyOp59
 70
     1
102
RTVSPropertyOp60
 70
     1
102
RTVSPropertyOp61
 70
     1
102
RTVSPropertyOp62
 70
     1
  0
XRECORD
  5
3E67
102
{ACAD_REACTORS
330
3E66
102
}
330
3E66
100
AcDbXrecord
280
     1
102
RTVSPost2010Prop28
280
     0
102
RTVSPost2010PropOp28
 70
     1
102
RTVSPost2010Prop29
280
     1
102
RTVSPost2010PropOp29
 70
     1
102
RTVSPost2010Prop30
280
     1
102
RTVSPost2010PropOp30
 70
     1
102
RTVSPost2010Prop31
280
     0
102
RTVSPost2010PropOp31
 70
     1
102
RTVSPost2010Prop32
280
     0
102
RTVSPost2010PropOp32
 70
     1
102
RTVSPost2010Prop33
280
     0
102
RTVSPost2010PropOp33
 70
     1
102
RTVSPost2010Prop34
280
     0
102
RTVSPost2010PropOp34
 70
     1
102
RTVSPost2010Prop35
280
     0
102
RTVSPost2010PropOp35
 70
     1
102
RTVSPost2010Prop36
280
     0
102
RTVSPost2010PropOp36
 70
     1
102
RTVSPost2010Prop37
 90
       50
102
RTVSPost2010PropOp37
 70
     1
102
RTVSPost2010Prop38
140
0.0
102
RTVSPost2010PropOp38
 70
     1
102
RTVSPost2010Prop39
140
1.0
102
RTVSPost2010PropOp39
 70
     1
102
RTVSPost2010Prop40
 90
        0
102
RTVSPost2010PropOp40
 70
     1
102
RTVSPost2010Prop41ColorIndex
 90
       18
102
RTVSPost2010Prop41ColorRGB
 90
        0
102
RTVSPost2010PropOp41
 70
     1
102
RTVSPost2010Prop42
 90
       50
102
RTVSPost2010PropOp42
 70
     1
102
RTVSPost2010Prop43
 90
        3
102
RTVSPost2010PropOp43
 70
     1
102
RTVSPost2010Prop44ColorIndex
 90
        5
102
RTVSPost2010Prop44ColorRGB
 90
      255
102
RTVSPost2010PropOp44
 70
     1
102
RTVSPost2010Prop45
280
     0
102
RTVSPost2010PropOp45
 70
     1
102
RTVSPost2010Prop46
 90
       50
102
RTVSPost2010PropOp46
 70
     1
102
RTVSPost2010Prop47
 90
       50
102
RTVSPost2010PropOp47
 70
     1
102
RTVSPost2010Prop48
 90
       50
102
RTVSPost2010PropOp48
 70
     1
102
RTVSPost2010Prop49
280
     0
102
RTVSPost2010PropOp49
 70
     1
102
RTVSPost2010Prop50
 90
       50
102
RTVSPost2010PropOp50
 70
     1
102
RTVSPost2010Prop51ColorIndex
 90
      256
102
RTVSPost2010Prop51ColorRGB
 90
-16777216
102
RTVSPost2010PropOp51
 70
     0
102
RTVSPost2010Prop52
140
1.0
102
RTVSPost2010PropOp52
 70
     0
102
RTVSPost2010Prop53
 90
        2
102
RTVSPost2010PropOp53
 70
     1
102
RTVSPost2010Prop54
  1
strokes_ogs.tif
102
RTVSPost2010PropOp54
 70
     1
102
RTVSPost2010Prop55
280
     0
102
RTVSPost2010PropOp55
 70
     1
102
RTVSPost2010Prop56
140
1.0
102
RTVSPost2010PropOp56
 70
     1
102
RTVSPost2010Prop57
140
1.0
102
RTVSPost2010PropOp57
 70
     1
102
RTVSPropertyOp0
 70
     1
102
RTVSPropertyOp1
 70
     1
102
RTVSPropertyOp2
 70
     1
102
RTVSPropertyOp3
 70
     1
102
RTVSPropertyOp4
 70
     1
102
RTVSPropertyOp5
 70
     1
102
RTVSPropertyOp6
 70
     1
102
RTVSPropertyOp7
 70
     1
102
RTVSPropertyOp8
 70
     1
102
RTVSPropertyOp9
 70
     1
102
RTVSPropertyOp10
 70
     1
102
RTVSPropertyOp11
 70
     1
102
RTVSPropertyOp12
 70
     1
102
RTVSPropertyOp13
 70
     1
102
RTVSPropertyOp14
 70
     1
102
RTVSPropertyOp15
 70
     1
102
RTVSPropertyOp16
 70
     1
102
RTVSPropertyOp17
 70
     1
102
RTVSPropertyOp18
 70
     1
102
RTVSPropertyOp19
 70
     1
102
RTVSPropertyOp20
 70
     1
102
RTVSPropertyOp21
 70
     1
102
RTVSPropertyOp22
 70
     1
102
RTVSPropertyOp23
 70
     1
102
RTVSPropertyOp24
 70
     1
102
RTVSPropertyOp25
 70
     1
102
RTVSPropertyOp26
 70
     1
102
RTVSPropertyOp27
 70
     1
102
RTVSPropertyOp28
 70
     1
102
RTVSPropertyOp29
 70
     1
102
RTVSPropertyOp30
 70
     1
102
RTVSPropertyOp31
 70
     1
102
RTVSPropertyOp32
 70
     1
102
RTVSPropertyOp33
 70
     1
102
RTVSPropertyOp34
 70
     1
102
RTVSPropertyOp35
 70
     1
102
RTVSPropertyOp36
 70
     1
102
RTVSPropertyOp37
 70
     1
102
RTVSPropertyOp38
 70
     1
102
RTVSPropertyOp39
 70
     1
102
RTVSPropertyOp40
 70
     1
102
RTVSPropertyOp41
 70
     1
102
RTVSPropertyOp42
 70
     1
102
RTVSPropertyOp43
 70
     1
102
RTVSPropertyOp44
 70
     1
102
RTVSPropertyOp45
 70
     1
102
RTVSPropertyOp46
 70
     1
102
RTVSPropertyOp47
 70
     1
102
RTVSPropertyOp48
 70
     1
102
RTVSPropertyOp49
 70
     1
102
RTVSPropertyOp50
 70
     1
102
RTVSPropertyOp51
 70
     0
102
RTVSPropertyOp52
 70
     0
102
RTVSPropertyOp53
 70
     1
102
RTVSPropertyOp54
 70
     1
102
RTVSPropertyOp55
 70
     1
102
RTVSPropertyOp56
 70
     1
102
RTVSPropertyOp57
 70
     1
102
RTVSPropertyOp58
 70
     1
102
RTVSPropertyOp59
 70
     1
102
RTVSPropertyOp60
 70
     1
102
RTVSPropertyOp61
 70
     1
102
RTVSPropertyOp62
 70
     1
  0
XRECORD
  5
3E6F
102
{ACAD_REACTORS
330
3E6E
102
}
330
3E6E
100
AcDbXrecord
280
     1
102
RTVSPost2010Prop28
280
     0
102
RTVSPost2010PropOp28
 70
     1
102
RTVSPost2010Prop29
280
     1
102
RTVSPost2010PropOp29
 70
     1
102
RTVSPost2010Prop30
280
     1
102
RTVSPost2010PropOp30
 70
     1
102
RTVSPost2010Prop31
280
     0
102
RTVSPost2010PropOp31
 70
     1
102
RTVSPost2010Prop32
280
     0
102
RTVSPost2010PropOp32
 70
     1
102
RTVSPost2010Prop33
280
     0
102
RTVSPost2010PropOp33
 70
     1
102
RTVSPost2010Prop34
280
     0
102
RTVSPost2010PropOp34
 70
     1
102
RTVSPost2010Prop35
280
     0
102
RTVSPost2010PropOp35
 70
     1
102
RTVSPost2010Prop36
280
     0
102
RTVSPost2010PropOp36
 70
     1
102
RTVSPost2010Prop37
 90
       50
102
RTVSPost2010PropOp37
 70
     1
102
RTVSPost2010Prop38
140
0.0
102
RTVSPost2010PropOp38
 70
     1
102
RTVSPost2010Prop39
140
1.0
102
RTVSPost2010PropOp39
 70
     1
102
RTVSPost2010Prop40
 90
        0
102
RTVSPost2010PropOp40
 70
     1
102
RTVSPost2010Prop41ColorIndex
 90
       18
102
RTVSPost2010Prop41ColorRGB
 90
        0
102
RTVSPost2010PropOp41
 70
     1
102
RTVSPost2010Prop42
 90
       50
102
RTVSPost2010PropOp42
 70
     1
102
RTVSPost2010Prop43
 90
        3
102
RTVSPost2010PropOp43
 70
     1
102
RTVSPost2010Prop44ColorIndex
 90
        5
102
RTVSPost2010Prop44ColorRGB
 90
      255
102
RTVSPost2010PropOp44
 70
     1
102
RTVSPost2010Prop45
280
     0
102
RTVSPost2010PropOp45
 70
     1
102
RTVSPost2010Prop46
 90
       50
102
RTVSPost2010PropOp46
 70
     1
102
RTVSPost2010Prop47
 90
       50
102
RTVSPost2010PropOp47
 70
     1
102
RTVSPost2010Prop48
 90
       50
102
RTVSPost2010PropOp48
 70
     1
102
RTVSPost2010Prop49
280
     0
102
RTVSPost2010PropOp49
 70
     1
102
RTVSPost2010Prop50
 90
       50
102
RTVSPost2010PropOp50
 70
     1
102
RTVSPost2010Prop51ColorIndex
 90
      256
102
RTVSPost2010Prop51ColorRGB
 90
-16777216
102
RTVSPost2010PropOp51
 70
     0
102
RTVSPost2010Prop52
140
1.0
102
RTVSPost2010PropOp52
 70
     0
102
RTVSPost2010Prop53
 90
        2
102
RTVSPost2010PropOp53
 70
     1
102
RTVSPost2010Prop54
  1
strokes_ogs.tif
102
RTVSPost2010PropOp54
 70
     1
102
RTVSPost2010Prop55
280
     0
102
RTVSPost2010PropOp55
 70
     1
102
RTVSPost2010Prop56
140
1.0
102
RTVSPost2010PropOp56
 70
     1
102
RTVSPost2010Prop57
140
1.0
102
RTVSPost2010PropOp57
 70
     1
102
RTVSPropertyOp0
 70
     0
102
RTVSPropertyOp1
 70
     0
102
RTVSPropertyOp2
 70
     0
102
RTVSPropertyOp3
 70
     0
102
RTVSPropertyOp4
 70
     0
102
RTVSPropertyOp5
 70
     0
102
RTVSPropertyOp6
 70
     0
102
RTVSPropertyOp7
 70
     0
102
RTVSPropertyOp8
 70
     0
102
RTVSPropertyOp9
 70
     0
102
RTVSPropertyOp10
 70
     0
102
RTVSPropertyOp11
 70
     0
102
RTVSPropertyOp12
 70
     0
102
RTVSPropertyOp13
 70
     0
102
RTVSPropertyOp14
 70
     2
102
RTVSPropertyOp15
 70
     0
102
RTVSPropertyOp16
 70
     0
102
RTVSPropertyOp17
 70
     0
102
RTVSPropertyOp18
 70
     0
102
RTVSPropertyOp19
 70
     0
102
RTVSPropertyOp20
 70
     0
102
RTVSPropertyOp21
 70
     0
102
RTVSPropertyOp22
 70
     0
102
RTVSPropertyOp23
 70
     0
102
RTVSPropertyOp24
 70
     0
102
RTVSPropertyOp25
 70
     0
102
RTVSPropertyOp26
 70
     0
102
RTVSPropertyOp27
 70
     0
102
RTVSPropertyOp28
 70
     1
102
RTVSPropertyOp29
 70
     1
102
RTVSPropertyOp30
 70
     1
102
RTVSPropertyOp31
 70
     1
102
RTVSPropertyOp32
 70
     1
102
RTVSPropertyOp33
 70
     1
102
RTVSPropertyOp34
 70
     1
102
RTVSPropertyOp35
 70
     1
102
RTVSPropertyOp36
 70
     1
102
RTVSPropertyOp37
 70
     1
102
RTVSPropertyOp38
 70
     1
102
RTVSPropertyOp39
 70
     1
102
RTVSPropertyOp40
 70
     1
102
RTVSPropertyOp41
 70
     1
102
RTVSPropertyOp42
 70
     1
102
RTVSPropertyOp43
 70
     1
102
RTVSPropertyOp44
 70
     1
102
RTVSPropertyOp45
 70
     1
102
RTVSPropertyOp46
 70
     1
102
RTVSPropertyOp47
 70
     1
102
RTVSPropertyOp48
 70
     1
102
RTVSPropertyOp49
 70
     1
102
RTVSPropertyOp50
 70
     1
102
RTVSPropertyOp51
 70
     0
102
RTVSPropertyOp52
 70
     0
102
RTVSPropertyOp53
 70
     1
102
RTVSPropertyOp54
 70
     1
102
RTVSPropertyOp55
 70
     1
102
RTVSPropertyOp56
 70
     1
102
RTVSPropertyOp57
 70
     1
102
RTVSPropertyOp58
 70
     1
102
RTVSPropertyOp59
 70
     1
102
RTVSPropertyOp60
 70
     1
102
RTVSPropertyOp61
 70
     1
102
RTVSPropertyOp62
 70
     1
  0
XRECORD
  5
3E5F
102
{ACAD_REACTORS
330
3E5E
102
}
330
3E5E
100
AcDbXrecord
280
     1
102
RTVSPost2010Prop28
280
     0
102
RTVSPost2010PropOp28
 70
     1
102
RTVSPost2010Prop29
280
     1
102
RTVSPost2010PropOp29
 70
     1
102
RTVSPost2010Prop30
280
     1
102
RTVSPost2010PropOp30
 70
     1
102
RTVSPost2010Prop31
280
     0
102
RTVSPost2010PropOp31
 70
     1
102
RTVSPost2010Prop32
280
     0
102
RTVSPost2010PropOp32
 70
     1
102
RTVSPost2010Prop33
280
     0
102
RTVSPost2010PropOp33
 70
     1
102
RTVSPost2010Prop34
280
     0
102
RTVSPost2010PropOp34
 70
     1
102
RTVSPost2010Prop35
280
     0
102
RTVSPost2010PropOp35
 70
     1
102
RTVSPost2010Prop36
280
     0
102
RTVSPost2010PropOp36
 70
     1
102
RTVSPost2010Prop37
 90
       50
102
RTVSPost2010PropOp37
 70
     1
102
RTVSPost2010Prop38
140
0.0
102
RTVSPost2010PropOp38
 70
     1
102
RTVSPost2010Prop39
140
1.0
102
RTVSPost2010PropOp39
 70
     1
102
RTVSPost2010Prop40
 90
        0
102
RTVSPost2010PropOp40
 70
     1
102
RTVSPost2010Prop41ColorIndex
 90
       18
102
RTVSPost2010Prop41ColorRGB
 90
        0
102
RTVSPost2010PropOp41
 70
     1
102
RTVSPost2010Prop42
 90
       50
102
RTVSPost2010PropOp42
 70
     1
102
RTVSPost2010Prop43
 90
        3
102
RTVSPost2010PropOp43
 70
     1
102
RTVSPost2010Prop44ColorIndex
 90
        5
102
RTVSPost2010Prop44ColorRGB
 90
      255
102
RTVSPost2010PropOp44
 70
     1
102
RTVSPost2010Prop45
280
     0
102
RTVSPost2010PropOp45
 70
     1
102
RTVSPost2010Prop46
 90
       50
102
RTVSPost2010PropOp46
 70
     1
102
RTVSPost2010Prop47
 90
       50
102
RTVSPost2010PropOp47
 70
     1
102
RTVSPost2010Prop48
 90
       50
102
RTVSPost2010PropOp48
 70
     1
102
RTVSPost2010Prop49
280
     0
102
RTVSPost2010PropOp49
 70
     1
102
RTVSPost2010Prop50
 90
       50
102
RTVSPost2010PropOp50
 70
     1
102
RTVSPost2010Prop51ColorIndex
 90
      256
102
RTVSPost2010Prop51ColorRGB
 90
-16777216
102
RTVSPost2010PropOp51
 70
     0
102
RTVSPost2010Prop52
140
1.0
102
RTVSPost2010PropOp52
 70
     0
102
RTVSPost2010Prop53
 90
        2
102
RTVSPost2010PropOp53
 70
     1
102
RTVSPost2010Prop54
  1
strokes_ogs.tif
102
RTVSPost2010PropOp54
 70
     1
102
RTVSPost2010Prop55
280
     0
102
RTVSPost2010PropOp55
 70
     1
102
RTVSPost2010Prop56
140
1.0
102
RTVSPost2010PropOp56
 70
     1
102
RTVSPost2010Prop57
140
1.0
102
RTVSPost2010PropOp57
 70
     1
102
RTVSPropertyOp0
 70
     1
102
RTVSPropertyOp1
 70
     1
102
RTVSPropertyOp2
 70
     1
102
RTVSPropertyOp3
 70
     1
102
RTVSPropertyOp4
 70
     1
102
RTVSPropertyOp5
 70
     1
102
RTVSPropertyOp6
 70
     1
102
RTVSPropertyOp7
 70
     1
102
RTVSPropertyOp8
 70
     1
102
RTVSPropertyOp9
 70
     1
102
RTVSPropertyOp10
 70
     1
102
RTVSPropertyOp11
 70
     1
102
RTVSPropertyOp12
 70
     1
102
RTVSPropertyOp13
 70
     1
102
RTVSPropertyOp14
 70
     1
102
RTVSPropertyOp15
 70
     1
102
RTVSPropertyOp16
 70
     1
102
RTVSPropertyOp17
 70
     1
102
RTVSPropertyOp18
 70
     1
102
RTVSPropertyOp19
 70
     1
102
RTVSPropertyOp20
 70
     1
102
RTVSPropertyOp21
 70
     1
102
RTVSPropertyOp22
 70
     1
102
RTVSPropertyOp23
 70
     1
102
RTVSPropertyOp24
 70
     1
102
RTVSPropertyOp25
 70
     1
102
RTVSPropertyOp26
 70
     1
102
RTVSPropertyOp27
 70
     1
102
RTVSPropertyOp28
 70
     1
102
RTVSPropertyOp29
 70
     1
102
RTVSPropertyOp30
 70
     1
102
RTVSPropertyOp31
 70
     1
102
RTVSPropertyOp32
 70
     1
102
RTVSPropertyOp33
 70
     1
102
RTVSPropertyOp34
 70
     1
102
RTVSPropertyOp35
 70
     1
102
RTVSPropertyOp36
 70
     1
102
RTVSPropertyOp37
 70
     1
102
RTVSPropertyOp38
 70
     1
102
RTVSPropertyOp39
 70
     1
102
RTVSPropertyOp40
 70
     1
102
RTVSPropertyOp41
 70
     1
102
RTVSPropertyOp42
 70
     1
102
RTVSPropertyOp43
 70
     1
102
RTVSPropertyOp44
 70
     1
102
RTVSPropertyOp45
 70
     1
102
RTVSPropertyOp46
 70
     1
102
RTVSPropertyOp47
 70
     1
102
RTVSPropertyOp48
 70
     1
102
RTVSPropertyOp49
 70
     1
102
RTVSPropertyOp50
 70
     1
102
RTVSPropertyOp51
 70
     0
102
RTVSPropertyOp52
 70
     0
102
RTVSPropertyOp53
 70
     1
102
RTVSPropertyOp54
 70
     1
102
RTVSPropertyOp55
 70
     1
102
RTVSPropertyOp56
 70
     1
102
RTVSPropertyOp57
 70
     1
102
RTVSPropertyOp58
 70
     1
102
RTVSPropertyOp59
 70
     1
102
RTVSPropertyOp60
 70
     1
102
RTVSPropertyOp61
 70
     1
102
RTVSPropertyOp62
 70
     1
  0
XRECORD
  5
3E80
102
{ACAD_REACTORS
330
3E7F
102
}
330
3E7F
100
AcDbXrecord
280
     1
102
RTVSPost2010Prop28
280
     0
102
RTVSPost2010PropOp28
 70
     1
102
RTVSPost2010Prop29
280
     1
102
RTVSPost2010PropOp29
 70
     1
102
RTVSPost2010Prop30
280
     1
102
RTVSPost2010PropOp30
 70
     1
102
RTVSPost2010Prop31
280
     0
102
RTVSPost2010PropOp31
 70
     1
102
RTVSPost2010Prop32
280
     0
102
RTVSPost2010PropOp32
 70
     1
102
RTVSPost2010Prop33
280
     0
102
RTVSPost2010PropOp33
 70
     1
102
RTVSPost2010Prop34
280
     0
102
RTVSPost2010PropOp34
 70
     1
102
RTVSPost2010Prop35
280
     0
102
RTVSPost2010PropOp35
 70
     1
102
RTVSPost2010Prop36
280
     0
102
RTVSPost2010PropOp36
 70
     1
102
RTVSPost2010Prop37
 90
       50
102
RTVSPost2010PropOp37
 70
     1
102
RTVSPost2010Prop38
140
0.0
102
RTVSPost2010PropOp38
 70
     1
102
RTVSPost2010Prop39
140
1.0
102
RTVSPost2010PropOp39
 70
     1
102
RTVSPost2010Prop40
 90
        0
102
RTVSPost2010PropOp40
 70
     1
102
RTVSPost2010Prop41ColorIndex
 90
       18
102
RTVSPost2010Prop41ColorRGB
 90
        0
102
RTVSPost2010PropOp41
 70
     1
102
RTVSPost2010Prop42
 90
       50
102
RTVSPost2010PropOp42
 70
     1
102
RTVSPost2010Prop43
 90
        3
102
RTVSPost2010PropOp43
 70
     1
102
RTVSPost2010Prop44ColorIndex
 90
        5
102
RTVSPost2010Prop44ColorRGB
 90
      255
102
RTVSPost2010PropOp44
 70
     1
102
RTVSPost2010Prop45
280
     0
102
RTVSPost2010PropOp45
 70
     1
102
RTVSPost2010Prop46
 90
       50
102
RTVSPost2010PropOp46
 70
     1
102
RTVSPost2010Prop47
 90
       50
102
RTVSPost2010PropOp47
 70
     1
102
RTVSPost2010Prop48
 90
       50
102
RTVSPost2010PropOp48
 70
     1
102
RTVSPost2010Prop49
280
     0
102
RTVSPost2010PropOp49
 70
     1
102
RTVSPost2010Prop50
 90
       50
102
RTVSPost2010PropOp50
 70
     1
102
RTVSPost2010Prop51ColorIndex
 90
      256
102
RTVSPost2010Prop51ColorRGB
 90
-16777216
102
RTVSPost2010PropOp51
 70
     0
102
RTVSPost2010Prop52
140
1.0
102
RTVSPost2010PropOp52
 70
     0
102
RTVSPost2010Prop53
 90
        2
102
RTVSPost2010PropOp53
 70
     1
102
RTVSPost2010Prop54
  1
strokes_ogs.tif
102
RTVSPost2010PropOp54
 70
     1
102
RTVSPost2010Prop55
280
     0
102
RTVSPost2010PropOp55
 70
     1
102
RTVSPost2010Prop56
140
1.0
102
RTVSPost2010PropOp56
 70
     1
102
RTVSPost2010Prop57
140
1.0
102
RTVSPost2010PropOp57
 70
     1
102
RTVSPropertyOp0
 70
     1
102
RTVSPropertyOp1
 70
     1
102
RTVSPropertyOp2
 70
     1
102
RTVSPropertyOp3
 70
     1
102
RTVSPropertyOp4
 70
     1
102
RTVSPropertyOp5
 70
     1
102
RTVSPropertyOp6
 70
     1
102
RTVSPropertyOp7
 70
     1
102
RTVSPropertyOp8
 70
     1
102
RTVSPropertyOp9
 70
     1
102
RTVSPropertyOp10
 70
     1
102
RTVSPropertyOp11
 70
     1
102
RTVSPropertyOp12
 70
     1
102
RTVSPropertyOp13
 70
     1
102
RTVSPropertyOp14
 70
     1
102
RTVSPropertyOp15
 70
     1
102
RTVSPropertyOp16
 70
     1
102
RTVSPropertyOp17
 70
     1
102
RTVSPropertyOp18
 70
     1
102
RTVSPropertyOp19
 70
     1
102
RTVSPropertyOp20
 70
     1
102
RTVSPropertyOp21
 70
     1
102
RTVSPropertyOp22
 70
     1
102
RTVSPropertyOp23
 70
     1
102
RTVSPropertyOp24
 70
     1
102
RTVSPropertyOp25
 70
     1
102
RTVSPropertyOp26
 70
     1
102
RTVSPropertyOp27
 70
     1
102
RTVSPropertyOp28
 70
     1
102
RTVSPropertyOp29
 70
     1
102
RTVSPropertyOp30
 70
     1
102
RTVSPropertyOp31
 70
     1
102
RTVSPropertyOp32
 70
     1
102
RTVSPropertyOp33
 70
     1
102
RTVSPropertyOp34
 70
     1
102
RTVSPropertyOp35
 70
     1
102
RTVSPropertyOp36
 70
     1
102
RTVSPropertyOp37
 70
     1
102
RTVSPropertyOp38
 70
     1
102
RTVSPropertyOp39
 70
     1
102
RTVSPropertyOp40
 70
     1
102
RTVSPropertyOp41
 70
     1
102
RTVSPropertyOp42
 70
     1
102
RTVSPropertyOp43
 70
     1
102
RTVSPropertyOp44
 70
     1
102
RTVSPropertyOp45
 70
     1
102
RTVSPropertyOp46
 70
     1
102
RTVSPropertyOp47
 70
     1
102
RTVSPropertyOp48
 70
     1
102
RTVSPropertyOp49
 70
     1
102
RTVSPropertyOp50
 70
     1
102
RTVSPropertyOp51
 70
     0
102
RTVSPropertyOp52
 70
     0
102
RTVSPropertyOp53
 70
     1
102
RTVSPropertyOp54
 70
     1
102
RTVSPropertyOp55
 70
     1
102
RTVSPropertyOp56
 70
     1
102
RTVSPropertyOp57
 70
     1
102
RTVSPropertyOp58
 70
     1
102
RTVSPropertyOp59
 70
     1
102
RTVSPropertyOp60
 70
     1
102
RTVSPropertyOp61
 70
     1
102
RTVSPropertyOp62
 70
     1
  0
XRECORD
  5
3E7E
102
{ACAD_REACTORS
330
3E7D
102
}
330
3E7D
100
AcDbXrecord
280
     1
102
RTVSPost2010Prop28
280
     0
102
RTVSPost2010PropOp28
 70
     1
102
RTVSPost2010Prop29
280
     1
102
RTVSPost2010PropOp29
 70
     1
102
RTVSPost2010Prop30
280
     1
102
RTVSPost2010PropOp30
 70
     1
102
RTVSPost2010Prop31
280
     0
102
RTVSPost2010PropOp31
 70
     1
102
RTVSPost2010Prop32
280
     0
102
RTVSPost2010PropOp32
 70
     1
102
RTVSPost2010Prop33
280
     0
102
RTVSPost2010PropOp33
 70
     1
102
RTVSPost2010Prop34
280
     0
102
RTVSPost2010PropOp34
 70
     1
102
RTVSPost2010Prop35
280
     0
102
RTVSPost2010PropOp35
 70
     1
102
RTVSPost2010Prop36
280
     0
102
RTVSPost2010PropOp36
 70
     1
102
RTVSPost2010Prop37
 90
       50
102
RTVSPost2010PropOp37
 70
     1
102
RTVSPost2010Prop38
140
0.0
102
RTVSPost2010PropOp38
 70
     1
102
RTVSPost2010Prop39
140
1.0
102
RTVSPost2010PropOp39
 70
     1
102
RTVSPost2010Prop40
 90
        0
102
RTVSPost2010PropOp40
 70
     1
102
RTVSPost2010Prop41ColorIndex
 90
       18
102
RTVSPost2010Prop41ColorRGB
 90
        0
102
RTVSPost2010PropOp41
 70
     1
102
RTVSPost2010Prop42
 90
       50
102
RTVSPost2010PropOp42
 70
     1
102
RTVSPost2010Prop43
 90
        3
102
RTVSPost2010PropOp43
 70
     1
102
RTVSPost2010Prop44ColorIndex
 90
        5
102
RTVSPost2010Prop44ColorRGB
 90
      255
102
RTVSPost2010PropOp44
 70
     1
102
RTVSPost2010Prop45
280
     0
102
RTVSPost2010PropOp45
 70
     1
102
RTVSPost2010Prop46
 90
       50
102
RTVSPost2010PropOp46
 70
     1
102
RTVSPost2010Prop47
 90
       50
102
RTVSPost2010PropOp47
 70
     1
102
RTVSPost2010Prop48
 90
       50
102
RTVSPost2010PropOp48
 70
     1
102
RTVSPost2010Prop49
280
     0
102
RTVSPost2010PropOp49
 70
     1
102
RTVSPost2010Prop50
 90
       50
102
RTVSPost2010PropOp50
 70
     1
102
RTVSPost2010Prop51ColorIndex
 90
      256
102
RTVSPost2010Prop51ColorRGB
 90
-16777216
102
RTVSPost2010PropOp51
 70
     0
102
RTVSPost2010Prop52
140
1.0
102
RTVSPost2010PropOp52
 70
     0
102
RTVSPost2010Prop53
 90
        2
102
RTVSPost2010PropOp53
 70
     1
102
RTVSPost2010Prop54
  1
strokes_ogs.tif
102
RTVSPost2010PropOp54
 70
     1
102
RTVSPost2010Prop55
280
     0
102
RTVSPost2010PropOp55
 70
     1
102
RTVSPost2010Prop56
140
1.0
102
RTVSPost2010PropOp56
 70
     1
102
RTVSPost2010Prop57
140
1.0
102
RTVSPost2010PropOp57
 70
     1
102
RTVSPropertyOp0
 70
     1
102
RTVSPropertyOp1
 70
     1
102
RTVSPropertyOp2
 70
     1
102
RTVSPropertyOp3
 70
     1
102
RTVSPropertyOp4
 70
     1
102
RTVSPropertyOp5
 70
     1
102
RTVSPropertyOp6
 70
     1
102
RTVSPropertyOp7
 70
     1
102
RTVSPropertyOp8
 70
     1
102
RTVSPropertyOp9
 70
     1
102
RTVSPropertyOp10
 70
     1
102
RTVSPropertyOp11
 70
     1
102
RTVSPropertyOp12
 70
     1
102
RTVSPropertyOp13
 70
     1
102
RTVSPropertyOp14
 70
     1
102
RTVSPropertyOp15
 70
     1
102
RTVSPropertyOp16
 70
     1
102
RTVSPropertyOp17
 70
     1
102
RTVSPropertyOp18
 70
     1
102
RTVSPropertyOp19
 70
     1
102
RTVSPropertyOp20
 70
     1
102
RTVSPropertyOp21
 70
     1
102
RTVSPropertyOp22
 70
     1
102
RTVSPropertyOp23
 70
     1
102
RTVSPropertyOp24
 70
     1
102
RTVSPropertyOp25
 70
     1
102
RTVSPropertyOp26
 70
     1
102
RTVSPropertyOp27
 70
     1
102
RTVSPropertyOp28
 70
     1
102
RTVSPropertyOp29
 70
     1
102
RTVSPropertyOp30
 70
     1
102
RTVSPropertyOp31
 70
     1
102
RTVSPropertyOp32
 70
     1
102
RTVSPropertyOp33
 70
     1
102
RTVSPropertyOp34
 70
     1
102
RTVSPropertyOp35
 70
     1
102
RTVSPropertyOp36
 70
     1
102
RTVSPropertyOp37
 70
     1
102
RTVSPropertyOp38
 70
     1
102
RTVSPropertyOp39
 70
     1
102
RTVSPropertyOp40
 70
     1
102
RTVSPropertyOp41
 70
     1
102
RTVSPropertyOp42
 70
     1
102
RTVSPropertyOp43
 70
     1
102
RTVSPropertyOp44
 70
     1
102
RTVSPropertyOp45
 70
     1
102
RTVSPropertyOp46
 70
     1
102
RTVSPropertyOp47
 70
     1
102
RTVSPropertyOp48
 70
     1
102
RTVSPropertyOp49
 70
     1
102
RTVSPropertyOp50
 70
     1
102
RTVSPropertyOp51
 70
     0
102
RTVSPropertyOp52
 70
     0
102
RTVSPropertyOp53
 70
     1
102
RTVSPropertyOp54
 70
     1
102
RTVSPropertyOp55
 70
     1
102
RTVSPropertyOp56
 70
     1
102
RTVSPropertyOp57
 70
     1
102
RTVSPropertyOp58
 70
     1
102
RTVSPropertyOp59
 70
     1
102
RTVSPropertyOp60
 70
     1
102
RTVSPropertyOp61
 70
     1
102
RTVSPropertyOp62
 70
     1
  0
XRECORD
  5
3E78
102
{ACAD_REACTORS
330
3E77
102
}
330
3E77
100
AcDbXrecord
280
     1
102
RTVSPost2010Prop28
280
     0
102
RTVSPost2010PropOp28
 70
     1
102
RTVSPost2010Prop29
280
     1
102
RTVSPost2010PropOp29
 70
     1
102
RTVSPost2010Prop30
280
     1
102
RTVSPost2010PropOp30
 70
     1
102
RTVSPost2010Prop31
280
     0
102
RTVSPost2010PropOp31
 70
     1
102
RTVSPost2010Prop32
280
     0
102
RTVSPost2010PropOp32
 70
     1
102
RTVSPost2010Prop33
280
     0
102
RTVSPost2010PropOp33
 70
     1
102
RTVSPost2010Prop34
280
     0
102
RTVSPost2010PropOp34
 70
     1
102
RTVSPost2010Prop35
280
     0
102
RTVSPost2010PropOp35
 70
     1
102
RTVSPost2010Prop36
280
     0
102
RTVSPost2010PropOp36
 70
     1
102
RTVSPost2010Prop37
 90
       50
102
RTVSPost2010PropOp37
 70
     1
102
RTVSPost2010Prop38
140
0.0
102
RTVSPost2010PropOp38
 70
     1
102
RTVSPost2010Prop39
140
1.0
102
RTVSPost2010PropOp39
 70
     1
102
RTVSPost2010Prop40
 90
        0
102
RTVSPost2010PropOp40
 70
     1
102
RTVSPost2010Prop41ColorIndex
 90
       18
102
RTVSPost2010Prop41ColorRGB
 90
        0
102
RTVSPost2010PropOp41
 70
     1
102
RTVSPost2010Prop42
 90
       50
102
RTVSPost2010PropOp42
 70
     1
102
RTVSPost2010Prop43
 90
        3
102
RTVSPost2010PropOp43
 70
     1
102
RTVSPost2010Prop44ColorIndex
 90
        5
102
RTVSPost2010Prop44ColorRGB
 90
      255
102
RTVSPost2010PropOp44
 70
     1
102
RTVSPost2010Prop45
280
     0
102
RTVSPost2010PropOp45
 70
     1
102
RTVSPost2010Prop46
 90
       50
102
RTVSPost2010PropOp46
 70
     1
102
RTVSPost2010Prop47
 90
       50
102
RTVSPost2010PropOp47
 70
     1
102
RTVSPost2010Prop48
 90
       50
102
RTVSPost2010PropOp48
 70
     1
102
RTVSPost2010Prop49
280
     0
102
RTVSPost2010PropOp49
 70
     1
102
RTVSPost2010Prop50
 90
       50
102
RTVSPost2010PropOp50
 70
     1
102
RTVSPost2010Prop51ColorIndex
 90
      256
102
RTVSPost2010Prop51ColorRGB
 90
-16777216
102
RTVSPost2010PropOp51
 70
     0
102
RTVSPost2010Prop52
140
1.0
102
RTVSPost2010PropOp52
 70
     0
102
RTVSPost2010Prop53
 90
        2
102
RTVSPost2010PropOp53
 70
     1
102
RTVSPost2010Prop54
  1
strokes_ogs.tif
102
RTVSPost2010PropOp54
 70
     1
102
RTVSPost2010Prop55
280
     0
102
RTVSPost2010PropOp55
 70
     1
102
RTVSPost2010Prop56
140
1.0
102
RTVSPost2010PropOp56
 70
     1
102
RTVSPost2010Prop57
140
1.0
102
RTVSPost2010PropOp57
 70
     1
102
RTVSPropertyOp0
 70
     1
102
RTVSPropertyOp1
 70
     1
102
RTVSPropertyOp2
 70
     1
102
RTVSPropertyOp3
 70
     1
102
RTVSPropertyOp4
 70
     1
102
RTVSPropertyOp5
 70
     1
102
RTVSPropertyOp6
 70
     1
102
RTVSPropertyOp7
 70
     1
102
RTVSPropertyOp8
 70
     1
102
RTVSPropertyOp9
 70
     1
102
RTVSPropertyOp10
 70
     1
102
RTVSPropertyOp11
 70
     1
102
RTVSPropertyOp12
 70
     1
102
RTVSPropertyOp13
 70
     1
102
RTVSPropertyOp14
 70
     1
102
RTVSPropertyOp15
 70
     1
102
RTVSPropertyOp16
 70
     1
102
RTVSPropertyOp17
 70
     1
102
RTVSPropertyOp18
 70
     1
102
RTVSPropertyOp19
 70
     1
102
RTVSPropertyOp20
 70
     1
102
RTVSPropertyOp21
 70
     1
102
RTVSPropertyOp22
 70
     1
102
RTVSPropertyOp23
 70
     1
102
RTVSPropertyOp24
 70
     1
102
RTVSPropertyOp25
 70
     1
102
RTVSPropertyOp26
 70
     1
102
RTVSPropertyOp27
 70
     1
102
RTVSPropertyOp28
 70
     1
102
RTVSPropertyOp29
 70
     1
102
RTVSPropertyOp30
 70
     1
102
RTVSPropertyOp31
 70
     1
102
RTVSPropertyOp32
 70
     1
102
RTVSPropertyOp33
 70
     1
102
RTVSPropertyOp34
 70
     1
102
RTVSPropertyOp35
 70
     1
102
RTVSPropertyOp36
 70
     1
102
RTVSPropertyOp37
 70
     1
102
RTVSPropertyOp38
 70
     1
102
RTVSPropertyOp39
 70
     1
102
RTVSPropertyOp40
 70
     1
102
RTVSPropertyOp41
 70
     1
102
RTVSPropertyOp42
 70
     1
102
RTVSPropertyOp43
 70
     1
102
RTVSPropertyOp44
 70
     1
102
RTVSPropertyOp45
 70
     1
102
RTVSPropertyOp46
 70
     1
102
RTVSPropertyOp47
 70
     1
102
RTVSPropertyOp48
 70
     1
102
RTVSPropertyOp49
 70
     1
102
RTVSPropertyOp50
 70
     1
102
RTVSPropertyOp51
 70
     0
102
RTVSPropertyOp52
 70
     0
102
RTVSPropertyOp53
 70
     1
102
RTVSPropertyOp54
 70
     1
102
RTVSPropertyOp55
 70
     1
102
RTVSPropertyOp56
 70
     1
102
RTVSPropertyOp57
 70
     1
102
RTVSPropertyOp58
 70
     1
102
RTVSPropertyOp59
 70
     1
102
RTVSPropertyOp60
 70
     1
102
RTVSPropertyOp61
 70
     1
102
RTVSPropertyOp62
 70
     1
  0
XRECORD
  5
3E7A
102
{ACAD_REACTORS
330
3E79
102
}
330
3E79
100
AcDbXrecord
280
     1
102
RTVSPost2010Prop28
280
     0
102
RTVSPost2010PropOp28
 70
     1
102
RTVSPost2010Prop29
280
     1
102
RTVSPost2010PropOp29
 70
     1
102
RTVSPost2010Prop30
280
     1
102
RTVSPost2010PropOp30
 70
     1
102
RTVSPost2010Prop31
280
     0
102
RTVSPost2010PropOp31
 70
     1
102
RTVSPost2010Prop32
280
     0
102
RTVSPost2010PropOp32
 70
     1
102
RTVSPost2010Prop33
280
     0
102
RTVSPost2010PropOp33
 70
     1
102
RTVSPost2010Prop34
280
     0
102
RTVSPost2010PropOp34
 70
     1
102
RTVSPost2010Prop35
280
     0
102
RTVSPost2010PropOp35
 70
     1
102
RTVSPost2010Prop36
280
     0
102
RTVSPost2010PropOp36
 70
     1
102
RTVSPost2010Prop37
 90
       50
102
RTVSPost2010PropOp37
 70
     1
102
RTVSPost2010Prop38
140
0.0
102
RTVSPost2010PropOp38
 70
     1
102
RTVSPost2010Prop39
140
1.0
102
RTVSPost2010PropOp39
 70
     1
102
RTVSPost2010Prop40
 90
        0
102
RTVSPost2010PropOp40
 70
     1
102
RTVSPost2010Prop41ColorIndex
 90
       18
102
RTVSPost2010Prop41ColorRGB
 90
        0
102
RTVSPost2010PropOp41
 70
     1
102
RTVSPost2010Prop42
 90
       50
102
RTVSPost2010PropOp42
 70
     1
102
RTVSPost2010Prop43
 90
        3
102
RTVSPost2010PropOp43
 70
     1
102
RTVSPost2010Prop44ColorIndex
 90
        5
102
RTVSPost2010Prop44ColorRGB
 90
      255
102
RTVSPost2010PropOp44
 70
     1
102
RTVSPost2010Prop45
280
     0
102
RTVSPost2010PropOp45
 70
     1
102
RTVSPost2010Prop46
 90
       50
102
RTVSPost2010PropOp46
 70
     1
102
RTVSPost2010Prop47
 90
       50
102
RTVSPost2010PropOp47
 70
     1
102
RTVSPost2010Prop48
 90
       50
102
RTVSPost2010PropOp48
 70
     1
102
RTVSPost2010Prop49
280
     0
102
RTVSPost2010PropOp49
 70
     1
102
RTVSPost2010Prop50
 90
       50
102
RTVSPost2010PropOp50
 70
     1
102
RTVSPost2010Prop51ColorIndex
 90
      256
102
RTVSPost2010Prop51ColorRGB
 90
-16777216
102
RTVSPost2010PropOp51
 70
     0
102
RTVSPost2010Prop52
140
1.0
102
RTVSPost2010PropOp52
 70
     0
102
RTVSPost2010Prop53
 90
        2
102
RTVSPost2010PropOp53
 70
     1
102
RTVSPost2010Prop54
  1
strokes_ogs.tif
102
RTVSPost2010PropOp54
 70
     1
102
RTVSPost2010Prop55
280
     0
102
RTVSPost2010PropOp55
 70
     1
102
RTVSPost2010Prop56
140
1.0
102
RTVSPost2010PropOp56
 70
     1
102
RTVSPost2010Prop57
140
1.0
102
RTVSPost2010PropOp57
 70
     1
102
RTVSPropertyOp0
 70
     1
102
RTVSPropertyOp1
 70
     1
102
RTVSPropertyOp2
 70
     1
102
RTVSPropertyOp3
 70
     1
102
RTVSPropertyOp4
 70
     1
102
RTVSPropertyOp5
 70
     1
102
RTVSPropertyOp6
 70
     1
102
RTVSPropertyOp7
 70
     1
102
RTVSPropertyOp8
 70
     1
102
RTVSPropertyOp9
 70
     1
102
RTVSPropertyOp10
 70
     1
102
RTVSPropertyOp11
 70
     1
102
RTVSPropertyOp12
 70
     1
102
RTVSPropertyOp13
 70
     1
102
RTVSPropertyOp14
 70
     1
102
RTVSPropertyOp15
 70
     1
102
RTVSPropertyOp16
 70
     1
102
RTVSPropertyOp17
 70
     1
102
RTVSPropertyOp18
 70
     1
102
RTVSPropertyOp19
 70
     1
102
RTVSPropertyOp20
 70
     1
102
RTVSPropertyOp21
 70
     1
102
RTVSPropertyOp22
 70
     1
102
RTVSPropertyOp23
 70
     1
102
RTVSPropertyOp24
 70
     1
102
RTVSPropertyOp25
 70
     1
102
RTVSPropertyOp26
 70
     1
102
RTVSPropertyOp27
 70
     1
102
RTVSPropertyOp28
 70
     1
102
RTVSPropertyOp29
 70
     1
102
RTVSPropertyOp30
 70
     1
102
RTVSPropertyOp31
 70
     1
102
RTVSPropertyOp32
 70
     1
102
RTVSPropertyOp33
 70
     1
102
RTVSPropertyOp34
 70
     1
102
RTVSPropertyOp35
 70
     1
102
RTVSPropertyOp36
 70
     1
102
RTVSPropertyOp37
 70
     1
102
RTVSPropertyOp38
 70
     1
102
RTVSPropertyOp39
 70
     1
102
RTVSPropertyOp40
 70
     1
102
RTVSPropertyOp41
 70
     1
102
RTVSPropertyOp42
 70
     1
102
RTVSPropertyOp43
 70
     1
102
RTVSPropertyOp44
 70
     1
102
RTVSPropertyOp45
 70
     1
102
RTVSPropertyOp46
 70
     1
102
RTVSPropertyOp47
 70
     1
102
RTVSPropertyOp48
 70
     1
102
RTVSPropertyOp49
 70
     1
102
RTVSPropertyOp50
 70
     1
102
RTVSPropertyOp51
 70
     0
102
RTVSPropertyOp52
 70
     0
102
RTVSPropertyOp53
 70
     1
102
RTVSPropertyOp54
 70
     1
102
RTVSPropertyOp55
 70
     1
102
RTVSPropertyOp56
 70
     1
102
RTVSPropertyOp57
 70
     1
102
RTVSPropertyOp58
 70
     1
102
RTVSPropertyOp59
 70
     1
102
RTVSPropertyOp60
 70
     1
102
RTVSPropertyOp61
 70
     1
102
RTVSPropertyOp62
 70
     1
  0
XRECORD
  5
3E65
102
{ACAD_REACTORS
330
3E64
102
}
330
3E64
100
AcDbXrecord
280
     1
102
RTVSPost2010Prop28
280
     0
102
RTVSPost2010PropOp28
 70
     1
102
RTVSPost2010Prop29
280
     1
102
RTVSPost2010PropOp29
 70
     1
102
RTVSPost2010Prop30
280
     1
102
RTVSPost2010PropOp30
 70
     1
102
RTVSPost2010Prop31
280
     0
102
RTVSPost2010PropOp31
 70
     1
102
RTVSPost2010Prop32
280
     0
102
RTVSPost2010PropOp32
 70
     1
102
RTVSPost2010Prop33
280
     0
102
RTVSPost2010PropOp33
 70
     1
102
RTVSPost2010Prop34
280
     0
102
RTVSPost2010PropOp34
 70
     1
102
RTVSPost2010Prop35
280
     0
102
RTVSPost2010PropOp35
 70
     1
102
RTVSPost2010Prop36
280
     0
102
RTVSPost2010PropOp36
 70
     1
102
RTVSPost2010Prop37
 90
       50
102
RTVSPost2010PropOp37
 70
     1
102
RTVSPost2010Prop38
140
0.0
102
RTVSPost2010PropOp38
 70
     1
102
RTVSPost2010Prop39
140
1.0
102
RTVSPost2010PropOp39
 70
     1
102
RTVSPost2010Prop40
 90
        0
102
RTVSPost2010PropOp40
 70
     1
102
RTVSPost2010Prop41ColorIndex
 90
       18
102
RTVSPost2010Prop41ColorRGB
 90
        0
102
RTVSPost2010PropOp41
 70
     1
102
RTVSPost2010Prop42
 90
       50
102
RTVSPost2010PropOp42
 70
     1
102
RTVSPost2010Prop43
 90
        3
102
RTVSPost2010PropOp43
 70
     1
102
RTVSPost2010Prop44ColorIndex
 90
        5
102
RTVSPost2010Prop44ColorRGB
 90
      255
102
RTVSPost2010PropOp44
 70
     1
102
RTVSPost2010Prop45
280
     0
102
RTVSPost2010PropOp45
 70
     1
102
RTVSPost2010Prop46
 90
       50
102
RTVSPost2010PropOp46
 70
     1
102
RTVSPost2010Prop47
 90
       50
102
RTVSPost2010PropOp47
 70
     1
102
RTVSPost2010Prop48
 90
       50
102
RTVSPost2010PropOp48
 70
     1
102
RTVSPost2010Prop49
280
     0
102
RTVSPost2010PropOp49
 70
     1
102
RTVSPost2010Prop50
 90
       50
102
RTVSPost2010PropOp50
 70
     1
102
RTVSPost2010Prop51ColorIndex
 90
      256
102
RTVSPost2010Prop51ColorRGB
 90
-16777216
102
RTVSPost2010PropOp51
 70
     0
102
RTVSPost2010Prop52
140
1.0
102
RTVSPost2010PropOp52
 70
     0
102
RTVSPost2010Prop53
 90
        2
102
RTVSPost2010PropOp53
 70
     1
102
RTVSPost2010Prop54
  1
strokes_ogs.tif
102
RTVSPost2010PropOp54
 70
     1
102
RTVSPost2010Prop55
280
     0
102
RTVSPost2010PropOp55
 70
     1
102
RTVSPost2010Prop56
140
1.0
102
RTVSPost2010PropOp56
 70
     1
102
RTVSPost2010Prop57
140
1.0
102
RTVSPost2010PropOp57
 70
     1
102
RTVSPropertyOp0
 70
     1
102
RTVSPropertyOp1
 70
     1
102
RTVSPropertyOp2
 70
     1
102
RTVSPropertyOp3
 70
     1
102
RTVSPropertyOp4
 70
     1
102
RTVSPropertyOp5
 70
     1
102
RTVSPropertyOp6
 70
     1
102
RTVSPropertyOp7
 70
     1
102
RTVSPropertyOp8
 70
     1
102
RTVSPropertyOp9
 70
     1
102
RTVSPropertyOp10
 70
     1
102
RTVSPropertyOp11
 70
     1
102
RTVSPropertyOp12
 70
     1
102
RTVSPropertyOp13
 70
     1
102
RTVSPropertyOp14
 70
     1
102
RTVSPropertyOp15
 70
     1
102
RTVSPropertyOp16
 70
     1
102
RTVSPropertyOp17
 70
     1
102
RTVSPropertyOp18
 70
     1
102
RTVSPropertyOp19
 70
     1
102
RTVSPropertyOp20
 70
     1
102
RTVSPropertyOp21
 70
     1
102
RTVSPropertyOp22
 70
     1
102
RTVSPropertyOp23
 70
     1
102
RTVSPropertyOp24
 70
     1
102
RTVSPropertyOp25
 70
     1
102
RTVSPropertyOp26
 70
     1
102
RTVSPropertyOp27
 70
     1
102
RTVSPropertyOp28
 70
     1
102
RTVSPropertyOp29
 70
     1
102
RTVSPropertyOp30
 70
     1
102
RTVSPropertyOp31
 70
     1
102
RTVSPropertyOp32
 70
     1
102
RTVSPropertyOp33
 70
     1
102
RTVSPropertyOp34
 70
     1
102
RTVSPropertyOp35
 70
     1
102
RTVSPropertyOp36
 70
     1
102
RTVSPropertyOp37
 70
     1
102
RTVSPropertyOp38
 70
     1
102
RTVSPropertyOp39
 70
     1
102
RTVSPropertyOp40
 70
     1
102
RTVSPropertyOp41
 70
     1
102
RTVSPropertyOp42
 70
     1
102
RTVSPropertyOp43
 70
     1
102
RTVSPropertyOp44
 70
     1
102
RTVSPropertyOp45
 70
     1
102
RTVSPropertyOp46
 70
     1
102
RTVSPropertyOp47
 70
     1
102
RTVSPropertyOp48
 70
     1
102
RTVSPropertyOp49
 70
     1
102
RTVSPropertyOp50
 70
     1
102
RTVSPropertyOp51
 70
     0
102
RTVSPropertyOp52
 70
     0
102
RTVSPropertyOp53
 70
     1
102
RTVSPropertyOp54
 70
     1
102
RTVSPropertyOp55
 70
     1
102
RTVSPropertyOp56
 70
     1
102
RTVSPropertyOp57
 70
     1
102
RTVSPropertyOp58
 70
     1
102
RTVSPropertyOp59
 70
     1
102
RTVSPropertyOp60
 70
     1
102
RTVSPropertyOp61
 70
     1
102
RTVSPropertyOp62
 70
     1
  0
XRECORD
  5
3E74
102
{ACAD_REACTORS
330
3E73
102
}
330
3E73
100
AcDbXrecord
280
     1
102
RTVSPost2010Prop28
280
     0
102
RTVSPost2010PropOp28
 70
     1
102
RTVSPost2010Prop29
280
     1
102
RTVSPost2010PropOp29
 70
     1
102
RTVSPost2010Prop30
280
     1
102
RTVSPost2010PropOp30
 70
     1
102
RTVSPost2010Prop31
280
     0
102
RTVSPost2010PropOp31
 70
     1
102
RTVSPost2010Prop32
280
     0
102
RTVSPost2010PropOp32
 70
     1
102
RTVSPost2010Prop33
280
     0
102
RTVSPost2010PropOp33
 70
     1
102
RTVSPost2010Prop34
280
     0
102
RTVSPost2010PropOp34
 70
     1
102
RTVSPost2010Prop35
280
     0
102
RTVSPost2010PropOp35
 70
     1
102
RTVSPost2010Prop36
280
     0
102
RTVSPost2010PropOp36
 70
     1
102
RTVSPost2010Prop37
 90
       50
102
RTVSPost2010PropOp37
 70
     1
102
RTVSPost2010Prop38
140
0.0
102
RTVSPost2010PropOp38
 70
     1
102
RTVSPost2010Prop39
140
1.0
102
RTVSPost2010PropOp39
 70
     1
102
RTVSPost2010Prop40
 90
        0
102
RTVSPost2010PropOp40
 70
     1
102
RTVSPost2010Prop41ColorIndex
 90
       18
102
RTVSPost2010Prop41ColorRGB
 90
        0
102
RTVSPost2010PropOp41
 70
     1
102
RTVSPost2010Prop42
 90
       50
102
RTVSPost2010PropOp42
 70
     1
102
RTVSPost2010Prop43
 90
        3
102
RTVSPost2010PropOp43
 70
     1
102
RTVSPost2010Prop44ColorIndex
 90
        5
102
RTVSPost2010Prop44ColorRGB
 90
      255
102
RTVSPost2010PropOp44
 70
     1
102
RTVSPost2010Prop45
280
     0
102
RTVSPost2010PropOp45
 70
     1
102
RTVSPost2010Prop46
 90
       50
102
RTVSPost2010PropOp46
 70
     1
102
RTVSPost2010Prop47
 90
       50
102
RTVSPost2010PropOp47
 70
     1
102
RTVSPost2010Prop48
 90
       50
102
RTVSPost2010PropOp48
 70
     1
102
RTVSPost2010Prop49
280
     0
102
RTVSPost2010PropOp49
 70
     1
102
RTVSPost2010Prop50
 90
       50
102
RTVSPost2010PropOp50
 70
     1
102
RTVSPost2010Prop51ColorIndex
 90
      256
102
RTVSPost2010Prop51ColorRGB
 90
-16777216
102
RTVSPost2010PropOp51
 70
     0
102
RTVSPost2010Prop52
140
1.0
102
RTVSPost2010PropOp52
 70
     0
102
RTVSPost2010Prop53
 90
        2
102
RTVSPost2010PropOp53
 70
     1
102
RTVSPost2010Prop54
  1
strokes_ogs.tif
102
RTVSPost2010PropOp54
 70
     1
102
RTVSPost2010Prop55
280
     0
102
RTVSPost2010PropOp55
 70
     1
102
RTVSPost2010Prop56
140
1.0
102
RTVSPost2010PropOp56
 70
     1
102
RTVSPost2010Prop57
140
1.0
102
RTVSPost2010PropOp57
 70
     1
102
RTVSPropertyOp0
 70
     1
102
RTVSPropertyOp1
 70
     1
102
RTVSPropertyOp2
 70
     1
102
RTVSPropertyOp3
 70
     1
102
RTVSPropertyOp4
 70
     1
102
RTVSPropertyOp5
 70
     1
102
RTVSPropertyOp6
 70
     1
102
RTVSPropertyOp7
 70
     1
102
RTVSPropertyOp8
 70
     1
102
RTVSPropertyOp9
 70
     1
102
RTVSPropertyOp10
 70
     1
102
RTVSPropertyOp11
 70
     1
102
RTVSPropertyOp12
 70
     1
102
RTVSPropertyOp13
 70
     1
102
RTVSPropertyOp14
 70
     1
102
RTVSPropertyOp15
 70
     1
102
RTVSPropertyOp16
 70
     1
102
RTVSPropertyOp17
 70
     1
102
RTVSPropertyOp18
 70
     1
102
RTVSPropertyOp19
 70
     1
102
RTVSPropertyOp20
 70
     1
102
RTVSPropertyOp21
 70
     1
102
RTVSPropertyOp22
 70
     1
102
RTVSPropertyOp23
 70
     1
102
RTVSPropertyOp24
 70
     1
102
RTVSPropertyOp25
 70
     1
102
RTVSPropertyOp26
 70
     1
102
RTVSPropertyOp27
 70
     1
102
RTVSPropertyOp28
 70
     1
102
RTVSPropertyOp29
 70
     1
102
RTVSPropertyOp30
 70
     1
102
RTVSPropertyOp31
 70
     1
102
RTVSPropertyOp32
 70
     1
102
RTVSPropertyOp33
 70
     1
102
RTVSPropertyOp34
 70
     1
102
RTVSPropertyOp35
 70
     1
102
RTVSPropertyOp36
 70
     1
102
RTVSPropertyOp37
 70
     1
102
RTVSPropertyOp38
 70
     1
102
RTVSPropertyOp39
 70
     1
102
RTVSPropertyOp40
 70
     1
102
RTVSPropertyOp41
 70
     1
102
RTVSPropertyOp42
 70
     1
102
RTVSPropertyOp43
 70
     1
102
RTVSPropertyOp44
 70
     1
102
RTVSPropertyOp45
 70
     1
102
RTVSPropertyOp46
 70
     1
102
RTVSPropertyOp47
 70
     1
102
RTVSPropertyOp48
 70
     1
102
RTVSPropertyOp49
 70
     1
102
RTVSPropertyOp50
 70
     1
102
RTVSPropertyOp51
 70
     0
102
RTVSPropertyOp52
 70
     0
102
RTVSPropertyOp53
 70
     1
102
RTVSPropertyOp54
 70
     1
102
RTVSPropertyOp55
 70
     1
102
RTVSPropertyOp56
 70
     1
102
RTVSPropertyOp57
 70
     1
102
RTVSPropertyOp58
 70
     1
102
RTVSPropertyOp59
 70
     1
102
RTVSPropertyOp60
 70
     1
102
RTVSPropertyOp61
 70
     1
102
RTVSPropertyOp62
 70
     1
  0
XRECORD
  5
3E7C
102
{ACAD_REACTORS
330
3E7B
102
}
330
3E7B
100
AcDbXrecord
280
     1
102
RTVSPost2010Prop28
280
     0
102
RTVSPost2010PropOp28
 70
     1
102
RTVSPost2010Prop29
280
     1
102
RTVSPost2010PropOp29
 70
     1
102
RTVSPost2010Prop30
280
     1
102
RTVSPost2010PropOp30
 70
     1
102
RTVSPost2010Prop31
280
     0
102
RTVSPost2010PropOp31
 70
     1
102
RTVSPost2010Prop32
280
     0
102
RTVSPost2010PropOp32
 70
     1
102
RTVSPost2010Prop33
280
     0
102
RTVSPost2010PropOp33
 70
     1
102
RTVSPost2010Prop34
280
     0
102
RTVSPost2010PropOp34
 70
     1
102
RTVSPost2010Prop35
280
     0
102
RTVSPost2010PropOp35
 70
     1
102
RTVSPost2010Prop36
280
     0
102
RTVSPost2010PropOp36
 70
     1
102
RTVSPost2010Prop37
 90
       50
102
RTVSPost2010PropOp37
 70
     1
102
RTVSPost2010Prop38
140
0.0
102
RTVSPost2010PropOp38
 70
     1
102
RTVSPost2010Prop39
140
1.0
102
RTVSPost2010PropOp39
 70
     1
102
RTVSPost2010Prop40
 90
        0
102
RTVSPost2010PropOp40
 70
     1
102
RTVSPost2010Prop41ColorIndex
 90
       18
102
RTVSPost2010Prop41ColorRGB
 90
        0
102
RTVSPost2010PropOp41
 70
     1
102
RTVSPost2010Prop42
 90
       50
102
RTVSPost2010PropOp42
 70
     1
102
RTVSPost2010Prop43
 90
        3
102
RTVSPost2010PropOp43
 70
     1
102
RTVSPost2010Prop44ColorIndex
 90
        5
102
RTVSPost2010Prop44ColorRGB
 90
      255
102
RTVSPost2010PropOp44
 70
     1
102
RTVSPost2010Prop45
280
     0
102
RTVSPost2010PropOp45
 70
     1
102
RTVSPost2010Prop46
 90
       50
102
RTVSPost2010PropOp46
 70
     1
102
RTVSPost2010Prop47
 90
       50
102
RTVSPost2010PropOp47
 70
     1
102
RTVSPost2010Prop48
 90
       50
102
RTVSPost2010PropOp48
 70
     1
102
RTVSPost2010Prop49
280
     0
102
RTVSPost2010PropOp49
 70
     1
102
RTVSPost2010Prop50
 90
       50
102
RTVSPost2010PropOp50
 70
     1
102
RTVSPost2010Prop51ColorIndex
 90
      256
102
RTVSPost2010Prop51ColorRGB
 90
-16777216
102
RTVSPost2010PropOp51
 70
     0
102
RTVSPost2010Prop52
140
1.0
102
RTVSPost2010PropOp52
 70
     0
102
RTVSPost2010Prop53
 90
        2
102
RTVSPost2010PropOp53
 70
     1
102
RTVSPost2010Prop54
  1
strokes_ogs.tif
102
RTVSPost2010PropOp54
 70
     1
102
RTVSPost2010Prop55
280
     0
102
RTVSPost2010PropOp55
 70
     1
102
RTVSPost2010Prop56
140
1.0
102
RTVSPost2010PropOp56
 70
     1
102
RTVSPost2010Prop57
140
1.0
102
RTVSPost2010PropOp57
 70
     1
102
RTVSPropertyOp0
 70
     1
102
RTVSPropertyOp1
 70
     1
102
RTVSPropertyOp2
 70
     1
102
RTVSPropertyOp3
 70
     1
102
RTVSPropertyOp4
 70
     1
102
RTVSPropertyOp5
 70
     1
102
RTVSPropertyOp6
 70
     1
102
RTVSPropertyOp7
 70
     1
102
RTVSPropertyOp8
 70
     1
102
RTVSPropertyOp9
 70
     1
102
RTVSPropertyOp10
 70
     1
102
RTVSPropertyOp11
 70
     1
102
RTVSPropertyOp12
 70
     1
102
RTVSPropertyOp13
 70
     1
102
RTVSPropertyOp14
 70
     1
102
RTVSPropertyOp15
 70
     1
102
RTVSPropertyOp16
 70
     1
102
RTVSPropertyOp17
 70
     1
102
RTVSPropertyOp18
 70
     1
102
RTVSPropertyOp19
 70
     1
102
RTVSPropertyOp20
 70
     1
102
RTVSPropertyOp21
 70
     1
102
RTVSPropertyOp22
 70
     1
102
RTVSPropertyOp23
 70
     1
102
RTVSPropertyOp24
 70
     1
102
RTVSPropertyOp25
 70
     1
102
RTVSPropertyOp26
 70
     1
102
RTVSPropertyOp27
 70
     1
102
RTVSPropertyOp28
 70
     1
102
RTVSPropertyOp29
 70
     1
102
RTVSPropertyOp30
 70
     1
102
RTVSPropertyOp31
 70
     1
102
RTVSPropertyOp32
 70
     1
102
RTVSPropertyOp33
 70
     1
102
RTVSPropertyOp34
 70
     1
102
RTVSPropertyOp35
 70
     1
102
RTVSPropertyOp36
 70
     1
102
RTVSPropertyOp37
 70
     1
102
RTVSPropertyOp38
 70
     1
102
RTVSPropertyOp39
 70
     1
102
RTVSPropertyOp40
 70
     1
102
RTVSPropertyOp41
 70
     1
102
RTVSPropertyOp42
 70
     1
102
RTVSPropertyOp43
 70
     1
102
RTVSPropertyOp44
 70
     1
102
RTVSPropertyOp45
 70
     1
102
RTVSPropertyOp46
 70
     1
102
RTVSPropertyOp47
 70
     1
102
RTVSPropertyOp48
 70
     1
102
RTVSPropertyOp49
 70
     1
102
RTVSPropertyOp50
 70
     1
102
RTVSPropertyOp51
 70
     0
102
RTVSPropertyOp52
 70
     0
102
RTVSPropertyOp53
 70
     1
102
RTVSPropertyOp54
 70
     1
102
RTVSPropertyOp55
 70
     1
102
RTVSPropertyOp56
 70
     1
102
RTVSPropertyOp57
 70
     1
102
RTVSPropertyOp58
 70
     1
102
RTVSPropertyOp59
 70
     1
102
RTVSPropertyOp60
 70
     1
102
RTVSPropertyOp61
 70
     1
102
RTVSPropertyOp62
 70
     1
  0
ENDSEC
  0
EOF
