  0
SECTION
  2
HEADER
  9
$ACADVER
  1
AC1015
  9
$ACADMAINTVER
 70
    20
  9
$DWGCODEPAGE
  3
ANSI_932
  9
$INSBASE
 10
0.0
 20
0.0
 30
0.0
  9
$EXTMIN
 10
-0.0866203276364104
 20
-0.0600852272691555
 30
-0.0015258207003583
  9
$EXTMAX
 10
1104.172411335978
 20
764.1186856374888
 30
0.0000000349246037
  9
$LIMMIN
 10
0.0
 20
0.0
  9
$LIMMAX
 10
2840.0
 20
1970.0
  9
$ORTHOMODE
 70
     0
  9
$REGENMODE
 70
     1
  9
$FILLMODE
 70
     1
  9
$QTEXTMODE
 70
     0
  9
$MIRRTEXT
 70
     1
  9
$LTSCALE
 40
1.0
  9
$ATTMODE
 70
     1
  9
$TEXTSIZE
 40
2.5
  9
$TRACEWID
 40
1.0
  9
$TEXTSTYLE
  7
Standard
  9
$CLAYER
  8
SUNPO
  9
$CELTYPE
  6
ByLayer
  9
$CECOLOR
 62
   256
  9
$CELTSCALE
 40
1.0
  9
$DISPSILH
 70
     0
  9
$DIMSCALE
 40
4.0
  9
$DIMASZ
 40
0.8
  9
$DIMEXO
 40
1.0
  9
$DIMDLI
 40
0.0
  9
$DIMRND
 40
0.0
  9
$DIMDLE
 40
0.0
  9
$DIMEXE
 40
0.0
  9
$DIMTP
 40
0.0
  9
$DIMTM
 40
0.0
  9
$DIMTXT
 40
2.0
  9
$DIMCEN
 40
2.5
  9
$DIMTSZ
 40
0.0
  9
$DIMTOL
 70
     0
  9
$DIMLIM
 70
     0
  9
$DIMTIH
 70
     0
  9
$DIMTOH
 70
     0
  9
$DIMSE1
 70
     0
  9
$DIMSE2
 70
     0
  9
$DIMTAD
 70
     2
  9
$DIMZIN
 70
     8
  9
$DIMBLK
  1

  9
$DIMASO
 70
     1
  9
$DIMSHO
 70
     1
  9
$DIMPOST
  1

  9
$DIMAPOST
  1

  9
$DIMALT
 70
     0
  9
$DIMALTD
 70
     4
  9
$DIMALTF
 40
0.0394
  9
$DIMLFAC
 40
1.0
  9
$DIMTOFL
 70
     1
  9
$DIMTVP
 40
0.0
  9
$DIMTIX
 70
     0
  9
$DIMSOXD
 70
     0
  9
$DIMSAH
 70
     1
  9
$DIMBLK1
  1
DOT
  9
$DIMBLK2
  1
DOT
  9
$DIMSTYLE
  2
STANDARD
  9
$DIMCLRD
 70
     0
  9
$DIMCLRE
 70
     0
  9
$DIMCLRT
 70
     0
  9
$DIMTFAC
 40
1.0
  9
$DIMGAP
 40
0.1
  9
$DIMJUST
 70
     0
  9
$DIMSD1
 70
     0
  9
$DIMSD2
 70
     0
  9
$DIMTOLJ
 70
     1
  9
$DIMTZIN
 70
     0
  9
$DIMALTZ
 70
     0
  9
$DIMALTTZ
 70
     0
  9
$DIMUPT
 70
     0
  9
$DIMDEC
 70
     4
  9
$DIMTDEC
 70
     4
  9
$DIMALTU
 70
     8
  9
$DIMALTTD
 70
     4
  9
$DIMTXSTY
  7
Standard
  9
$DIMAUNIT
 70
     0
  9
$DIMADEC
 70
     0
  9
$DIMALTRND
 40
0.0
  9
$DIMAZIN
 70
     0
  9
$DIMDSEP
 70
    46
  9
$DIMATFIT
 70
     3
  9
$DIMFRAC
 70
     0
  9
$DIMLDRBLK
  1
DOT
  9
$DIMLUNIT
 70
     2
  9
$DIMLWD
 70
    -2
  9
$DIMLWE
 70
    -2
  9
$DIMTMOVE
 70
     1
  9
$LUNITS
 70
     2
  9
$LUPREC
 70
     8
  9
$SKETCHINC
 40
1.0
  9
$FILLETRAD
 40
0.0
  9
$AUNITS
 70
     0
  9
$AUPREC
 70
     8
  9
$MENU
  1
.
  9
$ELEVATION
 40
0.0
  9
$PELEVATION
 40
0.0
  9
$THICKNESS
 40
0.0
  9
$LIMCHECK
 70
     0
  9
$CHAMFERA
 40
10.0
  9
$CHAMFERB
 40
10.0
  9
$CHAMFERC
 40
20.0
  9
$CHAMFERD
 40
0.0
  9
$SKPOLY
 70
     0
  9
$TDCREATE
 40
2453276.413761574
  9
$TDUCREATE
 40
2453276.038766620
  9
$TDUPDATE
 40
2459975.539421296
  9
$TDUUPDATE
 40
2459975.164421297
  9
$TDINDWG
 40
0.2384320255
  9
$TDUSRTIMER
 40
0.2384320255
  9
$USRTIMER
 70
     1
  9
$ANGBASE
 50
0.0
  9
$ANGDIR
 70
     0
  9
$PDMODE
 70
     0
  9
$PDSIZE
 40
0.0
  9
$PLINEWID
 40
0.0
  9
$SPLFRAME
 70
     0
  9
$SPLINETYPE
 70
     6
  9
$SPLINESEGS
 70
     8
  9
$HANDSEED
  5
E2DA
  9
$SURFTAB1
 70
     6
  9
$SURFTAB2
 70
     6
  9
$SURFTYPE
 70
     6
  9
$SURFU
 70
     6
  9
$SURFV
 70
     6
  9
$UCSBASE
  2

  9
$UCSNAME
  2

  9
$UCSORG
 10
0.0
 20
0.0
 30
0.0
  9
$UCSXDIR
 10
1.0
 20
0.0
 30
0.0
  9
$UCSYDIR
 10
0.0
 20
1.0
 30
0.0
  9
$UCSORTHOREF
  2

  9
$UCSORTHOVIEW
 70
     0
  9
$UCSORGTOP
 10
0.0
 20
0.0
 30
0.0
  9
$UCSORGBOTTOM
 10
0.0
 20
0.0
 30
0.0
  9
$UCSORGLEFT
 10
0.0
 20
0.0
 30
0.0
  9
$UCSORGRIGHT
 10
0.0
 20
0.0
 30
0.0
  9
$UCSORGFRONT
 10
0.0
 20
0.0
 30
0.0
  9
$UCSORGBACK
 10
0.0
 20
0.0
 30
0.0
  9
$PUCSBASE
  2

  9
$PUCSNAME
  2

  9
$PUCSORG
 10
0.0
 20
0.0
 30
0.0
  9
$PUCSXDIR
 10
1.0
 20
0.0
 30
0.0
  9
$PUCSYDIR
 10
0.0
 20
1.0
 30
0.0
  9
$PUCSORTHOREF
  2

  9
$PUCSORTHOVIEW
 70
     0
  9
$PUCSORGTOP
 10
0.0
 20
0.0
 30
0.0
  9
$PUCSORGBOTTOM
 10
0.0
 20
0.0
 30
0.0
  9
$PUCSORGLEFT
 10
0.0
 20
0.0
 30
0.0
  9
$PUCSORGRIGHT
 10
0.0
 20
0.0
 30
0.0
  9
$PUCSORGFRONT
 10
0.0
 20
0.0
 30
0.0
  9
$PUCSORGBACK
 10
0.0
 20
0.0
 30
0.0
  9
$USERI1
 70
     0
  9
$USERI2
 70
     0
  9
$USERI3
 70
     0
  9
$USERI4
 70
     0
  9
$USERI5
 70
     0
  9
$USERR1
 40
0.0
  9
$USERR2
 40
0.0
  9
$USERR3
 40
0.0
  9
$USERR4
 40
0.0
  9
$USERR5
 40
0.0
  9
$WORLDVIEW
 70
     1
  9
$SHADEDGE
 70
     2
  9
$SHADEDIF
 70
    70
  9
$TILEMODE
 70
     1
  9
$MAXACTVP
 70
    64
  9
$PINSBASE
 10
0.0
 20
0.0
 30
0.0
  9
$PLIMCHECK
 70
     0
  9
$PEXTMIN
 10
0.0
 20
0.0
 30
0.0
  9
$PEXTMAX
 10
0.0
 20
0.0
 30
0.0
  9
$PLIMMIN
 10
0.0
 20
0.0
  9
$PLIMMAX
 10
12.0
 20
9.0
  9
$UNITMODE
 70
     0
  9
$VISRETAIN
 70
     1
  9
$PLINEGEN
 70
     0
  9
$PSLTSCALE
 70
     1
  9
$TREEDEPTH
 70
  3020
  9
$CMLSTYLE
  2
Standard
  9
$CMLJUST
 70
     0
  9
$CMLSCALE
 40
20.0
  9
$PROXYGRAPHICS
 70
     1
  9
$MEASUREMENT
 70
     1
  9
$CELWEIGHT
370
    -1
  9
$ENDCAPS
280
     0
  9
$JOINSTYLE
280
     0
  9
$LWDISPLAY
290
     0
  9
$INSUNITS
 70
     4
  9
$HYPERLINKBASE
  1

  9
$STYLESHEET
  1
monochrome.stb
  9
$XEDIT
290
     1
  9
$CEPSNTYPE
380
     0
  9
$PSTYLEMODE
290
     1
  9
$FINGERPRINTGUID
  2
{B4E61C12-08AD-407D-A83C-7C7812CA1D8B}
  9
$VERSIONGUID
  2
{0158DE86-E07E-6E40-88E7-648ADA0E49C1}
  9
$EXTNAMES
290
     1
  9
$PSVPSCALE
 40
0.0
  9
$OLESTARTUP
290
     0
  0
ENDSEC
  0
SECTION
  2
CLASSES
  0
CLASS
  1
ACDBDICTIONARYWDFLT
  2
AcDbDictionaryWithDefault
  3
ObjectDBX Classes
 90
        0
280
     0
281
     0
  0
CLASS
  1
ACDBPLACEHOLDER
  2
AcDbPlaceHolder
  3
ObjectDBX Classes
 90
        0
280
     0
281
     0
  0
CLASS
  1
LAYOUT
  2
AcDbLayout
  3
ObjectDBX Classes
 90
        0
280
     0
281
     0
  0
CLASS
  1
DICTIONARYVAR
  2
AcDbDictionaryVar
  3
ObjectDBX Classes
 90
        0
280
     0
281
     0
  0
CLASS
  1
SORTENTSTABLE
  2
AcDbSortentsTable
  3
ObjectDBX Classes
 90
        0
280
     0
281
     0
  0
CLASS
  1
MATERIAL
  2
AcDbMaterial
  3
ObjectDBX Classes
 90
     1153
280
     0
281
     0
  0
CLASS
  1
VISUALSTYLE
  2
AcDbVisualStyle
  3
ObjectDBX Classes
 90
     4095
280
     0
281
     0
  0
CLASS
  1
TABLESTYLE
  2
AcDbTableStyle
  3
ObjectDBX Classes
 90
     4095
280
     0
281
     0
  0
CLASS
  1
SCALE
  2
AcDbScale
  3
ObjectDBX Classes
 90
     1153
280
     0
281
     0
  0
CLASS
  1
MLEADERSTYLE
  2
AcDbMLeaderStyle
  3
ACDB_MLEADERSTYLE_CLASS
 90
     4095
280
     0
281
     0
  0
CLASS
  1
AEC_REFEDIT_STATUS_TRACKER
  2
AecDbRefEditStatusTracker
  3
AecArchBase60|Product Desc: Autodesk Architectural Desktop 2007 |Company: Autodesk,Inc. |WEB Address: www.autodesk.com
 90
    32897
280
     0
281
     0
  0
CLASS
  1
NPOCOLLECTION
  2
AcDbImpNonPersistentObjectsCollection
  3
ObjectDBX Classes
 90
    33921
280
     0
281
     0
  0
CLASS
  1
CELLSTYLEMAP
  2
AcDbCellStyleMap
  3
ObjectDBX Classes
 90
     1152
280
     0
281
     0
  0
CLASS
  1
ACDBSECTIONVIEWSTYLE
  2
AcDbSectionViewStyle
  3
ObjectDBX Classes
 90
     1025
280
     0
281
     0
  0
CLASS
  1
ACDBDETAILVIEWSTYLE
  2
AcDbDetailViewStyle
  3
ObjectDBX Classes
 90
     1025
280
     0
281
     0
  0
ENDSEC
  0
SECTION
  2
TABLES
  0
TABLE
  2
VPORT
  5
8
102
{ACAD_XDICTIONARY
360
8FC3
102
}
330
0
100
AcDbSymbolTable
 70
     1
  0
VPORT
  5
5557
330
8
100
AcDbSymbolTableRecord
100
AcDbViewportTableRecord
  2
*Active
 70
     0
 10
0.0
 20
0.0
 11
1.0
 21
1.0
 12
552.0428955041709
 22
382.0293002051098
 13
0.0
 23
0.0
 14
10.0
 24
10.0
 15
10.0
 25
10.0
 16
0.0
 26
0.0
 36
1.0
 17
0.0
 27
0.0
 37
0.0
 40
784.2009220664547
 41
2.359649122807017
 42
50.0
 43
0.0
 44
0.0
 50
0.0
 51
0.0
 71
     0
 72
   100
 73
     1
 74
     3
 75
     0
 76
     0
 77
     0
 78
     0
281
     0
 65
     1
110
0.0
120
0.0
130
0.0
111
1.0
121
0.0
131
0.0
112
0.0
122
1.0
132
0.0
 79
     0
146
0.0
1001
ACAD_NAV_VCDISPLAY
1070
     3
  0
ENDTAB
  0
TABLE
  2
LTYPE
  5
5
330
0
100
AcDbSymbolTable
 70
     2
  0
LTYPE
  5
14
330
5
100
AcDbSymbolTableRecord
100
AcDbLinetypeTableRecord
  2
ByBlock
 70
     0
  3

 72
    65
 73
     0
 40
0.0
  0
LTYPE
  5
15
330
5
100
AcDbSymbolTableRecord
100
AcDbLinetypeTableRecord
  2
ByLayer
 70
     0
  3

 72
    65
 73
     0
 40
0.0
  0
LTYPE
  5
16
330
5
100
AcDbSymbolTableRecord
100
AcDbLinetypeTableRecord
  2
Continuous
 70
     0
  3
Solid line
 72
    65
 73
     0
 40
0.0
  0
LTYPE
  5
62CC
330
5
100
AcDbSymbolTableRecord
100
AcDbLinetypeTableRecord
  2
CENTER
 70
     0
  3
Center ____ _ ____ _ ____ _ ____ _ ____ _ ____
 72
    65
 73
     4
 40
50.8
 49
31.75
 74
     0
 49
-6.349999999999999
 74
     0
 49
6.349999999999999
 74
     0
 49
-6.349999999999999
 74
     0
  0
ENDTAB
  0
TABLE
  2
LAYER
  5
2
102
{ACAD_XDICTIONARY
360
2D
102
}
330
0
100
AcDbSymbolTable
 70
     8
  0
LAYER
  5
10
102
{ACAD_XDICTIONARY
360
8FB2
102
}
330
2
100
AcDbSymbolTableRecord
100
AcDbLayerTableRecord
  2
0
 70
     0
 62
     7
  6
Continuous
290
     0
370
    -3
390
29
  0
LAYER
  5
2301
330
2
100
AcDbSymbolTableRecord
100
AcDbLayerTableRecord
  2
Defpoints
 70
     0
 62
     7
  6
Continuous
290
     0
370
    -3
390
F
  0
LAYER
  5
2388
102
{ACAD_XDICTIONARY
360
8FB4
102
}
330
2
100
AcDbSymbolTableRecord
100
AcDbLayerTableRecord
  2
moji
 70
     0
 62
     7
  6
Continuous
370
    -3
390
29
  0
LAYER
  5
2389
102
{ACAD_XDICTIONARY
360
8FB6
102
}
330
2
100
AcDbSymbolTableRecord
100
AcDbLayerTableRecord
  2
kasagi
 70
     0
 62
   150
  6
Continuous
370
    -3
390
29
  0
LAYER
  5
238A
102
{ACAD_XDICTIONARY
360
8FB8
102
}
330
2
100
AcDbSymbolTableRecord
100
AcDbLayerTableRecord
  2
SUNPO
 70
     0
 62
     7
  6
Continuous
370
    -3
390
29
  0
LAYER
  5
238B
102
{ACAD_XDICTIONARY
360
8FBA
102
}
330
2
100
AcDbSymbolTableRecord
100
AcDbLayerTableRecord
  2
KANAMONO_SCREW
 70
     0
 62
     4
  6
Continuous
370
    -3
390
29
  0
LAYER
  5
62D0
102
{ACAD_XDICTIONARY
360
62D1
102
}
330
2
100
AcDbSymbolTableRecord
100
AcDbLayerTableRecord
  2
kijun
 70
     0
 62
     1
  6
CENTER
370
    -3
390
F
  0
LAYER
  5
DC84
102
{ACAD_XDICTIONARY
360
DC85
102
}
330
2
100
AcDbSymbolTableRecord
100
AcDbLayerTableRecord
  2
WAKU
 70
     0
 62
     7
  6
Continuous
370
    -3
390
29
  0
ENDTAB
  0
TABLE
  2
STYLE
  5
3
330
0
100
AcDbSymbolTable
 70
     2
  0
STYLE
  5
11
330
3
100
AcDbSymbolTableRecord
100
AcDbTextStyleTableRecord
  2
Standard
 70
     0
 40
0.0
 41
1.0
 50
0.0
 71
     0
 42
2.5
  3

  4

1001
ACAD
1000
MS Gothic
1071
    32817
  0
STYLE
  5
DC86
330
3
100
AcDbSymbolTableRecord
100
AcDbTextStyleTableRecord
  2
MSゴシック
 70
     0
 40
0.0
 41
1.0
 50
0.0
 71
     0
 42
2.5
  3

  4

1001
ACAD
1000
MS Gothic
1071
    32817
  0
ENDTAB
  0
TABLE
  2
VIEW
  5
6
330
0
100
AcDbSymbolTable
 70
     0
  0
ENDTAB
  0
TABLE
  2
UCS
  5
7
330
0
100
AcDbSymbolTable
 70
     0
  0
ENDTAB
  0
TABLE
  2
APPID
  5
9
330
0
100
AcDbSymbolTable
 70
     9
  0
APPID
  5
12
330
9
100
AcDbSymbolTableRecord
100
AcDbRegAppTableRecord
  2
ACAD
 70
     0
  0
APPID
  5
8FF3
330
9
100
AcDbSymbolTableRecord
100
AcDbRegAppTableRecord
  2
ACAD_MLEADERVER
 70
     0
  0
APPID
  5
A1B5
330
9
100
AcDbSymbolTableRecord
100
AcDbRegAppTableRecord
  2
ACAD_PSEXT
 70
     0
  0
APPID
  5
A1B6
330
9
100
AcDbSymbolTableRecord
100
AcDbRegAppTableRecord
  2
ACAD_DSTYLE_DIMJAG
 70
     0
  0
APPID
  5
A1B7
330
9
100
AcDbSymbolTableRecord
100
AcDbRegAppTableRecord
  2
ACAD_DSTYLE_DIMTALN
 70
     0
  0
APPID
  5
D853
330
9
100
AcDbSymbolTableRecord
100
AcDbRegAppTableRecord
  2
ACAD_EXEMPT_FROM_CAD_STANDARDS
 70
     0
  0
APPID
  5
DC87
330
9
100
AcDbSymbolTableRecord
100
AcDbRegAppTableRecord
  2
ACAD_NAV_VCDISPLAY
 70
     0
  0
APPID
  5
DFCF
330
9
100
AcDbSymbolTableRecord
100
AcDbRegAppTableRecord
  2
AcadAnnoPO
 70
     0
  0
APPID
  5
E019
330
9
100
AcDbSymbolTableRecord
100
AcDbRegAppTableRecord
  2
Acad_TC
 70
     0
  0
ENDTAB
  0
TABLE
  2
DIMSTYLE
  5
A
330
0
100
AcDbSymbolTable
 70
     1
100
AcDbDimStyleTable
 71
     1
340
22E4
  0
DIMSTYLE
105
22E4
330
A
100
AcDbSymbolTableRecord
100
AcDbDimStyleTableRecord
  2
STANDARD
 70
     0
 40
4.0
 41
0.8
 42
1.0
 43
0.0
 44
0.0
 73
     0
 74
     0
 77
     2
 78
     8
140
2.0
141
2.5
143
0.0394
147
0.1
171
     4
172
     1
173
     1
273
     8
274
     4
279
     1
340
11
341
903
343
903
344
903
  0
ENDTAB
  0
TABLE
  2
BLOCK_RECORD
  5
1
330
0
100
AcDbSymbolTable
 70
    12
  0
BLOCK_RECORD
  5
1F
102
{ACAD_XDICTIONARY
360
1C62
102
}
330
1
100
AcDbSymbolTableRecord
100
AcDbBlockTableRecord
  2
*Model_Space
340
22
  0
BLOCK_RECORD
  5
1CD0
330
1
100
AcDbSymbolTableRecord
100
AcDbBlockTableRecord
  2
*Paper_Space
340
1CD1
  0
BLOCK_RECORD
  5
903
330
1
100
AcDbSymbolTableRecord
100
AcDbBlockTableRecord
  2
_DOT
340
0
102
{BLKREFS
331
E24B
331
E24C
331
E251
331
E252
331
E257
331
E258
331
E25D
331
E25E
331
E263
331
E264
331
E269
331
E26A
331
E26F
331
E270
331
E275
331
E276
331
E27B
331
E27C
331
E281
331
E282
331
E28C
331
E28D
331
E085
331
E086
331
E08E
331
E08F
331
E097
331
E098
331
E0A0
331
E0A1
331
E0A9
331
E0AA
331
E0B2
331
E0B3
331
E0BB
331
E0BC
331
E0C4
331
E0C5
331
E0CD
331
E0CE
331
E0D6
331
E0D7
331
E0E4
331
E0E5
102
}
  0
BLOCK_RECORD
  5
DA04
330
1
100
AcDbSymbolTableRecord
100
AcDbBlockTableRecord
  2
*D1
340
0
  0
BLOCK_RECORD
  5
DA10
330
1
100
AcDbSymbolTableRecord
100
AcDbBlockTableRecord
  2
*D2
340
0
  0
BLOCK_RECORD
  5
DA1C
330
1
100
AcDbSymbolTableRecord
100
AcDbBlockTableRecord
  2
*D3
340
0
  0
BLOCK_RECORD
  5
DA28
330
1
100
AcDbSymbolTableRecord
100
AcDbBlockTableRecord
  2
*D4
340
0
  0
BLOCK_RECORD
  5
DA36
330
1
100
AcDbSymbolTableRecord
100
AcDbBlockTableRecord
  2
*D5
340
0
  0
BLOCK_RECORD
  5
DA44
330
1
100
AcDbSymbolTableRecord
100
AcDbBlockTableRecord
  2
*D6
340
0
  0
BLOCK_RECORD
  5
DA50
330
1
100
AcDbSymbolTableRecord
100
AcDbBlockTableRecord
  2
*D7
340
0
  0
BLOCK_RECORD
  5
DA5C
330
1
100
AcDbSymbolTableRecord
100
AcDbBlockTableRecord
  2
*D8
340
0
  0
BLOCK_RECORD
  5
DA68
330
1
100
AcDbSymbolTableRecord
100
AcDbBlockTableRecord
  2
*D9
340
0
  0
BLOCK_RECORD
  5
DA74
330
1
100
AcDbSymbolTableRecord
100
AcDbBlockTableRecord
  2
*D10
340
0
  0
BLOCK_RECORD
  5
DA80
330
1
100
AcDbSymbolTableRecord
100
AcDbBlockTableRecord
  2
*D11
340
0
  0
ENDTAB
  0
ENDSEC
  0
SECTION
  2
BLOCKS
  0
BLOCK
  5
20
330
1F
100
AcDbEntity
  8
0
100
AcDbBlockBegin
  2
*Model_Space
 70
     0
 10
0.0
 20
0.0
 30
0.0
  3
*Model_Space
  1

  0
ENDBLK
  5
21
330
1F
100
AcDbEntity
  8
0
100
AcDbBlockEnd
  0
BLOCK
  5
1CD2
330
1CD0
100
AcDbEntity
 67
     1
  8
0
100
AcDbBlockBegin
  2
*Paper_Space
 70
     0
 10
0.0
 20
0.0
 30
0.0
  3
*Paper_Space
  1

  0
ENDBLK
  5
1CD3
330
1CD0
100
AcDbEntity
 67
     1
  8
0
100
AcDbBlockEnd
  0
BLOCK
  5
906
330
903
100
AcDbEntity
  8
0
100
AcDbBlockBegin
  2
_DOT
 70
     0
 10
0.0
 20
0.0
 30
0.0
  3
_DOT
  1

  0
LWPOLYLINE
  5
904
330
903
100
AcDbEntity
  8
0
  6
ByBlock
 62
     0
100
AcDbPolyline
 90
        2
 70
     1
 43
0.5
 10
-0.25
 20
0.0
 42
1.0
 10
0.25
 20
0.0
 42
1.0
  0
LINE
  5
905
330
903
100
AcDbEntity
  8
0
  6
ByBlock
 62
     0
100
AcDbLine
 10
-0.5
 20
0.0
 30
0.0
 11
-1.0
 21
0.0
 31
0.0
  0
ENDBLK
  5
907
330
903
100
AcDbEntity
  8
0
100
AcDbBlockEnd
  0
BLOCK
  5
DA05
330
DA04
100
AcDbEntity
  8
0
100
AcDbBlockBegin
  2
*D1
 70
     1
 10
0.0
 20
0.0
 30
0.0
  3
*D1
  1

  0
LINE
  5
E082
330
DA04
100
AcDbEntity
  8
SUNPO
 62
     0
370
    -2
100
AcDbLine
 10
682.8903853999999
 20
269.0022359999998
 30
0.0
 11
682.8903853999999
 21
300.6024347675321
 31
0.0
  0
LINE
  5
E083
330
DA04
100
AcDbEntity
  8
SUNPO
 62
     0
370
    -2
100
AcDbLine
 10
663.8903854
 20
267.3397845247992
 30
0.0
 11
663.8903854
 21
300.6024347675321
 31
0.0
  0
LINE
  5
E084
330
DA04
100
AcDbEntity
  8
SUNPO
 62
     0
370
    -2
100
AcDbLine
 10
679.6903853999999
 20
300.6024347675321
 30
0.0
 11
667.0903854
 21
300.6024347675321
 31
0.0
  0
INSERT
  5
E085
330
DA04
100
AcDbEntity
  8
SUNPO
 62
     0
370
    -2
100
AcDbBlockReference
  2
_DOT
 10
682.8903853999999
 20
300.6024347675321
 30
0.0
 41
3.2
 42
3.2
 43
3.2
  0
INSERT
  5
E086
330
DA04
100
AcDbEntity
  8
SUNPO
 62
     0
370
    -2
100
AcDbBlockReference
  2
_DOT
 10
663.8903854
 20
300.6024347675321
 30
0.0
 41
3.2
 42
3.2
 43
3.2
 50
180.0
  0
MTEXT
  5
E087
330
DA04
100
AcDbEntity
  8
SUNPO
 62
     0
100
AcDbMText
 10
673.3903854
 20
305.002434767532
 30
0.0
 40
8.0
 41
0.0
 71
     5
 72
     1
  1
\A1;19
  7
MSゴシック
 73
     1
 44
1.0
1001
ACAD
1000
MTEXTBEGIN
1070
    73
1070
     1
1070
    44
1040
1.0
1070
    74
1070
     0
1000
MTEXTEND
  0
POINT
  5
E088
330
DA04
100
AcDbEntity
  8
Defpoints
 62
     0
100
AcDbPoint
 10
682.8903853999999
 20
265.0022359999998
 30
0.0
  0
POINT
  5
E089
330
DA04
100
AcDbEntity
  8
Defpoints
 62
     0
100
AcDbPoint
 10
663.8903854
 20
263.3397845247992
 30
0.0
  0
POINT
  5
E08A
330
DA04
100
AcDbEntity
  8
Defpoints
 62
     0
100
AcDbPoint
 10
663.8903854
 20
300.6024347675321
 30
0.0
  0
ENDBLK
  5
DA06
330
DA04
100
AcDbEntity
  8
0
100
AcDbBlockEnd
  0
BLOCK
  5
DA11
330
DA10
100
AcDbEntity
  8
0
100
AcDbBlockBegin
  2
*D2
 70
     1
 10
0.0
 20
0.0
 30
0.0
  3
*D2
  1

  0
LINE
  5
E08B
330
DA10
100
AcDbEntity
  8
SUNPO
 62
     0
370
    -2
100
AcDbLine
 10
663.8903854
 20
267.3397845247992
 30
0.0
 11
663.8903854
 21
300.6024347675321
 31
0.0
  0
LINE
  5
E08C
330
DA10
100
AcDbEntity
  8
SUNPO
 62
     0
370
    -2
100
AcDbLine
 10
438.8903854
 20
244.0022359999998
 30
0.0
 11
438.8903854
 21
300.6024347675321
 31
0.0
  0
LINE
  5
E08D
330
DA10
100
AcDbEntity
  8
SUNPO
 62
     0
370
    -2
100
AcDbLine
 10
660.6903853999999
 20
300.6024347675321
 30
0.0
 11
442.0903854
 21
300.6024347675321
 31
0.0
  0
INSERT
  5
E08E
330
DA10
100
AcDbEntity
  8
SUNPO
 62
     0
370
    -2
100
AcDbBlockReference
  2
_DOT
 10
663.8903854
 20
300.6024347675321
 30
0.0
 41
3.2
 42
3.2
 43
3.2
  0
INSERT
  5
E08F
330
DA10
100
AcDbEntity
  8
SUNPO
 62
     0
370
    -2
100
AcDbBlockReference
  2
_DOT
 10
438.8903854
 20
300.6024347675321
 30
0.0
 41
3.2
 42
3.2
 43
3.2
 50
180.0
  0
MTEXT
  5
E090
330
DA10
100
AcDbEntity
  8
SUNPO
 62
     0
100
AcDbMText
 10
551.3903854
 20
305.002434767532
 30
0.0
 40
8.0
 41
0.0
 71
     5
 72
     1
  1
\A1;225
  7
MSゴシック
 73
     1
 44
1.0
1001
ACAD
1000
MTEXTBEGIN
1070
    73
1070
     1
1070
    44
1040
1.0
1070
    74
1070
     0
1000
MTEXTEND
  0
POINT
  5
E091
330
DA10
100
AcDbEntity
  8
Defpoints
 62
     0
100
AcDbPoint
 10
663.8903854
 20
263.3397845247992
 30
0.0
  0
POINT
  5
E092
330
DA10
100
AcDbEntity
  8
Defpoints
 62
     0
100
AcDbPoint
 10
438.8903854
 20
240.0022359999998
 30
0.0
  0
POINT
  5
E093
330
DA10
100
AcDbEntity
  8
Defpoints
 62
     0
100
AcDbPoint
 10
438.8903854
 20
300.6024347675321
 30
0.0
  0
ENDBLK
  5
DA12
330
DA10
100
AcDbEntity
  8
0
100
AcDbBlockEnd
  0
BLOCK
  5
DA1D
330
DA1C
100
AcDbEntity
  8
0
100
AcDbBlockBegin
  2
*D3
 70
     1
 10
0.0
 20
0.0
 30
0.0
  3
*D3
  1

  0
LINE
  5
E094
330
DA1C
100
AcDbEntity
  8
SUNPO
 62
     0
370
    -2
100
AcDbLine
 10
435.3811539815271
 20
181.9930045815263
 30
0.0
 11
386.3586810127877
 21
181.9930045815263
 31
0.0
  0
LINE
  5
E095
330
DA1C
100
AcDbEntity
  8
SUNPO
 62
     0
370
    -2
100
AcDbLine
 10
435.3811539815271
 20
241.9930045815264
 30
0.0
 11
386.3586810127877
 21
241.9930045815264
 31
0.0
  0
LINE
  5
E096
330
DA1C
100
AcDbEntity
  8
SUNPO
 62
     0
370
    -2
100
AcDbLine
 10
386.3586810127877
 20
185.1930045815263
 30
0.0
 11
386.3586810127877
 21
238.7930045815264
 31
0.0
  0
INSERT
  5
E097
330
DA1C
100
AcDbEntity
  8
SUNPO
 62
     0
370
    -2
100
AcDbBlockReference
  2
_DOT
 10
386.3586810127877
 20
181.9930045815263
 30
0.0
 41
3.2
 42
3.2
 43
3.2
 50
270.0
  0
INSERT
  5
E098
330
DA1C
100
AcDbEntity
  8
SUNPO
 62
     0
370
    -2
100
AcDbBlockReference
  2
_DOT
 10
386.3586810127877
 20
241.9930045815264
 30
0.0
 41
3.2
 42
3.2
 43
3.2
 50
90.0
  0
MTEXT
  5
E099
330
DA1C
100
AcDbEntity
  8
SUNPO
 62
     0
100
AcDbMText
 10
381.9586810127876
 20
211.9930045815262
 30
0.0
 40
8.0
 41
0.0
 71
     5
 72
     1
  1
\A1;60
  7
MSゴシック
 11
0.0000000000000001
 21
1.0
 31
0.0
 73
     1
 44
1.0
1001
ACAD
1000
MTEXTBEGIN
1070
    73
1070
     1
1070
    44
1040
1.0
1070
    74
1070
     0
1000
MTEXTEND
  0
POINT
  5
E09A
330
DA1C
100
AcDbEntity
  8
Defpoints
 62
     0
100
AcDbPoint
 10
439.3811539815271
 20
181.9930045815263
 30
0.0
  0
POINT
  5
E09B
330
DA1C
100
AcDbEntity
  8
Defpoints
 62
     0
100
AcDbPoint
 10
439.3811539815271
 20
241.9930045815264
 30
0.0
  0
POINT
  5
E09C
330
DA1C
100
AcDbEntity
  8
Defpoints
 62
     0
100
AcDbPoint
 10
386.3586810127877
 20
241.9930045815264
 30
0.0
  0
ENDBLK
  5
DA1E
330
DA1C
100
AcDbEntity
  8
0
100
AcDbBlockEnd
  0
BLOCK
  5
DA29
330
DA28
100
AcDbEntity
  8
0
100
AcDbBlockBegin
  2
*D4
 70
     1
 10
0.0
 20
0.0
 30
0.0
  3
*D4
  1

  0
LINE
  5
E09D
330
DA28
100
AcDbEntity
  8
SUNPO
 62
     0
370
    -2
100
AcDbLine
 10
435.3811539815271
 20
241.9930045815264
 30
0.0
 11
386.3586810127877
 21
241.9930045815264
 31
0.0
  0
LINE
  5
E09E
330
DA28
100
AcDbEntity
  8
SUNPO
 62
     0
370
    -2
100
AcDbLine
 10
532.8811539815271
 20
251.9930045815264
 30
0.0
 11
386.3586810127877
 21
251.9930045815264
 31
0.0
  0
LINE
  5
E09F
330
DA28
100
AcDbEntity
  8
SUNPO
 62
     0
370
    -2
100
AcDbLine
 10
386.3586810127877
 20
245.1930045815264
 30
0.0
 11
386.3586810127877
 21
248.7930045815264
 31
0.0
  0
INSERT
  5
E0A0
330
DA28
100
AcDbEntity
  8
SUNPO
 62
     0
370
    -2
100
AcDbBlockReference
  2
_DOT
 10
386.3586810127877
 20
241.9930045815264
 30
0.0
 41
3.2
 42
3.2
 43
3.2
 50
270.0
  0
INSERT
  5
E0A1
330
DA28
100
AcDbEntity
  8
SUNPO
 62
     0
370
    -2
100
AcDbBlockReference
  2
_DOT
 10
386.3586810127877
 20
251.9930045815264
 30
0.0
 41
3.2
 42
3.2
 43
3.2
 50
90.0
  0
MTEXT
  5
E0A2
330
DA28
100
AcDbEntity
  8
SUNPO
 62
     0
100
AcDbMText
 10
381.9586810127876
 20
246.9930045815262
 30
0.0
 40
8.0
 41
0.0
 71
     5
 72
     1
  1
\A1;10
  7
MSゴシック
 11
0.0000000000000001
 21
1.0
 31
0.0
 73
     1
 44
1.0
1001
ACAD
1000
MTEXTBEGIN
1070
    73
1070
     1
1070
    44
1040
1.0
1070
    74
1070
     0
1000
MTEXTEND
  0
POINT
  5
E0A3
330
DA28
100
AcDbEntity
  8
Defpoints
 62
     0
100
AcDbPoint
 10
439.3811539815271
 20
241.9930045815264
 30
0.0
  0
POINT
  5
E0A4
330
DA28
100
AcDbEntity
  8
Defpoints
 62
     0
100
AcDbPoint
 10
536.8811539815271
 20
251.9930045815264
 30
0.0
  0
POINT
  5
E0A5
330
DA28
100
AcDbEntity
  8
Defpoints
 62
     0
100
AcDbPoint
 10
386.3586810127877
 20
251.9930045815264
 30
0.0
  0
ENDBLK
  5
DA2A
330
DA28
100
AcDbEntity
  8
0
100
AcDbBlockEnd
  0
BLOCK
  5
DA37
330
DA36
100
AcDbEntity
  8
0
100
AcDbBlockBegin
  2
*D5
 70
     1
 10
0.0
 20
0.0
 30
0.0
  3
*D5
  1

  0
LINE
  5
E0A6
330
DA36
100
AcDbEntity
  8
SUNPO
 62
     0
370
    -2
100
AcDbLine
 10
532.8811539815271
 20
251.9930045815264
 30
0.0
 11
386.3586810127877
 21
251.9930045815264
 31
0.0
  0
LINE
  5
E0A7
330
DA36
100
AcDbEntity
  8
SUNPO
 62
     0
370
    -2
100
AcDbLine
 10
534.8811539815272
 20
261.9930045815264
 30
0.0
 11
386.3586810127877
 21
261.9930045815264
 31
0.0
  0
LINE
  5
E0A8
330
DA36
100
AcDbEntity
  8
SUNPO
 62
     0
370
    -2
100
AcDbLine
 10
386.3586810127877
 20
255.1930045815264
 30
0.0
 11
386.3586810127877
 21
258.7930045815264
 31
0.0
  0
INSERT
  5
E0A9
330
DA36
100
AcDbEntity
  8
SUNPO
 62
     0
370
    -2
100
AcDbBlockReference
  2
_DOT
 10
386.3586810127877
 20
251.9930045815264
 30
0.0
 41
3.2
 42
3.2
 43
3.2
 50
270.0
  0
INSERT
  5
E0AA
330
DA36
100
AcDbEntity
  8
SUNPO
 62
     0
370
    -2
100
AcDbBlockReference
  2
_DOT
 10
386.3586810127877
 20
261.9930045815264
 30
0.0
 41
3.2
 42
3.2
 43
3.2
 50
90.0
  0
MTEXT
  5
E0AB
330
DA36
100
AcDbEntity
  8
SUNPO
 62
     0
100
AcDbMText
 10
381.9586810127876
 20
256.9930045815262
 30
0.0
 40
8.0
 41
0.0
 71
     5
 72
     1
  1
\A1;10
  7
MSゴシック
 11
0.0000000000000001
 21
1.0
 31
0.0
 73
     1
 44
1.0
1001
ACAD
1000
MTEXTBEGIN
1070
    73
1070
     1
1070
    44
1040
1.0
1070
    74
1070
     0
1000
MTEXTEND
  0
POINT
  5
E0AC
330
DA36
100
AcDbEntity
  8
Defpoints
 62
     0
100
AcDbPoint
 10
536.8811539815271
 20
251.9930045815264
 30
0.0
  0
POINT
  5
E0AD
330
DA36
100
AcDbEntity
  8
Defpoints
 62
     0
100
AcDbPoint
 10
538.8811539815272
 20
261.9930045815264
 30
0.0
  0
POINT
  5
E0AE
330
DA36
100
AcDbEntity
  8
Defpoints
 62
     0
100
AcDbPoint
 10
386.3586810127877
 20
261.9930045815264
 30
0.0
  0
ENDBLK
  5
DA38
330
DA36
100
AcDbEntity
  8
0
100
AcDbBlockEnd
  0
BLOCK
  5
DA45
330
DA44
100
AcDbEntity
  8
0
100
AcDbBlockBegin
  2
*D6
 70
     1
 10
0.0
 20
0.0
 30
0.0
  3
*D6
  1

  0
LINE
  5
E0AF
330
DA44
100
AcDbEntity
  8
SUNPO
 62
     0
370
    -2
100
AcDbLine
 10
551.4903854000003
 20
263.1598269764988
 30
0.0
 11
551.4903854000003
 21
290.1304868328357
 31
0.0
  0
LINE
  5
E0B0
330
DA44
100
AcDbEntity
  8
SUNPO
 62
     0
370
    -2
100
AcDbLine
 10
663.8903854
 20
267.3397845247992
 30
0.0
 11
663.8903854
 21
290.1304868328357
 31
0.0
  0
LINE
  5
E0B1
330
DA44
100
AcDbEntity
  8
SUNPO
 62
     0
370
    -2
100
AcDbLine
 10
554.6903854000004
 20
290.1304868328357
 30
0.0
 11
660.6903853999999
 21
290.1304868328357
 31
0.0
  0
INSERT
  5
E0B2
330
DA44
100
AcDbEntity
  8
SUNPO
 62
     0
370
    -2
100
AcDbBlockReference
  2
_DOT
 10
551.4903854000003
 20
290.1304868328357
 30
0.0
 41
3.2
 42
3.2
 43
3.2
 50
180.0
  0
INSERT
  5
E0B3
330
DA44
100
AcDbEntity
  8
SUNPO
 62
     0
370
    -2
100
AcDbBlockReference
  2
_DOT
 10
663.8903854
 20
290.1304868328357
 30
0.0
 41
3.2
 42
3.2
 43
3.2
  0
MTEXT
  5
E0B4
330
DA44
100
AcDbEntity
  8
SUNPO
 62
     0
100
AcDbMText
 10
607.6903854000001
 20
294.5304868328356
 30
0.0
 40
8.0
 41
0.0
 71
     5
 72
     1
  1
\A1;112.5
  7
MSゴシック
 73
     1
 44
1.0
1001
ACAD
1000
MTEXTBEGIN
1070
    73
1070
     1
1070
    44
1040
1.0
1070
    74
1070
     0
1000
MTEXTEND
  0
POINT
  5
E0B5
330
DA44
100
AcDbEntity
  8
Defpoints
 62
     0
100
AcDbPoint
 10
551.4903854000003
 20
259.1598269764988
 30
0.0
  0
POINT
  5
E0B6
330
DA44
100
AcDbEntity
  8
Defpoints
 62
     0
100
AcDbPoint
 10
663.8903854
 20
263.3397845247992
 30
0.0
  0
POINT
  5
E0B7
330
DA44
100
AcDbEntity
  8
Defpoints
 62
     0
100
AcDbPoint
 10
663.8903854
 20
290.1304868328357
 30
0.0
  0
ENDBLK
  5
DA46
330
DA44
100
AcDbEntity
  8
0
100
AcDbBlockEnd
  0
BLOCK
  5
DA51
330
DA50
100
AcDbEntity
  8
0
100
AcDbBlockBegin
  2
*D7
 70
     1
 10
0.0
 20
0.0
 30
0.0
  3
*D7
  1

  0
LINE
  5
E0B8
330
DA50
100
AcDbEntity
  8
SUNPO
 62
     0
370
    -2
100
AcDbLine
 10
637.6356848616199
 20
228.0022360000006
 30
0.0
 11
700.2995095727225
 21
228.0022360000006
 31
0.0
  0
LINE
  5
E0B9
330
DA50
100
AcDbEntity
  8
SUNPO
 62
     0
370
    -2
100
AcDbLine
 10
685.3903854000002
 20
262.0022359999999
 30
0.0
 11
700.2995095727223
 21
262.0022359999999
 31
0.0
  0
LINE
  5
E0BA
330
DA50
100
AcDbEntity
  8
SUNPO
 62
     0
370
    -2
100
AcDbLine
 10
700.2995095727225
 20
231.2022360000006
 30
0.0
 11
700.2995095727223
 21
258.802236
 31
0.0
  0
INSERT
  5
E0BB
330
DA50
100
AcDbEntity
  8
SUNPO
 62
     0
370
    -2
100
AcDbBlockReference
  2
_DOT
 10
700.2995095727225
 20
228.0022360000006
 30
0.0
 41
3.2
 42
3.2
 43
3.2
 50
270.0
  0
INSERT
  5
E0BC
330
DA50
100
AcDbEntity
  8
SUNPO
 62
     0
370
    -2
100
AcDbBlockReference
  2
_DOT
 10
700.2995095727223
 20
262.0022359999999
 30
0.0
 41
3.2
 42
3.2
 43
3.2
 50
90.0
  0
MTEXT
  5
E0BD
330
DA50
100
AcDbEntity
  8
SUNPO
 62
     0
100
AcDbMText
 10
704.6995095727224
 20
245.002236
 30
0.0
 40
8.0
 41
0.0
 71
     5
 72
     1
  1
\A1;34
  7
MSゴシック
 11
0.0000000000000001
 21
1.0
 31
0.0
 73
     1
 44
1.0
1001
ACAD
1000
MTEXTBEGIN
1070
    73
1070
     1
1070
    44
1040
1.0
1070
    74
1070
     0
1000
MTEXTEND
  0
POINT
  5
E0BE
330
DA50
100
AcDbEntity
  8
Defpoints
 62
     0
100
AcDbPoint
 10
633.6356848616198
 20
228.0022360000006
 30
0.0
  0
POINT
  5
E0BF
330
DA50
100
AcDbEntity
  8
Defpoints
 62
     0
100
AcDbPoint
 10
681.3903854000002
 20
262.0022359999999
 30
0.0
  0
POINT
  5
E0C0
330
DA50
100
AcDbEntity
  8
Defpoints
 62
     0
100
AcDbPoint
 10
700.2995095727223
 20
262.0022359999999
 30
0.0
  0
ENDBLK
  5
DA52
330
DA50
100
AcDbEntity
  8
0
100
AcDbBlockEnd
  0
BLOCK
  5
DA5D
330
DA5C
100
AcDbEntity
  8
0
100
AcDbBlockBegin
  2
*D8
 70
     1
 10
0.0
 20
0.0
 30
0.0
  3
*D8
  1

  0
LINE
  5
E0C1
330
DA5C
100
AcDbEntity
  8
SUNPO
 62
     0
370
    -2
100
AcDbLine
 10
448.4999773978382
 20
227.9930045815262
 30
0.0
 11
404.5607400795038
 21
227.9930045815262
 31
0.0
  0
LINE
  5
E0C2
330
DA5C
100
AcDbEntity
  8
SUNPO
 62
     0
370
    -2
100
AcDbLine
 10
435.3811539815271
 20
181.9930045815263
 30
0.0
 11
404.5607400795038
 21
181.9930045815263
 31
0.0
  0
LINE
  5
E0C3
330
DA5C
100
AcDbEntity
  8
SUNPO
 62
     0
370
    -2
100
AcDbLine
 10
404.5607400795038
 20
224.7930045815262
 30
0.0
 11
404.5607400795038
 21
185.1930045815263
 31
0.0
  0
INSERT
  5
E0C4
330
DA5C
100
AcDbEntity
  8
SUNPO
 62
     0
370
    -2
100
AcDbBlockReference
  2
_DOT
 10
404.5607400795038
 20
227.9930045815262
 30
0.0
 41
3.2
 42
3.2
 43
3.2
 50
90.0
  0
INSERT
  5
E0C5
330
DA5C
100
AcDbEntity
  8
SUNPO
 62
     0
370
    -2
100
AcDbBlockReference
  2
_DOT
 10
404.5607400795038
 20
181.9930045815263
 30
0.0
 41
3.2
 42
3.2
 43
3.2
 50
270.0
  0
MTEXT
  5
E0C6
330
DA5C
100
AcDbEntity
  8
SUNPO
 62
     0
100
AcDbMText
 10
400.1607400795037
 20
204.9930045815261
 30
0.0
 40
8.0
 41
0.0
 71
     5
 72
     1
  1
\A1;46
  7
MSゴシック
 11
0.0000000000000001
 21
1.0
 31
0.0
 73
     1
 44
1.0
1001
ACAD
1000
MTEXTBEGIN
1070
    73
1070
     1
1070
    44
1040
1.0
1070
    74
1070
     0
1000
MTEXTEND
  0
POINT
  5
E0C7
330
DA5C
100
AcDbEntity
  8
Defpoints
 62
     0
100
AcDbPoint
 10
452.4999773978382
 20
227.9930045815262
 30
0.0
  0
POINT
  5
E0C8
330
DA5C
100
AcDbEntity
  8
Defpoints
 62
     0
100
AcDbPoint
 10
439.3811539815271
 20
181.9930045815263
 30
0.0
  0
POINT
  5
E0C9
330
DA5C
100
AcDbEntity
  8
Defpoints
 62
     0
100
AcDbPoint
 10
404.5607400795038
 20
181.9930045815263
 30
0.0
  0
ENDBLK
  5
DA5E
330
DA5C
100
AcDbEntity
  8
0
100
AcDbBlockEnd
  0
BLOCK
  5
DA69
330
DA68
100
AcDbEntity
  8
0
100
AcDbBlockBegin
  2
*D9
 70
     1
 10
0.0
 20
0.0
 30
0.0
  3
*D9
  1

  0
LINE
  5
E0CA
330
DA68
100
AcDbEntity
  8
SUNPO
 62
     0
370
    -2
100
AcDbLine
 10
506.4903853999994
 20
240.4022360000001
 30
0.0
 11
506.4903853999994
 21
279.2717661527629
 31
0.0
  0
LINE
  5
E0CB
330
DA68
100
AcDbEntity
  8
SUNPO
 62
     0
370
    -2
100
AcDbLine
 10
551.4903854000003
 20
263.1598269764988
 30
0.0
 11
551.4903854000003
 21
279.2717661527629
 31
0.0
  0
LINE
  5
E0CC
330
DA68
100
AcDbEntity
  8
SUNPO
 62
     0
370
    -2
100
AcDbLine
 10
509.6903853999994
 20
279.2717661527629
 30
0.0
 11
548.2903854000003
 21
279.2717661527629
 31
0.0
  0
INSERT
  5
E0CD
330
DA68
100
AcDbEntity
  8
SUNPO
 62
     0
370
    -2
100
AcDbBlockReference
  2
_DOT
 10
506.4903853999994
 20
279.2717661527629
 30
0.0
 41
3.2
 42
3.2
 43
3.2
 50
180.0
  0
INSERT
  5
E0CE
330
DA68
100
AcDbEntity
  8
SUNPO
 62
     0
370
    -2
100
AcDbBlockReference
  2
_DOT
 10
551.4903854000003
 20
279.2717661527629
 30
0.0
 41
3.2
 42
3.2
 43
3.2
  0
MTEXT
  5
E0CF
330
DA68
100
AcDbEntity
  8
SUNPO
 62
     0
100
AcDbMText
 10
528.9903853999999
 20
283.6717661527629
 30
0.0
 40
8.0
 41
0.0
 71
     5
 72
     1
  1
\A1;45
  7
MSゴシック
 73
     1
 44
1.0
1001
ACAD
1000
MTEXTBEGIN
1070
    73
1070
     1
1070
    44
1040
1.0
1070
    74
1070
     0
1000
MTEXTEND
  0
POINT
  5
E0D0
330
DA68
100
AcDbEntity
  8
Defpoints
 62
     0
100
AcDbPoint
 10
506.4903853999994
 20
236.4022360000001
 30
0.0
  0
POINT
  5
E0D1
330
DA68
100
AcDbEntity
  8
Defpoints
 62
     0
100
AcDbPoint
 10
551.4903854000003
 20
259.1598269764988
 30
0.0
  0
POINT
  5
E0D2
330
DA68
100
AcDbEntity
  8
Defpoints
 62
     0
100
AcDbPoint
 10
551.4903854000003
 20
279.2717661527629
 30
0.0
  0
ENDBLK
  5
DA6A
330
DA68
100
AcDbEntity
  8
0
100
AcDbBlockEnd
  0
BLOCK
  5
DA75
330
DA74
100
AcDbEntity
  8
0
100
AcDbBlockBegin
  2
*D10
 70
     1
 10
0.0
 20
0.0
 30
0.0
  3
*D10
  1

  0
LINE
  5
E0D3
330
DA74
100
AcDbEntity
  8
SUNPO
 62
     0
370
    -2
100
AcDbLine
 10
551.4903854000003
 20
263.1598269764988
 30
0.0
 11
551.4903854000003
 21
279.2717661527629
 31
0.0
  0
LINE
  5
E0D4
330
DA74
100
AcDbEntity
  8
SUNPO
 62
     0
370
    -2
100
AcDbLine
 10
596.4903854000003
 20
240.4022360000001
 30
0.0
 11
596.4903854000003
 21
279.2717661527629
 31
0.0
  0
LINE
  5
E0D5
330
DA74
100
AcDbEntity
  8
SUNPO
 62
     0
370
    -2
100
AcDbLine
 10
554.6903854000004
 20
279.2717661527629
 30
0.0
 11
593.2903854000003
 21
279.2717661527629
 31
0.0
  0
INSERT
  5
E0D6
330
DA74
100
AcDbEntity
  8
SUNPO
 62
     0
370
    -2
100
AcDbBlockReference
  2
_DOT
 10
551.4903854000003
 20
279.2717661527629
 30
0.0
 41
3.2
 42
3.2
 43
3.2
 50
180.0
  0
INSERT
  5
E0D7
330
DA74
100
AcDbEntity
  8
SUNPO
 62
     0
370
    -2
100
AcDbBlockReference
  2
_DOT
 10
596.4903854000003
 20
279.2717661527629
 30
0.0
 41
3.2
 42
3.2
 43
3.2
  0
MTEXT
  5
E0D8
330
DA74
100
AcDbEntity
  8
SUNPO
 62
     0
100
AcDbMText
 10
573.9903854000004
 20
283.6717661527629
 30
0.0
 40
8.0
 41
0.0
 71
     5
 72
     1
  1
\A1;45
  7
MSゴシック
 73
     1
 44
1.0
1001
ACAD
1000
MTEXTBEGIN
1070
    73
1070
     1
1070
    44
1040
1.0
1070
    74
1070
     0
1000
MTEXTEND
  0
POINT
  5
E0D9
330
DA74
100
AcDbEntity
  8
Defpoints
 62
     0
100
AcDbPoint
 10
551.4903854000003
 20
259.1598269764988
 30
0.0
  0
POINT
  5
E0DA
330
DA74
100
AcDbEntity
  8
Defpoints
 62
     0
100
AcDbPoint
 10
596.4903854000003
 20
236.4022360000001
 30
0.0
  0
POINT
  5
E0DB
330
DA74
100
AcDbEntity
  8
Defpoints
 62
     0
100
AcDbPoint
 10
596.4903854000003
 20
279.2717661527629
 30
0.0
  0
ENDBLK
  5
DA76
330
DA74
100
AcDbEntity
  8
0
100
AcDbBlockEnd
  0
BLOCK
  5
DA81
330
DA80
100
AcDbEntity
  8
0
100
AcDbBlockBegin
  2
*D11
 70
     1
 10
0.0
 20
0.0
 30
0.0
  3
*D11
  1

  0
LINE
  5
E0DC
330
DA80
100
AcDbEntity
  8
SUNPO
 62
     0
370
    -2
100
AcDbLine
 10
584.0748040011065
 20
246.4106376612749
 30
0.0
 11
584.8858456996932
 21
246.4470072441711
 31
0.0
  0
LINE
  5
E0DD
330
DA80
100
AcDbEntity
  8
SUNPO
 62
     0
370
    -2
100
AcDbLine
 10
583.980728138547
 20
248.5085293963475
 30
0.0
 11
584.791769837134
 21
248.5448989792437
 31
0.0
  0
LINE
  5
E0DE
330
DA80
100
AcDbEntity
  8
SUNPO
 62
     0
370
    -2
100
AcDbLine
 10
585.0291993950216
 20
243.250219838347
 30
0.0
 11
585.17255309035
 21
240.0534324325229
 31
0.0
  0
LINE
  5
E0DF
330
DA80
100
AcDbEntity
  8
SUNPO
 62
     0
370
    -2
100
AcDbLine
 10
584.6484161418056
 20
251.7416863850678
 30
0.0
 11
584.5050624464771
 21
254.938473790892
 31
0.0
  0
LINE
  5
E0E0
330
DA80
100
AcDbEntity
  8
SUNPO
 62
     0
370
    -2
100
AcDbLine
 10
583.8712112105204
 20
269.0733563527294
 30
0.0
 11
584.791769837134
 21
248.5448989792437
 31
0.0
  0
MTEXT
  5
E0E1
330
DA80
100
AcDbEntity
  8
SUNPO
 62
     0
100
AcDbMText
 10
588.5776058078288
 20
262.3393619949094
 30
0.0
 40
8.0
 41
0.0
 71
     5
 72
     1
  1
\A1;2.1
  7
MSゴシック
 11
0.0447980297901283
 21
-0.9989960643200365
 31
0.0
 73
     1
 44
1.0
1001
ACAD
1000
MTEXTBEGIN
1070
    73
1070
     1
1070
    44
1040
1.0
1070
    74
1070
     0
1000
MTEXTEND
  0
LINE
  5
E0E2
330
DA80
100
AcDbEntity
  8
SUNPO
 62
     0
370
    -2
100
AcDbLine
 10
584.8858456996932
 20
246.4470072441711
 30
0.0
 11
584.791769837134
 21
248.5448989792437
 31
0.0
  0
LINE
  5
E0E3
330
DA80
100
AcDbEntity
  8
SUNPO
 62
     0
370
    -2
100
AcDbLine
 10
584.8858456996932
 20
246.4470072441711
 30
0.0
 11
584.791769837134
 21
248.5448989792437
 31
0.0
  0
INSERT
  5
E0E4
330
DA80
100
AcDbEntity
  8
SUNPO
 62
     0
370
    -2
100
AcDbBlockReference
  2
_DOT
 10
584.8858456996932
 20
246.4470072441711
 30
0.0
 41
3.2
 42
3.2
 43
3.2
 50
92.56759732918734
  0
INSERT
  5
E0E5
330
DA80
100
AcDbEntity
  8
SUNPO
 62
     0
370
    -2
100
AcDbBlockReference
  2
_DOT
 10
584.791769837134
 20
248.5448989792437
 30
0.0
 41
3.2
 42
3.2
 43
3.2
 50
272.5675973291873
  0
POINT
  5
E0E6
330
DA80
100
AcDbEntity
  8
Defpoints
 62
     0
100
AcDbPoint
 10
588.0707882583866
 20
246.5898297804354
 30
0.0
  0
POINT
  5
E0E7
330
DA80
100
AcDbEntity
  8
Defpoints
 62
     0
100
AcDbPoint
 10
587.9767123958272
 20
248.687721515508
 30
0.0
  0
POINT
  5
E0E8
330
DA80
100
AcDbEntity
  8
Defpoints
 62
     0
100
AcDbPoint
 10
584.791769837134
 20
248.5448989792437
 30
0.0
  0
ENDBLK
  5
DA82
330
DA80
100
AcDbEntity
  8
0
100
AcDbBlockEnd
  0
ENDSEC
  0
SECTION
  2
ENTITIES
  0
TEXT
  5
D994
330
1F
100
AcDbEntity
  8
moji
100
AcDbText
 10
549.5006613999994
 20
389.0
 30
0.0
 40
8.0
  1
(厚さx有効幅x長さ)
  7
MSゴシック
100
AcDbText
  0
LINE
  5
D995
330
1F
100
AcDbEntity
  8
moji
100
AcDbLine
 10
309.5006613999994
 20
372.0
 30
0.0
 11
794.5006614000003
 21
372.0
 31
0.0
  0
LINE
  5
D996
330
1F
100
AcDbEntity
  8
moji
100
AcDbLine
 10
309.5006613999994
 20
386.0
 30
0.0
 11
794.5006614000003
 21
386.0
 31
0.0
  0
LINE
  5
D997
330
1F
100
AcDbEntity
  8
moji
100
AcDbLine
 10
389.5006613999994
 20
414.0
 30
0.0
 11
794.5006614000003
 21
414.0
 31
0.0
  0
LINE
  5
D998
330
1F
100
AcDbEntity
  8
moji
100
AcDbLine
 10
309.5006613999994
 20
428.0
 30
0.0
 11
794.5006614000003
 21
428.0
 31
0.0
  0
LINE
  5
D99A
330
1F
100
AcDbEntity
  8
kijun
  6
CENTER
100
AcDbLine
 10
551.4903854000003
 20
263.2083333333339
 30
0.0
 11
551.4903854000003
 21
155.3546883395138
 31
0.0
  0
LINE
  5
D99C
330
1F
100
AcDbEntity
  8
KANAMONO_SCREW
100
AcDbLine
 10
597.4903853999994
 20
221.9372359999998
 30
0.0
 11
596.4903853999994
 21
216.9372359999997
 31
0.0
  0
LINE
  5
D99F
330
1F
100
AcDbEntity
  8
KANAMONO_SCREW
100
AcDbLine
 10
594.9983854000001
 20
232.9932360000003
 30
0.0
 11
594.9983854000001
 21
221.9372359999998
 31
0.0
  0
LINE
  5
D9A0
330
1F
100
AcDbEntity
  8
KANAMONO_SCREW
100
AcDbLine
 10
593.9983854000002
 20
232.9932360000003
 30
0.0
 11
593.9983854000002
 21
221.9372359999998
 31
0.0
  0
LINE
  5
D9A2
330
1F
100
AcDbEntity
  8
KANAMONO_SCREW
100
AcDbLine
 10
596.4903853999994
 20
216.9372359999997
 30
0.0
 11
596.4903853999994
 21
221.9372359999998
 31
0.0
  0
LINE
  5
D9A3
330
1F
100
AcDbEntity
  8
KANAMONO_SCREW
100
AcDbLine
 10
592.4903853999994
 20
216.9372359999997
 30
0.0
 11
592.4903853999994
 21
221.9372359999998
 31
0.0
  0
LINE
  5
D9A4
330
1F
100
AcDbEntity
  8
KANAMONO_SCREW
100
AcDbLine
 10
595.4903853999995
 20
221.9372359999998
 30
0.0
 11
596.4903853999994
 21
216.9372359999997
 31
0.0
  0
LINE
  5
D9A5
330
1F
100
AcDbEntity
  8
KANAMONO_SCREW
100
AcDbLine
 10
597.9983854000002
 20
232.9932360000003
 30
0.0
 11
597.9983854000002
 21
221.9372359999998
 31
0.0
  0
LINE
  5
D9A6
330
1F
100
AcDbEntity
  8
KANAMONO_SCREW
100
AcDbLine
 10
598.9983854000001
 20
232.9932360000003
 30
0.0
 11
598.9983854000001
 21
221.9372359999998
 31
0.0
  0
LINE
  5
D9A8
330
1F
100
AcDbEntity
  8
KANAMONO_SCREW
100
AcDbLine
 10
600.4903853999994
 20
216.9372359999997
 30
0.0
 11
600.4903853999994
 21
221.9372359999998
 31
0.0
  0
LINE
  5
D9AA
330
1F
100
AcDbEntity
  8
KANAMONO_SCREW
 48
20.0
100
AcDbLine
 10
590.9774393999996
 20
185.1601549999996
 30
0.0
 11
594.4726432764745
 21
184.9769792018505
 31
0.0
  0
LINE
  5
D9AB
330
1F
100
AcDbEntity
  8
KANAMONO_SCREW
 48
20.0
100
AcDbLine
 10
602.0033314000002
 20
185.1601549999996
 30
0.0
 11
598.5081284623475
 21
184.9769791381477
 31
0.0
  0
LINE
  5
D9AD
330
1F
100
AcDbEntity
  8
KANAMONO_SCREW
100
AcDbLine
 10
507.4903853999995
 20
221.9372359999998
 30
0.0
 11
506.4903853999994
 21
216.9372359999997
 31
0.0
  0
LINE
  5
D9B0
330
1F
100
AcDbEntity
  8
KANAMONO_SCREW
100
AcDbLine
 10
504.9983854000002
 20
232.9932360000003
 30
0.0
 11
504.9983854000002
 21
221.9372359999998
 31
0.0
  0
LINE
  5
D9B1
330
1F
100
AcDbEntity
  8
KANAMONO_SCREW
100
AcDbLine
 10
503.9983854000001
 20
232.9932360000003
 30
0.0
 11
503.9983854000001
 21
221.9372359999998
 31
0.0
  0
LINE
  5
D9B3
330
1F
100
AcDbEntity
  8
KANAMONO_SCREW
100
AcDbLine
 10
506.4903853999994
 20
216.9372359999997
 30
0.0
 11
506.4903853999994
 21
221.9372359999998
 31
0.0
  0
LINE
  5
D9B4
330
1F
100
AcDbEntity
  8
KANAMONO_SCREW
100
AcDbLine
 10
502.4903853999994
 20
216.9372359999997
 30
0.0
 11
502.4903853999994
 21
221.9372359999998
 31
0.0
  0
LINE
  5
D9B5
330
1F
100
AcDbEntity
  8
KANAMONO_SCREW
100
AcDbLine
 10
505.4903853999994
 20
221.9372359999998
 30
0.0
 11
506.4903853999994
 21
216.9372359999997
 31
0.0
  0
LINE
  5
D9B6
330
1F
100
AcDbEntity
  8
KANAMONO_SCREW
100
AcDbLine
 10
507.9983854000001
 20
232.9932360000003
 30
0.0
 11
507.9983854000001
 21
221.9372359999998
 31
0.0
  0
LINE
  5
D9B7
330
1F
100
AcDbEntity
  8
KANAMONO_SCREW
100
AcDbLine
 10
508.9983854000002
 20
232.9932360000003
 30
0.0
 11
508.9983854000002
 21
221.9372359999998
 31
0.0
  0
LINE
  5
D9B9
330
1F
100
AcDbEntity
  8
KANAMONO_SCREW
100
AcDbLine
 10
510.4903853999994
 20
216.9372359999997
 30
0.0
 11
510.4903853999994
 21
221.9372359999998
 31
0.0
  0
LINE
  5
D9BB
330
1F
100
AcDbEntity
  8
KANAMONO_SCREW
 48
20.0
100
AcDbLine
 10
500.9774393999996
 20
185.1601549999996
 30
0.0
 11
504.4726432764746
 21
184.9769792018505
 31
0.0
  0
LINE
  5
D9BC
330
1F
100
AcDbEntity
  8
KANAMONO_SCREW
 48
20.0
100
AcDbLine
 10
512.0033314000002
 20
185.1601549999996
 30
0.0
 11
508.5081284623474
 21
184.9769791381477
 31
0.0
  0
TEXT
  5
D9BD
330
1F
100
AcDbEntity
  8
moji
100
AcDbText
 10
549.5006613999994
 20
403.0
 30
0.0
 40
8.0
  1
力板
  7
MSゴシック
100
AcDbText
  0
TEXT
  5
D9BE
330
1F
100
AcDbEntity
  8
moji
100
AcDbText
 10
499.5006613999994
 20
403.0
 30
0.0
 40
8.0
  1
高さ
  7
MSゴシック
100
AcDbText
  0
TEXT
  5
D9BF
330
1F
100
AcDbEntity
  8
moji
100
AcDbText
 10
499.5006613999994
 20
389.0
 30
0.0
 40
8.0
  1
（見付）
  7
MSゴシック
100
AcDbText
  0
LINE
  5
D9C0
330
1F
100
AcDbEntity
  8
moji
100
AcDbLine
 10
494.5006613999994
 20
372.0
 30
0.0
 11
494.5006613999994
 21
414.0
 31
0.0
  0
LINE
  5
D9C1
330
1F
100
AcDbEntity
  8
moji
100
AcDbLine
 10
544.5006613999994
 20
372.0
 30
0.0
 11
544.5006613999994
 21
414.0
 31
0.0
  0
TEXT
  5
D9C2
330
1F
100
AcDbEntity
  8
moji
100
AcDbText
 10
499.5006613999994
 20
375.0
 30
0.0
 40
8.0
  1
60
  7
MSゴシック
100
AcDbText
  0
TEXT
  5
D9C3
330
1F
100
AcDbEntity
  8
moji
100
AcDbText
 10
549.5006613999994
 20
375.0
 30
0.0
 40
8.0
  1
3.0~4.0x233.8x50
  7
MSゴシック
100
AcDbText
  0
TEXT
  5
D9C4
330
1F
100
AcDbEntity
  8
moji
100
AcDbText
 10
314.5006613999994
 20
529.0
 30
0.0
 40
8.0
  1
ライナーキープＳ225
  7
MSゴシック
100
AcDbText
  0
TEXT
  5
D9C5
330
1F
100
AcDbEntity
  8
moji
100
AcDbText
 10
314.5006613999994
 20
389.0
 30
0.0
 40
8.0
  1
パラペットの幅
  7
MSゴシック
100
AcDbText
  0
TEXT
  5
D9C6
330
1F
100
AcDbEntity
  8
moji
100
AcDbText
 10
314.5006613999994
 20
375.0
 30
0.0
 40
8.0
  1
175～210mm
  7
MSゴシック
100
AcDbText
  0
TEXT
  5
D9C7
330
1F
100
AcDbEntity
  8
moji
100
AcDbText
 10
394.5006613999995
 20
375.0
 30
0.0
 40
8.0
  1
3000
  7
MSゴシック
100
AcDbText
  0
TEXT
  5
D9C8
330
1F
100
AcDbEntity
  8
moji
100
AcDbText
 10
394.5006613999995
 20
403.0
 30
0.0
 40
8.0
  1
長さ
  7
MSゴシック
100
AcDbText
  0
TEXT
  5
D9C9
330
1F
100
AcDbEntity
  8
moji
100
AcDbText
 10
394.5006613999995
 20
417.0
 30
0.0
 40
8.0
  1
規格寸法
  7
MSゴシック
100
AcDbText
  0
TEXT
  5
D9CA
330
1F
100
AcDbEntity
  8
moji
100
AcDbText
 10
464.5006613999994
 20
375.0
 30
0.0
 40
8.0
  1
2.1
  7
MSゴシック
100
AcDbText
  0
TEXT
  5
D9CB
330
1F
100
AcDbEntity
  8
moji
100
AcDbText
 10
429.5006613999994
 20
375.0
 30
0.0
 40
8.0
  1
225
  7
MSゴシック
100
AcDbText
  0
TEXT
  5
D9CC
330
1F
100
AcDbEntity
  8
moji
100
AcDbText
 10
429.5006613999994
 20
403.0
 30
0.0
 40
8.0
  1
幅
  7
MSゴシック
100
AcDbText
  0
LINE
  5
D9CD
330
1F
100
AcDbEntity
  8
moji
100
AcDbLine
 10
309.5006613999994
 20
372.0
 30
0.0
 11
309.5006613999994
 21
428.0
 31
0.0
  0
LINE
  5
D9CE
330
1F
100
AcDbEntity
  8
moji
100
AcDbLine
 10
389.5006613999994
 20
372.0
 30
0.0
 11
389.5006613999994
 21
428.0
 31
0.0
  0
LINE
  5
D9CF
330
1F
100
AcDbEntity
  8
moji
100
AcDbLine
 10
424.5006613999994
 20
372.0
 30
0.0
 11
424.5006613999994
 21
414.0
 31
0.0
  0
LINE
  5
D9D0
330
1F
100
AcDbEntity
  8
moji
100
AcDbLine
 10
459.5006613999994
 20
372.0
 30
0.0
 11
459.5006613999994
 21
414.0
 31
0.0
  0
TEXT
  5
D9D1
330
1F
100
AcDbEntity
  8
moji
100
AcDbText
 10
429.5006613999994
 20
389.0
 30
0.0
 40
8.0
  1
外形
  7
MSゴシック
100
AcDbText
  0
TEXT
  5
D9D2
330
1F
100
AcDbEntity
  8
moji
100
AcDbText
 10
464.5006613999994
 20
403.0
 30
0.0
 40
8.0
  1
厚さ
  7
MSゴシック
100
AcDbText
  0
TEXT
  5
D9D3
330
1F
100
AcDbEntity
  8
moji
100
AcDbText
 10
664.5006613999994
 20
375.0
 30
0.0
 40
8.0
  1
233.5x100
  7
MSゴシック
100
AcDbText
  0
TEXT
  5
D9D4
330
1F
100
AcDbEntity
  8
moji
100
AcDbText
 10
664.5006613999994
 20
403.0
 30
0.0
 40
8.0
  1
ジョイント板
  7
MSゴシック
100
AcDbText
  0
TEXT
  5
D9D5
330
1F
100
AcDbEntity
  8
moji
100
AcDbText
 10
664.5006613999994
 20
389.0
 30
0.0
 40
8.0
  1
(幅x長さ)
  7
MSゴシック
100
AcDbText
  0
TEXT
  5
D9D6
330
1F
100
AcDbEntity
  8
moji
100
AcDbText
 10
734.5006614000003
 20
403.0
 30
0.0
 40
8.0
  1
コーナー
  7
MSゴシック
100
AcDbText
  0
TEXT
  5
D9D7
330
1F
100
AcDbEntity
  8
moji
100
AcDbText
 10
734.5006614000003
 20
375.0
 30
0.0
 40
8.0
  1
500x500
  7
MSゴシック
100
AcDbText
  0
LINE
  5
D9D8
330
1F
100
AcDbEntity
  8
moji
100
AcDbLine
 10
659.5006613999994
 20
372.0
 30
0.0
 11
659.5006613999994
 21
414.0
 31
0.0
  0
LINE
  5
D9D9
330
1F
100
AcDbEntity
  8
moji
100
AcDbLine
 10
729.5006614000003
 20
372.0
 30
0.0
 11
729.5006613999994
 21
414.0
 31
0.0
  0
LINE
  5
D9DA
330
1F
100
AcDbEntity
  8
moji
100
AcDbLine
 10
794.5006614000003
 20
372.0
 30
0.0
 11
794.5006614000003
 21
428.0
 31
0.0
  0
LINE
  5
D9E0
330
1F
100
AcDbEntity
  8
kasagi
  6
Continuous
100
AcDbLine
 10
531.4903854000004
 20
232.0022360000005
 30
0.0
 11
531.4903854000004
 21
228.0022360000005
 31
0.0
  0
LINE
  5
D9E1
330
1F
100
AcDbEntity
  8
kasagi
  6
Continuous
100
AcDbLine
 10
481.4903854000004
 20
232.0022360000005
 30
0.0
 11
481.4903854000004
 21
228.0022360000005
 31
0.0
  0
LINE
  5
D9E2
330
1F
100
AcDbEntity
  8
kasagi
  6
Continuous
100
AcDbLine
 10
571.9903854000003
 20
232.0022360000005
 30
0.0
 11
571.9903854000003
 21
228.0022360000005
 31
0.0
  0
LINE
  5
D9E3
330
1F
100
AcDbEntity
  8
kasagi
  6
Continuous
100
AcDbLine
 10
621.9903854000003
 20
232.0022360000005
 30
0.0
 11
621.9903854000003
 21
228.0022360000005
 31
0.0
  0
LINE
  5
D9EF
330
1F
100
AcDbEntity
  8
moji
100
AcDbLine
 10
309.5006613999994
 20
526.0
 30
0.0
 11
794.5006613999994
 21
526.0
 31
0.0
  0
LINE
  5
D9F0
330
1F
100
AcDbEntity
  8
moji
100
AcDbLine
 10
309.5006613999994
 20
512.0
 30
0.0
 11
794.5006613999994
 21
512.0
 31
0.0
  0
LINE
  5
D9F1
330
1F
100
AcDbEntity
  8
moji
100
AcDbLine
 10
309.5006613999994
 20
498.0
 30
0.0
 11
794.5006613999994
 21
498.0
 31
0.0
  0
LINE
  5
D9F2
330
1F
100
AcDbEntity
  8
moji
100
AcDbLine
 10
309.5006613999994
 20
470.0
 30
0.0
 11
794.5006613999994
 21
470.0
 31
0.0
  0
LINE
  5
D9F3
330
1F
100
AcDbEntity
  8
moji
100
AcDbLine
 10
309.5006613999994
 20
442.0
 30
0.0
 11
794.5006613999994
 21
442.0
 31
0.0
  0
TEXT
  5
D9F4
330
1F
100
AcDbEntity
  8
moji
100
AcDbText
 10
394.5006613999995
 20
445.0
 30
0.0
 40
8.0
  1
アクリル樹脂系塗装（デュラクロン他）
  7
MSゴシック
100
AcDbText
  0
LINE
  5
D9F5
330
1F
100
AcDbEntity
  8
moji
100
AcDbLine
 10
389.5006613999994
 20
442.0
 30
0.0
 11
389.5006613999994
 21
526.0
 31
0.0
  0
LINE
  5
D9F6
330
1F
100
AcDbEntity
  8
moji
100
AcDbLine
 10
309.5006613999994
 20
442.0
 30
0.0
 11
309.5006613999994
 21
526.0
 31
0.0
  0
TEXT
  5
D9F7
330
1F
100
AcDbEntity
  8
moji
100
AcDbText
 10
394.5006613999995
 20
515.0
 30
0.0
 40
8.0
  1
本体
  7
MSゴシック
100
AcDbText
  0
TEXT
  5
D9F8
330
1F
100
AcDbEntity
  8
moji
100
AcDbText
 10
529.5006613999994
 20
515.0
 30
0.0
 40
8.0
  1
ジョイント板
  7
MSゴシック
100
AcDbText
  0
LINE
  5
D9F9
330
1F
100
AcDbEntity
  8
moji
100
AcDbLine
 10
524.5006613999994
 20
512.0
 30
0.0
 11
524.5006613999994
 21
526.0
 31
0.0
  0
TEXT
  5
D9FA
330
1F
100
AcDbEntity
  8
moji
100
AcDbText
 10
394.5006613999995
 20
487.0
 30
0.0
 40
8.0
  1
JIS H 8602-2010 A1
  7
MSゴシック
100
AcDbText
  0
TEXT
  5
D9FB
330
1F
100
AcDbEntity
  8
moji
100
AcDbText
 10
394.5006613999995
 20
459.0
 30
0.0
 40
8.0
  1
2次電解着色（ブロンズ）
  7
MSゴシック
100
AcDbText
  0
TEXT
  5
D9FC
330
1F
100
AcDbEntity
  8
moji
100
AcDbText
 10
314.5006613999994
 20
487.0
 30
0.0
 40
8.0
  1
表面処理　標準
  7
MSゴシック
100
AcDbText
  0
TEXT
  5
D9FD
330
1F
100
AcDbEntity
  8
moji
100
AcDbText
 10
314.5006613999994
 20
459.0
 30
0.0
 40
8.0
  1
　　　　　特注
  7
MSゴシック
100
AcDbText
  0
TEXT
  5
D9FE
330
1F
100
AcDbEntity
  8
moji
100
AcDbText
 10
314.5006613999994
 20
501.0
 30
0.0
 40
8.0
  1
材質
  7
MSゴシック
100
AcDbText
  0
TEXT
  5
D9FF
330
1F
100
AcDbEntity
  8
moji
100
AcDbText
 10
394.5006613999995
 20
501.0
 30
0.0
 40
8.0
  1
A6063S-T5
  7
MSゴシック
100
AcDbText
  0
LINE
  5
DA00
330
1F
100
AcDbEntity
  8
moji
100
AcDbLine
 10
659.5006613999994
 20
441.9999999999998
 30
0.0
 11
659.5006613999994
 21
498.0
 31
0.0
  0
LINE
  5
DA01
330
1F
100
AcDbEntity
  8
moji
100
AcDbLine
 10
794.5006613999994
 20
442.0
 30
0.0
 11
794.5006613999994
 21
526.0
 31
0.0
  0
LINE
  5
DA02
330
1F
100
AcDbEntity
  8
moji
100
AcDbLine
 10
659.5006613999994
 20
512.0
 30
0.0
 11
659.5006613999994
 21
526.0
 31
0.0
  0
TEXT
  5
DA03
330
1F
100
AcDbEntity
  8
moji
100
AcDbText
 10
664.5006613999994
 20
515.0
 30
0.0
 40
8.0
  1
力板
  7
MSゴシック
100
AcDbText
  0
LINE
  5
DC9A
330
1F
100
AcDbEntity
  8
0
100
AcDbLine
 10
0.0
 20
739.9999999999993
 30
0.0
 11
1104.0
 21
739.9999999999979
 31
0.0
  0
TEXT
  5
DC9B
330
1F
100
AcDbEntity
  8
WAKU
100
AcDbText
 10
1051.218274111675
 20
744.0
 30
0.0
 40
12.0
  1
lk-225
  7
MSゴシック
 72
     2
 11
1098.0
 21
744.0
 31
0.0
100
AcDbText
  0
TEXT
  5
DC9D
330
1F
100
AcDbEntity
  8
WAKU
100
AcDbText
 10
6.0
 20
744.0
 30
0.0
 40
16.0
  1
アルミ雨仕舞材／腰壁水切
  7
MSゴシック
100
AcDbText
  0
TEXT
  5
DC9E
330
1F
100
AcDbEntity
  8
WAKU
100
AcDbText
 10
6.0
 20
720.0000000000016
 30
0.0
 40
12.0
  1
ライナーキープＳ２２５／アルミ腰壁水切 幅２２５
  7
MSゴシック
100
AcDbText
  0
TEXT
  5
DC9F
330
1F
100
AcDbEntity
  8
WAKU
100
AcDbText
 10
1043.421319796954
 20
720.0000000000017
 30
0.0
 40
12.0
  1
1/4(A4)
  7
MSゴシック
 72
     2
 11
1098.0
 21
720.0000000000017
 31
0.0
100
AcDbText
  0
LINE
  5
E12E
330
1F
100
AcDbEntity
  8
0
100
AcDbLine
 10
192.0
 20
118.0
 30
0.0
 11
912.0
 21
118.0
 31
0.0
  0
LINE
  5
E12F
330
1F
100
AcDbEntity
  8
0
100
AcDbLine
 10
912.0
 20
118.0
 30
0.0
 11
912.0
 21
598.0
 31
0.0
  0
LINE
  5
E130
330
1F
100
AcDbEntity
  8
0
100
AcDbLine
 10
912.0
 20
598.0
 30
0.0
 11
192.0
 21
598.0
 31
0.0
  0
LINE
  5
E131
330
1F
100
AcDbEntity
  8
0
100
AcDbLine
 10
192.0
 20
598.0
 30
0.0
 11
192.0
 21
118.0
 31
0.0
  0
LINE
  5
E132
330
1F
100
AcDbEntity
  8
kasagi
  6
Continuous
100
AcDbLine
 10
545.4903854000072
 20
243.8735810880967
 30
0.0
 11
546.0112283694543
 21
244.3944240575438
 31
0.0
1001
ACAD
1010
0.0
1020
0.0
1030
0.0
  0
LINE
  5
E133
330
1F
100
AcDbEntity
  8
kasagi
  6
Continuous
100
AcDbLine
 10
545.4903854000049
 20
242.751049072961
 30
0.0
 11
547.405606491578
 21
244.6662701645341
 31
0.0
1001
ACAD
1010
0.0
1020
0.0
1030
0.0
  0
LINE
  5
E134
330
1F
100
AcDbEntity
  8
kasagi
  6
Continuous
100
AcDbLine
 10
545.4903854000026
 20
241.6285170578244
 30
0.0
 11
548.685543656145
 21
244.8236753139668
 31
0.0
1001
ACAD
1010
0.0
1020
0.0
1030
0.0
  0
LINE
  5
E135
330
1F
100
AcDbEntity
  8
kasagi
  6
Continuous
100
AcDbLine
 10
546.4792602392813
 20
241.4948598819697
 30
0.0
 11
549.8607767048533
 21
244.8763763475418
 31
0.0
1001
ACAD
1010
0.0
1020
0.0
1030
0.0
  0
LINE
  5
E136
330
1F
100
AcDbEntity
  8
kasagi
  6
Continuous
100
AcDbLine
 10
547.8414385203636
 20
241.7345061479186
 30
0.0
 11
551.0360097535608
 21
244.9290773811158
 31
0.0
1001
ACAD
1010
0.0
1020
0.0
1030
0.0
  0
LINE
  5
E137
330
1F
100
AcDbEntity
  8
kasagi
  6
Continuous
100
AcDbLine
 10
549.1189744466287
 20
241.8895100590503
 30
0.0
 11
551.4903854000017
 21
244.2609210124233
 31
0.0
1001
ACAD
1010
0.0
1020
0.0
1030
0.0
  0
LINE
  5
E138
330
1F
100
AcDbEntity
  8
kasagi
  6
Continuous
100
AcDbLine
 10
551.4903854000017
 20
244.2609210124233
 30
0.0
 11
552.2112428022692
 21
244.9817784146908
 31
0.0
1001
ACAD
1010
0.0
1020
0.0
1030
0.0
  0
LINE
  5
E139
330
1F
100
AcDbEntity
  8
kasagi
  6
Continuous
100
AcDbLine
 10
550.3271556717108
 20
241.9751592689981
 30
0.0
 11
551.4903854000022
 21
243.1383889972894
 31
0.0
1001
ACAD
1010
0.0
1020
0.0
1030
0.0
  0
LINE
  5
E13A
330
1F
100
AcDbEntity
  8
kasagi
  6
Continuous
100
AcDbLine
 10
551.4903854000022
 20
243.1383889972894
 30
0.0
 11
553.2894180174493
 21
244.9374216147366
 31
0.0
1001
ACAD
1010
0.0
1020
0.0
1030
0.0
  0
LINE
  5
E13B
330
1F
100
AcDbEntity
  8
kasagi
  6
Continuous
100
AcDbLine
 10
551.4767607052004
 20
242.0022322873542
 30
0.0
 11
551.4903854000017
 21
242.0158569821556
 31
0.0
1001
ACAD
1010
0.0
1020
0.0
1030
0.0
  0
LINE
  5
E13C
330
1F
100
AcDbEntity
  8
kasagi
  6
Continuous
100
AcDbLine
 10
551.4903854000017
 20
242.0158569821556
 30
0.0
 11
554.316511069172
 21
244.8419826513259
 31
0.0
1001
ACAD
1010
0.0
1020
0.0
1030
0.0
  0
LINE
  5
E13D
330
1F
100
AcDbEntity
  8
kasagi
  6
Continuous
100
AcDbLine
 10
552.5757260357936
 20
241.9786656028141
 30
0.0
 11
555.3063485662096
 21
244.7092881332301
 31
0.0
1001
ACAD
1010
0.0
1020
0.0
1030
0.0
  0
LINE
  5
E13E
330
1F
100
AcDbEntity
  8
kasagi
  6
Continuous
100
AcDbLine
 10
553.6300931552751
 20
241.9105007071621
 30
0.0
 11
556.262199138901
 21
244.542606690788
 31
0.0
1001
ACAD
1010
0.0
1020
0.0
1030
0.0
  0
LINE
  5
E13F
330
1F
100
AcDbEntity
  8
kasagi
  6
Continuous
100
AcDbLine
 10
554.6445829933418
 20
241.8024585300945
 30
0.0
 11
557.186741710454
 21
244.3446172472068
 31
0.0
1001
ACAD
1010
0.0
1020
0.0
1030
0.0
  0
LINE
  5
E140
330
1F
100
AcDbEntity
  8
kasagi
  6
Continuous
100
AcDbLine
 10
555.622962805704
 20
241.6583063273233
 30
0.0
 11
557.4903853999963
 21
243.5257289216156
 31
0.0
1001
ACAD
1010
0.0
1020
0.0
1030
0.0
  0
LINE
  5
E141
330
1F
100
AcDbEntity
  8
kasagi
  6
Continuous
100
AcDbLine
 10
556.5682904802407
 20
241.4811019867266
 30
0.0
 11
557.4903853999985
 21
242.4031969064845
 31
0.0
1001
ACAD
1010
0.0
1020
0.0
1030
0.0
  0
LINE
  5
E142
330
1F
100
AcDbEntity
  8
kasagi
  6
Continuous
100
AcDbLine
 10
557.4830829060897
 20
241.2733623974414
 30
0.0
 11
557.4903854000017
 21
241.2806648913534
 31
0.0
1001
ACAD
1010
0.0
1020
0.0
1030
0.0
  0
ARC
  5
E143
330
1F
100
AcDbEntity
  8
KANAMONO_SCREW
 48
20.0
100
AcDbCircle
 10
597.9931518403494
 20
232.8735269019519
 30
0.0
 40
2.999996524121709
100
AcDbArc
 50
2.458911608832009
 51
51.38541751255226
  0
ARC
  5
E144
330
1F
100
AcDbEntity
  8
KANAMONO_SCREW
 48
20.0
100
AcDbCircle
 10
596.4903853999999
 20
231.0022384928434
 30
0.0
 40
5.399997507157105
100
AcDbArc
 50
51.317795166881
 51
128.682204833119
  0
ARC
  5
E145
330
1F
100
AcDbEntity
  8
KANAMONO_SCREW
 48
20.0
100
AcDbCircle
 10
594.9876189596505
 20
232.8735269019519
 30
0.0
 40
2.999996524121712
100
AcDbArc
 50
128.6145824874477
 51
177.541088391168
  0
LINE
  5
E146
330
1F
100
AcDbEntity
  8
KANAMONO_SCREW
 48
20.0
100
AcDbLine
 10
583.9903853999994
 20
233.0022360000003
 30
0.0
 11
608.9903853999994
 21
233.0022360000003
 31
0.0
  0
LINE
  5
E147
330
1F
100
AcDbEntity
  8
KANAMONO_SCREW
 48
20.0
100
AcDbLine
 10
608.9903853999994
 20
233.0022360000003
 30
0.0
 11
608.9903853999994
 21
232.0022360000002
 31
0.0
  0
LINE
  5
E148
330
1F
100
AcDbEntity
  8
KANAMONO_SCREW
 48
20.0
100
AcDbLine
 10
608.9903853999994
 20
232.0022360000002
 30
0.0
 11
583.9903853999994
 21
232.0022360000002
 31
0.0
  0
LINE
  5
E149
330
1F
100
AcDbEntity
  8
KANAMONO_SCREW
 48
20.0
100
AcDbLine
 10
583.9903853999994
 20
232.0022360000002
 30
0.0
 11
583.9903853999994
 21
233.0022360000003
 31
0.0
  0
LINE
  5
E14A
330
1F
100
AcDbEntity
  8
KANAMONO_SCREW
100
AcDbLine
 10
591.2391194000001
 20
190.1533029999991
 30
0.0
 11
593.1840424000001
 21
189.0500009999996
 31
0.0
  0
LINE
  5
E14B
330
1F
100
AcDbEntity
  8
KANAMONO_SCREW
100
AcDbLine
 10
593.1840424000001
 20
189.0500009999996
 30
0.0
 11
593.0793703999998
 21
187.0527419999998
 31
0.0
  0
LINE
  5
E14C
330
1F
100
AcDbEntity
  8
KANAMONO_SCREW
100
AcDbLine
 10
593.0793703999998
 20
187.0527419999998
 30
0.0
 11
591.0821113999999
 21
187.1574139999993
 31
0.0
  0
LINE
  5
E14D
330
1F
100
AcDbEntity
  8
KANAMONO_SCREW
100
AcDbLine
 10
591.0821113999999
 20
187.1574139999993
 30
0.0
 11
590.9774393999996
 21
185.1601549999996
 31
0.0
  0
LINE
  5
E14E
330
1F
100
AcDbEntity
  8
KANAMONO_SCREW
100
AcDbLine
 10
590.9774393999996
 20
185.1601549999996
 30
0.0
 11
592.8700263999998
 21
183.0582240000003
 31
0.0
  0
LINE
  5
E14F
330
1F
100
AcDbEntity
  8
KANAMONO_SCREW
100
AcDbLine
 10
592.8700263999998
 20
183.0582240000003
 30
0.0
 11
594.3679713999999
 21
182.9797199999993
 31
0.0
  0
LINE
  5
E150
330
1F
100
AcDbEntity
  8
KANAMONO_SCREW
100
AcDbLine
 10
594.3679713999999
 20
182.9797199999993
 30
0.0
 11
595.9903853999994
 21
213.9372359999998
 31
0.0
  0
LINE
  5
E151
330
1F
100
AcDbEntity
  8
KANAMONO_SCREW
100
AcDbLine
 10
595.9903853999994
 20
213.9372359999998
 30
0.0
 11
596.4903853999994
 21
213.9372359999998
 31
0.0
  0
LINE
  5
E152
330
1F
100
AcDbEntity
  8
KANAMONO_SCREW
100
AcDbLine
 10
596.4903853999994
 20
213.9372359999998
 30
0.0
 11
596.9903853999994
 21
213.9372359999998
 31
0.0
  0
LINE
  5
E153
330
1F
100
AcDbEntity
  8
KANAMONO_SCREW
100
AcDbLine
 10
596.9903853999994
 20
213.9372359999998
 30
0.0
 11
598.6128004000002
 21
182.9797199999993
 31
0.0
  0
LINE
  5
E154
330
1F
100
AcDbEntity
  8
KANAMONO_SCREW
100
AcDbLine
 10
598.6128004000002
 20
182.9797199999993
 30
0.0
 11
600.1107443999999
 21
183.0582240000003
 31
0.0
  0
LINE
  5
E155
330
1F
100
AcDbEntity
  8
KANAMONO_SCREW
100
AcDbLine
 10
600.1107443999999
 20
183.0582240000003
 30
0.0
 11
602.0033314000002
 21
185.1601549999996
 31
0.0
  0
LINE
  5
E156
330
1F
100
AcDbEntity
  8
KANAMONO_SCREW
100
AcDbLine
 10
602.0033314000002
 20
185.1601549999996
 30
0.0
 11
601.8986604000001
 21
187.1574139999993
 31
0.0
  0
LINE
  5
E157
330
1F
100
AcDbEntity
  8
KANAMONO_SCREW
100
AcDbLine
 10
601.8986604000001
 20
187.1574139999993
 30
0.0
 11
599.9014013999994
 21
187.0527419999998
 31
0.0
  0
LINE
  5
E158
330
1F
100
AcDbEntity
  8
KANAMONO_SCREW
100
AcDbLine
 10
599.9014013999994
 20
187.0527419999998
 30
0.0
 11
599.7967294
 21
189.0500009999996
 31
0.0
  0
LINE
  5
E159
330
1F
100
AcDbEntity
  8
KANAMONO_SCREW
100
AcDbLine
 10
599.7967294
 20
189.0500009999996
 30
0.0
 11
601.7416524
 21
190.1533029999991
 31
0.0
  0
LINE
  5
E15A
330
1F
100
AcDbEntity
  8
KANAMONO_SCREW
100
AcDbLine
 10
601.7416524
 20
190.1533029999991
 30
0.0
 11
601.6369803999996
 21
192.1505620000007
 31
0.0
  0
LINE
  5
E15B
330
1F
100
AcDbEntity
  8
KANAMONO_SCREW
100
AcDbLine
 10
601.6369803999996
 20
192.1505620000007
 30
0.0
 11
599.6397213999999
 21
192.0458899999994
 31
0.0
  0
LINE
  5
E15C
330
1F
100
AcDbEntity
  8
KANAMONO_SCREW
100
AcDbLine
 10
599.6397213999999
 20
192.0458899999994
 30
0.0
 11
599.5350493999994
 21
194.0431489999991
 31
0.0
  0
LINE
  5
E15D
330
1F
100
AcDbEntity
  8
KANAMONO_SCREW
100
AcDbLine
 10
599.5350493999994
 20
194.0431489999991
 30
0.0
 11
601.4799723999995
 21
195.1464500000002
 31
0.0
  0
LINE
  5
E15E
330
1F
100
AcDbEntity
  8
KANAMONO_SCREW
100
AcDbLine
 10
601.4799723999995
 20
195.1464500000002
 30
0.0
 11
601.3753004
 21
197.1437089999999
 31
0.0
  0
LINE
  5
E15F
330
1F
100
AcDbEntity
  8
KANAMONO_SCREW
100
AcDbLine
 10
601.3753004
 20
197.1437089999999
 30
0.0
 11
599.3780414000002
 21
197.0390370000004
 31
0.0
  0
LINE
  5
E160
330
1F
100
AcDbEntity
  8
KANAMONO_SCREW
100
AcDbLine
 10
599.3780414000002
 20
197.0390370000004
 30
0.0
 11
599.2733693999999
 21
199.0362960000002
 31
0.0
  0
LINE
  5
E161
330
1F
100
AcDbEntity
  8
KANAMONO_SCREW
100
AcDbLine
 10
599.2733693999999
 20
199.0362960000002
 30
0.0
 11
601.2182923999999
 21
200.1395979999998
 31
0.0
  0
LINE
  5
E162
330
1F
100
AcDbEntity
  8
KANAMONO_SCREW
100
AcDbLine
 10
601.2182923999999
 20
200.1395979999998
 30
0.0
 11
601.1136203999995
 21
202.1368569999995
 31
0.0
  0
LINE
  5
E163
330
1F
100
AcDbEntity
  8
KANAMONO_SCREW
100
AcDbLine
 10
601.1136203999995
 20
202.1368569999995
 30
0.0
 11
599.1163613999997
 21
202.032185
 31
0.0
  0
LINE
  5
E164
330
1F
100
AcDbEntity
  8
KANAMONO_SCREW
100
AcDbLine
 10
599.1163613999997
 20
202.032185
 30
0.0
 11
599.0116894000002
 21
204.0294439999998
 31
0.0
  0
LINE
  5
E165
330
1F
100
AcDbEntity
  8
KANAMONO_SCREW
100
AcDbLine
 10
599.0116894000002
 20
204.0294439999998
 30
0.0
 11
600.9566124000002
 21
205.1327459999993
 31
0.0
  0
LINE
  5
E166
330
1F
100
AcDbEntity
  8
KANAMONO_SCREW
100
AcDbLine
 10
600.9566124000002
 20
205.1327459999993
 30
0.0
 11
600.8519403999998
 21
207.1300050000009
 31
0.0
  0
LINE
  5
E167
330
1F
100
AcDbEntity
  8
KANAMONO_SCREW
100
AcDbLine
 10
600.8519403999998
 20
207.1300050000009
 30
0.0
 11
598.8546814000001
 21
207.0253329999996
 31
0.0
  0
LINE
  5
E168
330
1F
100
AcDbEntity
  8
KANAMONO_SCREW
100
AcDbLine
 10
598.8546814000001
 20
207.0253329999996
 30
0.0
 11
598.7500093999997
 21
209.0225919999994
 31
0.0
  0
LINE
  5
E169
330
1F
100
AcDbEntity
  8
KANAMONO_SCREW
100
AcDbLine
 10
598.7500093999997
 20
209.0225919999994
 30
0.0
 11
600.4903853999994
 21
209.9372359999998
 31
0.0
  0
LINE
  5
E16A
330
1F
100
AcDbEntity
  8
KANAMONO_SCREW
100
AcDbLine
 10
600.4903853999994
 20
209.9372359999998
 30
0.0
 11
600.4903853999994
 21
213.9372359999998
 31
0.0
  0
LINE
  5
E16B
330
1F
100
AcDbEntity
  8
KANAMONO_SCREW
100
AcDbLine
 10
600.4903853999994
 20
213.9372359999998
 30
0.0
 11
600.4903853999994
 21
216.9372359999997
 31
0.0
  0
LINE
  5
E16C
330
1F
100
AcDbEntity
  8
KANAMONO_SCREW
100
AcDbLine
 10
600.4903853999994
 20
216.9372359999997
 30
0.0
 11
601.4903853999994
 21
221.9372359999998
 31
0.0
  0
LINE
  5
E16D
330
1F
100
AcDbEntity
  8
KANAMONO_SCREW
100
AcDbLine
 10
601.4903853999994
 20
221.9372359999998
 30
0.0
 11
596.4903853999994
 21
221.9372359999998
 31
0.0
  0
LINE
  5
E16E
330
1F
100
AcDbEntity
  8
KANAMONO_SCREW
100
AcDbLine
 10
596.4903853999994
 20
221.9372359999998
 30
0.0
 11
591.4903853999994
 21
221.9372359999998
 31
0.0
  0
LINE
  5
E16F
330
1F
100
AcDbEntity
  8
KANAMONO_SCREW
100
AcDbLine
 10
591.4903853999994
 20
221.9372359999998
 30
0.0
 11
592.4903853999994
 21
216.9372359999997
 31
0.0
  0
LINE
  5
E170
330
1F
100
AcDbEntity
  8
KANAMONO_SCREW
100
AcDbLine
 10
592.4903853999994
 20
216.9372359999997
 30
0.0
 11
592.4903853999994
 21
213.9372359999998
 31
0.0
  0
LINE
  5
E171
330
1F
100
AcDbEntity
  8
KANAMONO_SCREW
100
AcDbLine
 10
592.4903853999994
 20
213.9372359999998
 30
0.0
 11
592.4903853999994
 21
209.9372359999998
 31
0.0
  0
LINE
  5
E172
330
1F
100
AcDbEntity
  8
KANAMONO_SCREW
100
AcDbLine
 10
592.4903853999994
 20
209.9372359999998
 30
0.0
 11
594.2307614000001
 21
209.0225919999994
 31
0.0
  0
LINE
  5
E173
330
1F
100
AcDbEntity
  8
KANAMONO_SCREW
100
AcDbLine
 10
594.2307614000001
 20
209.0225919999994
 30
0.0
 11
594.1260893999997
 21
207.0253329999996
 31
0.0
  0
LINE
  5
E174
330
1F
100
AcDbEntity
  8
KANAMONO_SCREW
100
AcDbLine
 10
594.1260893999997
 20
207.0253329999996
 30
0.0
 11
592.1288303999999
 21
207.1300050000009
 31
0.0
  0
LINE
  5
E175
330
1F
100
AcDbEntity
  8
KANAMONO_SCREW
100
AcDbLine
 10
592.1288303999999
 20
207.1300050000009
 30
0.0
 11
592.0241583999995
 21
205.1327459999993
 31
0.0
  0
LINE
  5
E176
330
1F
100
AcDbEntity
  8
KANAMONO_SCREW
100
AcDbLine
 10
592.0241583999995
 20
205.1327459999993
 30
0.0
 11
593.9690823999999
 21
204.0294439999998
 31
0.0
  0
LINE
  5
E177
330
1F
100
AcDbEntity
  8
KANAMONO_SCREW
100
AcDbLine
 10
593.9690823999999
 20
204.0294439999998
 30
0.0
 11
593.8644103999995
 21
202.032185
 31
0.0
  0
LINE
  5
E178
330
1F
100
AcDbEntity
  8
KANAMONO_SCREW
100
AcDbLine
 10
593.8644103999995
 20
202.032185
 30
0.0
 11
591.8671513999997
 21
202.1368569999995
 31
0.0
  0
LINE
  5
E179
330
1F
100
AcDbEntity
  8
KANAMONO_SCREW
100
AcDbLine
 10
591.8671513999997
 20
202.1368569999995
 30
0.0
 11
591.7624794000003
 21
200.1395979999998
 31
0.0
  0
LINE
  5
E17A
330
1F
100
AcDbEntity
  8
KANAMONO_SCREW
100
AcDbLine
 10
591.7624794000003
 20
200.1395979999998
 30
0.0
 11
593.7074023999993
 21
199.0362960000002
 31
0.0
  0
LINE
  5
E17B
330
1F
100
AcDbEntity
  8
KANAMONO_SCREW
100
AcDbLine
 10
593.7074023999993
 20
199.0362960000002
 30
0.0
 11
593.6027303999999
 21
197.0390370000004
 31
0.0
  0
LINE
  5
E17C
330
1F
100
AcDbEntity
  8
KANAMONO_SCREW
100
AcDbLine
 10
593.6027303999999
 20
197.0390370000004
 30
0.0
 11
591.6054714000002
 21
197.1437089999999
 31
0.0
  0
LINE
  5
E17D
330
1F
100
AcDbEntity
  8
KANAMONO_SCREW
100
AcDbLine
 10
591.6054714000002
 20
197.1437089999999
 30
0.0
 11
591.5007993999997
 21
195.1464500000002
 31
0.0
  0
LINE
  5
E17E
330
1F
100
AcDbEntity
  8
KANAMONO_SCREW
100
AcDbLine
 10
591.5007993999997
 20
195.1464500000002
 30
0.0
 11
593.4457223999998
 21
194.0431489999991
 31
0.0
  0
LINE
  5
E17F
330
1F
100
AcDbEntity
  8
KANAMONO_SCREW
100
AcDbLine
 10
593.4457223999998
 20
194.0431489999991
 30
0.0
 11
593.3410504000002
 21
192.0458899999994
 31
0.0
  0
LINE
  5
E180
330
1F
100
AcDbEntity
  8
KANAMONO_SCREW
100
AcDbLine
 10
593.3410504000002
 20
192.0458899999994
 30
0.0
 11
591.3437913999996
 21
192.1505620000007
 31
0.0
  0
LINE
  5
E181
330
1F
100
AcDbEntity
  8
KANAMONO_SCREW
100
AcDbLine
 10
591.3437913999996
 20
192.1505620000007
 30
0.0
 11
591.2391194000001
 21
190.1533029999991
 31
0.0
  0
LINE
  5
E182
330
1F
100
AcDbEntity
  8
KANAMONO_SCREW
100
AcDbLine
 10
591.8671503999994
 20
202.1368569999995
 30
0.0
 11
590.3703943999999
 21
207.1368569999995
 31
0.0
  0
LINE
  5
E183
330
1F
100
AcDbEntity
  8
KANAMONO_SCREW
100
AcDbLine
 10
590.3703943999999
 20
207.1368569999995
 30
0.0
 11
589.4799943089383
 21
212.4792615463684
 31
0.0
  0
ARC
  5
E184
330
1F
100
AcDbEntity
  8
KANAMONO_SCREW
100
AcDbCircle
 10
589.9731913252658
 20
212.5614609484029
 30
0.0
 40
0.5000000386091604
100
AcDbArc
 50
9.462321570643384
 51
189.4623108271589
  0
LINE
  5
E185
330
1F
100
AcDbEntity
  8
KANAMONO_SCREW
100
AcDbLine
 10
590.46638832618
 20
212.6436604429164
 30
0.0
 11
591.3841883999993
 21
207.1368569999995
 31
0.0
  0
LINE
  5
E186
330
1F
100
AcDbEntity
  8
KANAMONO_SCREW
100
AcDbLine
 10
591.3841883999993
 20
207.1368569999995
 30
0.0
 11
592.9298693999998
 21
202.0811620000004
 31
0.0
  0
LINE
  5
E187
330
1F
100
AcDbEntity
  8
KANAMONO_SCREW
100
AcDbLine
 10
601.1136203999995
 20
202.1368569999995
 30
0.0
 11
602.6103763999999
 21
207.1368569999995
 31
0.0
  0
LINE
  5
E188
330
1F
100
AcDbEntity
  8
KANAMONO_SCREW
100
AcDbLine
 10
602.6103763999999
 20
207.1368569999995
 30
0.0
 11
603.5007764910615
 21
212.4792615463684
 31
0.0
  0
ARC
  5
E189
330
1F
100
AcDbEntity
  8
KANAMONO_SCREW
100
AcDbCircle
 10
603.0075794747335
 20
212.5614609484029
 30
0.0
 40
0.5000000386096089
100
AcDbArc
 50
350.5376891728497
 51
170.5376784293652
  0
LINE
  5
E18A
330
1F
100
AcDbEntity
  8
KANAMONO_SCREW
100
AcDbLine
 10
602.5143824738188
 20
212.6436604429164
 30
0.0
 11
601.5965823999995
 21
207.1368569999995
 31
0.0
  0
LINE
  5
E18B
330
1F
100
AcDbEntity
  8
KANAMONO_SCREW
100
AcDbLine
 10
601.5965823999995
 20
207.1368569999995
 30
0.0
 11
600.0509013999999
 21
202.0811620000004
 31
0.0
  0
LINE
  5
E18C
330
1F
100
AcDbEntity
  8
KANAMONO_SCREW
100
AcDbLine
 10
598.3598293999993
 20
187.8066799999997
 30
0.0
 11
596.4903853999994
 21
185.9965420000007
 31
0.0
  0
LINE
  5
E18D
330
1F
100
AcDbEntity
  8
KANAMONO_SCREW
100
AcDbLine
 10
596.4903853999994
 20
185.9965420000007
 30
0.0
 11
594.6209413999995
 21
187.8066799999997
 31
0.0
  0
ARC
  5
E18E
330
1F
100
AcDbEntity
  8
KANAMONO_SCREW
 48
20.0
100
AcDbCircle
 10
507.9931518403493
 20
232.8735269019519
 30
0.0
 40
2.999996524121709
100
AcDbArc
 50
2.458911608832009
 51
51.38541751255226
  0
ARC
  5
E18F
330
1F
100
AcDbEntity
  8
KANAMONO_SCREW
 48
20.0
100
AcDbCircle
 10
506.4903853999999
 20
231.0022384928434
 30
0.0
 40
5.399997507157105
100
AcDbArc
 50
51.317795166881
 51
128.682204833119
  0
ARC
  5
E190
330
1F
100
AcDbEntity
  8
KANAMONO_SCREW
 48
20.0
100
AcDbCircle
 10
504.9876189596504
 20
232.8735269019519
 30
0.0
 40
2.999996524121712
100
AcDbArc
 50
128.6145824874477
 51
177.541088391168
  0
LINE
  5
E191
330
1F
100
AcDbEntity
  8
KANAMONO_SCREW
 48
20.0
100
AcDbLine
 10
493.9903853999994
 20
233.0022360000003
 30
0.0
 11
518.9903853999994
 21
233.0022360000003
 31
0.0
  0
LINE
  5
E192
330
1F
100
AcDbEntity
  8
KANAMONO_SCREW
 48
20.0
100
AcDbLine
 10
518.9903853999994
 20
233.0022360000003
 30
0.0
 11
518.9903853999994
 21
232.0022360000002
 31
0.0
  0
LINE
  5
E193
330
1F
100
AcDbEntity
  8
KANAMONO_SCREW
 48
20.0
100
AcDbLine
 10
518.9903853999994
 20
232.0022360000002
 30
0.0
 11
493.9903853999994
 21
232.0022360000002
 31
0.0
  0
LINE
  5
E194
330
1F
100
AcDbEntity
  8
KANAMONO_SCREW
 48
20.0
100
AcDbLine
 10
493.9903853999994
 20
232.0022360000002
 30
0.0
 11
493.9903853999994
 21
233.0022360000003
 31
0.0
  0
LINE
  5
E195
330
1F
100
AcDbEntity
  8
KANAMONO_SCREW
100
AcDbLine
 10
501.2391194000001
 20
190.1533029999991
 30
0.0
 11
503.1840424000002
 21
189.0500009999996
 31
0.0
  0
LINE
  5
E196
330
1F
100
AcDbEntity
  8
KANAMONO_SCREW
100
AcDbLine
 10
503.1840424000002
 20
189.0500009999996
 30
0.0
 11
503.0793703999997
 21
187.0527419999998
 31
0.0
  0
LINE
  5
E197
330
1F
100
AcDbEntity
  8
KANAMONO_SCREW
100
AcDbLine
 10
503.0793703999997
 20
187.0527419999998
 30
0.0
 11
501.0821114
 21
187.1574139999993
 31
0.0
  0
LINE
  5
E198
330
1F
100
AcDbEntity
  8
KANAMONO_SCREW
100
AcDbLine
 10
501.0821114
 20
187.1574139999993
 30
0.0
 11
500.9774393999996
 21
185.1601549999996
 31
0.0
  0
LINE
  5
E199
330
1F
100
AcDbEntity
  8
KANAMONO_SCREW
100
AcDbLine
 10
500.9774393999996
 20
185.1601549999996
 30
0.0
 11
502.8700263999999
 21
183.0582240000003
 31
0.0
  0
LINE
  5
E19A
330
1F
100
AcDbEntity
  8
KANAMONO_SCREW
100
AcDbLine
 10
502.8700263999999
 20
183.0582240000003
 30
0.0
 11
504.3679713999999
 21
182.9797199999993
 31
0.0
  0
LINE
  5
E19B
330
1F
100
AcDbEntity
  8
KANAMONO_SCREW
100
AcDbLine
 10
504.3679713999999
 20
182.9797199999993
 30
0.0
 11
505.9903853999994
 21
213.9372359999998
 31
0.0
  0
LINE
  5
E19C
330
1F
100
AcDbEntity
  8
KANAMONO_SCREW
100
AcDbLine
 10
505.9903853999994
 20
213.9372359999998
 30
0.0
 11
506.4903853999994
 21
213.9372359999998
 31
0.0
  0
LINE
  5
E19D
330
1F
100
AcDbEntity
  8
KANAMONO_SCREW
100
AcDbLine
 10
506.4903853999994
 20
213.9372359999998
 30
0.0
 11
506.9903853999995
 21
213.9372359999998
 31
0.0
  0
LINE
  5
E19E
330
1F
100
AcDbEntity
  8
KANAMONO_SCREW
100
AcDbLine
 10
506.9903853999995
 20
213.9372359999998
 30
0.0
 11
508.6128004000001
 21
182.9797199999993
 31
0.0
  0
LINE
  5
E19F
330
1F
100
AcDbEntity
  8
KANAMONO_SCREW
100
AcDbLine
 10
508.6128004000001
 20
182.9797199999993
 30
0.0
 11
510.1107443999999
 21
183.0582240000003
 31
0.0
  0
LINE
  5
E1A0
330
1F
100
AcDbEntity
  8
KANAMONO_SCREW
100
AcDbLine
 10
510.1107443999999
 20
183.0582240000003
 30
0.0
 11
512.0033314000002
 21
185.1601549999996
 31
0.0
  0
LINE
  5
E1A1
330
1F
100
AcDbEntity
  8
KANAMONO_SCREW
100
AcDbLine
 10
512.0033314000002
 20
185.1601549999996
 30
0.0
 11
511.8986604000001
 21
187.1574139999993
 31
0.0
  0
LINE
  5
E1A2
330
1F
100
AcDbEntity
  8
KANAMONO_SCREW
100
AcDbLine
 10
511.8986604000001
 20
187.1574139999993
 30
0.0
 11
509.9014013999995
 21
187.0527419999998
 31
0.0
  0
LINE
  5
E1A3
330
1F
100
AcDbEntity
  8
KANAMONO_SCREW
100
AcDbLine
 10
509.9014013999995
 20
187.0527419999998
 30
0.0
 11
509.7967294
 21
189.0500009999996
 31
0.0
  0
LINE
  5
E1A4
330
1F
100
AcDbEntity
  8
KANAMONO_SCREW
100
AcDbLine
 10
509.7967294
 20
189.0500009999996
 30
0.0
 11
511.7416524
 21
190.1533029999991
 31
0.0
  0
LINE
  5
E1A5
330
1F
100
AcDbEntity
  8
KANAMONO_SCREW
100
AcDbLine
 10
511.7416524
 20
190.1533029999991
 30
0.0
 11
511.6369803999996
 21
192.1505620000007
 31
0.0
  0
LINE
  5
E1A6
330
1F
100
AcDbEntity
  8
KANAMONO_SCREW
100
AcDbLine
 10
511.6369803999996
 20
192.1505620000007
 30
0.0
 11
509.6397213999998
 21
192.0458899999994
 31
0.0
  0
LINE
  5
E1A7
330
1F
100
AcDbEntity
  8
KANAMONO_SCREW
100
AcDbLine
 10
509.6397213999998
 20
192.0458899999994
 30
0.0
 11
509.5350493999994
 21
194.0431489999991
 31
0.0
  0
LINE
  5
E1A8
330
1F
100
AcDbEntity
  8
KANAMONO_SCREW
100
AcDbLine
 10
509.5350493999994
 20
194.0431489999991
 30
0.0
 11
511.4799723999994
 21
195.1464500000002
 31
0.0
  0
LINE
  5
E1A9
330
1F
100
AcDbEntity
  8
KANAMONO_SCREW
100
AcDbLine
 10
511.4799723999994
 20
195.1464500000002
 30
0.0
 11
511.3753004
 21
197.1437089999999
 31
0.0
  0
LINE
  5
E1AA
330
1F
100
AcDbEntity
  8
KANAMONO_SCREW
100
AcDbLine
 10
511.3753004
 20
197.1437089999999
 30
0.0
 11
509.3780414000002
 21
197.0390370000004
 31
0.0
  0
LINE
  5
E1AB
330
1F
100
AcDbEntity
  8
KANAMONO_SCREW
100
AcDbLine
 10
509.3780414000002
 20
197.0390370000004
 30
0.0
 11
509.2733693999998
 21
199.0362960000002
 31
0.0
  0
LINE
  5
E1AC
330
1F
100
AcDbEntity
  8
KANAMONO_SCREW
100
AcDbLine
 10
509.2733693999998
 20
199.0362960000002
 30
0.0
 11
511.2182923999998
 21
200.1395979999998
 31
0.0
  0
LINE
  5
E1AD
330
1F
100
AcDbEntity
  8
KANAMONO_SCREW
100
AcDbLine
 10
511.2182923999998
 20
200.1395979999998
 30
0.0
 11
511.1136203999994
 21
202.1368569999995
 31
0.0
  0
LINE
  5
E1AE
330
1F
100
AcDbEntity
  8
KANAMONO_SCREW
100
AcDbLine
 10
511.1136203999994
 20
202.1368569999995
 30
0.0
 11
509.1163613999997
 21
202.032185
 31
0.0
  0
LINE
  5
E1AF
330
1F
100
AcDbEntity
  8
KANAMONO_SCREW
100
AcDbLine
 10
509.1163613999997
 20
202.032185
 30
0.0
 11
509.0116894000003
 21
204.0294439999998
 31
0.0
  0
LINE
  5
E1B0
330
1F
100
AcDbEntity
  8
KANAMONO_SCREW
100
AcDbLine
 10
509.0116894000003
 20
204.0294439999998
 30
0.0
 11
510.9566124000003
 21
205.1327459999993
 31
0.0
  0
LINE
  5
E1B1
330
1F
100
AcDbEntity
  8
KANAMONO_SCREW
100
AcDbLine
 10
510.9566124000003
 20
205.1327459999993
 30
0.0
 11
510.8519403999999
 21
207.1300050000009
 31
0.0
  0
LINE
  5
E1B2
330
1F
100
AcDbEntity
  8
KANAMONO_SCREW
100
AcDbLine
 10
510.8519403999999
 20
207.1300050000009
 30
0.0
 11
508.8546814000001
 21
207.0253329999996
 31
0.0
  0
LINE
  5
E1B3
330
1F
100
AcDbEntity
  8
KANAMONO_SCREW
100
AcDbLine
 10
508.8546814000001
 20
207.0253329999996
 30
0.0
 11
508.7500093999997
 21
209.0225919999994
 31
0.0
  0
LINE
  5
E1B4
330
1F
100
AcDbEntity
  8
KANAMONO_SCREW
100
AcDbLine
 10
508.7500093999997
 20
209.0225919999994
 30
0.0
 11
510.4903853999994
 21
209.9372359999998
 31
0.0
  0
LINE
  5
E1B5
330
1F
100
AcDbEntity
  8
KANAMONO_SCREW
100
AcDbLine
 10
510.4903853999994
 20
209.9372359999998
 30
0.0
 11
510.4903853999994
 21
213.9372359999998
 31
0.0
  0
LINE
  5
E1B6
330
1F
100
AcDbEntity
  8
KANAMONO_SCREW
100
AcDbLine
 10
510.4903853999994
 20
213.9372359999998
 30
0.0
 11
510.4903853999994
 21
216.9372359999997
 31
0.0
  0
LINE
  5
E1B7
330
1F
100
AcDbEntity
  8
KANAMONO_SCREW
100
AcDbLine
 10
510.4903853999994
 20
216.9372359999997
 30
0.0
 11
511.4903853999995
 21
221.9372359999998
 31
0.0
  0
LINE
  5
E1B8
330
1F
100
AcDbEntity
  8
KANAMONO_SCREW
100
AcDbLine
 10
511.4903853999995
 20
221.9372359999998
 30
0.0
 11
506.4903853999994
 21
221.9372359999998
 31
0.0
  0
LINE
  5
E1B9
330
1F
100
AcDbEntity
  8
KANAMONO_SCREW
100
AcDbLine
 10
506.4903853999994
 20
221.9372359999998
 30
0.0
 11
501.4903853999994
 21
221.9372359999998
 31
0.0
  0
LINE
  5
E1BA
330
1F
100
AcDbEntity
  8
KANAMONO_SCREW
100
AcDbLine
 10
501.4903853999994
 20
221.9372359999998
 30
0.0
 11
502.4903853999994
 21
216.9372359999997
 31
0.0
  0
LINE
  5
E1BB
330
1F
100
AcDbEntity
  8
KANAMONO_SCREW
100
AcDbLine
 10
502.4903853999994
 20
216.9372359999997
 30
0.0
 11
502.4903853999994
 21
213.9372359999998
 31
0.0
  0
LINE
  5
E1BC
330
1F
100
AcDbEntity
  8
KANAMONO_SCREW
100
AcDbLine
 10
502.4903853999994
 20
213.9372359999998
 30
0.0
 11
502.4903853999994
 21
209.9372359999998
 31
0.0
  0
LINE
  5
E1BD
330
1F
100
AcDbEntity
  8
KANAMONO_SCREW
100
AcDbLine
 10
502.4903853999994
 20
209.9372359999998
 30
0.0
 11
504.2307614000001
 21
209.0225919999994
 31
0.0
  0
LINE
  5
E1BE
330
1F
100
AcDbEntity
  8
KANAMONO_SCREW
100
AcDbLine
 10
504.2307614000001
 20
209.0225919999994
 30
0.0
 11
504.1260893999996
 21
207.0253329999996
 31
0.0
  0
LINE
  5
E1BF
330
1F
100
AcDbEntity
  8
KANAMONO_SCREW
100
AcDbLine
 10
504.1260893999996
 20
207.0253329999996
 30
0.0
 11
502.1288303999999
 21
207.1300050000009
 31
0.0
  0
LINE
  5
E1C0
330
1F
100
AcDbEntity
  8
KANAMONO_SCREW
100
AcDbLine
 10
502.1288303999999
 20
207.1300050000009
 30
0.0
 11
502.0241583999996
 21
205.1327459999993
 31
0.0
  0
LINE
  5
E1C1
330
1F
100
AcDbEntity
  8
KANAMONO_SCREW
100
AcDbLine
 10
502.0241583999996
 20
205.1327459999993
 30
0.0
 11
503.9690823999999
 21
204.0294439999998
 31
0.0
  0
LINE
  5
E1C2
330
1F
100
AcDbEntity
  8
KANAMONO_SCREW
100
AcDbLine
 10
503.9690823999999
 20
204.0294439999998
 30
0.0
 11
503.8644103999995
 21
202.032185
 31
0.0
  0
LINE
  5
E1C3
330
1F
100
AcDbEntity
  8
KANAMONO_SCREW
100
AcDbLine
 10
503.8644103999995
 20
202.032185
 30
0.0
 11
501.8671513999997
 21
202.1368569999995
 31
0.0
  0
LINE
  5
E1C4
330
1F
100
AcDbEntity
  8
KANAMONO_SCREW
100
AcDbLine
 10
501.8671513999997
 20
202.1368569999995
 30
0.0
 11
501.7624794000003
 21
200.1395979999998
 31
0.0
  0
LINE
  5
E1C5
330
1F
100
AcDbEntity
  8
KANAMONO_SCREW
100
AcDbLine
 10
501.7624794000003
 20
200.1395979999998
 30
0.0
 11
503.7074023999994
 21
199.0362960000002
 31
0.0
  0
LINE
  5
E1C6
330
1F
100
AcDbEntity
  8
KANAMONO_SCREW
100
AcDbLine
 10
503.7074023999994
 20
199.0362960000002
 30
0.0
 11
503.6027303999999
 21
197.0390370000004
 31
0.0
  0
LINE
  5
E1C7
330
1F
100
AcDbEntity
  8
KANAMONO_SCREW
100
AcDbLine
 10
503.6027303999999
 20
197.0390370000004
 30
0.0
 11
501.6054714000001
 21
197.1437089999999
 31
0.0
  0
LINE
  5
E1C8
330
1F
100
AcDbEntity
  8
KANAMONO_SCREW
100
AcDbLine
 10
501.6054714000001
 20
197.1437089999999
 30
0.0
 11
501.5007993999997
 21
195.1464500000002
 31
0.0
  0
LINE
  5
E1C9
330
1F
100
AcDbEntity
  8
KANAMONO_SCREW
100
AcDbLine
 10
501.5007993999997
 20
195.1464500000002
 30
0.0
 11
503.4457223999997
 21
194.0431489999991
 31
0.0
  0
LINE
  5
E1CA
330
1F
100
AcDbEntity
  8
KANAMONO_SCREW
100
AcDbLine
 10
503.4457223999997
 20
194.0431489999991
 30
0.0
 11
503.3410504000003
 21
192.0458899999994
 31
0.0
  0
LINE
  5
E1CB
330
1F
100
AcDbEntity
  8
KANAMONO_SCREW
100
AcDbLine
 10
503.3410504000003
 20
192.0458899999994
 30
0.0
 11
501.3437913999996
 21
192.1505620000007
 31
0.0
  0
LINE
  5
E1CC
330
1F
100
AcDbEntity
  8
KANAMONO_SCREW
100
AcDbLine
 10
501.3437913999996
 20
192.1505620000007
 30
0.0
 11
501.2391194000001
 21
190.1533029999991
 31
0.0
  0
LINE
  5
E1CD
330
1F
100
AcDbEntity
  8
KANAMONO_SCREW
100
AcDbLine
 10
501.8671503999994
 20
202.1368569999995
 30
0.0
 11
500.3703943999998
 21
207.1368569999995
 31
0.0
  0
LINE
  5
E1CE
330
1F
100
AcDbEntity
  8
KANAMONO_SCREW
100
AcDbLine
 10
500.3703943999998
 20
207.1368569999995
 30
0.0
 11
499.4799943089383
 21
212.4792615463684
 31
0.0
  0
ARC
  5
E1CF
330
1F
100
AcDbEntity
  8
KANAMONO_SCREW
100
AcDbCircle
 10
499.9731913252658
 20
212.5614609484029
 30
0.0
 40
0.5000000386091043
100
AcDbArc
 50
9.462321570642314
 51
189.4623108271599
  0
LINE
  5
E1D0
330
1F
100
AcDbEntity
  8
KANAMONO_SCREW
100
AcDbLine
 10
500.4663883261801
 20
212.6436604429164
 30
0.0
 11
501.3841883999994
 21
207.1368569999995
 31
0.0
  0
LINE
  5
E1D1
330
1F
100
AcDbEntity
  8
KANAMONO_SCREW
100
AcDbLine
 10
501.3841883999994
 20
207.1368569999995
 30
0.0
 11
502.9298693999999
 21
202.0811620000004
 31
0.0
  0
LINE
  5
E1D2
330
1F
100
AcDbEntity
  8
KANAMONO_SCREW
100
AcDbLine
 10
511.1136203999994
 20
202.1368569999995
 30
0.0
 11
512.6103763999999
 21
207.1368569999995
 31
0.0
  0
LINE
  5
E1D3
330
1F
100
AcDbEntity
  8
KANAMONO_SCREW
100
AcDbLine
 10
512.6103763999999
 20
207.1368569999995
 30
0.0
 11
513.5007764910615
 21
212.4792615463684
 31
0.0
  0
ARC
  5
E1D4
330
1F
100
AcDbEntity
  8
KANAMONO_SCREW
100
AcDbCircle
 10
513.0075794747336
 20
212.5614609484029
 30
0.0
 40
0.5000000386096089
100
AcDbArc
 50
350.5376891728497
 51
170.5376784293652
  0
LINE
  5
E1D5
330
1F
100
AcDbEntity
  8
KANAMONO_SCREW
100
AcDbLine
 10
512.5143824738188
 20
212.6436604429164
 30
0.0
 11
511.5965823999995
 21
207.1368569999995
 31
0.0
  0
LINE
  5
E1D6
330
1F
100
AcDbEntity
  8
KANAMONO_SCREW
100
AcDbLine
 10
511.5965823999995
 20
207.1368569999995
 30
0.0
 11
510.0509013999999
 21
202.0811620000004
 31
0.0
  0
LINE
  5
E1D7
330
1F
100
AcDbEntity
  8
KANAMONO_SCREW
100
AcDbLine
 10
508.3598293999994
 20
187.8066799999997
 30
0.0
 11
506.4903853999994
 21
185.9965420000007
 31
0.0
  0
LINE
  5
E1D8
330
1F
100
AcDbEntity
  8
KANAMONO_SCREW
100
AcDbLine
 10
506.4903853999994
 20
185.9965420000007
 30
0.0
 11
504.6209413999995
 21
187.8066799999997
 31
0.0
  0
LINE
  5
E1D9
330
1F
100
AcDbEntity
  8
kasagi
  6
Continuous
100
AcDbLine
 10
464.9903854000017
 20
240.8282901323123
 30
0.0
 11
465.2439971978778
 21
241.0819019301885
 31
0.0
1001
ACAD
1010
0.0
1020
0.0
1030
0.0
  0
LINE
  5
E1DA
330
1F
100
AcDbEntity
  8
kasagi
  6
Continuous
100
AcDbLine
 10
464.9903854000017
 20
239.7057581171789
 30
0.0
 11
466.4192302465854
 21
241.1346029637625
 31
0.0
1001
ACAD
1010
0.0
1020
0.0
1030
0.0
  0
LINE
  5
E1DB
330
1F
100
AcDbEntity
  8
kasagi
  6
Continuous
100
AcDbLine
 10
464.9903854000017
 20
238.5832261020455
 30
0.0
 11
467.5944632952933
 21
241.187303997337
 31
0.0
1001
ACAD
1010
0.0
1020
0.0
1030
0.0
  0
LINE
  5
E1DC
330
1F
100
AcDbEntity
  8
kasagi
  6
Continuous
100
AcDbLine
 10
465.7837322059094
 20
238.2540408928198
 30
0.0
 11
468.7696963440007
 21
241.2400050309111
 31
0.0
1001
ACAD
1010
0.0
1020
0.0
1030
0.0
  0
LINE
  5
E1DD
330
1F
100
AcDbEntity
  8
kasagi
  6
Continuous
100
AcDbLine
 10
467.1591474638043
 20
238.5069241355804
 30
0.0
 11
469.9449293927095
 21
241.2927060644856
 31
0.0
1001
ACAD
1010
0.0
1020
0.0
1030
0.0
  0
LINE
  5
E1DE
330
1F
100
AcDbEntity
  8
kasagi
  6
Continuous
100
AcDbLine
 10
468.4473103902632
 20
238.6725550469059
 30
0.0
 11
471.1201624414171
 21
241.3454070980597
 31
0.0
1001
ACAD
1010
0.0
1020
0.0
1030
0.0
  0
LINE
  5
E1DF
330
1F
100
AcDbEntity
  8
kasagi
  6
Continuous
100
AcDbLine
 10
469.6643301359681
 20
238.7670427774774
 30
0.0
 11
472.295395490125
 21
241.3981081316342
 31
0.0
1001
ACAD
1010
0.0
1020
0.0
1030
0.0
  0
LINE
  5
E1E0
330
1F
100
AcDbEntity
  8
kasagi
  6
Continuous
100
AcDbLine
 10
470.8214848189891
 20
238.801665445365
 30
0.0
 11
473.4706285388329
 21
241.4508091652087
 31
0.0
1001
ACAD
1010
0.0
1020
0.0
1030
0.0
  0
LINE
  5
E1E1
330
1F
100
AcDbEntity
  8
kasagi
  6
Continuous
100
AcDbLine
 10
471.9270349783641
 20
238.7846835896057
 30
0.0
 11
474.6458615875412
 21
241.5035101987828
 31
0.0
1001
ACAD
1010
0.0
1020
0.0
1030
0.0
  0
LINE
  5
E1E2
330
1F
100
AcDbEntity
  8
kasagi
  6
Continuous
100
AcDbLine
 10
472.9872429940574
 20
238.7223595901655
 30
0.0
 11
475.6323775687351
 21
241.3674941648433
 31
0.0
1001
ACAD
1010
0.0
1020
0.0
1030
0.0
  0
LINE
  5
E1E3
330
1F
100
AcDbEntity
  8
kasagi
  6
Continuous
100
AcDbLine
 10
474.0069864511774
 20
238.6195710321522
 30
0.0
 11
476.5610938700188
 21
241.1736784509935
 31
0.0
1001
ACAD
1010
0.0
1020
0.0
1030
0.0
  0
LINE
  5
E1E4
330
1F
100
AcDbEntity
  8
kasagi
  6
Continuous
100
AcDbLine
 10
474.9901473728727
 20
238.4801999387132
 30
0.0
 11
476.9903854000013
 21
240.4804379658417
 31
0.0
1001
ACAD
1010
0.0
1020
0.0
1030
0.0
  0
LINE
  5
E1E5
330
1F
100
AcDbEntity
  8
kasagi
  6
Continuous
100
AcDbLine
 10
475.9398700448209
 20
238.307390595528
 30
0.0
 11
476.9903854000013
 21
239.3579059507083
 31
0.0
1001
ACAD
1010
0.0
1020
0.0
1030
0.0
  0
LINE
  5
E1E6
330
1F
100
AcDbEntity
  8
kasagi
  6
Continuous
100
AcDbLine
 10
476.8587379256141
 20
238.1037264611878
 30
0.0
 11
476.9903854000013
 21
238.2353739355749
 31
0.0
1001
ACAD
1010
0.0
1020
0.0
1030
0.0
  0
LINE
  5
E1E7
330
1F
100
AcDbEntity
  8
kasagi
  6
Continuous
100
AcDbLine
 10
682.8903853999999
 20
259.9022359999994
 30
0.0
 11
679.0903854000007
 21
259.9022359999994
 31
0.0
  0
LINE
  5
E1E8
330
1F
100
AcDbEntity
  8
kasagi
  6
Continuous
100
AcDbLine
 10
679.0903854000007
 20
259.9022359999994
 30
0.0
 11
679.0903854000007
 21
251.9022359999994
 31
0.0
  0
LINE
  5
E1E9
330
1F
100
AcDbEntity
  8
kasagi
  6
Continuous
100
AcDbLine
 10
679.0903854000007
 20
251.9022359999994
 30
0.0
 11
677.9174363831262
 21
251.9022359999994
 31
0.0
  0
ARC
  5
E1EA
330
1F
100
AcDbEntity
  8
kasagi
  6
Continuous
100
AcDbCircle
 10
677.9174363831262
 20
253.4022360000003
 30
0.0
 40
1.500000000000881
100
AcDbArc
 50
206.565051177077
 51
270.0
  0
LINE
  5
E1EB
330
1F
100
AcDbEntity
  8
kasagi
  6
Continuous
100
AcDbLine
 10
676.5757955966255
 20
252.73141560675
 30
0.0
 11
675.4903854000003
 21
254.9022359999995
 31
0.0
  0
LINE
  5
E1EC
330
1F
100
AcDbEntity
  8
kasagi
  6
Continuous
100
AcDbLine
 10
675.4903854000003
 20
254.9022359999995
 30
0.0
 11
676.9903854000004
 21
254.9022359999995
 31
0.0
  0
LINE
  5
E1ED
330
1F
100
AcDbEntity
  8
kasagi
  6
Continuous
100
AcDbLine
 10
676.9903854000004
 20
254.9022359999995
 30
0.0
 11
676.9903854000004
 21
259.9022359999994
 31
0.0
  0
LINE
  5
E1EE
330
1F
100
AcDbEntity
  8
kasagi
  6
Continuous
100
AcDbLine
 10
676.9903854000004
 20
259.9022359999994
 30
0.0
 11
665.9903854000003
 21
259.9022359999994
 31
0.0
  0
LINE
  5
E1EF
330
1F
100
AcDbEntity
  8
kasagi
  6
Continuous
100
AcDbLine
 10
665.9903854000003
 20
259.9022359999994
 30
0.0
 11
665.9903854000003
 21
253.1323875190169
 31
0.0
  0
LINE
  5
E1F0
330
1F
100
AcDbEntity
  8
kasagi
  6
Continuous
100
AcDbLine
 10
665.9903854000003
 20
253.1323875190169
 30
0.0
 11
662.7988623751771
 21
249.9408644941927
 31
0.0
  0
LINE
  5
E1F1
330
1F
100
AcDbEntity
  8
kasagi
  6
Continuous
100
AcDbLine
 10
662.7988623751771
 20
249.9408644941927
 30
0.0
 11
443.855991310631
 21
240.122798527173
 31
0.0
  0
ARC
  5
E1F2
330
1F
100
AcDbEntity
  8
kasagi
  6
Continuous
100
AcDbCircle
 10
443.9903854000008
 20
237.1258103342125
 30
0.0
 40
3.000000000000436
100
AcDbArc
 50
92.56759732917645
 51
179.9999999999908
  0
LINE
  5
E1F3
330
1F
100
AcDbEntity
  8
kasagi
  6
Continuous
100
AcDbLine
 10
440.9903854000003
 20
237.1258103342129
 30
0.0
 11
440.9903854000003
 21
192.0022359999998
 31
0.0
  0
LINE
  5
E1F4
330
1F
100
AcDbEntity
  8
kasagi
  6
Continuous
100
AcDbLine
 10
440.9903854000003
 20
192.0022359999998
 30
0.0
 11
444.4555071631294
 21
192.2445409178922
 31
0.0
  0
ARC
  5
E1F5
330
1F
100
AcDbEntity
  8
kasagi
  6
Continuous
100
AcDbCircle
 10
444.4903854000008
 20
191.7457588927627
 30
0.0
 40
0.4999999999995335
100
AcDbArc
 50
359.9999999999512
 51
93.99999999993493
  0
LINE
  5
E1F6
330
1F
100
AcDbEntity
  8
kasagi
  6
Continuous
100
AcDbLine
 10
444.9903854000003
 20
191.7457588927623
 30
0.0
 11
444.9903854000003
 21
191.3769481442236
 31
0.0
  0
ARC
  5
E1F7
330
1F
100
AcDbEntity
  8
kasagi
  6
Continuous
100
AcDbCircle
 10
443.4903854000008
 20
191.3769481442232
 30
0.0
 40
1.499999999999545
100
AcDbArc
 50
287.740867691997
 51
0.0000000000151988
  0
LINE
  5
E1F8
330
1F
100
AcDbEntity
  8
kasagi
  6
Continuous
100
AcDbLine
 10
443.947454140838
 20
189.9482815749538
 30
0.0
 11
440.9903854000003
 21
189.0022359999998
 31
0.0
  0
LINE
  5
E1F9
330
1F
100
AcDbEntity
  8
kasagi
  6
Continuous
100
AcDbLine
 10
440.9903854000003
 20
189.0022359999998
 30
0.0
 11
440.9903854000003
 21
182.5022359999998
 31
0.0
  0
ARC
  5
E1FA
330
1F
100
AcDbEntity
  8
kasagi
  6
Continuous
100
AcDbCircle
 10
440.4903854000004
 20
182.5022359999998
 30
0.0
 40
0.5
100
AcDbArc
 50
270.0
 51
0.0
  0
LINE
  5
E1FB
330
1F
100
AcDbEntity
  8
kasagi
  6
Continuous
100
AcDbLine
 10
440.4903854000004
 20
182.0022359999998
 30
0.0
 11
439.3903854
 21
182.0022359999998
 31
0.0
  0
ARC
  5
E1FC
330
1F
100
AcDbEntity
  8
kasagi
  6
Continuous
100
AcDbCircle
 10
439.3903854
 20
182.5022359999998
 30
0.0
 40
0.5
100
AcDbArc
 50
180.0
 51
270.0
  0
LINE
  5
E1FD
330
1F
100
AcDbEntity
  8
kasagi
  6
Continuous
100
AcDbLine
 10
438.8903854
 20
182.5022359999998
 30
0.0
 11
438.8903854
 21
240.0022359999998
 31
0.0
  0
LINE
  5
E1FE
330
1F
100
AcDbEntity
  8
kasagi
  6
Continuous
100
AcDbLine
 10
438.8903854
 20
240.0022359999998
 30
0.0
 11
440.9842821136153
 21
242.0961327136151
 31
0.0
  0
LINE
  5
E1FF
330
1F
100
AcDbEntity
  8
kasagi
  6
Continuous
100
AcDbLine
 10
440.9842821136153
 20
242.0961327136151
 30
0.0
 11
661.8903854
 21
252.0022359999998
 31
0.0
  0
LINE
  5
E200
330
1F
100
AcDbEntity
  8
kasagi
  6
Continuous
100
AcDbLine
 10
661.8903854
 20
252.0022359999998
 30
0.0
 11
663.8903854
 21
254.0022359999998
 31
0.0
  0
LINE
  5
E201
330
1F
100
AcDbEntity
  8
kasagi
  6
Continuous
100
AcDbLine
 10
663.8903854
 20
254.0022359999998
 30
0.0
 11
663.8903854
 21
262.0022359999998
 31
0.0
  0
LINE
  5
E202
330
1F
100
AcDbEntity
  8
kasagi
  6
Continuous
100
AcDbLine
 10
663.8903854
 20
262.0022359999998
 30
0.0
 11
681.3903854
 21
262.0022359999998
 31
0.0
  0
LINE
  5
E203
330
1F
100
AcDbEntity
  8
kasagi
  6
Continuous
100
AcDbLine
 10
681.3903854
 20
262.0022359999998
 30
0.0
 11
681.3903854
 21
265.0022359999998
 31
0.0
  0
LINE
  5
E204
330
1F
100
AcDbEntity
  8
kasagi
  6
Continuous
100
AcDbLine
 10
681.3903854
 20
265.0022359999998
 30
0.0
 11
682.8903853999999
 21
265.0022359999998
 31
0.0
  0
LINE
  5
E205
330
1F
100
AcDbEntity
  8
kasagi
  6
Continuous
100
AcDbLine
 10
682.8903853999999
 20
265.0022359999998
 30
0.0
 11
682.8903853999999
 21
259.9022359999994
 31
0.0
  0
LINE
  5
E206
330
1F
100
AcDbEntity
  8
kasagi
  6
Continuous
100
AcDbLine
 10
682.8903853999999
 20
259.9022359999994
 30
0.0
 11
682.8903853999999
 21
259.9022359999994
 31
0.0
  0
LINE
  5
E207
330
1F
100
AcDbEntity
  8
kasagi
  6
Continuous
100
AcDbLine
 10
557.4903854000003
 20
241.2715581990235
 30
0.0
 11
557.4903853999931
 21
244.2715581990249
 31
0.0
  0
ARC
  5
E208
330
1F
100
AcDbEntity
  8
kasagi
  6
Continuous
100
AcDbCircle
 10
551.4903854000001
 20
220.0022360000034
 30
0.0
 40
24.99999999999661
100
AcDbArc
 50
76.11345963738573
 51
88.04540014792976
  0
LINE
  5
E209
330
1F
100
AcDbEntity
  8
kasagi
  6
Continuous
100
AcDbLine
 10
552.3430750616171
 20
244.9876901751991
 30
0.0
 11
548.4047673695823
 21
244.8110844490991
 31
0.0
  0
ARC
  5
E20A
330
1F
100
AcDbEntity
  8
kasagi
  6
Continuous
100
AcDbCircle
 10
551.4903854000016
 20
220.0022360000063
 30
0.0
 40
24.99999999999405
100
AcDbArc
 50
97.08979451044676
 51
103.8865403626181
  0
LINE
  5
E20B
330
1F
100
AcDbEntity
  8
kasagi
  6
Continuous
100
AcDbLine
 10
545.4903854000076
 20
244.2715581990249
 30
0.0
 11
545.4903854000003
 21
241.2715581990235
 31
0.0
  0
LINE
  5
E20C
330
1F
100
AcDbEntity
  8
kasagi
  6
Continuous
100
AcDbLine
 10
452.8092088163102
 20
228.0022360000005
 30
0.0
 11
633.6356848616197
 21
228.0022360000005
 31
0.0
  0
ARC
  5
E20D
330
1F
100
AcDbEntity
  8
kasagi
  6
Continuous
100
AcDbCircle
 10
633.6356848616202
 20
230.0022360000014
 30
0.0
 40
2.000000000000966
100
AcDbArc
 50
269.9999999999838
 51
329.9999999999836
  0
LINE
  5
E20E
330
1F
100
AcDbEntity
  8
kasagi
  6
Continuous
100
AcDbLine
 10
635.3677356691896
 20
229.0022360000005
 30
0.0
 11
641.1412383610858
 21
239.0022360000005
 31
0.0
  0
ARC
  5
E20F
330
1F
100
AcDbEntity
  8
kasagi
  6
Continuous
100
AcDbCircle
 10
642.8732891686544
 20
238.0022360000011
 30
0.0
 40
1.999999999999373
100
AcDbArc
 50
90.00000000000978
 51
150.0000000000094
  0
LINE
  5
E210
330
1F
100
AcDbEntity
  8
kasagi
  6
Continuous
100
AcDbLine
 10
642.873289168654
 20
240.0022360000005
 30
0.0
 11
673.2903853999996
 21
240.0022360000005
 31
0.0
  0
ARC
  5
E211
330
1F
100
AcDbEntity
  8
kasagi
  6
Continuous
100
AcDbCircle
 10
673.2903853999996
 20
241.5022360000005
 30
0.0
 40
1.5
100
AcDbArc
 50
270.0
 51
0.0
  0
LINE
  5
E212
330
1F
100
AcDbEntity
  8
kasagi
  6
Continuous
100
AcDbLine
 10
674.7903853999996
 20
241.5022360000005
 30
0.0
 11
674.7903853999996
 21
255.5022360000005
 31
0.0
  0
LINE
  5
E213
330
1F
100
AcDbEntity
  8
kasagi
  6
Continuous
100
AcDbLine
 10
674.7903853999996
 20
255.5022360000005
 30
0.0
 11
676.7903853999996
 21
255.5022360000005
 31
0.0
  0
LINE
  5
E214
330
1F
100
AcDbEntity
  8
kasagi
  6
Continuous
100
AcDbLine
 10
676.7903853999996
 20
255.5022360000005
 30
0.0
 11
675.3232918142712
 21
258.7298418886032
 31
0.0
  0
ARC
  5
E215
330
1F
100
AcDbEntity
  8
kasagi
  6
Continuous
100
AcDbCircle
 10
673.5025588593461
 20
257.9022359999997
 30
0.0
 40
2.000000000000386
100
AcDbArc
 50
24.44395478044713
 51
90.00000000002279
  0
LINE
  5
E216
330
1F
100
AcDbEntity
  8
kasagi
  6
Continuous
100
AcDbLine
 10
673.5025588593453
 20
259.9022360000001
 30
0.0
 11
672.2903853999996
 21
259.9022360000001
 31
0.0
  0
ARC
  5
E217
330
1F
100
AcDbEntity
  8
kasagi
  6
Continuous
100
AcDbCircle
 10
672.2903853999996
 20
259.4022360000001
 30
0.0
 40
0.5
100
AcDbArc
 50
90.0
 51
180.0
  0
LINE
  5
E218
330
1F
100
AcDbEntity
  8
kasagi
  6
Continuous
100
AcDbLine
 10
671.7903853999996
 20
259.4022360000001
 30
0.0
 11
671.7903853999996
 21
244.5022360000005
 31
0.0
  0
ARC
  5
E219
330
1F
100
AcDbEntity
  8
kasagi
  6
Continuous
100
AcDbCircle
 10
670.2903853999996
 20
244.5022360000005
 30
0.0
 40
1.5
100
AcDbArc
 50
270.0
 51
0.0
  0
LINE
  5
E21A
330
1F
100
AcDbEntity
  8
kasagi
  6
Continuous
100
AcDbLine
 10
670.2903853999996
 20
243.0022360000005
 30
0.0
 11
641.7185886302759
 21
243.0022360000005
 31
0.0
  0
ARC
  5
E21B
330
1F
100
AcDbEntity
  8
kasagi
  6
Continuous
100
AcDbCircle
 10
641.7185886302755
 20
240.0022359999999
 30
0.0
 40
3.000000000000625
100
AcDbArc
 50
89.99999999999349
 51
149.9999999999934
  0
LINE
  5
E21C
330
1F
100
AcDbEntity
  8
kasagi
  6
Continuous
100
AcDbLine
 10
639.1205124189219
 20
241.5022360000005
 30
0.0
 11
634.5017102654055
 21
233.5022360000005
 31
0.0
  0
ARC
  5
E21D
330
1F
100
AcDbEntity
  8
kasagi
  6
Continuous
100
AcDbCircle
 10
631.9036340540518
 20
235.0022360000011
 30
0.0
 40
3.000000000000657
100
AcDbArc
 50
269.9999999999935
 51
329.9999999999934
  0
LINE
  5
E21E
330
1F
100
AcDbEntity
  8
kasagi
  6
Continuous
100
AcDbLine
 10
631.9036340540515
 20
232.0022360000005
 30
0.0
 11
596.9903854000003
 21
232.0022360000005
 31
0.0
  0
LINE
  5
E21F
330
1F
100
AcDbEntity
  8
kasagi
  6
Continuous
100
AcDbLine
 10
596.9903854000003
 20
232.0022360000005
 30
0.0
 11
596.4903854000003
 21
231.5022360000005
 31
0.0
  0
LINE
  5
E220
330
1F
100
AcDbEntity
  8
kasagi
  6
Continuous
100
AcDbLine
 10
596.4903854000003
 20
231.5022360000005
 30
0.0
 11
595.9903854000003
 21
232.0022360000005
 31
0.0
  0
LINE
  5
E221
330
1F
100
AcDbEntity
  8
kasagi
  6
Continuous
100
AcDbLine
 10
595.9903854000003
 20
232.0022360000005
 30
0.0
 11
553.9903854000003
 21
232.0022360000005
 31
0.0
  0
ARC
  5
E222
330
1F
100
AcDbEntity
  8
kasagi
  6
Continuous
100
AcDbCircle
 10
553.9903854000003
 20
233.0022360000005
 30
0.0
 40
1.0
100
AcDbArc
 50
180.0
 51
270.0
  0
LINE
  5
E223
330
1F
100
AcDbEntity
  8
kasagi
  6
Continuous
100
AcDbLine
 10
552.9903854000004
 20
233.0022360000005
 30
0.0
 11
552.9903854000004
 21
239.0022360000005
 31
0.0
  0
ARC
  5
E224
330
1F
100
AcDbEntity
  8
kasagi
  6
Continuous
100
AcDbCircle
 10
553.9903854000003
 20
239.0022360000005
 30
0.0
 40
1.0
100
AcDbArc
 50
90.0
 51
180.0
  0
LINE
  5
E225
330
1F
100
AcDbEntity
  8
kasagi
  6
Continuous
100
AcDbLine
 10
553.9903854000003
 20
240.0022360000005
 30
0.0
 11
557.4903854000003
 21
240.0022360000005
 31
0.0
  0
LINE
  5
E226
330
1F
100
AcDbEntity
  8
kasagi
  6
Continuous
100
AcDbLine
 10
557.4903854000003
 20
240.0022360000005
 30
0.0
 11
557.4903854000003
 21
241.2715581990235
 31
0.0
  0
ARC
  5
E227
330
1F
100
AcDbEntity
  8
kasagi
  6
Continuous
100
AcDbCircle
 10
551.4903854000003
 20
217.0022359999998
 30
0.0
 40
25.00000000000048
100
AcDbArc
 50
76.11345963737129
 51
103.8865403626287
  0
LINE
  5
E228
330
1F
100
AcDbEntity
  8
kasagi
  6
Continuous
100
AcDbLine
 10
545.4903854000003
 20
241.2715581990235
 30
0.0
 11
545.4903854000003
 21
240.0022360000005
 31
0.0
  0
LINE
  5
E229
330
1F
100
AcDbEntity
  8
kasagi
  6
Continuous
100
AcDbLine
 10
545.4903854000003
 20
240.0022360000005
 30
0.0
 11
548.9903854000004
 21
240.0022360000005
 31
0.0
  0
ARC
  5
E22A
330
1F
100
AcDbEntity
  8
kasagi
  6
Continuous
100
AcDbCircle
 10
548.9903854000004
 20
239.0022360000005
 30
0.0
 40
1.0
100
AcDbArc
 50
0.0
 51
90.0
  0
LINE
  5
E22B
330
1F
100
AcDbEntity
  8
kasagi
  6
Continuous
100
AcDbLine
 10
549.9903854000003
 20
239.0022360000005
 30
0.0
 11
549.9903854000003
 21
233.0022360000005
 31
0.0
  0
ARC
  5
E22C
330
1F
100
AcDbEntity
  8
kasagi
  6
Continuous
100
AcDbCircle
 10
548.9903854000004
 20
233.0022360000005
 30
0.0
 40
1.0
100
AcDbArc
 50
270.0
 51
0.0
  0
LINE
  5
E22D
330
1F
100
AcDbEntity
  8
kasagi
  6
Continuous
100
AcDbLine
 10
548.9903854000004
 20
232.0022360000005
 30
0.0
 11
506.9903854000004
 21
232.0022360000005
 31
0.0
  0
LINE
  5
E22E
330
1F
100
AcDbEntity
  8
kasagi
  6
Continuous
100
AcDbLine
 10
506.9903854000004
 20
232.0022360000005
 30
0.0
 11
506.4903854000004
 21
231.5022360000005
 31
0.0
  0
LINE
  5
E22F
330
1F
100
AcDbEntity
  8
kasagi
  6
Continuous
100
AcDbLine
 10
506.4903854000004
 20
231.5022360000005
 30
0.0
 11
505.9903854000004
 21
232.0022360000005
 31
0.0
  0
LINE
  5
E230
330
1F
100
AcDbEntity
  8
kasagi
  6
Continuous
100
AcDbLine
 10
505.9903854000004
 20
232.0022360000005
 30
0.0
 11
473.4903854000004
 21
232.0022360000005
 31
0.0
  0
ARC
  5
E231
330
1F
100
AcDbEntity
  8
kasagi
  6
Continuous
100
AcDbCircle
 10
473.4903854000004
 20
233.0022360000005
 30
0.0
 40
1.0
100
AcDbArc
 50
180.0
 51
270.0
  0
LINE
  5
E232
330
1F
100
AcDbEntity
  8
kasagi
  6
Continuous
100
AcDbLine
 10
472.4903854000003
 20
233.0022360000005
 30
0.0
 11
472.4903854000003
 21
235.8022360000007
 31
0.0
  0
ARC
  5
E233
330
1F
100
AcDbEntity
  8
kasagi
  6
Continuous
100
AcDbCircle
 10
473.4903854000004
 20
235.8022360000007
 30
0.0
 40
1.0
100
AcDbArc
 50
90.0
 51
180.0
  0
LINE
  5
E234
330
1F
100
AcDbEntity
  8
kasagi
  6
Continuous
100
AcDbLine
 10
473.4903854000004
 20
236.8022360000007
 30
0.0
 11
476.9903854000004
 21
236.8022360000007
 31
0.0
  0
LINE
  5
E235
330
1F
100
AcDbEntity
  8
kasagi
  6
Continuous
100
AcDbLine
 10
476.9903854000004
 20
236.8022360000007
 30
0.0
 11
476.9903854000004
 21
238.0715581990237
 31
0.0
  0
ARC
  5
E236
330
1F
100
AcDbEntity
  8
kasagi
  6
Continuous
100
AcDbCircle
 10
470.9903854000003
 20
213.8022360000004
 30
0.0
 40
25.00000000000004
100
AcDbArc
 50
76.11345963737104
 51
103.8865403626289
  0
LINE
  5
E237
330
1F
100
AcDbEntity
  8
kasagi
  6
Continuous
100
AcDbLine
 10
464.9903854000004
 20
238.0715581990237
 30
0.0
 11
464.9903854000004
 21
236.8022360000007
 31
0.0
  0
LINE
  5
E238
330
1F
100
AcDbEntity
  8
kasagi
  6
Continuous
100
AcDbLine
 10
464.9903854000004
 20
236.8022360000007
 30
0.0
 11
468.4903854000004
 21
236.8022360000007
 31
0.0
  0
ARC
  5
E239
330
1F
100
AcDbEntity
  8
kasagi
  6
Continuous
100
AcDbCircle
 10
468.4903854000004
 20
235.8022360000007
 30
0.0
 40
1.0
100
AcDbArc
 50
0.0
 51
90.0
  0
LINE
  5
E23A
330
1F
100
AcDbEntity
  8
kasagi
  6
Continuous
100
AcDbLine
 10
469.4903854000004
 20
235.8022360000007
 30
0.0
 11
469.4903854000004
 21
233.0022360000005
 31
0.0
  0
ARC
  5
E23B
330
1F
100
AcDbEntity
  8
kasagi
  6
Continuous
100
AcDbCircle
 10
468.4903854000004
 20
233.0022360000005
 30
0.0
 40
1.0
100
AcDbArc
 50
270.0
 51
0.0
  0
LINE
  5
E23C
330
1F
100
AcDbEntity
  8
kasagi
  6
Continuous
100
AcDbLine
 10
468.4903854000004
 20
232.0022360000005
 30
0.0
 11
452.0894049135931
 21
232.0022360000005
 31
0.0
  0
ARC
  5
E23D
330
1F
100
AcDbEntity
  8
kasagi
  6
Continuous
100
AcDbCircle
 10
452.0894049135931
 20
227.0022359999995
 30
0.0
 40
5.000000000000966
100
AcDbArc
 50
90.00000000000063
 51
168.6900675259772
  0
LINE
  5
E23E
330
1F
100
AcDbEntity
  8
kasagi
  6
Continuous
100
AcDbLine
 10
447.1865015351377
 20
227.9828166756908
 30
0.0
 11
440.9903854000003
 21
197.0022360000005
 31
0.0
  0
LINE
  5
E23F
330
1F
100
AcDbEntity
  8
kasagi
  6
Continuous
100
AcDbLine
 10
440.9903854000003
 20
197.0022360000005
 30
0.0
 11
440.9903854000003
 21
192.5384203550131
 31
0.0
  0
ARC
  5
E240
330
1F
100
AcDbEntity
  8
kasagi
  6
Continuous
100
AcDbCircle
 10
441.4903853999999
 20
192.5384203550127
 30
0.0
 40
0.4999999999995453
100
AcDbArc
 50
179.9999999999511
 51
273.9999999999349
  0
LINE
  5
E241
330
1F
100
AcDbEntity
  8
kasagi
  6
Continuous
100
AcDbLine
 10
441.5252636368713
 20
192.0396383298832
 30
0.0
 11
443.5961415029105
 21
192.1844482169792
 31
0.0
  0
LINE
  5
E242
330
1F
100
AcDbEntity
  8
kasagi
  6
Continuous
100
AcDbLine
 10
443.5961415029105
 20
192.1844482169792
 30
0.0
 11
450.3577571270835
 21
225.9925263378457
 31
0.0
  0
ARC
  5
E243
330
1F
100
AcDbEntity
  8
kasagi
  6
Continuous
100
AcDbCircle
 10
452.8092088163107
 20
225.5022360000006
 30
0.0
 40
2.499999999999959
100
AcDbArc
 50
90.00000000001172
 51
168.6900675259875
  0
LINE
  5
E244
330
1F
100
AcDbEntity
  8
kasagi
  6
Continuous
100
AcDbLine
 10
476.9903854000004
 20
238.0715581990237
 30
0.0
 11
476.9903854000004
 21
241.0715581990237
 31
0.0
  0
ARC
  5
E245
330
1F
100
AcDbEntity
  8
kasagi
  6
Continuous
100
AcDbCircle
 10
470.9903853999998
 20
216.8022360000001
 30
0.0
 40
25.00000000000048
100
AcDbArc
 50
76.11345963736994
 51
81.23665714890583
  0
LINE
  5
E246
330
1F
100
AcDbEntity
  8
kasagi
  6
Continuous
100
AcDbLine
 10
474.7992241103311
 20
241.5103874419576
 30
0.0
 11
464.9903854000004
 21
241.0715581990237
 31
0.0
  0
LINE
  5
E247
330
1F
100
AcDbEntity
  8
kasagi
  6
Continuous
100
AcDbLine
 10
464.9903854000004
 20
241.0715581990237
 30
0.0
 11
464.9903854000004
 21
238.0715581990237
 31
0.0
  0
LINE
  5
E248
330
1F
100
AcDbEntity
  8
SUNPO
100
AcDbLine
 10
682.8903853999999
 20
269.0022359999998
 30
0.0
 11
682.8903853999999
 21
300.6024347675321
 31
0.0
  0
LINE
  5
E249
330
1F
100
AcDbEntity
  8
SUNPO
100
AcDbLine
 10
663.8903854
 20
267.3397845247992
 30
0.0
 11
663.8903854
 21
300.6024347675321
 31
0.0
  0
LINE
  5
E24A
330
1F
100
AcDbEntity
  8
SUNPO
100
AcDbLine
 10
679.6903853999999
 20
300.6024347675321
 30
0.0
 11
667.0903854
 21
300.6024347675321
 31
0.0
  0
INSERT
  5
E24B
330
1F
100
AcDbEntity
  8
SUNPO
100
AcDbBlockReference
  2
_DOT
 10
682.8903853999999
 20
300.6024347675321
 30
0.0
 41
3.2
 42
3.2
 43
3.2
  0
INSERT
  5
E24C
330
1F
100
AcDbEntity
  8
SUNPO
100
AcDbBlockReference
  2
_DOT
 10
663.8903854
 20
300.6024347675321
 30
0.0
 41
3.2
 42
3.2
 43
3.2
 50
180.0
  0
MTEXT
  5
E24D
330
1F
100
AcDbEntity
  8
SUNPO
100
AcDbMText
 10
673.3903854
 20
305.002434767532
 30
0.0
 40
8.0
 41
0.0
 71
     5
 72
     1
  1
\A1;19
  7
MSゴシック
 73
     1
 44
1.0
1001
ACAD
1000
MTEXTBEGIN
1070
    73
1070
     1
1070
    44
1040
1.0
1070
    74
1070
     0
1000
MTEXTEND
  0
LINE
  5
E24E
330
1F
100
AcDbEntity
  8
SUNPO
100
AcDbLine
 10
663.8903854
 20
267.3397845247992
 30
0.0
 11
663.8903854
 21
300.6024347675321
 31
0.0
  0
LINE
  5
E24F
330
1F
100
AcDbEntity
  8
SUNPO
100
AcDbLine
 10
438.8903854
 20
244.0022359999998
 30
0.0
 11
438.8903854
 21
300.6024347675321
 31
0.0
  0
LINE
  5
E250
330
1F
100
AcDbEntity
  8
SUNPO
100
AcDbLine
 10
660.6903853999999
 20
300.6024347675321
 30
0.0
 11
442.0903854
 21
300.6024347675321
 31
0.0
  0
INSERT
  5
E251
330
1F
100
AcDbEntity
  8
SUNPO
100
AcDbBlockReference
  2
_DOT
 10
663.8903854
 20
300.6024347675321
 30
0.0
 41
3.2
 42
3.2
 43
3.2
  0
INSERT
  5
E252
330
1F
100
AcDbEntity
  8
SUNPO
100
AcDbBlockReference
  2
_DOT
 10
438.8903854
 20
300.6024347675321
 30
0.0
 41
3.2
 42
3.2
 43
3.2
 50
180.0
  0
MTEXT
  5
E253
330
1F
100
AcDbEntity
  8
SUNPO
100
AcDbMText
 10
551.3903854
 20
305.002434767532
 30
0.0
 40
8.0
 41
0.0
 71
     5
 72
     1
  1
\A1;225
  7
MSゴシック
 73
     1
 44
1.0
1001
ACAD
1000
MTEXTBEGIN
1070
    73
1070
     1
1070
    44
1040
1.0
1070
    74
1070
     0
1000
MTEXTEND
  0
LINE
  5
E254
330
1F
100
AcDbEntity
  8
SUNPO
100
AcDbLine
 10
435.3811539815271
 20
181.9930045815263
 30
0.0
 11
386.3586810127877
 21
181.9930045815263
 31
0.0
  0
LINE
  5
E255
330
1F
100
AcDbEntity
  8
SUNPO
100
AcDbLine
 10
435.3811539815271
 20
241.9930045815264
 30
0.0
 11
386.3586810127877
 21
241.9930045815264
 31
0.0
  0
LINE
  5
E256
330
1F
100
AcDbEntity
  8
SUNPO
100
AcDbLine
 10
386.3586810127877
 20
185.1930045815263
 30
0.0
 11
386.3586810127877
 21
238.7930045815264
 31
0.0
  0
INSERT
  5
E257
330
1F
100
AcDbEntity
  8
SUNPO
100
AcDbBlockReference
  2
_DOT
 10
386.3586810127877
 20
181.9930045815263
 30
0.0
 41
3.2
 42
3.2
 43
3.2
 50
270.0
  0
INSERT
  5
E258
330
1F
100
AcDbEntity
  8
SUNPO
100
AcDbBlockReference
  2
_DOT
 10
386.3586810127877
 20
241.9930045815264
 30
0.0
 41
3.2
 42
3.2
 43
3.2
 50
90.0
  0
MTEXT
  5
E259
330
1F
100
AcDbEntity
  8
SUNPO
100
AcDbMText
 10
381.9586810127876
 20
211.9930045815262
 30
0.0
 40
8.0
 41
0.0
 71
     5
 72
     1
  1
\A1;60
  7
MSゴシック
 11
0.0000000000000001
 21
1.0
 31
0.0
 73
     1
 44
1.0
1001
ACAD
1000
MTEXTBEGIN
1070
    73
1070
     1
1070
    44
1040
1.0
1070
    74
1070
     0
1000
MTEXTEND
  0
LINE
  5
E25A
330
1F
100
AcDbEntity
  8
SUNPO
100
AcDbLine
 10
435.3811539815271
 20
241.9930045815264
 30
0.0
 11
386.3586810127877
 21
241.9930045815264
 31
0.0
  0
LINE
  5
E25B
330
1F
100
AcDbEntity
  8
SUNPO
100
AcDbLine
 10
532.8811539815271
 20
251.9930045815264
 30
0.0
 11
386.3586810127877
 21
251.9930045815264
 31
0.0
  0
LINE
  5
E25C
330
1F
100
AcDbEntity
  8
SUNPO
100
AcDbLine
 10
386.3586810127877
 20
245.1930045815264
 30
0.0
 11
386.3586810127877
 21
248.7930045815264
 31
0.0
  0
INSERT
  5
E25D
330
1F
100
AcDbEntity
  8
SUNPO
100
AcDbBlockReference
  2
_DOT
 10
386.3586810127877
 20
241.9930045815264
 30
0.0
 41
3.2
 42
3.2
 43
3.2
 50
270.0
  0
INSERT
  5
E25E
330
1F
100
AcDbEntity
  8
SUNPO
100
AcDbBlockReference
  2
_DOT
 10
386.3586810127877
 20
251.9930045815264
 30
0.0
 41
3.2
 42
3.2
 43
3.2
 50
90.0
  0
MTEXT
  5
E25F
330
1F
100
AcDbEntity
  8
SUNPO
100
AcDbMText
 10
381.9586810127876
 20
246.9930045815262
 30
0.0
 40
8.0
 41
0.0
 71
     5
 72
     1
  1
\A1;10
  7
MSゴシック
 11
0.0000000000000001
 21
1.0
 31
0.0
 73
     1
 44
1.0
1001
ACAD
1000
MTEXTBEGIN
1070
    73
1070
     1
1070
    44
1040
1.0
1070
    74
1070
     0
1000
MTEXTEND
  0
LINE
  5
E260
330
1F
100
AcDbEntity
  8
SUNPO
100
AcDbLine
 10
532.8811539815271
 20
251.9930045815264
 30
0.0
 11
386.3586810127877
 21
251.9930045815264
 31
0.0
  0
LINE
  5
E261
330
1F
100
AcDbEntity
  8
SUNPO
100
AcDbLine
 10
534.8811539815272
 20
261.9930045815264
 30
0.0
 11
386.3586810127877
 21
261.9930045815264
 31
0.0
  0
LINE
  5
E262
330
1F
100
AcDbEntity
  8
SUNPO
100
AcDbLine
 10
386.3586810127877
 20
255.1930045815264
 30
0.0
 11
386.3586810127877
 21
258.7930045815264
 31
0.0
  0
INSERT
  5
E263
330
1F
100
AcDbEntity
  8
SUNPO
100
AcDbBlockReference
  2
_DOT
 10
386.3586810127877
 20
251.9930045815264
 30
0.0
 41
3.2
 42
3.2
 43
3.2
 50
270.0
  0
INSERT
  5
E264
330
1F
100
AcDbEntity
  8
SUNPO
100
AcDbBlockReference
  2
_DOT
 10
386.3586810127877
 20
261.9930045815264
 30
0.0
 41
3.2
 42
3.2
 43
3.2
 50
90.0
  0
MTEXT
  5
E265
330
1F
100
AcDbEntity
  8
SUNPO
100
AcDbMText
 10
381.9586810127876
 20
256.9930045815262
 30
0.0
 40
8.0
 41
0.0
 71
     5
 72
     1
  1
\A1;10
  7
MSゴシック
 11
0.0000000000000001
 21
1.0
 31
0.0
 73
     1
 44
1.0
1001
ACAD
1000
MTEXTBEGIN
1070
    73
1070
     1
1070
    44
1040
1.0
1070
    74
1070
     0
1000
MTEXTEND
  0
LINE
  5
E266
330
1F
100
AcDbEntity
  8
SUNPO
100
AcDbLine
 10
551.4903854000003
 20
263.1598269764988
 30
0.0
 11
551.4903854000003
 21
290.1304868328357
 31
0.0
  0
LINE
  5
E267
330
1F
100
AcDbEntity
  8
SUNPO
100
AcDbLine
 10
663.8903854
 20
267.3397845247992
 30
0.0
 11
663.8903854
 21
290.1304868328357
 31
0.0
  0
LINE
  5
E268
330
1F
100
AcDbEntity
  8
SUNPO
100
AcDbLine
 10
554.6903854000004
 20
290.1304868328357
 30
0.0
 11
660.6903853999999
 21
290.1304868328357
 31
0.0
  0
INSERT
  5
E269
330
1F
100
AcDbEntity
  8
SUNPO
100
AcDbBlockReference
  2
_DOT
 10
551.4903854000003
 20
290.1304868328357
 30
0.0
 41
3.2
 42
3.2
 43
3.2
 50
180.0
  0
INSERT
  5
E26A
330
1F
100
AcDbEntity
  8
SUNPO
100
AcDbBlockReference
  2
_DOT
 10
663.8903854
 20
290.1304868328357
 30
0.0
 41
3.2
 42
3.2
 43
3.2
  0
MTEXT
  5
E26B
330
1F
100
AcDbEntity
  8
SUNPO
100
AcDbMText
 10
607.6903854000001
 20
294.5304868328356
 30
0.0
 40
8.0
 41
0.0
 71
     5
 72
     1
  1
\A1;112.5
  7
MSゴシック
 73
     1
 44
1.0
1001
ACAD
1000
MTEXTBEGIN
1070
    73
1070
     1
1070
    44
1040
1.0
1070
    74
1070
     0
1000
MTEXTEND
  0
LINE
  5
E26C
330
1F
100
AcDbEntity
  8
SUNPO
100
AcDbLine
 10
637.6356848616199
 20
228.0022360000006
 30
0.0
 11
700.2995095727225
 21
228.0022360000006
 31
0.0
  0
LINE
  5
E26D
330
1F
100
AcDbEntity
  8
SUNPO
100
AcDbLine
 10
685.3903854000002
 20
262.0022359999999
 30
0.0
 11
700.2995095727223
 21
262.0022359999999
 31
0.0
  0
LINE
  5
E26E
330
1F
100
AcDbEntity
  8
SUNPO
100
AcDbLine
 10
700.2995095727225
 20
231.2022360000006
 30
0.0
 11
700.2995095727223
 21
258.802236
 31
0.0
  0
INSERT
  5
E26F
330
1F
100
AcDbEntity
  8
SUNPO
100
AcDbBlockReference
  2
_DOT
 10
700.2995095727225
 20
228.0022360000006
 30
0.0
 41
3.2
 42
3.2
 43
3.2
 50
270.0
  0
INSERT
  5
E270
330
1F
100
AcDbEntity
  8
SUNPO
100
AcDbBlockReference
  2
_DOT
 10
700.2995095727223
 20
262.0022359999999
 30
0.0
 41
3.2
 42
3.2
 43
3.2
 50
90.0
  0
MTEXT
  5
E271
330
1F
100
AcDbEntity
  8
SUNPO
100
AcDbMText
 10
704.6995095727224
 20
245.002236
 30
0.0
 40
8.0
 41
0.0
 71
     5
 72
     1
  1
\A1;34
  7
MSゴシック
 11
0.0000000000000001
 21
1.0
 31
0.0
 73
     1
 44
1.0
1001
ACAD
1000
MTEXTBEGIN
1070
    73
1070
     1
1070
    44
1040
1.0
1070
    74
1070
     0
1000
MTEXTEND
  0
LINE
  5
E272
330
1F
100
AcDbEntity
  8
SUNPO
100
AcDbLine
 10
448.4999773978382
 20
227.9930045815262
 30
0.0
 11
404.5607400795038
 21
227.9930045815262
 31
0.0
  0
LINE
  5
E273
330
1F
100
AcDbEntity
  8
SUNPO
100
AcDbLine
 10
435.3811539815271
 20
181.9930045815263
 30
0.0
 11
404.5607400795038
 21
181.9930045815263
 31
0.0
  0
LINE
  5
E274
330
1F
100
AcDbEntity
  8
SUNPO
100
AcDbLine
 10
404.5607400795038
 20
224.7930045815262
 30
0.0
 11
404.5607400795038
 21
185.1930045815263
 31
0.0
  0
INSERT
  5
E275
330
1F
100
AcDbEntity
  8
SUNPO
100
AcDbBlockReference
  2
_DOT
 10
404.5607400795038
 20
227.9930045815262
 30
0.0
 41
3.2
 42
3.2
 43
3.2
 50
90.0
  0
INSERT
  5
E276
330
1F
100
AcDbEntity
  8
SUNPO
100
AcDbBlockReference
  2
_DOT
 10
404.5607400795038
 20
181.9930045815263
 30
0.0
 41
3.2
 42
3.2
 43
3.2
 50
270.0
  0
MTEXT
  5
E277
330
1F
100
AcDbEntity
  8
SUNPO
100
AcDbMText
 10
400.1607400795037
 20
204.9930045815261
 30
0.0
 40
8.0
 41
0.0
 71
     5
 72
     1
  1
\A1;46
  7
MSゴシック
 11
0.0000000000000001
 21
1.0
 31
0.0
 73
     1
 44
1.0
1001
ACAD
1000
MTEXTBEGIN
1070
    73
1070
     1
1070
    44
1040
1.0
1070
    74
1070
     0
1000
MTEXTEND
  0
LINE
  5
E278
330
1F
100
AcDbEntity
  8
SUNPO
100
AcDbLine
 10
506.4903853999994
 20
240.4022360000001
 30
0.0
 11
506.4903853999994
 21
279.2717661527629
 31
0.0
  0
LINE
  5
E279
330
1F
100
AcDbEntity
  8
SUNPO
100
AcDbLine
 10
551.4903854000003
 20
263.1598269764988
 30
0.0
 11
551.4903854000003
 21
279.2717661527629
 31
0.0
  0
LINE
  5
E27A
330
1F
100
AcDbEntity
  8
SUNPO
100
AcDbLine
 10
509.6903853999994
 20
279.2717661527629
 30
0.0
 11
548.2903854000003
 21
279.2717661527629
 31
0.0
  0
INSERT
  5
E27B
330
1F
100
AcDbEntity
  8
SUNPO
100
AcDbBlockReference
  2
_DOT
 10
506.4903853999994
 20
279.2717661527629
 30
0.0
 41
3.2
 42
3.2
 43
3.2
 50
180.0
  0
INSERT
  5
E27C
330
1F
100
AcDbEntity
  8
SUNPO
100
AcDbBlockReference
  2
_DOT
 10
551.4903854000003
 20
279.2717661527629
 30
0.0
 41
3.2
 42
3.2
 43
3.2
  0
MTEXT
  5
E27D
330
1F
100
AcDbEntity
  8
SUNPO
100
AcDbMText
 10
528.9903853999999
 20
283.6717661527629
 30
0.0
 40
8.0
 41
0.0
 71
     5
 72
     1
  1
\A1;45
  7
MSゴシック
 73
     1
 44
1.0
1001
ACAD
1000
MTEXTBEGIN
1070
    73
1070
     1
1070
    44
1040
1.0
1070
    74
1070
     0
1000
MTEXTEND
  0
LINE
  5
E27E
330
1F
100
AcDbEntity
  8
SUNPO
100
AcDbLine
 10
551.4903854000003
 20
263.1598269764988
 30
0.0
 11
551.4903854000003
 21
279.2717661527629
 31
0.0
  0
LINE
  5
E27F
330
1F
100
AcDbEntity
  8
SUNPO
100
AcDbLine
 10
596.4903854000003
 20
240.4022360000001
 30
0.0
 11
596.4903854000003
 21
279.2717661527629
 31
0.0
  0
LINE
  5
E280
330
1F
100
AcDbEntity
  8
SUNPO
100
AcDbLine
 10
554.6903854000004
 20
279.2717661527629
 30
0.0
 11
593.2903854000003
 21
279.2717661527629
 31
0.0
  0
INSERT
  5
E281
330
1F
100
AcDbEntity
  8
SUNPO
100
AcDbBlockReference
  2
_DOT
 10
551.4903854000003
 20
279.2717661527629
 30
0.0
 41
3.2
 42
3.2
 43
3.2
 50
180.0
  0
INSERT
  5
E282
330
1F
100
AcDbEntity
  8
SUNPO
100
AcDbBlockReference
  2
_DOT
 10
596.4903854000003
 20
279.2717661527629
 30
0.0
 41
3.2
 42
3.2
 43
3.2
  0
MTEXT
  5
E283
330
1F
100
AcDbEntity
  8
SUNPO
100
AcDbMText
 10
573.9903854000004
 20
283.6717661527629
 30
0.0
 40
8.0
 41
0.0
 71
     5
 72
     1
  1
\A1;45
  7
MSゴシック
 73
     1
 44
1.0
1001
ACAD
1000
MTEXTBEGIN
1070
    73
1070
     1
1070
    44
1040
1.0
1070
    74
1070
     0
1000
MTEXTEND
  0
LINE
  5
E284
330
1F
100
AcDbEntity
  8
SUNPO
100
AcDbLine
 10
584.0748040011065
 20
246.4106376612749
 30
0.0
 11
584.8858456996932
 21
246.4470072441711
 31
0.0
  0
LINE
  5
E285
330
1F
100
AcDbEntity
  8
SUNPO
100
AcDbLine
 10
583.980728138547
 20
248.5085293963475
 30
0.0
 11
584.791769837134
 21
248.5448989792437
 31
0.0
  0
LINE
  5
E286
330
1F
100
AcDbEntity
  8
SUNPO
100
AcDbLine
 10
585.0291993950216
 20
243.250219838347
 30
0.0
 11
585.17255309035
 21
240.0534324325229
 31
0.0
  0
LINE
  5
E287
330
1F
100
AcDbEntity
  8
SUNPO
100
AcDbLine
 10
584.6484161418056
 20
251.7416863850678
 30
0.0
 11
584.5050624464771
 21
254.938473790892
 31
0.0
  0
LINE
  5
E288
330
1F
100
AcDbEntity
  8
SUNPO
100
AcDbLine
 10
583.8712112105204
 20
269.0733563527294
 30
0.0
 11
584.791769837134
 21
248.5448989792437
 31
0.0
  0
MTEXT
  5
E289
330
1F
100
AcDbEntity
  8
SUNPO
100
AcDbMText
 10
588.5776058078288
 20
262.3393619949094
 30
0.0
 40
8.0
 41
0.0
 71
     5
 72
     1
  1
\A1;2.1
  7
MSゴシック
 11
0.0447980297901283
 21
-0.9989960643200365
 31
0.0
 73
     1
 44
1.0
1001
ACAD
1000
MTEXTBEGIN
1070
    73
1070
     1
1070
    44
1040
1.0
1070
    74
1070
     0
1000
MTEXTEND
  0
LINE
  5
E28A
330
1F
100
AcDbEntity
  8
SUNPO
100
AcDbLine
 10
584.8858456996932
 20
246.4470072441711
 30
0.0
 11
584.791769837134
 21
248.5448989792437
 31
0.0
  0
LINE
  5
E28B
330
1F
100
AcDbEntity
  8
SUNPO
100
AcDbLine
 10
584.8858456996932
 20
246.4470072441711
 30
0.0
 11
584.791769837134
 21
248.5448989792437
 31
0.0
  0
INSERT
  5
E28C
330
1F
100
AcDbEntity
  8
SUNPO
100
AcDbBlockReference
  2
_DOT
 10
584.8858456996932
 20
246.4470072441711
 30
0.0
 41
3.2
 42
3.2
 43
3.2
 50
92.56759732918734
  0
INSERT
  5
E28D
330
1F
100
AcDbEntity
  8
SUNPO
100
AcDbBlockReference
  2
_DOT
 10
584.791769837134
 20
248.5448989792437
 30
0.0
 41
3.2
 42
3.2
 43
3.2
 50
272.5675973291873
  0
LINE
  5
E28E
330
1F
100
AcDbEntity
  8
WAKU
100
AcDbLine
 10
1104.0
 20
716.0
 30
0.0
 11
0.0
 21
716.0
 31
0.0
  0
LINE
  5
E28F
330
1F
100
AcDbEntity
  8
WAKU
100
AcDbLine
 10
0.0
 20
716.0
 30
0.0
 11
0.0
 21
764.0
 31
0.0
  0
LINE
  5
E290
330
1F
100
AcDbEntity
  8
WAKU
100
AcDbLine
 10
0.0
 20
764.0
 30
0.0
 11
1104.0
 21
764.0
 31
0.0
  0
LINE
  5
E291
330
1F
100
AcDbEntity
  8
WAKU
100
AcDbLine
 10
1104.0
 20
764.0
 30
0.0
 11
1104.0
 21
716.0
 31
0.0
  0
LINE
  5
E292
330
1F
100
AcDbEntity
  8
WAKU
100
AcDbLine
 10
0.0
 20
0.0
 30
0.0
 11
1104.0
 21
0.0
 31
0.0
  0
LINE
  5
E293
330
1F
100
AcDbEntity
  8
WAKU
100
AcDbLine
 10
1104.0
 20
0.0
 30
0.0
 11
1104.0
 21
764.0
 31
0.0
  0
LINE
  5
E294
330
1F
100
AcDbEntity
  8
WAKU
100
AcDbLine
 10
1104.0
 20
764.0
 30
0.0
 11
0.0
 21
764.0
 31
0.0
  0
LINE
  5
E295
330
1F
100
AcDbEntity
  8
WAKU
100
AcDbLine
 10
0.0
 20
764.0
 30
0.0
 11
0.0
 21
0.0
 31
0.0
  0
ENDSEC
  0
SECTION
  2
OBJECTS
  0
DICTIONARY
  5
C
330
0
100
AcDbDictionary
281
     1
  3
ACAD_CIP_PREVIOUS_PRODUCT_INFO
350
DC83
  3
ACAD_COLOR
350
5586
  3
ACAD_DETAILVIEWSTYLE
350
DC7E
  3
ACAD_GROUP
350
D
  3
ACAD_LAYOUT
350
1A
  3
ACAD_MATERIAL
350
5559
  3
ACAD_MLEADERSTYLE
350
559B
  3
ACAD_MLINESTYLE
350
17
  3
ACAD_PLOTSETTINGS
350
19
  3
ACAD_PLOTSTYLENAME
350
E
  3
ACAD_SCALELIST
350
5589
  3
ACAD_SECTIONVIEWSTYLE
350
DC7C
  3
ACAD_TABLESTYLE
350
5587
  3
ACAD_VISUALSTYLE
350
5572
  3
ACDB_RECOMPOSE_DATA
350
E298
  3
AcDbVariableDictionary
350
1835
  3
AEC_PROPERTY_SET_DEFS
350
6D46
  3
DWGPROPS
350
E299
  0
DICTIONARY
  5
8FC3
330
8
100
AcDbDictionary
280
     1
281
     1
  0
DICTIONARY
  5
2D
330
2
100
AcDbDictionary
280
     1
281
     1
  3
ACAD_LAYERFILTERS
360
2E
  3
ACAD_LAYERSTATES
360
918
  0
DICTIONARY
  5
8FB2
330
10
100
AcDbDictionary
280
     1
281
     1
  3
ADSK_XREC_LAYER_RECONCILED
360
8FB3
  0
DICTIONARY
  5
8FB4
330
2388
100
AcDbDictionary
280
     1
281
     1
  3
ADSK_XREC_LAYER_RECONCILED
360
8FB5
  0
DICTIONARY
  5
8FB6
330
2389
100
AcDbDictionary
280
     1
281
     1
  3
ADSK_XREC_LAYER_RECONCILED
360
8FB7
  0
DICTIONARY
  5
8FB8
330
238A
100
AcDbDictionary
280
     1
281
     1
  3
ADSK_XREC_LAYER_RECONCILED
360
8FB9
  0
DICTIONARY
  5
8FBA
330
238B
100
AcDbDictionary
280
     1
281
     1
  3
ADSK_XREC_LAYER_RECONCILED
360
8FBB
  0
DICTIONARY
  5
62D1
330
62D0
100
AcDbDictionary
280
     1
281
     1
  3
ADSK_XREC_LAYER_RECONCILED
360
8FBD
  0
DICTIONARY
  5
DC85
330
DC84
100
AcDbDictionary
280
     1
281
     1
  0
DICTIONARY
  5
1C62
330
1F
100
AcDbDictionary
280
     1
281
     1
  3
ACAD_SORTENTS
360
1C63
  0
XRECORD
  5
DC83
102
{ACAD_REACTORS
330
C
102
}
330
C
100
AcDbXrecord
280
     1
300
ACD
300
2022
300

  0
DICTIONARY
  5
5586
102
{ACAD_REACTORS
330
C
102
}
330
C
100
AcDbDictionary
281
     1
  0
DICTIONARY
  5
DC7E
102
{ACAD_REACTORS
330
C
102
}
330
C
100
AcDbDictionary
281
     1
  3
Metric50
350
DC7F
  0
DICTIONARY
  5
D
102
{ACAD_REACTORS
330
C
102
}
330
C
100
AcDbDictionary
281
     1
  0
DICTIONARY
  5
1A
102
{ACAD_REACTORS
330
C
102
}
330
C
100
AcDbDictionary
281
     1
  3
Model
350
22
  3
\U+FF9A\U+FF72\U+FF71\U+FF73\U+FF841
350
1CD1
  0
DICTIONARY
  5
5559
102
{ACAD_REACTORS
330
C
102
}
330
C
100
AcDbDictionary
281
     1
  3
ByBlock
350
5562
  3
ByLayer
350
555A
  3
Global
350
556A
  0
DICTIONARY
  5
559B
102
{ACAD_REACTORS
330
C
102
}
330
C
100
AcDbDictionary
281
     1
  3
Standard
350
559C
  0
DICTIONARY
  5
17
102
{ACAD_REACTORS
330
C
102
}
330
C
100
AcDbDictionary
281
     1
  3
Standard
350
18
  0
DICTIONARY
  5
19
102
{ACAD_REACTORS
330
C
102
}
330
C
100
AcDbDictionary
281
     1
  0
ACDBDICTIONARYWDFLT
  5
E
102
{ACAD_REACTORS
330
C
102
}
330
C
100
AcDbDictionary
281
     1
  3
Normal
350
F
  3
通常
350
29
100
AcDbDictionaryWithDefault
340
F
  0
DICTIONARY
  5
5589
102
{ACAD_REACTORS
330
C
102
}
330
C
100
AcDbDictionary
281
     1
  3
A0
350
558A
  3
A1
350
558B
  3
A2
350
558C
  3
A3
350
558D
  3
A4
350
558E
  3
A5
350
558F
  3
A6
350
5590
  3
A7
350
5591
  3
A8
350
5592
  3
A9
350
5593
  3
B0
350
5594
  3
B1
350
5595
  3
B2
350
5596
  3
B3
350
5597
  3
B4
350
5598
  3
B5
350
5599
  3
B6
350
559A
  0
DICTIONARY
  5
DC7C
102
{ACAD_REACTORS
330
C
102
}
330
C
100
AcDbDictionary
281
     1
  3
Metric50
350
DC7D
  0
DICTIONARY
  5
5587
102
{ACAD_REACTORS
330
C
102
}
330
C
100
AcDbDictionary
281
     1
  3
Standard
350
5588
  0
DICTIONARY
  5
5572
102
{ACAD_REACTORS
330
C
102
}
330
C
100
AcDbDictionary
281
     1
  3
2dWireframe
350
5578
  3
3D Hidden
350
557A
  3
3dWireframe
350
5579
  3
Basic
350
5577
  3
Brighten
350
557E
  3
ColorChange
350
5582
  3
Conceptual
350
557B
  3
Dim
350
557D
  3
EdgeColorOff
350
5585
  3
Facepattern
350
5581
  3
Flat
350
5573
  3
FlatWithEdges
350
5574
  3
Gouraud
350
5575
  3
GouraudWithEdges
350
5576
  3
Hidden
350
DC76
  3
JitterOff
350
5583
  3
Linepattern
350
5580
  3
OverhangOff
350
5584
  3
Realistic
350
557C
  3
Shaded
350
DC7B
  3
Shaded with edges
350
DC7A
  3
Shades of Gray
350
DC77
  3
Sketchy
350
DC78
  3
Thicken
350
557F
  3
Wireframe
350
DC75
  3
X-Ray
350
DC79
  0
XRECORD
  5
E298
102
{ACAD_REACTORS
330
C
102
}
330
C
100
AcDbXrecord
280
     1
 90
        1
330
5588
  0
DICTIONARY
  5
1835
102
{ACAD_REACTORS
330
C
102
}
330
C
100
AcDbDictionary
281
     1
  3
CANNOSCALE
350
8FF6
  3
CMLEADERSTYLE
350
8FF5
  3
CTABLESTYLE
350
8FF4
  3
CVIEWDETAILSTYLE
350
DD51
  3
CVIEWSECTIONSTYLE
350
DD52
  3
DIMASSOC
350
8FF8
  3
INDEXCTL
350
8FF7
  3
SORTENTS
350
1836
  3
XCLIPFRAME
350
E296
  0
DICTIONARY
  5
6D46
102
{ACAD_REACTORS
330
C
102
}
330
C
100
AcDbDictionary
281
     1
  0
XRECORD
  5
E299
102
{ACAD_REACTORS
330
C
102
}
330
C
100
AcDbXrecord
280
     1
  1
DWGPROPS COOKIE
  2

  3

  4

  6

  7

  8
2020009
  9

300
=
301
=
302
=
303
=
304
=
305
=
306
=
307
=
308
=
309
=
 40
0.238432025462963
 41
2453276.413761574
 42
2459975.539421296
  1

 90
        0
  0
DICTIONARY
  5
2E
102
{ACAD_REACTORS
330
2D
102
}
330
2D
100
AcDbDictionary
280
     1
281
     1
  0
DICTIONARY
  5
918
102
{ACAD_REACTORS
330
2D
102
}
330
2D
100
AcDbDictionary
281
     1
  0
XRECORD
  5
8FB3
102
{ACAD_REACTORS
330
8FB2
102
}
330
8FB2
100
AcDbXrecord
280
     1
290
     1
  0
XRECORD
  5
8FB5
102
{ACAD_REACTORS
330
8FB4
102
}
330
8FB4
100
AcDbXrecord
280
     1
290
     1
  0
XRECORD
  5
8FB7
102
{ACAD_REACTORS
330
8FB6
102
}
330
8FB6
100
AcDbXrecord
280
     1
290
     1
  0
XRECORD
  5
8FB9
102
{ACAD_REACTORS
330
8FB8
102
}
330
8FB8
100
AcDbXrecord
280
     1
290
     1
  0
XRECORD
  5
8FBB
102
{ACAD_REACTORS
330
8FBA
102
}
330
8FBA
100
AcDbXrecord
280
     1
290
     1
  0
XRECORD
  5
8FBD
102
{ACAD_REACTORS
330
62D1
102
}
330
62D1
100
AcDbXrecord
280
     1
290
     1
  0
SORTENTSTABLE
  5
1C63
102
{ACAD_REACTORS
330
1C62
102
}
330
1C62
100
AcDbSortentsTable
330
1F
331
D994
  5
D998
331
D995
  5
D99A
331
D996
  5
D99C
331
D997
  5
D99F
331
D998
  5
D9A0
331
D99A
  5
D9BB
331
D99C
  5
D9BF
331
D99F
  5
E131
331
D9A0
  5
E132
331
D9A2
  5
E138
331
D9A3
  5
E139
331
D9A4
  5
E13A
331
D9A5
  5
E13B
331
D9A6
  5
E13C
331
D9A8
  5
E142
331
D9AA
  5
E145
331
D9AB
  5
E146
331
D9AD
  5
E14A
331
D9B0
  5
E187
331
D9B1
  5
E188
331
D9B3
  5
E18E
331
D9B4
  5
E18F
331
D9B5
  5
E190
331
D9B6
  5
E191
331
D9B7
  5
E192
331
D9B9
  5
E198
331
D9BB
  5
E19B
331
D9BC
  5
E19C
331
D9BD
  5
E19D
331
D9BE
  5
E19E
331
D9BF
  5
E19F
331
D9C0
  5
E1A0
331
D9C1
  5
E1A1
331
D9C2
  5
E1A2
331
D9C3
  5
E1A3
331
D9C4
  5
E1A4
331
D9C5
  5
E1A5
331
D9C6
  5
E1A6
331
D9C7
  5
E1A7
331
D9C8
  5
E1A8
331
D9C9
  5
E1A9
331
D9CA
  5
E1AA
331
D9CB
  5
E1AB
331
D9CC
  5
E1AC
331
D9CD
  5
E1AD
331
D9CE
  5
E1AE
331
D9CF
  5
E1AF
331
D9D0
  5
E1B0
331
D9D1
  5
E1B1
331
D9D2
  5
E1B2
331
D9D3
  5
E1B3
331
D9D4
  5
E1B4
331
D9D5
  5
E1B5
331
D9D6
  5
E1B6
331
D9D7
  5
E1B7
331
D9D8
  5
E1B8
331
D9D9
  5
E1B9
331
D9DA
  5
E1BA
331
D9E0
  5
E22A
331
D9E1
  5
E22B
331
D9E2
  5
E22C
331
D9E3
  5
E22D
331
D9EF
  5
E274
331
D9F0
  5
E275
331
D9F1
  5
E276
331
D9F2
  5
E277
331
D9F3
  5
E278
331
D9F4
  5
E279
331
D9F5
  5
E27A
331
D9F6
  5
E27B
331
D9F7
  5
E27C
331
D9F8
  5
E27D
331
D9F9
  5
E27E
331
D9FA
  5
E27F
331
D9FB
  5
E280
331
D9FC
  5
E281
331
D9FD
  5
E282
331
D9FE
  5
E283
331
D9FF
  5
E284
331
DA00
  5
E285
331
DA01
  5
E286
331
DA02
  5
E287
331
DA03
  5
E288
331
DC9A
  5
E28D
331
DC9B
  5
E28E
331
DC9D
  5
E293
331
DC9E
  5
E294
331
DC9F
  5
E295
331
E12E
  5
D994
331
E12F
  5
D995
331
E130
  5
D996
331
E131
  5
D997
331
E132
  5
D9A2
331
E133
  5
D9A3
331
E134
  5
D9A4
331
E135
  5
D9A5
331
E136
  5
D9A6
331
E137
  5
D9A8
331
E138
  5
D9AA
331
E139
  5
D9AB
331
E13A
  5
D9AD
331
E13B
  5
D9B0
331
E13C
  5
D9B1
331
E13D
  5
D9B3
331
E13E
  5
D9B4
331
E13F
  5
D9B5
331
E140
  5
D9B6
331
E141
  5
D9B7
331
E142
  5
D9B9
331
E143
  5
D9BC
331
E144
  5
D9BD
331
E145
  5
D9BE
331
E146
  5
D9C0
331
E147
  5
D9C1
331
E148
  5
D9C2
331
E149
  5
D9C3
331
E14A
  5
D9C4
331
E14B
  5
D9C5
331
E14C
  5
D9C6
331
E14D
  5
D9C7
331
E14E
  5
D9C8
331
E14F
  5
D9C9
331
E150
  5
D9CA
331
E151
  5
D9CB
331
E152
  5
D9CC
331
E153
  5
D9CD
331
E154
  5
D9CE
331
E155
  5
D9CF
331
E156
  5
D9D0
331
E157
  5
D9D1
331
E158
  5
D9D2
331
E159
  5
D9D3
331
E15A
  5
D9D4
331
E15B
  5
D9D5
331
E15C
  5
D9D6
331
E15D
  5
D9D7
331
E15E
  5
D9D8
331
E15F
  5
D9D9
331
E160
  5
D9DA
331
E161
  5
D9E0
331
E162
  5
D9E1
331
E163
  5
D9E2
331
E164
  5
D9E3
331
E165
  5
D9EF
331
E166
  5
D9F0
331
E167
  5
D9F1
331
E168
  5
D9F2
331
E169
  5
D9F3
331
E16A
  5
D9F4
331
E16B
  5
D9F5
331
E16C
  5
D9F6
331
E16D
  5
D9F7
331
E16E
  5
D9F8
331
E16F
  5
D9F9
331
E170
  5
D9FA
331
E171
  5
D9FB
331
E172
  5
D9FC
331
E173
  5
D9FD
331
E174
  5
D9FE
331
E175
  5
D9FF
331
E176
  5
DA00
331
E177
  5
DA01
331
E178
  5
DA02
331
E179
  5
DA03
331
E17A
  5
DC9A
331
E17B
  5
DC9B
331
E17C
  5
DC9D
331
E17D
  5
DC9E
331
E17E
  5
DC9F
331
E17F
  5
E12E
331
E180
  5
E12F
331
E181
  5
E130
331
E182
  5
E133
331
E183
  5
E134
331
E184
  5
E135
331
E185
  5
E136
331
E186
  5
E137
331
E187
  5
E13D
331
E188
  5
E13E
331
E189
  5
E13F
331
E18A
  5
E140
331
E18B
  5
E141
331
E18C
  5
E143
331
E18D
  5
E144
331
E18E
  5
E147
331
E18F
  5
E148
331
E190
  5
E149
331
E191
  5
E14B
331
E192
  5
E14C
331
E193
  5
E14D
331
E194
  5
E14E
331
E195
  5
E14F
331
E196
  5
E150
331
E197
  5
E151
331
E198
  5
E152
331
E199
  5
E153
331
E19A
  5
E154
331
E19B
  5
E155
331
E19C
  5
E156
331
E19D
  5
E157
331
E19E
  5
E158
331
E19F
  5
E159
331
E1A0
  5
E15A
331
E1A1
  5
E15B
331
E1A2
  5
E15C
331
E1A3
  5
E15D
331
E1A4
  5
E15E
331
E1A5
  5
E15F
331
E1A6
  5
E160
331
E1A7
  5
E161
331
E1A8
  5
E162
331
E1A9
  5
E163
331
E1AA
  5
E164
331
E1AB
  5
E165
331
E1AC
  5
E166
331
E1AD
  5
E167
331
E1AE
  5
E168
331
E1AF
  5
E169
331
E1B0
  5
E16A
331
E1B1
  5
E16B
331
E1B2
  5
E16C
331
E1B3
  5
E16D
331
E1B4
  5
E16E
331
E1B5
  5
E16F
331
E1B6
  5
E170
331
E1B7
  5
E171
331
E1B8
  5
E172
331
E1B9
  5
E173
331
E1BA
  5
E174
331
E1BB
  5
E175
331
E1BC
  5
E176
331
E1BD
  5
E177
331
E1BE
  5
E178
331
E1BF
  5
E179
331
E1C0
  5
E17A
331
E1C1
  5
E17B
331
E1C2
  5
E17C
331
E1C3
  5
E17D
331
E1C4
  5
E17E
331
E1C5
  5
E17F
331
E1C6
  5
E180
331
E1C7
  5
E181
331
E1C8
  5
E182
331
E1C9
  5
E183
331
E1CA
  5
E184
331
E1CB
  5
E185
331
E1CC
  5
E186
331
E1CD
  5
E189
331
E1CE
  5
E18A
331
E1CF
  5
E18B
331
E1D0
  5
E18C
331
E1D1
  5
E18D
331
E1D2
  5
E193
331
E1D3
  5
E194
331
E1D4
  5
E195
331
E1D5
  5
E196
331
E1D6
  5
E197
331
E1D7
  5
E199
331
E1D8
  5
E19A
331
E1D9
  5
E1BB
331
E1DA
  5
E1BC
331
E1DB
  5
E1BD
331
E1DC
  5
E1BE
331
E1DD
  5
E1BF
331
E1DE
  5
E1C0
331
E1DF
  5
E1C1
331
E1E0
  5
E1C2
331
E1E1
  5
E1C3
331
E1E2
  5
E1C4
331
E1E3
  5
E1C5
331
E1E4
  5
E1C6
331
E1E5
  5
E1C7
331
E1E6
  5
E1C8
331
E1E7
  5
E1C9
331
E1E8
  5
E1CA
331
E1E9
  5
E1CB
331
E1EA
  5
E1CC
331
E1EB
  5
E1CD
331
E1EC
  5
E1CE
331
E1ED
  5
E1CF
331
E1EE
  5
E1D0
331
E1EF
  5
E1D1
331
E1F0
  5
E1D2
331
E1F1
  5
E1D3
331
E1F2
  5
E1D4
331
E1F3
  5
E1D5
331
E1F4
  5
E1D6
331
E1F5
  5
E1D7
331
E1F6
  5
E1D8
331
E1F7
  5
E1D9
331
E1F8
  5
E1DA
331
E1F9
  5
E1DB
331
E1FA
  5
E1DC
331
E1FB
  5
E1DD
331
E1FC
  5
E1DE
331
E1FD
  5
E1DF
331
E1FE
  5
E1E0
331
E1FF
  5
E1E1
331
E200
  5
E1E2
331
E201
  5
E1E3
331
E202
  5
E1E4
331
E203
  5
E1E5
331
E204
  5
E1E6
331
E205
  5
E1E7
331
E206
  5
E1E8
331
E207
  5
E1E9
331
E208
  5
E1EA
331
E209
  5
E1EB
331
E20A
  5
E1EC
331
E20B
  5
E1ED
331
E20C
  5
E1EE
331
E20D
  5
E1EF
331
E20E
  5
E1F0
331
E20F
  5
E1F1
331
E210
  5
E1F2
331
E211
  5
E1F3
331
E212
  5
E1F4
331
E213
  5
E1F5
331
E214
  5
E1F6
331
E215
  5
E1F7
331
E216
  5
E1F8
331
E217
  5
E1F9
331
E218
  5
E1FA
331
E219
  5
E1FB
331
E21A
  5
E1FC
331
E21B
  5
E1FD
331
E21C
  5
E1FE
331
E21D
  5
E1FF
331
E21E
  5
E200
331
E21F
  5
E201
331
E220
  5
E202
331
E221
  5
E203
331
E222
  5
E204
331
E223
  5
E205
331
E224
  5
E206
331
E225
  5
E207
331
E226
  5
E208
331
E227
  5
E209
331
E228
  5
E20A
331
E229
  5
E20B
331
E22A
  5
E20C
331
E22B
  5
E20D
331
E22C
  5
E20E
331
E22D
  5
E20F
331
E22E
  5
E210
331
E22F
  5
E211
331
E230
  5
E212
331
E231
  5
E213
331
E232
  5
E214
331
E233
  5
E215
331
E234
  5
E216
331
E235
  5
E217
331
E236
  5
E218
331
E237
  5
E219
331
E238
  5
E21A
331
E239
  5
E21B
331
E23A
  5
E21C
331
E23B
  5
E21D
331
E23C
  5
E21E
331
E23D
  5
E21F
331
E23E
  5
E220
331
E23F
  5
E221
331
E240
  5
E222
331
E241
  5
E223
331
E242
  5
E224
331
E243
  5
E225
331
E244
  5
E226
331
E245
  5
E227
331
E246
  5
E228
331
E247
  5
E229
331
E248
  5
E22E
331
E249
  5
E22F
331
E24A
  5
E230
331
E24B
  5
E231
331
E24C
  5
E232
331
E24D
  5
E233
331
E24E
  5
E234
331
E24F
  5
E235
331
E250
  5
E236
331
E251
  5
E237
331
E252
  5
E238
331
E253
  5
E239
331
E254
  5
E23A
331
E255
  5
E23B
331
E256
  5
E23C
331
E257
  5
E23D
331
E258
  5
E23E
331
E259
  5
E23F
331
E25A
  5
E240
331
E25B
  5
E241
331
E25C
  5
E242
331
E25D
  5
E243
331
E25E
  5
E244
331
E25F
  5
E245
331
E260
  5
E246
331
E261
  5
E247
331
E262
  5
E248
331
E263
  5
E249
331
E264
  5
E24A
331
E265
  5
E24B
331
E266
  5
E24C
331
E267
  5
E24D
331
E268
  5
E24E
331
E269
  5
E24F
331
E26A
  5
E250
331
E26B
  5
E251
331
E26C
  5
E252
331
E26D
  5
E253
331
E26E
  5
E254
331
E26F
  5
E255
331
E270
  5
E256
331
E271
  5
E257
331
E272
  5
E258
331
E273
  5
E259
331
E274
  5
E25A
331
E275
  5
E25B
331
E276
  5
E25C
331
E277
  5
E25D
331
E278
  5
E25E
331
E279
  5
E25F
331
E27A
  5
E260
331
E27B
  5
E261
331
E27C
  5
E262
331
E27D
  5
E263
331
E27E
  5
E264
331
E27F
  5
E265
331
E280
  5
E266
331
E281
  5
E267
331
E282
  5
E268
331
E283
  5
E269
331
E284
  5
E26A
331
E285
  5
E26B
331
E286
  5
E26C
331
E287
  5
E26D
331
E288
  5
E26E
331
E289
  5
E26F
331
E28A
  5
E270
331
E28B
  5
E271
331
E28C
  5
E272
331
E28D
  5
E273
331
E28E
  5
E289
331
E28F
  5
E28A
331
E290
  5
E28B
331
E291
  5
E28C
331
E292
  5
E28F
331
E293
  5
E290
331
E294
  5
E291
331
E295
  5
E292
  0
ACDBDETAILVIEWSTYLE
  5
DC7F
102
{ACAD_XDICTIONARY
360
E2D8
102
}
102
{ACAD_REACTORS
330
DC7E
102
}
330
DC7E
100
AcDbModelDocViewStyle
 70
     0
  3
Metric50
290
     0
100
AcDbDetailViewStyle
 70
     0
 71
     0
 90
        3
 71
     1
340
11
 40
5.0
340
0
 40
5.0
300

 40
0.0
280
     1
 71
     2
340
16
 90
       25
 71
     3
340
11
 40
5.0
 90
        0
 40
15.0
 90
        1
300
%<\AcVar ViewDetailId>% (%<\AcVar ViewScale \f "%sn">%)
 71
     4
340
16
 90
       25
340
16
 90
       25
280
     0
1001
ACAD
1000
AcRTDxfName
1000
ACDBDETAILVIEWSTYLE
  0
LAYOUT
  5
22
102
{ACAD_XDICTIONARY
360
E29A
102
}
102
{ACAD_REACTORS
330
1A
102
}
330
1A
100
AcDbPlotSettings
  1

  2
Canon LBP3800 LIPSLX
  4
A4
  6

 40
5.873749732971191
 41
5.873747825622558
 42
5.873748779296875
 43
5.873748779296875
 44
209.9733276367187
 45
296.9259948730469
 46
0.61
 47
0.59
 48
444.9983463649091
 49
-1090.000000918417
140
2395.001653364909
141
1659.999999081583
142
1.0
143
10.0
 70
 11940
 72
     1
 73
     1
 74
     2
  7
monochrome.ctb
 75
     0
147
0.1
148
0.0
149
0.0
100
AcDbLayout
  1
Model
 70
     1
 71
     0
 10
0.0
 20
0.0
 11
12.0
 21
9.0
 12
0.0
 22
0.0
 32
0.0
 14
0.0
 24
0.0
 34
0.0
 15
0.0
 25
0.0
 35
0.0
146
0.0
 13
0.0
 23
0.0
 33
0.0
 16
1.0
 26
0.0
 36
0.0
 17
0.0
 27
1.0
 37
0.0
 76
     0
330
1F
331
5557
  0
LAYOUT
  5
1CD1
102
{ACAD_XDICTIONARY
360
E29C
102
}
102
{ACAD_REACTORS
330
1A
102
}
330
1A
100
AcDbPlotSettings
  1

  2
\\ek_srv\Canon LBP-880 LIPS4
  4

  6

 40
0.0
 41
0.0
 42
0.0
 43
0.0
 44
0.0
 45
0.0
 46
0.0
 47
0.0
 48
0.0
 49
0.0
140
0.0
141
0.0
142
1.0
143
1.0
 70
   688
 72
     0
 73
     0
 74
     5
  7
monochrome.ctb
 75
    16
147
1.0
148
0.0
149
0.0
100
AcDbLayout
  1
\U+FF9A\U+FF72\U+FF71\U+FF73\U+FF841
 70
     1
 71
     1
 10
0.0
 20
0.0
 11
12.0
 21
9.0
 12
0.0
 22
0.0
 32
0.0
 14
0.0
 24
0.0
 34
0.0
 15
0.0
 25
0.0
 35
0.0
146
0.0
 13
0.0
 23
0.0
 33
0.0
 16
1.0
 26
0.0
 36
0.0
 17
0.0
 27
1.0
 37
0.0
 76
     0
330
1CD0
  0
MATERIAL
  5
5562
102
{ACAD_XDICTIONARY
360
5563
102
}
102
{ACAD_REACTORS
330
5559
102
}
330
5559
100
AcDbMaterial
  1
ByBlock
 72
     0
 43
0.0008202099737533
 43
0.0
 43
0.0
 43
0.0
 43
0.0
 43
0.0008202099737533
 43
0.0
 43
0.0
 43
0.0
 43
0.0
 43
1.0
 43
0.0
 43
0.0
 43
0.0
 43
0.0
 43
1.0
 77
     0
 47
0.0008202099737533
 47
0.0
 47
0.0
 47
0.0
 47
0.0
 47
0.0008202099737533
 47
0.0
 47
0.0
 47
0.0
 47
0.0
 47
1.0
 47
0.0
 47
0.0
 47
0.0
 47
0.0
 47
1.0
171
     0
 49
0.0008202099737533
 49
0.0
 49
0.0
 49
0.0
 49
0.0
 49
0.0008202099737533
 49
0.0
 49
0.0
 49
0.0
 49
0.0
 49
1.0
 49
0.0
 49
0.0
 49
0.0
 49
0.0
 49
1.0
175
     0
142
0.0008202099737533
142
0.0
142
0.0
142
0.0
142
0.0
142
0.0008202099737533
142
0.0
142
0.0
142
0.0
142
0.0
142
1.0
142
0.0
142
0.0
142
0.0
142
0.0
142
1.0
179
     0
144
0.0008202099737533
144
0.0
144
0.0
144
0.0
144
0.0
144
0.0008202099737533
144
0.0
144
0.0
144
0.0
144
0.0
144
1.0
144
0.0
144
0.0
144
0.0
144
0.0
144
1.0
147
0.0008202099737533
147
0.0
147
0.0
147
0.0
147
0.0
147
0.0008202099737533
147
0.0
147
0.0
147
0.0
147
0.0
147
1.0
147
0.0
147
0.0
147
0.0
147
0.0
147
1.0
  0
MATERIAL
  5
555A
102
{ACAD_XDICTIONARY
360
555B
102
}
102
{ACAD_REACTORS
330
5559
102
}
330
5559
100
AcDbMaterial
  1
ByLayer
 72
     0
 43
0.0008202099737533
 43
0.0
 43
0.0
 43
0.0
 43
0.0
 43
0.0008202099737533
 43
0.0
 43
0.0
 43
0.0
 43
0.0
 43
1.0
 43
0.0
 43
0.0
 43
0.0
 43
0.0
 43
1.0
 77
     0
 47
0.0008202099737533
 47
0.0
 47
0.0
 47
0.0
 47
0.0
 47
0.0008202099737533
 47
0.0
 47
0.0
 47
0.0
 47
0.0
 47
1.0
 47
0.0
 47
0.0
 47
0.0
 47
0.0
 47
1.0
171
     0
 49
0.0008202099737533
 49
0.0
 49
0.0
 49
0.0
 49
0.0
 49
0.0008202099737533
 49
0.0
 49
0.0
 49
0.0
 49
0.0
 49
1.0
 49
0.0
 49
0.0
 49
0.0
 49
0.0
 49
1.0
175
     0
142
0.0008202099737533
142
0.0
142
0.0
142
0.0
142
0.0
142
0.0008202099737533
142
0.0
142
0.0
142
0.0
142
0.0
142
1.0
142
0.0
142
0.0
142
0.0
142
0.0
142
1.0
179
     0
144
0.0008202099737533
144
0.0
144
0.0
144
0.0
144
0.0
144
0.0008202099737533
144
0.0
144
0.0
144
0.0
144
0.0
144
1.0
144
0.0
144
0.0
144
0.0
144
0.0
144
1.0
147
0.0008202099737533
147
0.0
147
0.0
147
0.0
147
0.0
147
0.0008202099737533
147
0.0
147
0.0
147
0.0
147
0.0
147
1.0
147
0.0
147
0.0
147
0.0
147
0.0
147
1.0
  0
MATERIAL
  5
556A
102
{ACAD_XDICTIONARY
360
556B
102
}
102
{ACAD_REACTORS
330
5559
102
}
330
5559
100
AcDbMaterial
  1
Global
 72
     0
 43
0.0008202099737533
 43
0.0
 43
0.0
 43
0.0
 43
0.0
 43
0.0008202099737533
 43
0.0
 43
0.0
 43
0.0
 43
0.0
 43
1.0
 43
0.0
 43
0.0
 43
0.0
 43
0.0
 43
1.0
 77
     0
 47
0.0008202099737533
 47
0.0
 47
0.0
 47
0.0
 47
0.0
 47
0.0008202099737533
 47
0.0
 47
0.0
 47
0.0
 47
0.0
 47
1.0
 47
0.0
 47
0.0
 47
0.0
 47
0.0
 47
1.0
171
     0
 49
0.0008202099737533
 49
0.0
 49
0.0
 49
0.0
 49
0.0
 49
0.0008202099737533
 49
0.0
 49
0.0
 49
0.0
 49
0.0
 49
1.0
 49
0.0
 49
0.0
 49
0.0
 49
0.0
 49
1.0
175
     0
142
0.0008202099737533
142
0.0
142
0.0
142
0.0
142
0.0
142
0.0008202099737533
142
0.0
142
0.0
142
0.0
142
0.0
142
1.0
142
0.0
142
0.0
142
0.0
142
0.0
142
1.0
179
     0
144
0.0008202099737533
144
0.0
144
0.0
144
0.0
144
0.0
144
0.0008202099737533
144
0.0
144
0.0
144
0.0
144
0.0
144
1.0
144
0.0
144
0.0
144
0.0
144
0.0
144
1.0
147
0.0008202099737533
147
0.0
147
0.0
147
0.0
147
0.0
147
0.0008202099737533
147
0.0
147
0.0
147
0.0
147
0.0
147
1.0
147
0.0
147
0.0
147
0.0
147
0.0
147
1.0
  0
MLEADERSTYLE
  5
559C
102
{ACAD_REACTORS
330
559B
102
}
330
559B
100
AcDbMLeaderStyle
170
     2
171
     1
172
     0
 90
        2
 40
0.0
 41
0.0
173
     1
 91
-1056964608
340
14
 92
       -2
290
     1
 42
2.0
291
     1
 43
0.36
  3
Standard
 44
4.0
300

342
11
174
     1
178
     6
175
     1
176
     0
 93
-1056964608
 45
4.0
292
     0
297
     0
 46
4.0
 94
-1056964608
 47
1.0
 49
1.0
140
1.0
293
     1
141
0.0
294
     1
177
     0
142
1.0
295
     0
296
     0
143
0.125
1001
ACAD_MLEADERVER
1070
     2
  0
MLINESTYLE
  5
18
102
{ACAD_REACTORS
330
17
102
}
330
17
100
AcDbMlineStyle
  2
STANDARD
 70
     0
  3

 62
   256
 51
90.0
 52
90.0
 71
     2
 49
0.5
 62
   256
  6
BYLAYER
 49
-0.5
 62
   256
  6
BYLAYER
  0
ACDBPLACEHOLDER
  5
F
102
{ACAD_REACTORS
330
E
102
}
330
E
  0
ACDBPLACEHOLDER
  5
29
102
{ACAD_REACTORS
330
E
102
}
330
E
  0
SCALE
  5
558A
102
{ACAD_REACTORS
330
5589
102
}
330
5589
100
AcDbScale
 70
     0
300
1:1
140
1.0
141
1.0
290
     1
  0
SCALE
  5
558B
102
{ACAD_REACTORS
330
5589
102
}
330
5589
100
AcDbScale
 70
     0
300
1:2
140
1.0
141
2.0
290
     0
  0
SCALE
  5
558C
102
{ACAD_REACTORS
330
5589
102
}
330
5589
100
AcDbScale
 70
     0
300
1:4
140
1.0
141
4.0
290
     0
  0
SCALE
  5
558D
102
{ACAD_REACTORS
330
5589
102
}
330
5589
100
AcDbScale
 70
     0
300
1:5
140
1.0
141
5.0
290
     0
  0
SCALE
  5
558E
102
{ACAD_REACTORS
330
5589
102
}
330
5589
100
AcDbScale
 70
     0
300
1:8
140
1.0
141
8.0
290
     0
  0
SCALE
  5
558F
102
{ACAD_REACTORS
330
5589
102
}
330
5589
100
AcDbScale
 70
     0
300
1:10
140
1.0
141
10.0
290
     0
  0
SCALE
  5
5590
102
{ACAD_REACTORS
330
5589
102
}
330
5589
100
AcDbScale
 70
     0
300
1:16
140
1.0
141
16.0
290
     0
  0
SCALE
  5
5591
102
{ACAD_REACTORS
330
5589
102
}
330
5589
100
AcDbScale
 70
     0
300
1:20
140
1.0
141
20.0
290
     0
  0
SCALE
  5
5592
102
{ACAD_REACTORS
330
5589
102
}
330
5589
100
AcDbScale
 70
     0
300
1:30
140
1.0
141
30.0
290
     0
  0
SCALE
  5
5593
102
{ACAD_REACTORS
330
5589
102
}
330
5589
100
AcDbScale
 70
     0
300
1:40
140
1.0
141
40.0
290
     0
  0
SCALE
  5
5594
102
{ACAD_REACTORS
330
5589
102
}
330
5589
100
AcDbScale
 70
     0
300
1:50
140
1.0
141
50.0
290
     0
  0
SCALE
  5
5595
102
{ACAD_REACTORS
330
5589
102
}
330
5589
100
AcDbScale
 70
     0
300
1:100
140
1.0
141
100.0
290
     0
  0
SCALE
  5
5596
102
{ACAD_REACTORS
330
5589
102
}
330
5589
100
AcDbScale
 70
     0
300
2:1
140
2.0
141
1.0
290
     0
  0
SCALE
  5
5597
102
{ACAD_REACTORS
330
5589
102
}
330
5589
100
AcDbScale
 70
     0
300
4:1
140
4.0
141
1.0
290
     0
  0
SCALE
  5
5598
102
{ACAD_REACTORS
330
5589
102
}
330
5589
100
AcDbScale
 70
     0
300
8:1
140
8.0
141
1.0
290
     0
  0
SCALE
  5
5599
102
{ACAD_REACTORS
330
5589
102
}
330
5589
100
AcDbScale
 70
     0
300
10:1
140
10.0
141
1.0
290
     0
  0
SCALE
  5
559A
102
{ACAD_REACTORS
330
5589
102
}
330
5589
100
AcDbScale
 70
     0
300
100:1
140
100.0
141
1.0
290
     0
  0
ACDBSECTIONVIEWSTYLE
  5
DC7D
102
{ACAD_XDICTIONARY
360
E2D6
102
}
102
{ACAD_REACTORS
330
DC7C
102
}
330
DC7C
100
AcDbModelDocViewStyle
 70
     0
  3
Metric50
290
     0
100
AcDbSectionViewStyle
 70
     0
 71
     0
 90
      102
 71
     1
340
11
 40
5.0
340
0
340
0
 40
5.0
300
I, O, Q, S, X, Z
 40
10.0
 90
        0
 40
2.5
 90
        0
 71
     2
340
16
 90
       25
340
16
 90
       50
 40
5.0
 40
2.5
 40
5.0
 71
     3
340
11
 40
5.0
 90
        0
 40
15.0
 90
        1
300
%<\AcVar ViewSectionStartId>%-%<\AcVar ViewSectionEndId>% (%<\AcVar ViewScale \f "%sn">%)
 71
     4
300
ANSI31
 40
1.0
 90
        0
290
     0
290
     0
 90
        6
 40
0.0
 40
1.570796326794896
 40
0.2617993877991494
 40
1.308996938995747
 40
-0.2617993877991494
 40
1.832595714594046
1001
ACAD
1000
AcRTDxfName
1000
ACDBSECTIONVIEWSTYLE
  0
TABLESTYLE
  5
5588
102
{ACAD_XDICTIONARY
360
8FBF
102
}
102
{ACAD_REACTORS
330
5587
102
}
330
5587
100
AcDbTableStyle
  3
Standard
 70
     0
 71
     0
 40
1.5
 41
1.5
280
     0
281
     0
  7
Standard
140
4.5
170
     2
 62
     0
 63
     7
283
     0
274
    -2
284
     1
 64
     0
275
    -2
285
     1
 65
     0
276
    -2
286
     1
 66
     0
277
    -2
287
     1
 67
     0
278
    -2
288
     1
 68
     0
279
    -2
289
     1
 69
     0
  7
Standard
140
6.0
170
     5
 62
     0
 63
     7
283
     0
274
    -2
284
     1
 64
     0
275
    -2
285
     1
 65
     0
276
    -2
286
     1
 66
     0
277
    -2
287
     1
 67
     0
278
    -2
288
     1
 68
     0
279
    -2
289
     1
 69
     0
  7
Standard
140
4.5
170
     5
 62
     0
 63
     7
283
     0
274
    -2
284
     1
 64
     0
275
    -2
285
     1
 65
     0
276
    -2
286
     1
 66
     0
277
    -2
287
     1
 67
     0
278
    -2
288
     1
 68
     0
279
    -2
289
     1
 69
     0
  0
VISUALSTYLE
  5
5578
102
{ACAD_XDICTIONARY
360
E2AB
102
}
102
{ACAD_REACTORS
330
5572
102
}
330
5572
100
AcDbVisualStyle
  2
2dWireframe
 70
     4
 71
     0
 72
     2
 73
     0
 90
        0
 40
-0.6
 41
-30.0
 62
     5
 63
     7
 74
     1
 91
        4
 64
     7
 65
   257
 75
     1
175
     1
 42
1.0
 92
        0
 66
   257
 43
1.0
 76
     1
 77
     6
 78
     2
 67
     7
 79
     5
170
     0
171
     0
290
     0
174
     0
 93
        1
 44
0.0
173
     0
291
     0
 45
0.0
1001
ACAD
1000
AcDbSavedByObjectVersion
1070
     0
  0
VISUALSTYLE
  5
557A
102
{ACAD_XDICTIONARY
360
E2AF
102
}
102
{ACAD_REACTORS
330
5572
102
}
330
5572
100
AcDbVisualStyle
  2
3D Hidden
 70
     6
 71
     1
 72
     2
 73
     2
 90
        0
 40
-0.6
 41
-30.0
 62
     5
 63
     7
 74
     2
 91
        2
 64
     7
 65
   257
 75
     2
175
     1
 42
179.0
 92
        0
 66
   257
 43
1.0
 76
     1
 77
     6
 78
     2
 67
     7
 79
     3
170
     0
171
     0
290
     0
174
     0
 93
        1
 44
0.0
173
     0
291
     0
 45
0.0
1001
ACAD
1000
AcDbSavedByObjectVersion
1070
     0
  0
VISUALSTYLE
  5
5579
102
{ACAD_XDICTIONARY
360
E2AD
102
}
102
{ACAD_REACTORS
330
5572
102
}
330
5572
100
AcDbVisualStyle
  2
3dWireframe
 70
     5
 71
     0
 72
     2
 73
     0
 90
        0
 40
-0.6
 41
-30.0
 62
     5
 63
     7
 74
     1
 91
        4
 64
     7
 65
   257
 75
     1
175
     1
 42
1.0
 92
        0
 66
   257
 43
1.0
 76
     1
 77
     6
 78
     2
 67
     7
 79
     5
170
     0
171
     0
290
     0
174
     0
 93
        1
 44
0.0
173
     0
291
     0
 45
0.0
1001
ACAD
1000
AcDbSavedByObjectVersion
1070
     0
  0
VISUALSTYLE
  5
5577
102
{ACAD_XDICTIONARY
360
E2A9
102
}
102
{ACAD_REACTORS
330
5572
102
}
330
5572
100
AcDbVisualStyle
  2
Basic
 70
     7
 71
     1
 72
     0
 73
     1
 90
        0
 40
-0.6
 41
-30.0
 62
     5
 63
     7
 74
     0
 91
        4
 64
     7
 65
   257
 75
     1
175
     1
 42
1.0
 92
        8
 66
     7
 43
1.0
 76
     1
 77
     6
 78
     2
 67
     7
 79
     5
170
     0
171
     0
290
     0
174
     0
 93
        1
 44
0.0
173
     0
291
     1
 45
0.0
1001
ACAD
1000
AcDbSavedByObjectVersion
1070
     0
  0
VISUALSTYLE
  5
557E
102
{ACAD_XDICTIONARY
360
E2B7
102
}
102
{ACAD_REACTORS
330
5572
102
}
330
5572
100
AcDbVisualStyle
  2
Brighten
 70
    12
 71
     2
 72
     2
 73
     0
 90
        0
 40
-0.6
 41
-30.0
 62
     5
 63
     7
 74
     1
 91
        4
 64
     7
 65
   257
 75
     1
175
     1
 42
1.0
 92
        8
 66
     7
 43
1.0
 76
     1
 77
     6
 78
     2
 67
     7
 79
     5
170
     0
171
     0
290
     0
174
     0
 93
        1
 44
50.0
173
     0
291
     1
 45
0.0
1001
ACAD
1000
AcDbSavedByObjectVersion
1070
     0
  0
VISUALSTYLE
  5
5582
102
{ACAD_XDICTIONARY
360
E2BF
102
}
102
{ACAD_REACTORS
330
5572
102
}
330
5572
100
AcDbVisualStyle
  2
ColorChange
 70
    16
 71
     2
 72
     2
 73
     3
 90
        0
 40
-0.6
 41
-30.0
 62
     5
 63
     8
 74
     1
 91
        4
 64
     7
 65
   257
 75
     1
175
     1
 42
1.0
 92
        8
 66
     8
 43
1.0
 76
     1
 77
     6
 78
     2
 67
     7
 79
     5
170
     0
171
     0
290
     0
174
     0
 93
        1
 44
0.0
173
     0
291
     1
 45
0.0
1001
ACAD
1000
AcDbSavedByObjectVersion
1070
     0
  0
VISUALSTYLE
  5
557B
102
{ACAD_XDICTIONARY
360
E2B1
102
}
102
{ACAD_REACTORS
330
5572
102
}
330
5572
100
AcDbVisualStyle
  2
Conceptual
 70
     9
 71
     3
 72
     2
 73
     0
 90
        0
 40
-0.6
 41
-30.0
 62
     5
 63
     7
 74
     2
 91
        2
 64
     7
 65
   257
 75
     1
175
     1
 42
179.0
 92
        8
 66
     7
 43
1.0
 76
     1
 77
     6
 78
     2
 67
     7
 79
     3
170
     0
171
     0
290
     0
174
     0
 93
        1
 44
0.0
173
     0
291
     0
 45
0.0
1001
ACAD
1000
AcDbSavedByObjectVersion
1070
     0
  0
VISUALSTYLE
  5
557D
102
{ACAD_XDICTIONARY
360
E2B5
102
}
102
{ACAD_REACTORS
330
5572
102
}
330
5572
100
AcDbVisualStyle
  2
Dim
 70
    11
 71
     2
 72
     2
 73
     0
 90
        0
 40
-0.6
 41
-30.0
 62
     5
 63
     7
 74
     1
 91
        4
 64
     7
 65
   257
 75
     1
175
     1
 42
1.0
 92
        8
 66
     7
 43
1.0
 76
     1
 77
     6
 78
     2
 67
     7
 79
     5
170
     0
171
     0
290
     0
174
     0
 93
        1
 44
-50.0
173
     0
291
     1
 45
0.0
1001
ACAD
1000
AcDbSavedByObjectVersion
1070
     0
  0
VISUALSTYLE
  5
5585
102
{ACAD_XDICTIONARY
360
E2C5
102
}
102
{ACAD_REACTORS
330
5572
102
}
330
5572
100
AcDbVisualStyle
  2
EdgeColorOff
 70
    22
 71
     2
 72
     2
 73
     0
 90
        0
 40
-0.6
 41
-30.0
 62
     5
 63
     7
 74
     1
 91
        4
 64
     7
 65
   257
 75
     1
175
     1
 42
1.0
 92
        8
 66
     7
 43
1.0
 76
     1
 77
     6
 78
     2
 67
     7
 79
     5
170
     0
171
     0
290
     0
174
     0
 93
        1
 44
0.0
173
     0
291
     1
 45
0.0
1001
ACAD
1000
AcDbSavedByObjectVersion
1070
     0
  0
VISUALSTYLE
  5
5581
102
{ACAD_XDICTIONARY
360
E2BD
102
}
102
{ACAD_REACTORS
330
5572
102
}
330
5572
100
AcDbVisualStyle
  2
Facepattern
 70
    15
 71
     2
 72
     2
 73
     0
 90
        0
 40
-0.6
 41
-30.0
 62
     5
 63
     7
 74
     1
 91
        4
 64
     7
 65
   257
 75
     1
175
     1
 42
1.0
 92
        8
 66
     7
 43
1.0
 76
     1
 77
     6
 78
     2
 67
     7
 79
     5
170
     0
171
     0
290
     0
174
     0
 93
        1
 44
0.0
173
     0
291
     1
 45
0.0
1001
ACAD
1000
AcDbSavedByObjectVersion
1070
     0
  0
VISUALSTYLE
  5
5573
102
{ACAD_XDICTIONARY
360
E2A1
102
}
102
{ACAD_REACTORS
330
5572
102
}
330
5572
100
AcDbVisualStyle
  2
Flat
 70
     0
 71
     2
 72
     1
 73
     1
 90
        2
 40
-0.6
 41
30.0
 62
     5
 63
     7
 74
     0
 91
        4
 64
     7
 65
   257
 75
     1
175
     1
 42
1.0
 92
        8
 66
     7
 43
1.0
 76
     1
 77
     6
 78
     2
 67
     7
 79
     5
170
     0
171
     0
290
     0
174
     0
 93
       13
 44
0.0
173
     0
291
     1
 45
0.0
1001
ACAD
1000
AcDbSavedByObjectVersion
1070
     0
  0
VISUALSTYLE
  5
5574
102
{ACAD_XDICTIONARY
360
E2A3
102
}
102
{ACAD_REACTORS
330
5572
102
}
330
5572
100
AcDbVisualStyle
  2
FlatWithEdges
 70
     1
 71
     2
 72
     1
 73
     1
 90
        2
 40
-0.6
 41
30.0
 62
     5
 63
     7
 74
     1
 91
        4
 64
     7
 65
   257
 75
     1
175
     1
 42
1.0
 92
        0
 66
   257
 43
1.0
 76
     1
 77
     6
 78
     2
 67
     7
 79
     5
170
     0
171
     0
290
     0
174
     0
 93
       13
 44
0.0
173
     0
291
     1
 45
0.0
1001
ACAD
1000
AcDbSavedByObjectVersion
1070
     0
  0
VISUALSTYLE
  5
5575
102
{ACAD_XDICTIONARY
360
E2A5
102
}
102
{ACAD_REACTORS
330
5572
102
}
330
5572
100
AcDbVisualStyle
  2
Gouraud
 70
     2
 71
     2
 72
     2
 73
     1
 90
        2
 40
-0.6
 41
30.0
 62
     5
 63
     7
 74
     0
 91
        4
 64
     7
 65
   257
 75
     1
175
     1
 42
1.0
 92
        0
 66
     7
 43
1.0
 76
     1
 77
     6
 78
     2
 67
     7
 79
     5
170
     0
171
     0
290
     0
174
     0
 93
       13
 44
0.0
173
     0
291
     1
 45
0.0
1001
ACAD
1000
AcDbSavedByObjectVersion
1070
     0
  0
VISUALSTYLE
  5
5576
102
{ACAD_XDICTIONARY
360
E2A7
102
}
102
{ACAD_REACTORS
330
5572
102
}
330
5572
100
AcDbVisualStyle
  2
GouraudWithEdges
 70
     3
 71
     2
 72
     2
 73
     1
 90
        2
 40
-0.6
 41
30.0
 62
     5
 63
     7
 74
     1
 91
        4
 64
     7
 65
   257
 75
     1
175
     1
 42
1.0
 92
        0
 66
   257
 43
1.0
 76
     1
 77
     6
 78
     2
 67
     7
 79
     5
170
     0
171
     0
290
     0
174
     0
 93
       13
 44
0.0
173
     0
291
     1
 45
0.0
1001
ACAD
1000
AcDbSavedByObjectVersion
1070
     0
  0
VISUALSTYLE
  5
DC76
102
{ACAD_XDICTIONARY
360
E2CA
102
}
102
{ACAD_REACTORS
330
5572
102
}
330
5572
100
AcDbVisualStyle
  2
Hidden
 70
     6
 71
     1
 72
     2
 73
     2
 90
        0
 40
-0.6
 41
-30.0
 62
     5
 63
     7
 74
     2
 91
        2
 64
     7
 65
   257
 75
     2
175
     1
 42
40.0
 92
        0
 66
   257
 43
1.0
 76
     1
 77
     6
 78
     2
 67
     7
 79
     3
170
     0
171
     0
290
     0
174
     0
 93
        1
 44
0.0
173
     0
291
     0
 45
0.0
1001
ACAD
1000
AcDbSavedByObjectVersion
1070
     0
  0
VISUALSTYLE
  5
5583
102
{ACAD_XDICTIONARY
360
E2C1
102
}
102
{ACAD_REACTORS
330
5572
102
}
330
5572
100
AcDbVisualStyle
  2
JitterOff
 70
    20
 71
     2
 72
     2
 73
     0
 90
        0
 40
-0.6
 41
-30.0
 62
     5
 63
     7
 74
     1
 91
        4
 64
     7
 65
   257
 75
     1
175
     1
 42
1.0
 92
       10
 66
     7
 43
1.0
 76
     1
 77
     6
 78
     2
 67
     7
 79
     5
170
     0
171
     0
290
     0
174
     0
 93
        1
 44
0.0
173
     0
291
     1
 45
0.0
1001
ACAD
1000
AcDbSavedByObjectVersion
1070
     0
  0
VISUALSTYLE
  5
5580
102
{ACAD_XDICTIONARY
360
E2BB
102
}
102
{ACAD_REACTORS
330
5572
102
}
330
5572
100
AcDbVisualStyle
  2
Linepattern
 70
    14
 71
     2
 72
     2
 73
     0
 90
        0
 40
-0.6
 41
-30.0
 62
     5
 63
     7
 74
     1
 91
        4
 64
     7
 65
   257
 75
     7
175
     7
 42
1.0
 92
        8
 66
     7
 43
1.0
 76
     1
 77
     6
 78
     2
 67
     7
 79
     5
170
     0
171
     0
290
     0
174
     0
 93
        1
 44
0.0
173
     0
291
     1
 45
0.0
1001
ACAD
1000
AcDbSavedByObjectVersion
1070
     0
  0
VISUALSTYLE
  5
5584
102
{ACAD_XDICTIONARY
360
E2C3
102
}
102
{ACAD_REACTORS
330
5572
102
}
330
5572
100
AcDbVisualStyle
  2
OverhangOff
 70
    21
 71
     2
 72
     2
 73
     0
 90
        0
 40
-0.6
 41
-30.0
 62
     5
 63
     7
 74
     1
 91
        4
 64
     7
 65
   257
 75
     1
175
     1
 42
1.0
 92
        9
 66
     7
 43
1.0
 76
     1
 77
     6
 78
     2
 67
     7
 79
     5
170
     0
171
     0
290
     0
174
     0
 93
        1
 44
0.0
173
     0
291
     1
 45
0.0
1001
ACAD
1000
AcDbSavedByObjectVersion
1070
     0
  0
VISUALSTYLE
  5
557C
102
{ACAD_XDICTIONARY
360
E2B3
102
}
102
{ACAD_REACTORS
330
5572
102
}
330
5572
100
AcDbVisualStyle
  2
Realistic
 70
     8
 71
     2
 72
     2
 73
     0
 90
        0
 40
-0.6
 41
-30.0
 62
     5
 63
     7
 74
     1
 91
        0
 64
     7
 65
   257
 75
     1
175
     1
 42
1.0
 92
        8
 66
     8
 43
1.0
 76
     1
 77
     6
 78
     2
 67
     7
 79
     5
170
     0
171
     0
290
     0
174
     0
 93
       13
 44
0.0
173
     0
291
     0
 45
0.0
1001
ACAD
1000
AcDbSavedByObjectVersion
1070
     0
  0
VISUALSTYLE
  5
DC7B
102
{ACAD_XDICTIONARY
360
E2D4
102
}
102
{ACAD_REACTORS
330
5572
102
}
330
5572
100
AcDbVisualStyle
  2
Shaded
 70
    27
 71
     2
 72
     2
 73
     1
 90
        2
 40
-0.6
 41
30.0
 62
     5
 63
     7
 74
     0
 91
        4
 64
     7
 65
   257
 75
     1
175
     1
 42
1.0
 92
        8
 66
   257
 43
1.0
 76
     1
 77
     6
 78
     2
 67
     8
 79
     3
170
     0
171
     0
290
     0
174
     0
 93
        5
 44
0.0
173
     0
291
     0
 45
0.0
1001
ACAD
1000
AcDbSavedByObjectVersion
1070
     0
  0
VISUALSTYLE
  5
DC7A
102
{ACAD_XDICTIONARY
360
E2D2
102
}
102
{ACAD_REACTORS
330
5572
102
}
330
5572
100
AcDbVisualStyle
  2
Shaded with edges
 70
    26
 71
     2
 72
     2
 73
     1
 90
        2
 40
-0.6
 41
30.0
 62
     5
 63
     7
 74
     1
 91
        2
 64
     7
 65
   257
 75
     2
175
     1
 42
1.0
 92
        8
 66
   257
 43
1.0
 76
     1
 77
     6
 78
     2
 67
     7
 79
     3
170
     0
171
     0
290
     0
174
     0
 93
        5
 44
0.0
173
     0
291
     0
 45
0.0
1001
ACAD
1000
AcDbSavedByObjectVersion
1070
     0
  0
VISUALSTYLE
  5
DC77
102
{ACAD_XDICTIONARY
360
E2CC
102
}
102
{ACAD_REACTORS
330
5572
102
}
330
5572
100
AcDbVisualStyle
  2
Shades of Gray
 70
    23
 71
     2
 72
     2
 73
     3
 90
        0
 40
-0.6
 41
-30.0
 62
     5
 63
     7
 74
     2
 91
        2
 64
     7
 65
     7
 75
     1
175
     1
 42
40.0
 92
        8
 66
     7
 43
1.0
 76
     1
 77
     6
 78
     2
 67
     7
 79
     3
170
     0
171
     0
290
     0
174
     0
 93
        1
 44
0.0
173
     0
291
     0
 45
0.0
1001
ACAD
1000
AcDbSavedByObjectVersion
1070
     0
  0
VISUALSTYLE
  5
DC78
102
{ACAD_XDICTIONARY
360
E2CE
102
}
102
{ACAD_REACTORS
330
5572
102
}
330
5572
100
AcDbVisualStyle
  2
Sketchy
 70
    24
 71
     1
 72
     2
 73
     2
 90
        0
 40
-0.6
 41
-30.0
 62
     5
 63
     7
 74
     2
 91
        2
 64
     7
 65
     7
 75
     1
175
     1
 42
40.0
 92
       11
 66
     7
 43
1.0
 76
     1
 77
     6
 78
     2
 67
     7
 79
     6
170
     0
171
     0
290
     0
174
     0
 93
        1
 44
0.0
173
     0
291
     0
 45
0.0
1001
ACAD
1000
AcDbSavedByObjectVersion
1070
     0
  0
VISUALSTYLE
  5
557F
102
{ACAD_XDICTIONARY
360
E2B9
102
}
102
{ACAD_REACTORS
330
5572
102
}
330
5572
100
AcDbVisualStyle
  2
Thicken
 70
    13
 71
     2
 72
     2
 73
     0
 90
        0
 40
-0.6
 41
-30.0
 62
     5
 63
     7
 74
     1
 91
        4
 64
     7
 65
   257
 75
     1
175
     1
 42
1.0
 92
       12
 66
     7
 43
1.0
 76
     1
 77
     6
 78
     2
 67
     7
 79
     5
170
     0
171
     0
290
     0
174
     0
 93
        1
 44
0.0
173
     0
291
     1
 45
0.0
1001
ACAD
1000
AcDbSavedByObjectVersion
1070
     0
  0
VISUALSTYLE
  5
DC75
102
{ACAD_XDICTIONARY
360
E2C8
102
}
102
{ACAD_REACTORS
330
5572
102
}
330
5572
100
AcDbVisualStyle
  2
Wireframe
 70
     5
 71
     0
 72
     2
 73
     0
 90
        0
 40
-0.6
 41
-30.0
 62
     5
 63
     7
 74
     1
 91
        4
 64
     7
 65
   257
 75
     1
175
     1
 42
1.0
 92
        0
 66
   257
 43
1.0
 76
     1
 77
     6
 78
     2
 67
     7
 79
     3
170
     0
171
     0
290
     0
174
     0
 93
        1
 44
0.0
173
     0
291
     0
 45
0.0
1001
ACAD
1000
AcDbSavedByObjectVersion
1070
     0
  0
VISUALSTYLE
  5
DC79
102
{ACAD_XDICTIONARY
360
E2D0
102
}
102
{ACAD_REACTORS
330
5572
102
}
330
5572
100
AcDbVisualStyle
  2
X-Ray
 70
    25
 71
     2
 72
     2
 73
     1
 90
        1
 40
0.5
 41
-30.0
 62
     5
 63
     7
 74
     1
 91
        0
 64
     7
 65
   257
 75
     1
175
     1
 42
1.0
 92
        8
 66
     7
 43
1.0
 76
     1
 77
     6
 78
     2
 67
     7
 79
     3
170
     0
171
     0
290
     0
174
     0
 93
       13
 44
0.0
173
     0
291
     0
 45
0.0
1001
ACAD
1000
AcDbSavedByObjectVersion
1070
     0
  0
DICTIONARYVAR
  5
8FF6
102
{ACAD_REACTORS
330
1835
102
}
330
1835
100
DictionaryVariables
280
     0
  1
1:1
  0
DICTIONARYVAR
  5
8FF5
102
{ACAD_REACTORS
330
1835
102
}
330
1835
100
DictionaryVariables
280
     0
  1
STANDARD
  0
DICTIONARYVAR
  5
8FF4
102
{ACAD_REACTORS
330
1835
102
}
330
1835
100
DictionaryVariables
280
     0
  1
STANDARD
  0
DICTIONARYVAR
  5
DD51
102
{ACAD_REACTORS
330
1835
102
}
330
1835
100
DictionaryVariables
280
     0
  1
Metric50
  0
DICTIONARYVAR
  5
DD52
102
{ACAD_REACTORS
330
1835
102
}
330
1835
100
DictionaryVariables
280
     0
  1
Metric50
  0
DICTIONARYVAR
  5
8FF8
102
{ACAD_REACTORS
330
1835
102
}
330
1835
100
DictionaryVariables
280
     0
  1
1
  0
DICTIONARYVAR
  5
8FF7
102
{ACAD_REACTORS
330
1835
102
}
330
1835
100
DictionaryVariables
280
     0
  1
0
  0
DICTIONARYVAR
  5
1836
102
{ACAD_REACTORS
330
1835
102
}
330
1835
100
DictionaryVariables
280
     0
  1
127
  0
DICTIONARYVAR
  5
E296
102
{ACAD_REACTORS
330
1835
102
}
330
1835
100
DictionaryVariables
280
     0
  1
2
  0
DICTIONARY
  5
E2D8
330
DC7F
100
AcDbDictionary
280
     1
281
     1
  3
ACAD_XREC_ROUNDTRIP
360
E2D9
  0
DICTIONARY
  5
E29A
330
22
100
AcDbDictionary
280
     1
281
     1
  3
ACAD_XREC_ROUNDTRIP
360
E29B
  0
DICTIONARY
  5
E29C
330
1CD1
100
AcDbDictionary
280
     1
281
     1
  3
ACAD_XREC_ROUNDTRIP
360
E29D
  0
DICTIONARY
  5
5563
330
5562
100
AcDbDictionary
280
     1
281
     1
  3
ACAD_XREC_ROUNDTRIP
360
E29F
  3
BUMPTILE
360
5565
  3
DIFFUSETILE
360
5564
  3
OPACITYTILE
360
5568
  3
REFLECTIONTILE
360
5567
  3
REFRACTIONTILE
360
5569
  3
SPECULARTILE
360
5566
  0
DICTIONARY
  5
555B
330
555A
100
AcDbDictionary
280
     1
281
     1
  3
ACAD_XREC_ROUNDTRIP
360
E29E
  3
BUMPTILE
360
555D
  3
DIFFUSETILE
360
555C
  3
OPACITYTILE
360
5560
  3
REFLECTIONTILE
360
555F
  3
REFRACTIONTILE
360
5561
  3
SPECULARTILE
360
555E
  0
DICTIONARY
  5
556B
330
556A
100
AcDbDictionary
280
     1
281
     1
  3
ACAD_XREC_ROUNDTRIP
360
E2A0
  3
BUMPTILE
360
556D
  3
DIFFUSETILE
360
556C
  3
OPACITYTILE
360
5570
  3
REFLECTIONTILE
360
556F
  3
REFRACTIONTILE
360
5571
  3
SPECULARTILE
360
556E
  0
DICTIONARY
  5
E2D6
330
DC7D
100
AcDbDictionary
280
     1
281
     1
  3
ACAD_XREC_ROUNDTRIP
360
E2D7
  0
DICTIONARY
  5
8FBF
330
5588
100
AcDbDictionary
280
     1
281
     1
  3
ACAD_ROUNDTRIP_2008_TABLESTYLE_CELLSTYLEMAP
360
E297
  3
ACAD_XREC_ROUNDTRIP
360
E2C7
  0
DICTIONARY
  5
E2AB
330
5578
100
AcDbDictionary
280
     1
281
     1
  3
ACAD_XREC_ROUNDTRIP
360
E2AC
  0
DICTIONARY
  5
E2AF
330
557A
100
AcDbDictionary
280
     1
281
     1
  3
ACAD_XREC_ROUNDTRIP
360
E2B0
  0
DICTIONARY
  5
E2AD
330
5579
100
AcDbDictionary
280
     1
281
     1
  3
ACAD_XREC_ROUNDTRIP
360
E2AE
  0
DICTIONARY
  5
E2A9
330
5577
100
AcDbDictionary
280
     1
281
     1
  3
ACAD_XREC_ROUNDTRIP
360
E2AA
  0
DICTIONARY
  5
E2B7
330
557E
100
AcDbDictionary
280
     1
281
     1
  3
ACAD_XREC_ROUNDTRIP
360
E2B8
  0
DICTIONARY
  5
E2BF
330
5582
100
AcDbDictionary
280
     1
281
     1
  3
ACAD_XREC_ROUNDTRIP
360
E2C0
  0
DICTIONARY
  5
E2B1
330
557B
100
AcDbDictionary
280
     1
281
     1
  3
ACAD_XREC_ROUNDTRIP
360
E2B2
  0
DICTIONARY
  5
E2B5
330
557D
100
AcDbDictionary
280
     1
281
     1
  3
ACAD_XREC_ROUNDTRIP
360
E2B6
  0
DICTIONARY
  5
E2C5
330
5585
100
AcDbDictionary
280
     1
281
     1
  3
ACAD_XREC_ROUNDTRIP
360
E2C6
  0
DICTIONARY
  5
E2BD
330
5581
100
AcDbDictionary
280
     1
281
     1
  3
ACAD_XREC_ROUNDTRIP
360
E2BE
  0
DICTIONARY
  5
E2A1
330
5573
100
AcDbDictionary
280
     1
281
     1
  3
ACAD_XREC_ROUNDTRIP
360
E2A2
  0
DICTIONARY
  5
E2A3
330
5574
100
AcDbDictionary
280
     1
281
     1
  3
ACAD_XREC_ROUNDTRIP
360
E2A4
  0
DICTIONARY
  5
E2A5
330
5575
100
AcDbDictionary
280
     1
281
     1
  3
ACAD_XREC_ROUNDTRIP
360
E2A6
  0
DICTIONARY
  5
E2A7
330
5576
100
AcDbDictionary
280
     1
281
     1
  3
ACAD_XREC_ROUNDTRIP
360
E2A8
  0
DICTIONARY
  5
E2CA
330
DC76
100
AcDbDictionary
280
     1
281
     1
  3
ACAD_XREC_ROUNDTRIP
360
E2CB
  0
DICTIONARY
  5
E2C1
330
5583
100
AcDbDictionary
280
     1
281
     1
  3
ACAD_XREC_ROUNDTRIP
360
E2C2
  0
DICTIONARY
  5
E2BB
330
5580
100
AcDbDictionary
280
     1
281
     1
  3
ACAD_XREC_ROUNDTRIP
360
E2BC
  0
DICTIONARY
  5
E2C3
330
5584
100
AcDbDictionary
280
     1
281
     1
  3
ACAD_XREC_ROUNDTRIP
360
E2C4
  0
DICTIONARY
  5
E2B3
330
557C
100
AcDbDictionary
280
     1
281
     1
  3
ACAD_XREC_ROUNDTRIP
360
E2B4
  0
DICTIONARY
  5
E2D4
330
DC7B
100
AcDbDictionary
280
     1
281
     1
  3
ACAD_XREC_ROUNDTRIP
360
E2D5
  0
DICTIONARY
  5
E2D2
330
DC7A
100
AcDbDictionary
280
     1
281
     1
  3
ACAD_XREC_ROUNDTRIP
360
E2D3
  0
DICTIONARY
  5
E2CC
330
DC77
100
AcDbDictionary
280
     1
281
     1
  3
ACAD_XREC_ROUNDTRIP
360
E2CD
  0
DICTIONARY
  5
E2CE
330
DC78
100
AcDbDictionary
280
     1
281
     1
  3
ACAD_XREC_ROUNDTRIP
360
E2CF
  0
DICTIONARY
  5
E2B9
330
557F
100
AcDbDictionary
280
     1
281
     1
  3
ACAD_XREC_ROUNDTRIP
360
E2BA
  0
DICTIONARY
  5
E2C8
330
DC75
100
AcDbDictionary
280
     1
281
     1
  3
ACAD_XREC_ROUNDTRIP
360
E2C9
  0
DICTIONARY
  5
E2D0
330
DC79
100
AcDbDictionary
280
     1
281
     1
  3
ACAD_XREC_ROUNDTRIP
360
E2D1
  0
XRECORD
  5
E2D9
102
{ACAD_REACTORS
330
E2D8
102
}
330
E2D8
100
AcDbXrecord
280
     1
102
DISPLAYNAME
  1
Metric50
102
FLAGS
 90
        0
  0
XRECORD
  5
E29B
102
{ACAD_REACTORS
330
E29A
102
}
330
E29A
100
AcDbXrecord
280
     1
102
SHADEPLOT
 70
     0
102
SHADEPLOTRESLEVEL
 70
     2
102
SHADEPLOTCUSTOMDPI
 70
   300
  0
XRECORD
  5
E29D
102
{ACAD_REACTORS
330
E29C
102
}
330
E29C
100
AcDbXrecord
280
     1
102
SHADEPLOT
 70
     0
102
SHADEPLOTRESLEVEL
 70
     2
102
SHADEPLOTCUSTOMDPI
 70
   300
  0
XRECORD
  5
E29F
102
{ACAD_REACTORS
330
5563
102
}
330
5563
100
AcDbXrecord
280
     1
102
MATERIAL
148
0.0
149
0.0
149
0.0
 93
        0
 94
      127
282
     0
 72
     0
 77
     0
171
     0
175
     0
179
     0
273
     0
  0
XRECORD
  5
5565
102
{ACAD_REACTORS
330
5563
102
}
330
5563
100
AcDbXrecord
280
     1
270
     1
271
     1
  0
XRECORD
  5
5564
102
{ACAD_REACTORS
330
5563
102
}
330
5563
100
AcDbXrecord
280
     1
270
     1
271
     1
  0
XRECORD
  5
5568
102
{ACAD_REACTORS
330
5563
102
}
330
5563
100
AcDbXrecord
280
     1
270
     1
271
     1
  0
XRECORD
  5
5567
102
{ACAD_REACTORS
330
5563
102
}
330
5563
100
AcDbXrecord
280
     1
270
     1
271
     1
  0
XRECORD
  5
5569
102
{ACAD_REACTORS
330
5563
102
}
330
5563
100
AcDbXrecord
280
     1
270
     1
271
     1
  0
XRECORD
  5
5566
102
{ACAD_REACTORS
330
5563
102
}
330
5563
100
AcDbXrecord
280
     1
270
     1
271
     1
  0
XRECORD
  5
E29E
102
{ACAD_REACTORS
330
555B
102
}
330
555B
100
AcDbXrecord
280
     1
102
MATERIAL
148
0.0
149
0.0
149
0.0
 93
        0
 94
      127
282
     0
 72
     0
 77
     0
171
     0
175
     0
179
     0
273
     0
  0
XRECORD
  5
555D
102
{ACAD_REACTORS
330
555B
102
}
330
555B
100
AcDbXrecord
280
     1
270
     1
271
     1
  0
XRECORD
  5
555C
102
{ACAD_REACTORS
330
555B
102
}
330
555B
100
AcDbXrecord
280
     1
270
     1
271
     1
  0
XRECORD
  5
5560
102
{ACAD_REACTORS
330
555B
102
}
330
555B
100
AcDbXrecord
280
     1
270
     1
271
     1
  0
XRECORD
  5
555F
102
{ACAD_REACTORS
330
555B
102
}
330
555B
100
AcDbXrecord
280
     1
270
     1
271
     1
  0
XRECORD
  5
5561
102
{ACAD_REACTORS
330
555B
102
}
330
555B
100
AcDbXrecord
280
     1
270
     1
271
     1
  0
XRECORD
  5
555E
102
{ACAD_REACTORS
330
555B
102
}
330
555B
100
AcDbXrecord
280
     1
270
     1
271
     1
  0
XRECORD
  5
E2A0
102
{ACAD_REACTORS
330
556B
102
}
330
556B
100
AcDbXrecord
280
     1
102
MATERIAL
148
0.0
149
0.0
149
0.0
 93
        0
 94
      127
282
     0
 72
     0
 77
     0
171
     0
175
     0
179
     0
273
     0
  0
XRECORD
  5
556D
102
{ACAD_REACTORS
330
556B
102
}
330
556B
100
AcDbXrecord
280
     1
270
     1
271
     1
  0
XRECORD
  5
556C
102
{ACAD_REACTORS
330
556B
102
}
330
556B
100
AcDbXrecord
280
     1
270
     1
271
     1
  0
XRECORD
  5
5570
102
{ACAD_REACTORS
330
556B
102
}
330
556B
100
AcDbXrecord
280
     1
270
     1
271
     1
  0
XRECORD
  5
556F
102
{ACAD_REACTORS
330
556B
102
}
330
556B
100
AcDbXrecord
280
     1
270
     1
271
     1
  0
XRECORD
  5
5571
102
{ACAD_REACTORS
330
556B
102
}
330
556B
100
AcDbXrecord
280
     1
270
     1
271
     1
  0
XRECORD
  5
556E
102
{ACAD_REACTORS
330
556B
102
}
330
556B
100
AcDbXrecord
280
     1
270
     1
271
     1
  0
XRECORD
  5
E2D7
102
{ACAD_REACTORS
330
E2D6
102
}
330
E2D6
100
AcDbXrecord
280
     1
102
DISPLAYNAME
  1
Metric50
102
FLAGS
 90
        0
  0
CELLSTYLEMAP
  5
E297
102
{ACAD_REACTORS
330
8FBF
102
}
330
8FBF
100
AcDbCellStyleMap
 90
        3
300
CELLSTYLE
  1
TABLEFORMAT_BEGIN
 90
        5
170
     1
 91
        0
 92
    32768
 62
   257
 93
        1
300
CONTENTFORMAT
  1
CONTENTFORMAT_BEGIN
 90
        0
 91
        0
 92
      512
 93
        0
300

 40
0.0
140
1.0
 94
        5
 62
     0
340
11
144
6.0
309
CONTENTFORMAT_END
171
     1
301
MARGIN
  1
CELLMARGIN_BEGIN
 40
1.5
 40
1.5
 40
1.5
 40
1.5
 40
4.5
 40
4.5
309
CELLMARGIN_END
 94
        6
 95
        1
302
GRIDFORMAT
  1
GRIDFORMAT_BEGIN
 90
        0
 91
        1
 62
     0
 92
       -2
340
0
 93
        0
 40
1.125
309
GRIDFORMAT_END
 95
        2
302
GRIDFORMAT
  1
GRIDFORMAT_BEGIN
 90
        0
 91
        1
 62
     0
 92
       -2
340
0
 93
        0
 40
1.125
309
GRIDFORMAT_END
 95
        4
302
GRIDFORMAT
  1
GRIDFORMAT_BEGIN
 90
        0
 91
        1
 62
     0
 92
       -2
340
0
 93
        0
 40
1.125
309
GRIDFORMAT_END
 95
        8
302
GRIDFORMAT
  1
GRIDFORMAT_BEGIN
 90
        0
 91
        1
 62
     0
 92
       -2
340
0
 93
        0
 40
1.125
309
GRIDFORMAT_END
 95
       16
302
GRIDFORMAT
  1
GRIDFORMAT_BEGIN
 90
        0
 91
        1
 62
     0
 92
       -2
340
0
 93
        0
 40
1.125
309
GRIDFORMAT_END
 95
       32
302
GRIDFORMAT
  1
GRIDFORMAT_BEGIN
 90
        0
 91
        1
 62
     0
 92
       -2
340
0
 93
        0
 40
1.125
309
GRIDFORMAT_END
309
TABLEFORMAT_END
  1
CELLSTYLE_BEGIN
 90
        1
 91
        1
300
_TITLE
309
CELLSTYLE_END
300
CELLSTYLE
  1
TABLEFORMAT_BEGIN
 90
        5
170
     1
 91
        0
 92
        0
 62
   257
 93
        1
300
CONTENTFORMAT
  1
CONTENTFORMAT_BEGIN
 90
        0
 91
        0
 92
      512
 93
        0
300

 40
0.0
140
1.0
 94
        5
 62
     0
340
11
144
4.5
309
CONTENTFORMAT_END
171
     1
301
MARGIN
  1
CELLMARGIN_BEGIN
 40
1.5
 40
1.5
 40
1.5
 40
1.5
 40
4.5
 40
4.5
309
CELLMARGIN_END
 94
        6
 95
        1
302
GRIDFORMAT
  1
GRIDFORMAT_BEGIN
 90
        0
 91
        1
 62
     0
 92
       -2
340
0
 93
        0
 40
1.125
309
GRIDFORMAT_END
 95
        2
302
GRIDFORMAT
  1
GRIDFORMAT_BEGIN
 90
        0
 91
        1
 62
     0
 92
       -2
340
0
 93
        0
 40
1.125
309
GRIDFORMAT_END
 95
        4
302
GRIDFORMAT
  1
GRIDFORMAT_BEGIN
 90
        0
 91
        1
 62
     0
 92
       -2
340
0
 93
        0
 40
1.125
309
GRIDFORMAT_END
 95
        8
302
GRIDFORMAT
  1
GRIDFORMAT_BEGIN
 90
        0
 91
        1
 62
     0
 92
       -2
340
0
 93
        0
 40
1.125
309
GRIDFORMAT_END
 95
       16
302
GRIDFORMAT
  1
GRIDFORMAT_BEGIN
 90
        0
 91
        1
 62
     0
 92
       -2
340
0
 93
        0
 40
1.125
309
GRIDFORMAT_END
 95
       32
302
GRIDFORMAT
  1
GRIDFORMAT_BEGIN
 90
        0
 91
        1
 62
     0
 92
       -2
340
0
 93
        0
 40
1.125
309
GRIDFORMAT_END
309
TABLEFORMAT_END
  1
CELLSTYLE_BEGIN
 90
        2
 91
        1
300
_HEADER
309
CELLSTYLE_END
300
CELLSTYLE
  1
TABLEFORMAT_BEGIN
 90
        5
170
     1
 91
        0
 92
        0
 62
   257
 93
        1
300
CONTENTFORMAT
  1
CONTENTFORMAT_BEGIN
 90
        0
 91
        0
 92
      512
 93
        0
300

 40
0.0
140
1.0
 94
        2
 62
     0
340
11
144
4.5
309
CONTENTFORMAT_END
171
     1
301
MARGIN
  1
CELLMARGIN_BEGIN
 40
1.5
 40
1.5
 40
1.5
 40
1.5
 40
4.5
 40
4.5
309
CELLMARGIN_END
 94
        6
 95
        1
302
GRIDFORMAT
  1
GRIDFORMAT_BEGIN
 90
        0
 91
        1
 62
     0
 92
       -2
340
0
 93
        0
 40
1.125
309
GRIDFORMAT_END
 95
        2
302
GRIDFORMAT
  1
GRIDFORMAT_BEGIN
 90
        0
 91
        1
 62
     0
 92
       -2
340
0
 93
        0
 40
1.125
309
GRIDFORMAT_END
 95
        4
302
GRIDFORMAT
  1
GRIDFORMAT_BEGIN
 90
        0
 91
        1
 62
     0
 92
       -2
340
0
 93
        0
 40
1.125
309
GRIDFORMAT_END
 95
        8
302
GRIDFORMAT
  1
GRIDFORMAT_BEGIN
 90
        0
 91
        1
 62
     0
 92
       -2
340
0
 93
        0
 40
1.125
309
GRIDFORMAT_END
 95
       16
302
GRIDFORMAT
  1
GRIDFORMAT_BEGIN
 90
        0
 91
        1
 62
     0
 92
       -2
340
0
 93
        0
 40
1.125
309
GRIDFORMAT_END
 95
       32
302
GRIDFORMAT
  1
GRIDFORMAT_BEGIN
 90
        0
 91
        1
 62
     0
 92
       -2
340
0
 93
        0
 40
1.125
309
GRIDFORMAT_END
309
TABLEFORMAT_END
  1
CELLSTYLE_BEGIN
 90
        3
 91
        2
300
_DATA
309
CELLSTYLE_END
  0
XRECORD
  5
E2C7
102
{ACAD_REACTORS
330
8FBF
102
}
330
8FBF
100
AcDbXrecord
280
     1
102
ACAD_ROUNDTRIP_PRE2007_TABLESTYLE
 90
      512
 91
        0
  1

 92
      512
 93
        0
  2

 94
      512
 95
        0
  3

  0
XRECORD
  5
E2AC
102
{ACAD_REACTORS
330
E2AB
102
}
330
E2AB
100
AcDbXrecord
280
     1
102
RTVSPost2010Prop28
280
     1
102
RTVSPost2010PropOp28
 70
     1
102
RTVSPost2010Prop29
280
     1
102
RTVSPost2010PropOp29
 70
     1
102
RTVSPost2010Prop30
280
     0
102
RTVSPost2010PropOp30
 70
     1
102
RTVSPost2010Prop31
280
     0
102
RTVSPost2010PropOp31
 70
     1
102
RTVSPost2010Prop32
280
     0
102
RTVSPost2010PropOp32
 70
     1
102
RTVSPost2010Prop33
280
     0
102
RTVSPost2010PropOp33
 70
     1
102
RTVSPost2010Prop34
280
     0
102
RTVSPost2010PropOp34
 70
     1
102
RTVSPost2010Prop35
280
     0
102
RTVSPost2010PropOp35
 70
     1
102
RTVSPost2010Prop36
280
     0
102
RTVSPost2010PropOp36
 70
     1
102
RTVSPost2010Prop37
 90
       50
102
RTVSPost2010PropOp37
 70
     1
102
RTVSPost2010Prop38
140
0.0
102
RTVSPost2010PropOp38
 70
     1
102
RTVSPost2010Prop39
140
1.0
102
RTVSPost2010PropOp39
 70
     1
102
RTVSPost2010Prop40
 90
        0
102
RTVSPost2010PropOp40
 70
     1
102
RTVSPost2010Prop41ColorIndex
 90
       18
102
RTVSPost2010Prop41ColorRGB
 90
        0
102
RTVSPost2010PropOp41
 70
     1
102
RTVSPost2010Prop42
 90
       50
102
RTVSPost2010PropOp42
 70
     1
102
RTVSPost2010Prop43
 90
        3
102
RTVSPost2010PropOp43
 70
     1
102
RTVSPost2010Prop44ColorIndex
 90
        5
102
RTVSPost2010Prop44ColorRGB
 90
      255
102
RTVSPost2010PropOp44
 70
     1
102
RTVSPost2010Prop45
280
     0
102
RTVSPost2010PropOp45
 70
     1
102
RTVSPost2010Prop46
 90
       50
102
RTVSPost2010PropOp46
 70
     1
102
RTVSPost2010Prop47
 90
       50
102
RTVSPost2010PropOp47
 70
     1
102
RTVSPost2010Prop48
 90
       50
102
RTVSPost2010PropOp48
 70
     1
102
RTVSPost2010Prop49
280
     0
102
RTVSPost2010PropOp49
 70
     1
102
RTVSPost2010Prop50
 90
       50
102
RTVSPost2010PropOp50
 70
     1
102
RTVSPost2010Prop51ColorIndex
 90
      256
102
RTVSPost2010Prop51ColorRGB
 90
-16777216
102
RTVSPost2010PropOp51
 70
     0
102
RTVSPost2010Prop52
140
1.0
102
RTVSPost2010PropOp52
 70
     0
102
RTVSPost2010Prop53
 90
        2
102
RTVSPost2010PropOp53
 70
     1
102
RTVSPost2010Prop54
  1
strokes_ogs.tif
102
RTVSPost2010PropOp54
 70
     1
102
RTVSPost2010Prop55
280
     0
102
RTVSPost2010PropOp55
 70
     1
102
RTVSPost2010Prop56
140
1.0
102
RTVSPost2010PropOp56
 70
     1
102
RTVSPost2010Prop57
140
1.0
102
RTVSPost2010PropOp57
 70
     1
102
RTVSPropertyOp0
 70
     1
102
RTVSPropertyOp1
 70
     1
102
RTVSPropertyOp2
 70
     1
102
RTVSPropertyOp3
 70
     1
102
RTVSPropertyOp4
 70
     1
102
RTVSPropertyOp5
 70
     1
102
RTVSPropertyOp6
 70
     1
102
RTVSPropertyOp7
 70
     1
102
RTVSPropertyOp8
 70
     1
102
RTVSPropertyOp9
 70
     1
102
RTVSPropertyOp10
 70
     1
102
RTVSPropertyOp11
 70
     1
102
RTVSPropertyOp12
 70
     1
102
RTVSPropertyOp13
 70
     1
102
RTVSPropertyOp14
 70
     1
102
RTVSPropertyOp15
 70
     1
102
RTVSPropertyOp16
 70
     1
102
RTVSPropertyOp17
 70
     1
102
RTVSPropertyOp18
 70
     1
102
RTVSPropertyOp19
 70
     1
102
RTVSPropertyOp20
 70
     1
102
RTVSPropertyOp21
 70
     1
102
RTVSPropertyOp22
 70
     1
102
RTVSPropertyOp23
 70
     1
102
RTVSPropertyOp24
 70
     1
102
RTVSPropertyOp25
 70
     1
102
RTVSPropertyOp26
 70
     1
102
RTVSPropertyOp27
 70
     1
102
RTVSPropertyOp28
 70
     1
102
RTVSPropertyOp29
 70
     1
102
RTVSPropertyOp30
 70
     1
102
RTVSPropertyOp31
 70
     1
102
RTVSPropertyOp32
 70
     1
102
RTVSPropertyOp33
 70
     1
102
RTVSPropertyOp34
 70
     1
102
RTVSPropertyOp35
 70
     1
102
RTVSPropertyOp36
 70
     1
102
RTVSPropertyOp37
 70
     1
102
RTVSPropertyOp38
 70
     1
102
RTVSPropertyOp39
 70
     1
102
RTVSPropertyOp40
 70
     1
102
RTVSPropertyOp41
 70
     1
102
RTVSPropertyOp42
 70
     1
102
RTVSPropertyOp43
 70
     1
102
RTVSPropertyOp44
 70
     1
102
RTVSPropertyOp45
 70
     1
102
RTVSPropertyOp46
 70
     1
102
RTVSPropertyOp47
 70
     1
102
RTVSPropertyOp48
 70
     1
102
RTVSPropertyOp49
 70
     1
102
RTVSPropertyOp50
 70
     1
102
RTVSPropertyOp51
 70
     0
102
RTVSPropertyOp52
 70
     0
102
RTVSPropertyOp53
 70
     1
102
RTVSPropertyOp54
 70
     1
102
RTVSPropertyOp55
 70
     1
102
RTVSPropertyOp56
 70
     1
102
RTVSPropertyOp57
 70
     1
102
RTVSPropertyOp58
 70
     1
102
RTVSPropertyOp59
 70
     1
102
RTVSPropertyOp60
 70
     1
102
RTVSPropertyOp61
 70
     1
102
RTVSPropertyOp62
 70
     1
  0
XRECORD
  5
E2B0
102
{ACAD_REACTORS
330
E2AF
102
}
330
E2AF
100
AcDbXrecord
280
     1
102
RTVSPost2010Prop28
280
     0
102
RTVSPost2010PropOp28
 70
     1
102
RTVSPost2010Prop29
280
     1
102
RTVSPost2010PropOp29
 70
     1
102
RTVSPost2010Prop30
280
     1
102
RTVSPost2010PropOp30
 70
     1
102
RTVSPost2010Prop31
280
     0
102
RTVSPost2010PropOp31
 70
     1
102
RTVSPost2010Prop32
280
     0
102
RTVSPost2010PropOp32
 70
     1
102
RTVSPost2010Prop33
280
     0
102
RTVSPost2010PropOp33
 70
     1
102
RTVSPost2010Prop34
280
     0
102
RTVSPost2010PropOp34
 70
     1
102
RTVSPost2010Prop35
280
     0
102
RTVSPost2010PropOp35
 70
     1
102
RTVSPost2010Prop36
280
     0
102
RTVSPost2010PropOp36
 70
     1
102
RTVSPost2010Prop37
 90
       50
102
RTVSPost2010PropOp37
 70
     1
102
RTVSPost2010Prop38
140
0.0
102
RTVSPost2010PropOp38
 70
     1
102
RTVSPost2010Prop39
140
1.0
102
RTVSPost2010PropOp39
 70
     1
102
RTVSPost2010Prop40
 90
        0
102
RTVSPost2010PropOp40
 70
     1
102
RTVSPost2010Prop41ColorIndex
 90
       18
102
RTVSPost2010Prop41ColorRGB
 90
        0
102
RTVSPost2010PropOp41
 70
     1
102
RTVSPost2010Prop42
 90
       50
102
RTVSPost2010PropOp42
 70
     1
102
RTVSPost2010Prop43
 90
        3
102
RTVSPost2010PropOp43
 70
     1
102
RTVSPost2010Prop44ColorIndex
 90
        5
102
RTVSPost2010Prop44ColorRGB
 90
      255
102
RTVSPost2010PropOp44
 70
     1
102
RTVSPost2010Prop45
280
     0
102
RTVSPost2010PropOp45
 70
     1
102
RTVSPost2010Prop46
 90
       50
102
RTVSPost2010PropOp46
 70
     1
102
RTVSPost2010Prop47
 90
       50
102
RTVSPost2010PropOp47
 70
     1
102
RTVSPost2010Prop48
 90
       50
102
RTVSPost2010PropOp48
 70
     1
102
RTVSPost2010Prop49
280
     0
102
RTVSPost2010PropOp49
 70
     1
102
RTVSPost2010Prop50
 90
       50
102
RTVSPost2010PropOp50
 70
     1
102
RTVSPost2010Prop51ColorIndex
 90
      256
102
RTVSPost2010Prop51ColorRGB
 90
-16777216
102
RTVSPost2010PropOp51
 70
     0
102
RTVSPost2010Prop52
140
1.0
102
RTVSPost2010PropOp52
 70
     0
102
RTVSPost2010Prop53
 90
        2
102
RTVSPost2010PropOp53
 70
     1
102
RTVSPost2010Prop54
  1
strokes_ogs.tif
102
RTVSPost2010PropOp54
 70
     1
102
RTVSPost2010Prop55
280
     0
102
RTVSPost2010PropOp55
 70
     1
102
RTVSPost2010Prop56
140
1.0
102
RTVSPost2010PropOp56
 70
     1
102
RTVSPost2010Prop57
140
1.0
102
RTVSPost2010PropOp57
 70
     1
102
RTVSPropertyOp0
 70
     1
102
RTVSPropertyOp1
 70
     1
102
RTVSPropertyOp2
 70
     1
102
RTVSPropertyOp3
 70
     1
102
RTVSPropertyOp4
 70
     1
102
RTVSPropertyOp5
 70
     1
102
RTVSPropertyOp6
 70
     1
102
RTVSPropertyOp7
 70
     1
102
RTVSPropertyOp8
 70
     1
102
RTVSPropertyOp9
 70
     1
102
RTVSPropertyOp10
 70
     1
102
RTVSPropertyOp11
 70
     1
102
RTVSPropertyOp12
 70
     1
102
RTVSPropertyOp13
 70
     1
102
RTVSPropertyOp14
 70
     1
102
RTVSPropertyOp15
 70
     1
102
RTVSPropertyOp16
 70
     1
102
RTVSPropertyOp17
 70
     1
102
RTVSPropertyOp18
 70
     1
102
RTVSPropertyOp19
 70
     1
102
RTVSPropertyOp20
 70
     1
102
RTVSPropertyOp21
 70
     1
102
RTVSPropertyOp22
 70
     1
102
RTVSPropertyOp23
 70
     1
102
RTVSPropertyOp24
 70
     1
102
RTVSPropertyOp25
 70
     1
102
RTVSPropertyOp26
 70
     1
102
RTVSPropertyOp27
 70
     1
102
RTVSPropertyOp28
 70
     1
102
RTVSPropertyOp29
 70
     1
102
RTVSPropertyOp30
 70
     1
102
RTVSPropertyOp31
 70
     1
102
RTVSPropertyOp32
 70
     1
102
RTVSPropertyOp33
 70
     1
102
RTVSPropertyOp34
 70
     1
102
RTVSPropertyOp35
 70
     1
102
RTVSPropertyOp36
 70
     1
102
RTVSPropertyOp37
 70
     1
102
RTVSPropertyOp38
 70
     1
102
RTVSPropertyOp39
 70
     1
102
RTVSPropertyOp40
 70
     1
102
RTVSPropertyOp41
 70
     1
102
RTVSPropertyOp42
 70
     1
102
RTVSPropertyOp43
 70
     1
102
RTVSPropertyOp44
 70
     1
102
RTVSPropertyOp45
 70
     1
102
RTVSPropertyOp46
 70
     1
102
RTVSPropertyOp47
 70
     1
102
RTVSPropertyOp48
 70
     1
102
RTVSPropertyOp49
 70
     1
102
RTVSPropertyOp50
 70
     1
102
RTVSPropertyOp51
 70
     0
102
RTVSPropertyOp52
 70
     0
102
RTVSPropertyOp53
 70
     1
102
RTVSPropertyOp54
 70
     1
102
RTVSPropertyOp55
 70
     1
102
RTVSPropertyOp56
 70
     1
102
RTVSPropertyOp57
 70
     1
102
RTVSPropertyOp58
 70
     1
102
RTVSPropertyOp59
 70
     1
102
RTVSPropertyOp60
 70
     1
102
RTVSPropertyOp61
 70
     1
102
RTVSPropertyOp62
 70
     1
  0
XRECORD
  5
E2AE
102
{ACAD_REACTORS
330
E2AD
102
}
330
E2AD
100
AcDbXrecord
280
     1
102
RTVSPost2010Prop28
280
     0
102
RTVSPost2010PropOp28
 70
     1
102
RTVSPost2010Prop29
280
     1
102
RTVSPost2010PropOp29
 70
     1
102
RTVSPost2010Prop30
280
     1
102
RTVSPost2010PropOp30
 70
     1
102
RTVSPost2010Prop31
280
     0
102
RTVSPost2010PropOp31
 70
     1
102
RTVSPost2010Prop32
280
     0
102
RTVSPost2010PropOp32
 70
     1
102
RTVSPost2010Prop33
280
     0
102
RTVSPost2010PropOp33
 70
     1
102
RTVSPost2010Prop34
280
     0
102
RTVSPost2010PropOp34
 70
     1
102
RTVSPost2010Prop35
280
     0
102
RTVSPost2010PropOp35
 70
     1
102
RTVSPost2010Prop36
280
     0
102
RTVSPost2010PropOp36
 70
     1
102
RTVSPost2010Prop37
 90
       50
102
RTVSPost2010PropOp37
 70
     1
102
RTVSPost2010Prop38
140
0.0
102
RTVSPost2010PropOp38
 70
     1
102
RTVSPost2010Prop39
140
1.0
102
RTVSPost2010PropOp39
 70
     1
102
RTVSPost2010Prop40
 90
        0
102
RTVSPost2010PropOp40
 70
     1
102
RTVSPost2010Prop41ColorIndex
 90
       18
102
RTVSPost2010Prop41ColorRGB
 90
        0
102
RTVSPost2010PropOp41
 70
     1
102
RTVSPost2010Prop42
 90
       50
102
RTVSPost2010PropOp42
 70
     1
102
RTVSPost2010Prop43
 90
        3
102
RTVSPost2010PropOp43
 70
     1
102
RTVSPost2010Prop44ColorIndex
 90
        5
102
RTVSPost2010Prop44ColorRGB
 90
      255
102
RTVSPost2010PropOp44
 70
     1
102
RTVSPost2010Prop45
280
     0
102
RTVSPost2010PropOp45
 70
     1
102
RTVSPost2010Prop46
 90
       50
102
RTVSPost2010PropOp46
 70
     1
102
RTVSPost2010Prop47
 90
       50
102
RTVSPost2010PropOp47
 70
     1
102
RTVSPost2010Prop48
 90
       50
102
RTVSPost2010PropOp48
 70
     1
102
RTVSPost2010Prop49
280
     0
102
RTVSPost2010PropOp49
 70
     1
102
RTVSPost2010Prop50
 90
       50
102
RTVSPost2010PropOp50
 70
     1
102
RTVSPost2010Prop51ColorIndex
 90
      256
102
RTVSPost2010Prop51ColorRGB
 90
-16777216
102
RTVSPost2010PropOp51
 70
     0
102
RTVSPost2010Prop52
140
1.0
102
RTVSPost2010PropOp52
 70
     0
102
RTVSPost2010Prop53
 90
        2
102
RTVSPost2010PropOp53
 70
     1
102
RTVSPost2010Prop54
  1
strokes_ogs.tif
102
RTVSPost2010PropOp54
 70
     1
102
RTVSPost2010Prop55
280
     0
102
RTVSPost2010PropOp55
 70
     1
102
RTVSPost2010Prop56
140
1.0
102
RTVSPost2010PropOp56
 70
     1
102
RTVSPost2010Prop57
140
1.0
102
RTVSPost2010PropOp57
 70
     1
102
RTVSPropertyOp0
 70
     1
102
RTVSPropertyOp1
 70
     1
102
RTVSPropertyOp2
 70
     1
102
RTVSPropertyOp3
 70
     1
102
RTVSPropertyOp4
 70
     1
102
RTVSPropertyOp5
 70
     1
102
RTVSPropertyOp6
 70
     1
102
RTVSPropertyOp7
 70
     1
102
RTVSPropertyOp8
 70
     1
102
RTVSPropertyOp9
 70
     1
102
RTVSPropertyOp10
 70
     1
102
RTVSPropertyOp11
 70
     1
102
RTVSPropertyOp12
 70
     1
102
RTVSPropertyOp13
 70
     1
102
RTVSPropertyOp14
 70
     1
102
RTVSPropertyOp15
 70
     1
102
RTVSPropertyOp16
 70
     1
102
RTVSPropertyOp17
 70
     1
102
RTVSPropertyOp18
 70
     1
102
RTVSPropertyOp19
 70
     1
102
RTVSPropertyOp20
 70
     1
102
RTVSPropertyOp21
 70
     1
102
RTVSPropertyOp22
 70
     1
102
RTVSPropertyOp23
 70
     1
102
RTVSPropertyOp24
 70
     1
102
RTVSPropertyOp25
 70
     1
102
RTVSPropertyOp26
 70
     1
102
RTVSPropertyOp27
 70
     1
102
RTVSPropertyOp28
 70
     1
102
RTVSPropertyOp29
 70
     1
102
RTVSPropertyOp30
 70
     1
102
RTVSPropertyOp31
 70
     1
102
RTVSPropertyOp32
 70
     1
102
RTVSPropertyOp33
 70
     1
102
RTVSPropertyOp34
 70
     1
102
RTVSPropertyOp35
 70
     1
102
RTVSPropertyOp36
 70
     1
102
RTVSPropertyOp37
 70
     1
102
RTVSPropertyOp38
 70
     1
102
RTVSPropertyOp39
 70
     1
102
RTVSPropertyOp40
 70
     1
102
RTVSPropertyOp41
 70
     1
102
RTVSPropertyOp42
 70
     1
102
RTVSPropertyOp43
 70
     1
102
RTVSPropertyOp44
 70
     1
102
RTVSPropertyOp45
 70
     1
102
RTVSPropertyOp46
 70
     1
102
RTVSPropertyOp47
 70
     1
102
RTVSPropertyOp48
 70
     1
102
RTVSPropertyOp49
 70
     1
102
RTVSPropertyOp50
 70
     1
102
RTVSPropertyOp51
 70
     0
102
RTVSPropertyOp52
 70
     0
102
RTVSPropertyOp53
 70
     1
102
RTVSPropertyOp54
 70
     1
102
RTVSPropertyOp55
 70
     1
102
RTVSPropertyOp56
 70
     1
102
RTVSPropertyOp57
 70
     1
102
RTVSPropertyOp58
 70
     1
102
RTVSPropertyOp59
 70
     1
102
RTVSPropertyOp60
 70
     1
102
RTVSPropertyOp61
 70
     1
102
RTVSPropertyOp62
 70
     1
  0
XRECORD
  5
E2AA
102
{ACAD_REACTORS
330
E2A9
102
}
330
E2A9
100
AcDbXrecord
280
     1
102
RTVSPost2010Prop28
280
     0
102
RTVSPost2010PropOp28
 70
     1
102
RTVSPost2010Prop29
280
     1
102
RTVSPost2010PropOp29
 70
     1
102
RTVSPost2010Prop30
280
     1
102
RTVSPost2010PropOp30
 70
     1
102
RTVSPost2010Prop31
280
     0
102
RTVSPost2010PropOp31
 70
     1
102
RTVSPost2010Prop32
280
     0
102
RTVSPost2010PropOp32
 70
     1
102
RTVSPost2010Prop33
280
     0
102
RTVSPost2010PropOp33
 70
     1
102
RTVSPost2010Prop34
280
     0
102
RTVSPost2010PropOp34
 70
     1
102
RTVSPost2010Prop35
280
     0
102
RTVSPost2010PropOp35
 70
     1
102
RTVSPost2010Prop36
280
     0
102
RTVSPost2010PropOp36
 70
     1
102
RTVSPost2010Prop37
 90
       50
102
RTVSPost2010PropOp37
 70
     1
102
RTVSPost2010Prop38
140
0.0
102
RTVSPost2010PropOp38
 70
     1
102
RTVSPost2010Prop39
140
1.0
102
RTVSPost2010PropOp39
 70
     1
102
RTVSPost2010Prop40
 90
        0
102
RTVSPost2010PropOp40
 70
     1
102
RTVSPost2010Prop41ColorIndex
 90
       18
102
RTVSPost2010Prop41ColorRGB
 90
        0
102
RTVSPost2010PropOp41
 70
     1
102
RTVSPost2010Prop42
 90
       50
102
RTVSPost2010PropOp42
 70
     1
102
RTVSPost2010Prop43
 90
        3
102
RTVSPost2010PropOp43
 70
     1
102
RTVSPost2010Prop44ColorIndex
 90
        5
102
RTVSPost2010Prop44ColorRGB
 90
      255
102
RTVSPost2010PropOp44
 70
     1
102
RTVSPost2010Prop45
280
     0
102
RTVSPost2010PropOp45
 70
     1
102
RTVSPost2010Prop46
 90
       50
102
RTVSPost2010PropOp46
 70
     1
102
RTVSPost2010Prop47
 90
       50
102
RTVSPost2010PropOp47
 70
     1
102
RTVSPost2010Prop48
 90
       50
102
RTVSPost2010PropOp48
 70
     1
102
RTVSPost2010Prop49
280
     0
102
RTVSPost2010PropOp49
 70
     1
102
RTVSPost2010Prop50
 90
       50
102
RTVSPost2010PropOp50
 70
     1
102
RTVSPost2010Prop51ColorIndex
 90
      256
102
RTVSPost2010Prop51ColorRGB
 90
-16777216
102
RTVSPost2010PropOp51
 70
     0
102
RTVSPost2010Prop52
140
1.0
102
RTVSPost2010PropOp52
 70
     0
102
RTVSPost2010Prop53
 90
        2
102
RTVSPost2010PropOp53
 70
     1
102
RTVSPost2010Prop54
  1
strokes_ogs.tif
102
RTVSPost2010PropOp54
 70
     1
102
RTVSPost2010Prop55
280
     0
102
RTVSPost2010PropOp55
 70
     1
102
RTVSPost2010Prop56
140
1.0
102
RTVSPost2010PropOp56
 70
     1
102
RTVSPost2010Prop57
140
1.0
102
RTVSPost2010PropOp57
 70
     1
102
RTVSPropertyOp0
 70
     1
102
RTVSPropertyOp1
 70
     1
102
RTVSPropertyOp2
 70
     1
102
RTVSPropertyOp3
 70
     1
102
RTVSPropertyOp4
 70
     1
102
RTVSPropertyOp5
 70
     1
102
RTVSPropertyOp6
 70
     1
102
RTVSPropertyOp7
 70
     1
102
RTVSPropertyOp8
 70
     1
102
RTVSPropertyOp9
 70
     1
102
RTVSPropertyOp10
 70
     1
102
RTVSPropertyOp11
 70
     1
102
RTVSPropertyOp12
 70
     1
102
RTVSPropertyOp13
 70
     1
102
RTVSPropertyOp14
 70
     1
102
RTVSPropertyOp15
 70
     1
102
RTVSPropertyOp16
 70
     1
102
RTVSPropertyOp17
 70
     1
102
RTVSPropertyOp18
 70
     1
102
RTVSPropertyOp19
 70
     1
102
RTVSPropertyOp20
 70
     1
102
RTVSPropertyOp21
 70
     1
102
RTVSPropertyOp22
 70
     1
102
RTVSPropertyOp23
 70
     1
102
RTVSPropertyOp24
 70
     1
102
RTVSPropertyOp25
 70
     1
102
RTVSPropertyOp26
 70
     1
102
RTVSPropertyOp27
 70
     1
102
RTVSPropertyOp28
 70
     1
102
RTVSPropertyOp29
 70
     1
102
RTVSPropertyOp30
 70
     1
102
RTVSPropertyOp31
 70
     1
102
RTVSPropertyOp32
 70
     1
102
RTVSPropertyOp33
 70
     1
102
RTVSPropertyOp34
 70
     1
102
RTVSPropertyOp35
 70
     1
102
RTVSPropertyOp36
 70
     1
102
RTVSPropertyOp37
 70
     1
102
RTVSPropertyOp38
 70
     1
102
RTVSPropertyOp39
 70
     1
102
RTVSPropertyOp40
 70
     1
102
RTVSPropertyOp41
 70
     1
102
RTVSPropertyOp42
 70
     1
102
RTVSPropertyOp43
 70
     1
102
RTVSPropertyOp44
 70
     1
102
RTVSPropertyOp45
 70
     1
102
RTVSPropertyOp46
 70
     1
102
RTVSPropertyOp47
 70
     1
102
RTVSPropertyOp48
 70
     1
102
RTVSPropertyOp49
 70
     1
102
RTVSPropertyOp50
 70
     1
102
RTVSPropertyOp51
 70
     0
102
RTVSPropertyOp52
 70
     0
102
RTVSPropertyOp53
 70
     1
102
RTVSPropertyOp54
 70
     1
102
RTVSPropertyOp55
 70
     1
102
RTVSPropertyOp56
 70
     1
102
RTVSPropertyOp57
 70
     1
102
RTVSPropertyOp58
 70
     1
102
RTVSPropertyOp59
 70
     1
102
RTVSPropertyOp60
 70
     1
102
RTVSPropertyOp61
 70
     1
102
RTVSPropertyOp62
 70
     1
  0
XRECORD
  5
E2B8
102
{ACAD_REACTORS
330
E2B7
102
}
330
E2B7
100
AcDbXrecord
280
     1
102
RTVSPost2010Prop28
280
     0
102
RTVSPost2010PropOp28
 70
     1
102
RTVSPost2010Prop29
280
     1
102
RTVSPost2010PropOp29
 70
     1
102
RTVSPost2010Prop30
280
     1
102
RTVSPost2010PropOp30
 70
     1
102
RTVSPost2010Prop31
280
     0
102
RTVSPost2010PropOp31
 70
     1
102
RTVSPost2010Prop32
280
     0
102
RTVSPost2010PropOp32
 70
     1
102
RTVSPost2010Prop33
280
     0
102
RTVSPost2010PropOp33
 70
     1
102
RTVSPost2010Prop34
280
     0
102
RTVSPost2010PropOp34
 70
     1
102
RTVSPost2010Prop35
280
     0
102
RTVSPost2010PropOp35
 70
     1
102
RTVSPost2010Prop36
280
     0
102
RTVSPost2010PropOp36
 70
     1
102
RTVSPost2010Prop37
 90
       50
102
RTVSPost2010PropOp37
 70
     1
102
RTVSPost2010Prop38
140
0.0
102
RTVSPost2010PropOp38
 70
     1
102
RTVSPost2010Prop39
140
1.0
102
RTVSPost2010PropOp39
 70
     1
102
RTVSPost2010Prop40
 90
        0
102
RTVSPost2010PropOp40
 70
     1
102
RTVSPost2010Prop41ColorIndex
 90
       18
102
RTVSPost2010Prop41ColorRGB
 90
        0
102
RTVSPost2010PropOp41
 70
     1
102
RTVSPost2010Prop42
 90
       50
102
RTVSPost2010PropOp42
 70
     1
102
RTVSPost2010Prop43
 90
        3
102
RTVSPost2010PropOp43
 70
     1
102
RTVSPost2010Prop44ColorIndex
 90
        5
102
RTVSPost2010Prop44ColorRGB
 90
      255
102
RTVSPost2010PropOp44
 70
     1
102
RTVSPost2010Prop45
280
     0
102
RTVSPost2010PropOp45
 70
     1
102
RTVSPost2010Prop46
 90
       50
102
RTVSPost2010PropOp46
 70
     1
102
RTVSPost2010Prop47
 90
       50
102
RTVSPost2010PropOp47
 70
     1
102
RTVSPost2010Prop48
 90
       50
102
RTVSPost2010PropOp48
 70
     1
102
RTVSPost2010Prop49
280
     0
102
RTVSPost2010PropOp49
 70
     1
102
RTVSPost2010Prop50
 90
       50
102
RTVSPost2010PropOp50
 70
     1
102
RTVSPost2010Prop51ColorIndex
 90
      256
102
RTVSPost2010Prop51ColorRGB
 90
-16777216
102
RTVSPost2010PropOp51
 70
     0
102
RTVSPost2010Prop52
140
1.0
102
RTVSPost2010PropOp52
 70
     0
102
RTVSPost2010Prop53
 90
        2
102
RTVSPost2010PropOp53
 70
     1
102
RTVSPost2010Prop54
  1
strokes_ogs.tif
102
RTVSPost2010PropOp54
 70
     1
102
RTVSPost2010Prop55
280
     0
102
RTVSPost2010PropOp55
 70
     1
102
RTVSPost2010Prop56
140
1.0
102
RTVSPost2010PropOp56
 70
     1
102
RTVSPost2010Prop57
140
1.0
102
RTVSPost2010PropOp57
 70
     1
102
RTVSPropertyOp0
 70
     1
102
RTVSPropertyOp1
 70
     1
102
RTVSPropertyOp2
 70
     1
102
RTVSPropertyOp3
 70
     1
102
RTVSPropertyOp4
 70
     1
102
RTVSPropertyOp5
 70
     1
102
RTVSPropertyOp6
 70
     1
102
RTVSPropertyOp7
 70
     1
102
RTVSPropertyOp8
 70
     1
102
RTVSPropertyOp9
 70
     1
102
RTVSPropertyOp10
 70
     1
102
RTVSPropertyOp11
 70
     1
102
RTVSPropertyOp12
 70
     1
102
RTVSPropertyOp13
 70
     1
102
RTVSPropertyOp14
 70
     1
102
RTVSPropertyOp15
 70
     1
102
RTVSPropertyOp16
 70
     1
102
RTVSPropertyOp17
 70
     1
102
RTVSPropertyOp18
 70
     1
102
RTVSPropertyOp19
 70
     1
102
RTVSPropertyOp20
 70
     1
102
RTVSPropertyOp21
 70
     1
102
RTVSPropertyOp22
 70
     1
102
RTVSPropertyOp23
 70
     1
102
RTVSPropertyOp24
 70
     1
102
RTVSPropertyOp25
 70
     1
102
RTVSPropertyOp26
 70
     1
102
RTVSPropertyOp27
 70
     1
102
RTVSPropertyOp28
 70
     1
102
RTVSPropertyOp29
 70
     1
102
RTVSPropertyOp30
 70
     1
102
RTVSPropertyOp31
 70
     1
102
RTVSPropertyOp32
 70
     1
102
RTVSPropertyOp33
 70
     1
102
RTVSPropertyOp34
 70
     1
102
RTVSPropertyOp35
 70
     1
102
RTVSPropertyOp36
 70
     1
102
RTVSPropertyOp37
 70
     1
102
RTVSPropertyOp38
 70
     1
102
RTVSPropertyOp39
 70
     1
102
RTVSPropertyOp40
 70
     1
102
RTVSPropertyOp41
 70
     1
102
RTVSPropertyOp42
 70
     1
102
RTVSPropertyOp43
 70
     1
102
RTVSPropertyOp44
 70
     1
102
RTVSPropertyOp45
 70
     1
102
RTVSPropertyOp46
 70
     1
102
RTVSPropertyOp47
 70
     1
102
RTVSPropertyOp48
 70
     1
102
RTVSPropertyOp49
 70
     1
102
RTVSPropertyOp50
 70
     1
102
RTVSPropertyOp51
 70
     0
102
RTVSPropertyOp52
 70
     0
102
RTVSPropertyOp53
 70
     1
102
RTVSPropertyOp54
 70
     1
102
RTVSPropertyOp55
 70
     1
102
RTVSPropertyOp56
 70
     1
102
RTVSPropertyOp57
 70
     1
102
RTVSPropertyOp58
 70
     1
102
RTVSPropertyOp59
 70
     1
102
RTVSPropertyOp60
 70
     1
102
RTVSPropertyOp61
 70
     1
102
RTVSPropertyOp62
 70
     1
  0
XRECORD
  5
E2C0
102
{ACAD_REACTORS
330
E2BF
102
}
330
E2BF
100
AcDbXrecord
280
     1
102
RTVSPost2010Prop28
280
     0
102
RTVSPost2010PropOp28
 70
     1
102
RTVSPost2010Prop29
280
     1
102
RTVSPost2010PropOp29
 70
     1
102
RTVSPost2010Prop30
280
     1
102
RTVSPost2010PropOp30
 70
     1
102
RTVSPost2010Prop31
280
     0
102
RTVSPost2010PropOp31
 70
     1
102
RTVSPost2010Prop32
280
     0
102
RTVSPost2010PropOp32
 70
     1
102
RTVSPost2010Prop33
280
     0
102
RTVSPost2010PropOp33
 70
     1
102
RTVSPost2010Prop34
280
     0
102
RTVSPost2010PropOp34
 70
     1
102
RTVSPost2010Prop35
280
     0
102
RTVSPost2010PropOp35
 70
     1
102
RTVSPost2010Prop36
280
     0
102
RTVSPost2010PropOp36
 70
     1
102
RTVSPost2010Prop37
 90
       50
102
RTVSPost2010PropOp37
 70
     1
102
RTVSPost2010Prop38
140
0.0
102
RTVSPost2010PropOp38
 70
     1
102
RTVSPost2010Prop39
140
1.0
102
RTVSPost2010PropOp39
 70
     1
102
RTVSPost2010Prop40
 90
        0
102
RTVSPost2010PropOp40
 70
     1
102
RTVSPost2010Prop41ColorIndex
 90
       18
102
RTVSPost2010Prop41ColorRGB
 90
        0
102
RTVSPost2010PropOp41
 70
     1
102
RTVSPost2010Prop42
 90
       50
102
RTVSPost2010PropOp42
 70
     1
102
RTVSPost2010Prop43
 90
        3
102
RTVSPost2010PropOp43
 70
     1
102
RTVSPost2010Prop44ColorIndex
 90
        5
102
RTVSPost2010Prop44ColorRGB
 90
      255
102
RTVSPost2010PropOp44
 70
     1
102
RTVSPost2010Prop45
280
     0
102
RTVSPost2010PropOp45
 70
     1
102
RTVSPost2010Prop46
 90
       50
102
RTVSPost2010PropOp46
 70
     1
102
RTVSPost2010Prop47
 90
       50
102
RTVSPost2010PropOp47
 70
     1
102
RTVSPost2010Prop48
 90
       50
102
RTVSPost2010PropOp48
 70
     1
102
RTVSPost2010Prop49
280
     0
102
RTVSPost2010PropOp49
 70
     1
102
RTVSPost2010Prop50
 90
       50
102
RTVSPost2010PropOp50
 70
     1
102
RTVSPost2010Prop51ColorIndex
 90
      256
102
RTVSPost2010Prop51ColorRGB
 90
-16777216
102
RTVSPost2010PropOp51
 70
     0
102
RTVSPost2010Prop52
140
1.0
102
RTVSPost2010PropOp52
 70
     0
102
RTVSPost2010Prop53
 90
        2
102
RTVSPost2010PropOp53
 70
     1
102
RTVSPost2010Prop54
  1
strokes_ogs.tif
102
RTVSPost2010PropOp54
 70
     1
102
RTVSPost2010Prop55
280
     0
102
RTVSPost2010PropOp55
 70
     1
102
RTVSPost2010Prop56
140
1.0
102
RTVSPost2010PropOp56
 70
     1
102
RTVSPost2010Prop57
140
1.0
102
RTVSPost2010PropOp57
 70
     1
102
RTVSPropertyOp0
 70
     1
102
RTVSPropertyOp1
 70
     1
102
RTVSPropertyOp2
 70
     1
102
RTVSPropertyOp3
 70
     1
102
RTVSPropertyOp4
 70
     1
102
RTVSPropertyOp5
 70
     1
102
RTVSPropertyOp6
 70
     1
102
RTVSPropertyOp7
 70
     1
102
RTVSPropertyOp8
 70
     1
102
RTVSPropertyOp9
 70
     1
102
RTVSPropertyOp10
 70
     1
102
RTVSPropertyOp11
 70
     1
102
RTVSPropertyOp12
 70
     1
102
RTVSPropertyOp13
 70
     1
102
RTVSPropertyOp14
 70
     1
102
RTVSPropertyOp15
 70
     1
102
RTVSPropertyOp16
 70
     1
102
RTVSPropertyOp17
 70
     1
102
RTVSPropertyOp18
 70
     1
102
RTVSPropertyOp19
 70
     1
102
RTVSPropertyOp20
 70
     1
102
RTVSPropertyOp21
 70
     1
102
RTVSPropertyOp22
 70
     1
102
RTVSPropertyOp23
 70
     1
102
RTVSPropertyOp24
 70
     1
102
RTVSPropertyOp25
 70
     1
102
RTVSPropertyOp26
 70
     1
102
RTVSPropertyOp27
 70
     1
102
RTVSPropertyOp28
 70
     1
102
RTVSPropertyOp29
 70
     1
102
RTVSPropertyOp30
 70
     1
102
RTVSPropertyOp31
 70
     1
102
RTVSPropertyOp32
 70
     1
102
RTVSPropertyOp33
 70
     1
102
RTVSPropertyOp34
 70
     1
102
RTVSPropertyOp35
 70
     1
102
RTVSPropertyOp36
 70
     1
102
RTVSPropertyOp37
 70
     1
102
RTVSPropertyOp38
 70
     1
102
RTVSPropertyOp39
 70
     1
102
RTVSPropertyOp40
 70
     1
102
RTVSPropertyOp41
 70
     1
102
RTVSPropertyOp42
 70
     1
102
RTVSPropertyOp43
 70
     1
102
RTVSPropertyOp44
 70
     1
102
RTVSPropertyOp45
 70
     1
102
RTVSPropertyOp46
 70
     1
102
RTVSPropertyOp47
 70
     1
102
RTVSPropertyOp48
 70
     1
102
RTVSPropertyOp49
 70
     1
102
RTVSPropertyOp50
 70
     1
102
RTVSPropertyOp51
 70
     0
102
RTVSPropertyOp52
 70
     0
102
RTVSPropertyOp53
 70
     1
102
RTVSPropertyOp54
 70
     1
102
RTVSPropertyOp55
 70
     1
102
RTVSPropertyOp56
 70
     1
102
RTVSPropertyOp57
 70
     1
102
RTVSPropertyOp58
 70
     1
102
RTVSPropertyOp59
 70
     1
102
RTVSPropertyOp60
 70
     1
102
RTVSPropertyOp61
 70
     1
102
RTVSPropertyOp62
 70
     1
  0
XRECORD
  5
E2B2
102
{ACAD_REACTORS
330
E2B1
102
}
330
E2B1
100
AcDbXrecord
280
     1
102
RTVSPost2010Prop28
280
     0
102
RTVSPost2010PropOp28
 70
     1
102
RTVSPost2010Prop29
280
     1
102
RTVSPost2010PropOp29
 70
     1
102
RTVSPost2010Prop30
280
     1
102
RTVSPost2010PropOp30
 70
     1
102
RTVSPost2010Prop31
280
     0
102
RTVSPost2010PropOp31
 70
     1
102
RTVSPost2010Prop32
280
     0
102
RTVSPost2010PropOp32
 70
     1
102
RTVSPost2010Prop33
280
     0
102
RTVSPost2010PropOp33
 70
     1
102
RTVSPost2010Prop34
280
     0
102
RTVSPost2010PropOp34
 70
     1
102
RTVSPost2010Prop35
280
     0
102
RTVSPost2010PropOp35
 70
     1
102
RTVSPost2010Prop36
280
     0
102
RTVSPost2010PropOp36
 70
     1
102
RTVSPost2010Prop37
 90
       50
102
RTVSPost2010PropOp37
 70
     1
102
RTVSPost2010Prop38
140
0.0
102
RTVSPost2010PropOp38
 70
     1
102
RTVSPost2010Prop39
140
1.0
102
RTVSPost2010PropOp39
 70
     1
102
RTVSPost2010Prop40
 90
        0
102
RTVSPost2010PropOp40
 70
     1
102
RTVSPost2010Prop41ColorIndex
 90
       18
102
RTVSPost2010Prop41ColorRGB
 90
        0
102
RTVSPost2010PropOp41
 70
     1
102
RTVSPost2010Prop42
 90
       50
102
RTVSPost2010PropOp42
 70
     1
102
RTVSPost2010Prop43
 90
        3
102
RTVSPost2010PropOp43
 70
     1
102
RTVSPost2010Prop44ColorIndex
 90
        5
102
RTVSPost2010Prop44ColorRGB
 90
      255
102
RTVSPost2010PropOp44
 70
     1
102
RTVSPost2010Prop45
280
     0
102
RTVSPost2010PropOp45
 70
     1
102
RTVSPost2010Prop46
 90
       50
102
RTVSPost2010PropOp46
 70
     1
102
RTVSPost2010Prop47
 90
       50
102
RTVSPost2010PropOp47
 70
     1
102
RTVSPost2010Prop48
 90
       50
102
RTVSPost2010PropOp48
 70
     1
102
RTVSPost2010Prop49
280
     0
102
RTVSPost2010PropOp49
 70
     1
102
RTVSPost2010Prop50
 90
       50
102
RTVSPost2010PropOp50
 70
     1
102
RTVSPost2010Prop51ColorIndex
 90
      256
102
RTVSPost2010Prop51ColorRGB
 90
-16777216
102
RTVSPost2010PropOp51
 70
     0
102
RTVSPost2010Prop52
140
1.0
102
RTVSPost2010PropOp52
 70
     0
102
RTVSPost2010Prop53
 90
        2
102
RTVSPost2010PropOp53
 70
     1
102
RTVSPost2010Prop54
  1
strokes_ogs.tif
102
RTVSPost2010PropOp54
 70
     1
102
RTVSPost2010Prop55
280
     0
102
RTVSPost2010PropOp55
 70
     1
102
RTVSPost2010Prop56
140
1.0
102
RTVSPost2010PropOp56
 70
     1
102
RTVSPost2010Prop57
140
1.0
102
RTVSPost2010PropOp57
 70
     1
102
RTVSPropertyOp0
 70
     1
102
RTVSPropertyOp1
 70
     1
102
RTVSPropertyOp2
 70
     1
102
RTVSPropertyOp3
 70
     1
102
RTVSPropertyOp4
 70
     1
102
RTVSPropertyOp5
 70
     1
102
RTVSPropertyOp6
 70
     1
102
RTVSPropertyOp7
 70
     1
102
RTVSPropertyOp8
 70
     1
102
RTVSPropertyOp9
 70
     1
102
RTVSPropertyOp10
 70
     1
102
RTVSPropertyOp11
 70
     1
102
RTVSPropertyOp12
 70
     1
102
RTVSPropertyOp13
 70
     1
102
RTVSPropertyOp14
 70
     1
102
RTVSPropertyOp15
 70
     1
102
RTVSPropertyOp16
 70
     1
102
RTVSPropertyOp17
 70
     1
102
RTVSPropertyOp18
 70
     1
102
RTVSPropertyOp19
 70
     1
102
RTVSPropertyOp20
 70
     1
102
RTVSPropertyOp21
 70
     1
102
RTVSPropertyOp22
 70
     1
102
RTVSPropertyOp23
 70
     1
102
RTVSPropertyOp24
 70
     1
102
RTVSPropertyOp25
 70
     1
102
RTVSPropertyOp26
 70
     1
102
RTVSPropertyOp27
 70
     1
102
RTVSPropertyOp28
 70
     1
102
RTVSPropertyOp29
 70
     1
102
RTVSPropertyOp30
 70
     1
102
RTVSPropertyOp31
 70
     1
102
RTVSPropertyOp32
 70
     1
102
RTVSPropertyOp33
 70
     1
102
RTVSPropertyOp34
 70
     1
102
RTVSPropertyOp35
 70
     1
102
RTVSPropertyOp36
 70
     1
102
RTVSPropertyOp37
 70
     1
102
RTVSPropertyOp38
 70
     1
102
RTVSPropertyOp39
 70
     1
102
RTVSPropertyOp40
 70
     1
102
RTVSPropertyOp41
 70
     1
102
RTVSPropertyOp42
 70
     1
102
RTVSPropertyOp43
 70
     1
102
RTVSPropertyOp44
 70
     1
102
RTVSPropertyOp45
 70
     1
102
RTVSPropertyOp46
 70
     1
102
RTVSPropertyOp47
 70
     1
102
RTVSPropertyOp48
 70
     1
102
RTVSPropertyOp49
 70
     1
102
RTVSPropertyOp50
 70
     1
102
RTVSPropertyOp51
 70
     0
102
RTVSPropertyOp52
 70
     0
102
RTVSPropertyOp53
 70
     1
102
RTVSPropertyOp54
 70
     1
102
RTVSPropertyOp55
 70
     1
102
RTVSPropertyOp56
 70
     1
102
RTVSPropertyOp57
 70
     1
102
RTVSPropertyOp58
 70
     1
102
RTVSPropertyOp59
 70
     1
102
RTVSPropertyOp60
 70
     1
102
RTVSPropertyOp61
 70
     1
102
RTVSPropertyOp62
 70
     1
  0
XRECORD
  5
E2B6
102
{ACAD_REACTORS
330
E2B5
102
}
330
E2B5
100
AcDbXrecord
280
     1
102
RTVSPost2010Prop28
280
     0
102
RTVSPost2010PropOp28
 70
     1
102
RTVSPost2010Prop29
280
     1
102
RTVSPost2010PropOp29
 70
     1
102
RTVSPost2010Prop30
280
     1
102
RTVSPost2010PropOp30
 70
     1
102
RTVSPost2010Prop31
280
     0
102
RTVSPost2010PropOp31
 70
     1
102
RTVSPost2010Prop32
280
     0
102
RTVSPost2010PropOp32
 70
     1
102
RTVSPost2010Prop33
280
     0
102
RTVSPost2010PropOp33
 70
     1
102
RTVSPost2010Prop34
280
     0
102
RTVSPost2010PropOp34
 70
     1
102
RTVSPost2010Prop35
280
     0
102
RTVSPost2010PropOp35
 70
     1
102
RTVSPost2010Prop36
280
     0
102
RTVSPost2010PropOp36
 70
     1
102
RTVSPost2010Prop37
 90
       50
102
RTVSPost2010PropOp37
 70
     1
102
RTVSPost2010Prop38
140
0.0
102
RTVSPost2010PropOp38
 70
     1
102
RTVSPost2010Prop39
140
1.0
102
RTVSPost2010PropOp39
 70
     1
102
RTVSPost2010Prop40
 90
        0
102
RTVSPost2010PropOp40
 70
     1
102
RTVSPost2010Prop41ColorIndex
 90
       18
102
RTVSPost2010Prop41ColorRGB
 90
        0
102
RTVSPost2010PropOp41
 70
     1
102
RTVSPost2010Prop42
 90
       50
102
RTVSPost2010PropOp42
 70
     1
102
RTVSPost2010Prop43
 90
        3
102
RTVSPost2010PropOp43
 70
     1
102
RTVSPost2010Prop44ColorIndex
 90
        5
102
RTVSPost2010Prop44ColorRGB
 90
      255
102
RTVSPost2010PropOp44
 70
     1
102
RTVSPost2010Prop45
280
     0
102
RTVSPost2010PropOp45
 70
     1
102
RTVSPost2010Prop46
 90
       50
102
RTVSPost2010PropOp46
 70
     1
102
RTVSPost2010Prop47
 90
       50
102
RTVSPost2010PropOp47
 70
     1
102
RTVSPost2010Prop48
 90
       50
102
RTVSPost2010PropOp48
 70
     1
102
RTVSPost2010Prop49
280
     0
102
RTVSPost2010PropOp49
 70
     1
102
RTVSPost2010Prop50
 90
       50
102
RTVSPost2010PropOp50
 70
     1
102
RTVSPost2010Prop51ColorIndex
 90
      256
102
RTVSPost2010Prop51ColorRGB
 90
-16777216
102
RTVSPost2010PropOp51
 70
     0
102
RTVSPost2010Prop52
140
1.0
102
RTVSPost2010PropOp52
 70
     0
102
RTVSPost2010Prop53
 90
        2
102
RTVSPost2010PropOp53
 70
     1
102
RTVSPost2010Prop54
  1
strokes_ogs.tif
102
RTVSPost2010PropOp54
 70
     1
102
RTVSPost2010Prop55
280
     0
102
RTVSPost2010PropOp55
 70
     1
102
RTVSPost2010Prop56
140
1.0
102
RTVSPost2010PropOp56
 70
     1
102
RTVSPost2010Prop57
140
1.0
102
RTVSPost2010PropOp57
 70
     1
102
RTVSPropertyOp0
 70
     1
102
RTVSPropertyOp1
 70
     1
102
RTVSPropertyOp2
 70
     1
102
RTVSPropertyOp3
 70
     1
102
RTVSPropertyOp4
 70
     1
102
RTVSPropertyOp5
 70
     1
102
RTVSPropertyOp6
 70
     1
102
RTVSPropertyOp7
 70
     1
102
RTVSPropertyOp8
 70
     1
102
RTVSPropertyOp9
 70
     1
102
RTVSPropertyOp10
 70
     1
102
RTVSPropertyOp11
 70
     1
102
RTVSPropertyOp12
 70
     1
102
RTVSPropertyOp13
 70
     1
102
RTVSPropertyOp14
 70
     1
102
RTVSPropertyOp15
 70
     1
102
RTVSPropertyOp16
 70
     1
102
RTVSPropertyOp17
 70
     1
102
RTVSPropertyOp18
 70
     1
102
RTVSPropertyOp19
 70
     1
102
RTVSPropertyOp20
 70
     1
102
RTVSPropertyOp21
 70
     1
102
RTVSPropertyOp22
 70
     1
102
RTVSPropertyOp23
 70
     1
102
RTVSPropertyOp24
 70
     1
102
RTVSPropertyOp25
 70
     1
102
RTVSPropertyOp26
 70
     1
102
RTVSPropertyOp27
 70
     1
102
RTVSPropertyOp28
 70
     1
102
RTVSPropertyOp29
 70
     1
102
RTVSPropertyOp30
 70
     1
102
RTVSPropertyOp31
 70
     1
102
RTVSPropertyOp32
 70
     1
102
RTVSPropertyOp33
 70
     1
102
RTVSPropertyOp34
 70
     1
102
RTVSPropertyOp35
 70
     1
102
RTVSPropertyOp36
 70
     1
102
RTVSPropertyOp37
 70
     1
102
RTVSPropertyOp38
 70
     1
102
RTVSPropertyOp39
 70
     1
102
RTVSPropertyOp40
 70
     1
102
RTVSPropertyOp41
 70
     1
102
RTVSPropertyOp42
 70
     1
102
RTVSPropertyOp43
 70
     1
102
RTVSPropertyOp44
 70
     1
102
RTVSPropertyOp45
 70
     1
102
RTVSPropertyOp46
 70
     1
102
RTVSPropertyOp47
 70
     1
102
RTVSPropertyOp48
 70
     1
102
RTVSPropertyOp49
 70
     1
102
RTVSPropertyOp50
 70
     1
102
RTVSPropertyOp51
 70
     0
102
RTVSPropertyOp52
 70
     0
102
RTVSPropertyOp53
 70
     1
102
RTVSPropertyOp54
 70
     1
102
RTVSPropertyOp55
 70
     1
102
RTVSPropertyOp56
 70
     1
102
RTVSPropertyOp57
 70
     1
102
RTVSPropertyOp58
 70
     1
102
RTVSPropertyOp59
 70
     1
102
RTVSPropertyOp60
 70
     1
102
RTVSPropertyOp61
 70
     1
102
RTVSPropertyOp62
 70
     1
  0
XRECORD
  5
E2C6
102
{ACAD_REACTORS
330
E2C5
102
}
330
E2C5
100
AcDbXrecord
280
     1
102
RTVSPost2010Prop28
280
     0
102
RTVSPost2010PropOp28
 70
     1
102
RTVSPost2010Prop29
280
     1
102
RTVSPost2010PropOp29
 70
     1
102
RTVSPost2010Prop30
280
     1
102
RTVSPost2010PropOp30
 70
     1
102
RTVSPost2010Prop31
280
     0
102
RTVSPost2010PropOp31
 70
     1
102
RTVSPost2010Prop32
280
     0
102
RTVSPost2010PropOp32
 70
     1
102
RTVSPost2010Prop33
280
     0
102
RTVSPost2010PropOp33
 70
     1
102
RTVSPost2010Prop34
280
     0
102
RTVSPost2010PropOp34
 70
     1
102
RTVSPost2010Prop35
280
     0
102
RTVSPost2010PropOp35
 70
     1
102
RTVSPost2010Prop36
280
     0
102
RTVSPost2010PropOp36
 70
     1
102
RTVSPost2010Prop37
 90
       50
102
RTVSPost2010PropOp37
 70
     1
102
RTVSPost2010Prop38
140
0.0
102
RTVSPost2010PropOp38
 70
     1
102
RTVSPost2010Prop39
140
1.0
102
RTVSPost2010PropOp39
 70
     1
102
RTVSPost2010Prop40
 90
        0
102
RTVSPost2010PropOp40
 70
     1
102
RTVSPost2010Prop41ColorIndex
 90
       18
102
RTVSPost2010Prop41ColorRGB
 90
        0
102
RTVSPost2010PropOp41
 70
     1
102
RTVSPost2010Prop42
 90
       50
102
RTVSPost2010PropOp42
 70
     1
102
RTVSPost2010Prop43
 90
        3
102
RTVSPost2010PropOp43
 70
     1
102
RTVSPost2010Prop44ColorIndex
 90
        5
102
RTVSPost2010Prop44ColorRGB
 90
      255
102
RTVSPost2010PropOp44
 70
     1
102
RTVSPost2010Prop45
280
     0
102
RTVSPost2010PropOp45
 70
     1
102
RTVSPost2010Prop46
 90
       50
102
RTVSPost2010PropOp46
 70
     1
102
RTVSPost2010Prop47
 90
       50
102
RTVSPost2010PropOp47
 70
     1
102
RTVSPost2010Prop48
 90
       50
102
RTVSPost2010PropOp48
 70
     1
102
RTVSPost2010Prop49
280
     0
102
RTVSPost2010PropOp49
 70
     1
102
RTVSPost2010Prop50
 90
       50
102
RTVSPost2010PropOp50
 70
     1
102
RTVSPost2010Prop51ColorIndex
 90
      256
102
RTVSPost2010Prop51ColorRGB
 90
-16777216
102
RTVSPost2010PropOp51
 70
     0
102
RTVSPost2010Prop52
140
1.0
102
RTVSPost2010PropOp52
 70
     0
102
RTVSPost2010Prop53
 90
        2
102
RTVSPost2010PropOp53
 70
     1
102
RTVSPost2010Prop54
  1
strokes_ogs.tif
102
RTVSPost2010PropOp54
 70
     1
102
RTVSPost2010Prop55
280
     0
102
RTVSPost2010PropOp55
 70
     1
102
RTVSPost2010Prop56
140
1.0
102
RTVSPost2010PropOp56
 70
     1
102
RTVSPost2010Prop57
140
1.0
102
RTVSPost2010PropOp57
 70
     1
102
RTVSPropertyOp0
 70
     0
102
RTVSPropertyOp1
 70
     0
102
RTVSPropertyOp2
 70
     0
102
RTVSPropertyOp3
 70
     0
102
RTVSPropertyOp4
 70
     0
102
RTVSPropertyOp5
 70
     0
102
RTVSPropertyOp6
 70
     0
102
RTVSPropertyOp7
 70
     0
102
RTVSPropertyOp8
 70
     0
102
RTVSPropertyOp9
 70
     0
102
RTVSPropertyOp10
 70
     0
102
RTVSPropertyOp11
 70
     0
102
RTVSPropertyOp12
 70
     0
102
RTVSPropertyOp13
 70
     0
102
RTVSPropertyOp14
 70
     2
102
RTVSPropertyOp15
 70
     0
102
RTVSPropertyOp16
 70
     0
102
RTVSPropertyOp17
 70
     0
102
RTVSPropertyOp18
 70
     0
102
RTVSPropertyOp19
 70
     0
102
RTVSPropertyOp20
 70
     0
102
RTVSPropertyOp21
 70
     0
102
RTVSPropertyOp22
 70
     0
102
RTVSPropertyOp23
 70
     0
102
RTVSPropertyOp24
 70
     0
102
RTVSPropertyOp25
 70
     0
102
RTVSPropertyOp26
 70
     0
102
RTVSPropertyOp27
 70
     0
102
RTVSPropertyOp28
 70
     1
102
RTVSPropertyOp29
 70
     1
102
RTVSPropertyOp30
 70
     1
102
RTVSPropertyOp31
 70
     1
102
RTVSPropertyOp32
 70
     1
102
RTVSPropertyOp33
 70
     1
102
RTVSPropertyOp34
 70
     1
102
RTVSPropertyOp35
 70
     1
102
RTVSPropertyOp36
 70
     1
102
RTVSPropertyOp37
 70
     1
102
RTVSPropertyOp38
 70
     1
102
RTVSPropertyOp39
 70
     1
102
RTVSPropertyOp40
 70
     1
102
RTVSPropertyOp41
 70
     1
102
RTVSPropertyOp42
 70
     1
102
RTVSPropertyOp43
 70
     1
102
RTVSPropertyOp44
 70
     1
102
RTVSPropertyOp45
 70
     1
102
RTVSPropertyOp46
 70
     1
102
RTVSPropertyOp47
 70
     1
102
RTVSPropertyOp48
 70
     1
102
RTVSPropertyOp49
 70
     1
102
RTVSPropertyOp50
 70
     1
102
RTVSPropertyOp51
 70
     0
102
RTVSPropertyOp52
 70
     0
102
RTVSPropertyOp53
 70
     1
102
RTVSPropertyOp54
 70
     1
102
RTVSPropertyOp55
 70
     1
102
RTVSPropertyOp56
 70
     1
102
RTVSPropertyOp57
 70
     1
102
RTVSPropertyOp58
 70
     1
102
RTVSPropertyOp59
 70
     1
102
RTVSPropertyOp60
 70
     1
102
RTVSPropertyOp61
 70
     1
102
RTVSPropertyOp62
 70
     1
  0
XRECORD
  5
E2BE
102
{ACAD_REACTORS
330
E2BD
102
}
330
E2BD
100
AcDbXrecord
280
     1
102
RTVSPost2010Prop28
280
     0
102
RTVSPost2010PropOp28
 70
     1
102
RTVSPost2010Prop29
280
     1
102
RTVSPost2010PropOp29
 70
     1
102
RTVSPost2010Prop30
280
     1
102
RTVSPost2010PropOp30
 70
     1
102
RTVSPost2010Prop31
280
     0
102
RTVSPost2010PropOp31
 70
     1
102
RTVSPost2010Prop32
280
     0
102
RTVSPost2010PropOp32
 70
     1
102
RTVSPost2010Prop33
280
     0
102
RTVSPost2010PropOp33
 70
     1
102
RTVSPost2010Prop34
280
     0
102
RTVSPost2010PropOp34
 70
     1
102
RTVSPost2010Prop35
280
     0
102
RTVSPost2010PropOp35
 70
     1
102
RTVSPost2010Prop36
280
     0
102
RTVSPost2010PropOp36
 70
     1
102
RTVSPost2010Prop37
 90
       50
102
RTVSPost2010PropOp37
 70
     1
102
RTVSPost2010Prop38
140
0.0
102
RTVSPost2010PropOp38
 70
     1
102
RTVSPost2010Prop39
140
1.0
102
RTVSPost2010PropOp39
 70
     1
102
RTVSPost2010Prop40
 90
        0
102
RTVSPost2010PropOp40
 70
     1
102
RTVSPost2010Prop41ColorIndex
 90
       18
102
RTVSPost2010Prop41ColorRGB
 90
        0
102
RTVSPost2010PropOp41
 70
     1
102
RTVSPost2010Prop42
 90
       50
102
RTVSPost2010PropOp42
 70
     1
102
RTVSPost2010Prop43
 90
        3
102
RTVSPost2010PropOp43
 70
     1
102
RTVSPost2010Prop44ColorIndex
 90
        5
102
RTVSPost2010Prop44ColorRGB
 90
      255
102
RTVSPost2010PropOp44
 70
     1
102
RTVSPost2010Prop45
280
     0
102
RTVSPost2010PropOp45
 70
     1
102
RTVSPost2010Prop46
 90
       50
102
RTVSPost2010PropOp46
 70
     1
102
RTVSPost2010Prop47
 90
       50
102
RTVSPost2010PropOp47
 70
     1
102
RTVSPost2010Prop48
 90
       50
102
RTVSPost2010PropOp48
 70
     1
102
RTVSPost2010Prop49
280
     0
102
RTVSPost2010PropOp49
 70
     1
102
RTVSPost2010Prop50
 90
       50
102
RTVSPost2010PropOp50
 70
     1
102
RTVSPost2010Prop51ColorIndex
 90
      256
102
RTVSPost2010Prop51ColorRGB
 90
-16777216
102
RTVSPost2010PropOp51
 70
     0
102
RTVSPost2010Prop52
140
1.0
102
RTVSPost2010PropOp52
 70
     0
102
RTVSPost2010Prop53
 90
        2
102
RTVSPost2010PropOp53
 70
     1
102
RTVSPost2010Prop54
  1
strokes_ogs.tif
102
RTVSPost2010PropOp54
 70
     1
102
RTVSPost2010Prop55
280
     0
102
RTVSPost2010PropOp55
 70
     1
102
RTVSPost2010Prop56
140
1.0
102
RTVSPost2010PropOp56
 70
     1
102
RTVSPost2010Prop57
140
1.0
102
RTVSPost2010PropOp57
 70
     1
102
RTVSPropertyOp0
 70
     1
102
RTVSPropertyOp1
 70
     1
102
RTVSPropertyOp2
 70
     1
102
RTVSPropertyOp3
 70
     1
102
RTVSPropertyOp4
 70
     1
102
RTVSPropertyOp5
 70
     1
102
RTVSPropertyOp6
 70
     1
102
RTVSPropertyOp7
 70
     1
102
RTVSPropertyOp8
 70
     1
102
RTVSPropertyOp9
 70
     1
102
RTVSPropertyOp10
 70
     1
102
RTVSPropertyOp11
 70
     1
102
RTVSPropertyOp12
 70
     1
102
RTVSPropertyOp13
 70
     1
102
RTVSPropertyOp14
 70
     1
102
RTVSPropertyOp15
 70
     1
102
RTVSPropertyOp16
 70
     1
102
RTVSPropertyOp17
 70
     1
102
RTVSPropertyOp18
 70
     1
102
RTVSPropertyOp19
 70
     1
102
RTVSPropertyOp20
 70
     1
102
RTVSPropertyOp21
 70
     1
102
RTVSPropertyOp22
 70
     1
102
RTVSPropertyOp23
 70
     1
102
RTVSPropertyOp24
 70
     1
102
RTVSPropertyOp25
 70
     1
102
RTVSPropertyOp26
 70
     1
102
RTVSPropertyOp27
 70
     1
102
RTVSPropertyOp28
 70
     1
102
RTVSPropertyOp29
 70
     1
102
RTVSPropertyOp30
 70
     1
102
RTVSPropertyOp31
 70
     1
102
RTVSPropertyOp32
 70
     1
102
RTVSPropertyOp33
 70
     1
102
RTVSPropertyOp34
 70
     1
102
RTVSPropertyOp35
 70
     1
102
RTVSPropertyOp36
 70
     1
102
RTVSPropertyOp37
 70
     1
102
RTVSPropertyOp38
 70
     1
102
RTVSPropertyOp39
 70
     1
102
RTVSPropertyOp40
 70
     1
102
RTVSPropertyOp41
 70
     1
102
RTVSPropertyOp42
 70
     1
102
RTVSPropertyOp43
 70
     1
102
RTVSPropertyOp44
 70
     1
102
RTVSPropertyOp45
 70
     1
102
RTVSPropertyOp46
 70
     1
102
RTVSPropertyOp47
 70
     1
102
RTVSPropertyOp48
 70
     1
102
RTVSPropertyOp49
 70
     1
102
RTVSPropertyOp50
 70
     1
102
RTVSPropertyOp51
 70
     0
102
RTVSPropertyOp52
 70
     0
102
RTVSPropertyOp53
 70
     1
102
RTVSPropertyOp54
 70
     1
102
RTVSPropertyOp55
 70
     1
102
RTVSPropertyOp56
 70
     1
102
RTVSPropertyOp57
 70
     1
102
RTVSPropertyOp58
 70
     1
102
RTVSPropertyOp59
 70
     1
102
RTVSPropertyOp60
 70
     1
102
RTVSPropertyOp61
 70
     1
102
RTVSPropertyOp62
 70
     1
  0
XRECORD
  5
E2A2
102
{ACAD_REACTORS
330
E2A1
102
}
330
E2A1
100
AcDbXrecord
280
     1
102
RTVSPost2010Prop28
280
     0
102
RTVSPost2010PropOp28
 70
     1
102
RTVSPost2010Prop29
280
     1
102
RTVSPost2010PropOp29
 70
     1
102
RTVSPost2010Prop30
280
     1
102
RTVSPost2010PropOp30
 70
     1
102
RTVSPost2010Prop31
280
     0
102
RTVSPost2010PropOp31
 70
     1
102
RTVSPost2010Prop32
280
     0
102
RTVSPost2010PropOp32
 70
     1
102
RTVSPost2010Prop33
280
     0
102
RTVSPost2010PropOp33
 70
     1
102
RTVSPost2010Prop34
280
     0
102
RTVSPost2010PropOp34
 70
     1
102
RTVSPost2010Prop35
280
     0
102
RTVSPost2010PropOp35
 70
     1
102
RTVSPost2010Prop36
280
     0
102
RTVSPost2010PropOp36
 70
     1
102
RTVSPost2010Prop37
 90
       50
102
RTVSPost2010PropOp37
 70
     1
102
RTVSPost2010Prop38
140
0.0
102
RTVSPost2010PropOp38
 70
     1
102
RTVSPost2010Prop39
140
1.0
102
RTVSPost2010PropOp39
 70
     1
102
RTVSPost2010Prop40
 90
        0
102
RTVSPost2010PropOp40
 70
     1
102
RTVSPost2010Prop41ColorIndex
 90
       18
102
RTVSPost2010Prop41ColorRGB
 90
        0
102
RTVSPost2010PropOp41
 70
     1
102
RTVSPost2010Prop42
 90
       50
102
RTVSPost2010PropOp42
 70
     1
102
RTVSPost2010Prop43
 90
        3
102
RTVSPost2010PropOp43
 70
     1
102
RTVSPost2010Prop44ColorIndex
 90
        5
102
RTVSPost2010Prop44ColorRGB
 90
      255
102
RTVSPost2010PropOp44
 70
     1
102
RTVSPost2010Prop45
280
     0
102
RTVSPost2010PropOp45
 70
     1
102
RTVSPost2010Prop46
 90
       50
102
RTVSPost2010PropOp46
 70
     1
102
RTVSPost2010Prop47
 90
       50
102
RTVSPost2010PropOp47
 70
     1
102
RTVSPost2010Prop48
 90
       50
102
RTVSPost2010PropOp48
 70
     1
102
RTVSPost2010Prop49
280
     0
102
RTVSPost2010PropOp49
 70
     1
102
RTVSPost2010Prop50
 90
       50
102
RTVSPost2010PropOp50
 70
     1
102
RTVSPost2010Prop51ColorIndex
 90
      256
102
RTVSPost2010Prop51ColorRGB
 90
-16777216
102
RTVSPost2010PropOp51
 70
     0
102
RTVSPost2010Prop52
140
1.0
102
RTVSPost2010PropOp52
 70
     0
102
RTVSPost2010Prop53
 90
        2
102
RTVSPost2010PropOp53
 70
     1
102
RTVSPost2010Prop54
  1
strokes_ogs.tif
102
RTVSPost2010PropOp54
 70
     1
102
RTVSPost2010Prop55
280
     0
102
RTVSPost2010PropOp55
 70
     1
102
RTVSPost2010Prop56
140
1.0
102
RTVSPost2010PropOp56
 70
     1
102
RTVSPost2010Prop57
140
1.0
102
RTVSPost2010PropOp57
 70
     1
102
RTVSPropertyOp0
 70
     1
102
RTVSPropertyOp1
 70
     1
102
RTVSPropertyOp2
 70
     1
102
RTVSPropertyOp3
 70
     1
102
RTVSPropertyOp4
 70
     1
102
RTVSPropertyOp5
 70
     1
102
RTVSPropertyOp6
 70
     1
102
RTVSPropertyOp7
 70
     1
102
RTVSPropertyOp8
 70
     1
102
RTVSPropertyOp9
 70
     1
102
RTVSPropertyOp10
 70
     1
102
RTVSPropertyOp11
 70
     1
102
RTVSPropertyOp12
 70
     1
102
RTVSPropertyOp13
 70
     1
102
RTVSPropertyOp14
 70
     1
102
RTVSPropertyOp15
 70
     1
102
RTVSPropertyOp16
 70
     1
102
RTVSPropertyOp17
 70
     1
102
RTVSPropertyOp18
 70
     1
102
RTVSPropertyOp19
 70
     1
102
RTVSPropertyOp20
 70
     1
102
RTVSPropertyOp21
 70
     1
102
RTVSPropertyOp22
 70
     1
102
RTVSPropertyOp23
 70
     1
102
RTVSPropertyOp24
 70
     1
102
RTVSPropertyOp25
 70
     1
102
RTVSPropertyOp26
 70
     1
102
RTVSPropertyOp27
 70
     1
102
RTVSPropertyOp28
 70
     1
102
RTVSPropertyOp29
 70
     1
102
RTVSPropertyOp30
 70
     1
102
RTVSPropertyOp31
 70
     1
102
RTVSPropertyOp32
 70
     1
102
RTVSPropertyOp33
 70
     1
102
RTVSPropertyOp34
 70
     1
102
RTVSPropertyOp35
 70
     1
102
RTVSPropertyOp36
 70
     1
102
RTVSPropertyOp37
 70
     1
102
RTVSPropertyOp38
 70
     1
102
RTVSPropertyOp39
 70
     1
102
RTVSPropertyOp40
 70
     1
102
RTVSPropertyOp41
 70
     1
102
RTVSPropertyOp42
 70
     1
102
RTVSPropertyOp43
 70
     1
102
RTVSPropertyOp44
 70
     1
102
RTVSPropertyOp45
 70
     1
102
RTVSPropertyOp46
 70
     1
102
RTVSPropertyOp47
 70
     1
102
RTVSPropertyOp48
 70
     1
102
RTVSPropertyOp49
 70
     1
102
RTVSPropertyOp50
 70
     1
102
RTVSPropertyOp51
 70
     0
102
RTVSPropertyOp52
 70
     0
102
RTVSPropertyOp53
 70
     1
102
RTVSPropertyOp54
 70
     1
102
RTVSPropertyOp55
 70
     1
102
RTVSPropertyOp56
 70
     1
102
RTVSPropertyOp57
 70
     1
102
RTVSPropertyOp58
 70
     1
102
RTVSPropertyOp59
 70
     1
102
RTVSPropertyOp60
 70
     1
102
RTVSPropertyOp61
 70
     1
102
RTVSPropertyOp62
 70
     1
  0
XRECORD
  5
E2A4
102
{ACAD_REACTORS
330
E2A3
102
}
330
E2A3
100
AcDbXrecord
280
     1
102
RTVSPost2010Prop28
280
     0
102
RTVSPost2010PropOp28
 70
     1
102
RTVSPost2010Prop29
280
     1
102
RTVSPost2010PropOp29
 70
     1
102
RTVSPost2010Prop30
280
     1
102
RTVSPost2010PropOp30
 70
     1
102
RTVSPost2010Prop31
280
     0
102
RTVSPost2010PropOp31
 70
     1
102
RTVSPost2010Prop32
280
     0
102
RTVSPost2010PropOp32
 70
     1
102
RTVSPost2010Prop33
280
     0
102
RTVSPost2010PropOp33
 70
     1
102
RTVSPost2010Prop34
280
     0
102
RTVSPost2010PropOp34
 70
     1
102
RTVSPost2010Prop35
280
     0
102
RTVSPost2010PropOp35
 70
     1
102
RTVSPost2010Prop36
280
     0
102
RTVSPost2010PropOp36
 70
     1
102
RTVSPost2010Prop37
 90
       50
102
RTVSPost2010PropOp37
 70
     1
102
RTVSPost2010Prop38
140
0.0
102
RTVSPost2010PropOp38
 70
     1
102
RTVSPost2010Prop39
140
1.0
102
RTVSPost2010PropOp39
 70
     1
102
RTVSPost2010Prop40
 90
        0
102
RTVSPost2010PropOp40
 70
     1
102
RTVSPost2010Prop41ColorIndex
 90
       18
102
RTVSPost2010Prop41ColorRGB
 90
        0
102
RTVSPost2010PropOp41
 70
     1
102
RTVSPost2010Prop42
 90
       50
102
RTVSPost2010PropOp42
 70
     1
102
RTVSPost2010Prop43
 90
        3
102
RTVSPost2010PropOp43
 70
     1
102
RTVSPost2010Prop44ColorIndex
 90
        5
102
RTVSPost2010Prop44ColorRGB
 90
      255
102
RTVSPost2010PropOp44
 70
     1
102
RTVSPost2010Prop45
280
     0
102
RTVSPost2010PropOp45
 70
     1
102
RTVSPost2010Prop46
 90
       50
102
RTVSPost2010PropOp46
 70
     1
102
RTVSPost2010Prop47
 90
       50
102
RTVSPost2010PropOp47
 70
     1
102
RTVSPost2010Prop48
 90
       50
102
RTVSPost2010PropOp48
 70
     1
102
RTVSPost2010Prop49
280
     0
102
RTVSPost2010PropOp49
 70
     1
102
RTVSPost2010Prop50
 90
       50
102
RTVSPost2010PropOp50
 70
     1
102
RTVSPost2010Prop51ColorIndex
 90
      256
102
RTVSPost2010Prop51ColorRGB
 90
-16777216
102
RTVSPost2010PropOp51
 70
     0
102
RTVSPost2010Prop52
140
1.0
102
RTVSPost2010PropOp52
 70
     0
102
RTVSPost2010Prop53
 90
        2
102
RTVSPost2010PropOp53
 70
     1
102
RTVSPost2010Prop54
  1
strokes_ogs.tif
102
RTVSPost2010PropOp54
 70
     1
102
RTVSPost2010Prop55
280
     0
102
RTVSPost2010PropOp55
 70
     1
102
RTVSPost2010Prop56
140
1.0
102
RTVSPost2010PropOp56
 70
     1
102
RTVSPost2010Prop57
140
1.0
102
RTVSPost2010PropOp57
 70
     1
102
RTVSPropertyOp0
 70
     1
102
RTVSPropertyOp1
 70
     1
102
RTVSPropertyOp2
 70
     1
102
RTVSPropertyOp3
 70
     1
102
RTVSPropertyOp4
 70
     1
102
RTVSPropertyOp5
 70
     1
102
RTVSPropertyOp6
 70
     1
102
RTVSPropertyOp7
 70
     1
102
RTVSPropertyOp8
 70
     1
102
RTVSPropertyOp9
 70
     1
102
RTVSPropertyOp10
 70
     1
102
RTVSPropertyOp11
 70
     1
102
RTVSPropertyOp12
 70
     1
102
RTVSPropertyOp13
 70
     1
102
RTVSPropertyOp14
 70
     1
102
RTVSPropertyOp15
 70
     1
102
RTVSPropertyOp16
 70
     1
102
RTVSPropertyOp17
 70
     1
102
RTVSPropertyOp18
 70
     1
102
RTVSPropertyOp19
 70
     1
102
RTVSPropertyOp20
 70
     1
102
RTVSPropertyOp21
 70
     1
102
RTVSPropertyOp22
 70
     1
102
RTVSPropertyOp23
 70
     1
102
RTVSPropertyOp24
 70
     1
102
RTVSPropertyOp25
 70
     1
102
RTVSPropertyOp26
 70
     1
102
RTVSPropertyOp27
 70
     1
102
RTVSPropertyOp28
 70
     1
102
RTVSPropertyOp29
 70
     1
102
RTVSPropertyOp30
 70
     1
102
RTVSPropertyOp31
 70
     1
102
RTVSPropertyOp32
 70
     1
102
RTVSPropertyOp33
 70
     1
102
RTVSPropertyOp34
 70
     1
102
RTVSPropertyOp35
 70
     1
102
RTVSPropertyOp36
 70
     1
102
RTVSPropertyOp37
 70
     1
102
RTVSPropertyOp38
 70
     1
102
RTVSPropertyOp39
 70
     1
102
RTVSPropertyOp40
 70
     1
102
RTVSPropertyOp41
 70
     1
102
RTVSPropertyOp42
 70
     1
102
RTVSPropertyOp43
 70
     1
102
RTVSPropertyOp44
 70
     1
102
RTVSPropertyOp45
 70
     1
102
RTVSPropertyOp46
 70
     1
102
RTVSPropertyOp47
 70
     1
102
RTVSPropertyOp48
 70
     1
102
RTVSPropertyOp49
 70
     1
102
RTVSPropertyOp50
 70
     1
102
RTVSPropertyOp51
 70
     0
102
RTVSPropertyOp52
 70
     0
102
RTVSPropertyOp53
 70
     1
102
RTVSPropertyOp54
 70
     1
102
RTVSPropertyOp55
 70
     1
102
RTVSPropertyOp56
 70
     1
102
RTVSPropertyOp57
 70
     1
102
RTVSPropertyOp58
 70
     1
102
RTVSPropertyOp59
 70
     1
102
RTVSPropertyOp60
 70
     1
102
RTVSPropertyOp61
 70
     1
102
RTVSPropertyOp62
 70
     1
  0
XRECORD
  5
E2A6
102
{ACAD_REACTORS
330
E2A5
102
}
330
E2A5
100
AcDbXrecord
280
     1
102
RTVSPost2010Prop28
280
     0
102
RTVSPost2010PropOp28
 70
     1
102
RTVSPost2010Prop29
280
     1
102
RTVSPost2010PropOp29
 70
     1
102
RTVSPost2010Prop30
280
     1
102
RTVSPost2010PropOp30
 70
     1
102
RTVSPost2010Prop31
280
     0
102
RTVSPost2010PropOp31
 70
     1
102
RTVSPost2010Prop32
280
     0
102
RTVSPost2010PropOp32
 70
     1
102
RTVSPost2010Prop33
280
     0
102
RTVSPost2010PropOp33
 70
     1
102
RTVSPost2010Prop34
280
     0
102
RTVSPost2010PropOp34
 70
     1
102
RTVSPost2010Prop35
280
     0
102
RTVSPost2010PropOp35
 70
     1
102
RTVSPost2010Prop36
280
     0
102
RTVSPost2010PropOp36
 70
     1
102
RTVSPost2010Prop37
 90
       50
102
RTVSPost2010PropOp37
 70
     1
102
RTVSPost2010Prop38
140
0.0
102
RTVSPost2010PropOp38
 70
     1
102
RTVSPost2010Prop39
140
1.0
102
RTVSPost2010PropOp39
 70
     1
102
RTVSPost2010Prop40
 90
        0
102
RTVSPost2010PropOp40
 70
     1
102
RTVSPost2010Prop41ColorIndex
 90
       18
102
RTVSPost2010Prop41ColorRGB
 90
        0
102
RTVSPost2010PropOp41
 70
     1
102
RTVSPost2010Prop42
 90
       50
102
RTVSPost2010PropOp42
 70
     1
102
RTVSPost2010Prop43
 90
        3
102
RTVSPost2010PropOp43
 70
     1
102
RTVSPost2010Prop44ColorIndex
 90
        5
102
RTVSPost2010Prop44ColorRGB
 90
      255
102
RTVSPost2010PropOp44
 70
     1
102
RTVSPost2010Prop45
280
     0
102
RTVSPost2010PropOp45
 70
     1
102
RTVSPost2010Prop46
 90
       50
102
RTVSPost2010PropOp46
 70
     1
102
RTVSPost2010Prop47
 90
       50
102
RTVSPost2010PropOp47
 70
     1
102
RTVSPost2010Prop48
 90
       50
102
RTVSPost2010PropOp48
 70
     1
102
RTVSPost2010Prop49
280
     0
102
RTVSPost2010PropOp49
 70
     1
102
RTVSPost2010Prop50
 90
       50
102
RTVSPost2010PropOp50
 70
     1
102
RTVSPost2010Prop51ColorIndex
 90
      256
102
RTVSPost2010Prop51ColorRGB
 90
-16777216
102
RTVSPost2010PropOp51
 70
     0
102
RTVSPost2010Prop52
140
1.0
102
RTVSPost2010PropOp52
 70
     0
102
RTVSPost2010Prop53
 90
        2
102
RTVSPost2010PropOp53
 70
     1
102
RTVSPost2010Prop54
  1
strokes_ogs.tif
102
RTVSPost2010PropOp54
 70
     1
102
RTVSPost2010Prop55
280
     0
102
RTVSPost2010PropOp55
 70
     1
102
RTVSPost2010Prop56
140
1.0
102
RTVSPost2010PropOp56
 70
     1
102
RTVSPost2010Prop57
140
1.0
102
RTVSPost2010PropOp57
 70
     1
102
RTVSPropertyOp0
 70
     1
102
RTVSPropertyOp1
 70
     1
102
RTVSPropertyOp2
 70
     1
102
RTVSPropertyOp3
 70
     1
102
RTVSPropertyOp4
 70
     1
102
RTVSPropertyOp5
 70
     1
102
RTVSPropertyOp6
 70
     1
102
RTVSPropertyOp7
 70
     1
102
RTVSPropertyOp8
 70
     1
102
RTVSPropertyOp9
 70
     1
102
RTVSPropertyOp10
 70
     1
102
RTVSPropertyOp11
 70
     1
102
RTVSPropertyOp12
 70
     1
102
RTVSPropertyOp13
 70
     1
102
RTVSPropertyOp14
 70
     1
102
RTVSPropertyOp15
 70
     1
102
RTVSPropertyOp16
 70
     1
102
RTVSPropertyOp17
 70
     1
102
RTVSPropertyOp18
 70
     1
102
RTVSPropertyOp19
 70
     1
102
RTVSPropertyOp20
 70
     1
102
RTVSPropertyOp21
 70
     1
102
RTVSPropertyOp22
 70
     1
102
RTVSPropertyOp23
 70
     1
102
RTVSPropertyOp24
 70
     1
102
RTVSPropertyOp25
 70
     1
102
RTVSPropertyOp26
 70
     1
102
RTVSPropertyOp27
 70
     1
102
RTVSPropertyOp28
 70
     1
102
RTVSPropertyOp29
 70
     1
102
RTVSPropertyOp30
 70
     1
102
RTVSPropertyOp31
 70
     1
102
RTVSPropertyOp32
 70
     1
102
RTVSPropertyOp33
 70
     1
102
RTVSPropertyOp34
 70
     1
102
RTVSPropertyOp35
 70
     1
102
RTVSPropertyOp36
 70
     1
102
RTVSPropertyOp37
 70
     1
102
RTVSPropertyOp38
 70
     1
102
RTVSPropertyOp39
 70
     1
102
RTVSPropertyOp40
 70
     1
102
RTVSPropertyOp41
 70
     1
102
RTVSPropertyOp42
 70
     1
102
RTVSPropertyOp43
 70
     1
102
RTVSPropertyOp44
 70
     1
102
RTVSPropertyOp45
 70
     1
102
RTVSPropertyOp46
 70
     1
102
RTVSPropertyOp47
 70
     1
102
RTVSPropertyOp48
 70
     1
102
RTVSPropertyOp49
 70
     1
102
RTVSPropertyOp50
 70
     1
102
RTVSPropertyOp51
 70
     0
102
RTVSPropertyOp52
 70
     0
102
RTVSPropertyOp53
 70
     1
102
RTVSPropertyOp54
 70
     1
102
RTVSPropertyOp55
 70
     1
102
RTVSPropertyOp56
 70
     1
102
RTVSPropertyOp57
 70
     1
102
RTVSPropertyOp58
 70
     1
102
RTVSPropertyOp59
 70
     1
102
RTVSPropertyOp60
 70
     1
102
RTVSPropertyOp61
 70
     1
102
RTVSPropertyOp62
 70
     1
  0
XRECORD
  5
E2A8
102
{ACAD_REACTORS
330
E2A7
102
}
330
E2A7
100
AcDbXrecord
280
     1
102
RTVSPost2010Prop28
280
     0
102
RTVSPost2010PropOp28
 70
     1
102
RTVSPost2010Prop29
280
     1
102
RTVSPost2010PropOp29
 70
     1
102
RTVSPost2010Prop30
280
     1
102
RTVSPost2010PropOp30
 70
     1
102
RTVSPost2010Prop31
280
     0
102
RTVSPost2010PropOp31
 70
     1
102
RTVSPost2010Prop32
280
     0
102
RTVSPost2010PropOp32
 70
     1
102
RTVSPost2010Prop33
280
     0
102
RTVSPost2010PropOp33
 70
     1
102
RTVSPost2010Prop34
280
     0
102
RTVSPost2010PropOp34
 70
     1
102
RTVSPost2010Prop35
280
     0
102
RTVSPost2010PropOp35
 70
     1
102
RTVSPost2010Prop36
280
     0
102
RTVSPost2010PropOp36
 70
     1
102
RTVSPost2010Prop37
 90
       50
102
RTVSPost2010PropOp37
 70
     1
102
RTVSPost2010Prop38
140
0.0
102
RTVSPost2010PropOp38
 70
     1
102
RTVSPost2010Prop39
140
1.0
102
RTVSPost2010PropOp39
 70
     1
102
RTVSPost2010Prop40
 90
        0
102
RTVSPost2010PropOp40
 70
     1
102
RTVSPost2010Prop41ColorIndex
 90
       18
102
RTVSPost2010Prop41ColorRGB
 90
        0
102
RTVSPost2010PropOp41
 70
     1
102
RTVSPost2010Prop42
 90
       50
102
RTVSPost2010PropOp42
 70
     1
102
RTVSPost2010Prop43
 90
        3
102
RTVSPost2010PropOp43
 70
     1
102
RTVSPost2010Prop44ColorIndex
 90
        5
102
RTVSPost2010Prop44ColorRGB
 90
      255
102
RTVSPost2010PropOp44
 70
     1
102
RTVSPost2010Prop45
280
     0
102
RTVSPost2010PropOp45
 70
     1
102
RTVSPost2010Prop46
 90
       50
102
RTVSPost2010PropOp46
 70
     1
102
RTVSPost2010Prop47
 90
       50
102
RTVSPost2010PropOp47
 70
     1
102
RTVSPost2010Prop48
 90
       50
102
RTVSPost2010PropOp48
 70
     1
102
RTVSPost2010Prop49
280
     0
102
RTVSPost2010PropOp49
 70
     1
102
RTVSPost2010Prop50
 90
       50
102
RTVSPost2010PropOp50
 70
     1
102
RTVSPost2010Prop51ColorIndex
 90
      256
102
RTVSPost2010Prop51ColorRGB
 90
-16777216
102
RTVSPost2010PropOp51
 70
     0
102
RTVSPost2010Prop52
140
1.0
102
RTVSPost2010PropOp52
 70
     0
102
RTVSPost2010Prop53
 90
        2
102
RTVSPost2010PropOp53
 70
     1
102
RTVSPost2010Prop54
  1
strokes_ogs.tif
102
RTVSPost2010PropOp54
 70
     1
102
RTVSPost2010Prop55
280
     0
102
RTVSPost2010PropOp55
 70
     1
102
RTVSPost2010Prop56
140
1.0
102
RTVSPost2010PropOp56
 70
     1
102
RTVSPost2010Prop57
140
1.0
102
RTVSPost2010PropOp57
 70
     1
102
RTVSPropertyOp0
 70
     1
102
RTVSPropertyOp1
 70
     1
102
RTVSPropertyOp2
 70
     1
102
RTVSPropertyOp3
 70
     1
102
RTVSPropertyOp4
 70
     1
102
RTVSPropertyOp5
 70
     1
102
RTVSPropertyOp6
 70
     1
102
RTVSPropertyOp7
 70
     1
102
RTVSPropertyOp8
 70
     1
102
RTVSPropertyOp9
 70
     1
102
RTVSPropertyOp10
 70
     1
102
RTVSPropertyOp11
 70
     1
102
RTVSPropertyOp12
 70
     1
102
RTVSPropertyOp13
 70
     1
102
RTVSPropertyOp14
 70
     1
102
RTVSPropertyOp15
 70
     1
102
RTVSPropertyOp16
 70
     1
102
RTVSPropertyOp17
 70
     1
102
RTVSPropertyOp18
 70
     1
102
RTVSPropertyOp19
 70
     1
102
RTVSPropertyOp20
 70
     1
102
RTVSPropertyOp21
 70
     1
102
RTVSPropertyOp22
 70
     1
102
RTVSPropertyOp23
 70
     1
102
RTVSPropertyOp24
 70
     1
102
RTVSPropertyOp25
 70
     1
102
RTVSPropertyOp26
 70
     1
102
RTVSPropertyOp27
 70
     1
102
RTVSPropertyOp28
 70
     1
102
RTVSPropertyOp29
 70
     1
102
RTVSPropertyOp30
 70
     1
102
RTVSPropertyOp31
 70
     1
102
RTVSPropertyOp32
 70
     1
102
RTVSPropertyOp33
 70
     1
102
RTVSPropertyOp34
 70
     1
102
RTVSPropertyOp35
 70
     1
102
RTVSPropertyOp36
 70
     1
102
RTVSPropertyOp37
 70
     1
102
RTVSPropertyOp38
 70
     1
102
RTVSPropertyOp39
 70
     1
102
RTVSPropertyOp40
 70
     1
102
RTVSPropertyOp41
 70
     1
102
RTVSPropertyOp42
 70
     1
102
RTVSPropertyOp43
 70
     1
102
RTVSPropertyOp44
 70
     1
102
RTVSPropertyOp45
 70
     1
102
RTVSPropertyOp46
 70
     1
102
RTVSPropertyOp47
 70
     1
102
RTVSPropertyOp48
 70
     1
102
RTVSPropertyOp49
 70
     1
102
RTVSPropertyOp50
 70
     1
102
RTVSPropertyOp51
 70
     0
102
RTVSPropertyOp52
 70
     0
102
RTVSPropertyOp53
 70
     1
102
RTVSPropertyOp54
 70
     1
102
RTVSPropertyOp55
 70
     1
102
RTVSPropertyOp56
 70
     1
102
RTVSPropertyOp57
 70
     1
102
RTVSPropertyOp58
 70
     1
102
RTVSPropertyOp59
 70
     1
102
RTVSPropertyOp60
 70
     1
102
RTVSPropertyOp61
 70
     1
102
RTVSPropertyOp62
 70
     1
  0
XRECORD
  5
E2CB
102
{ACAD_REACTORS
330
E2CA
102
}
330
E2CA
100
AcDbXrecord
280
     1
102
RTVSPost2010Prop28
280
     0
102
RTVSPost2010PropOp28
 70
     1
102
RTVSPost2010Prop29
280
     1
102
RTVSPost2010PropOp29
 70
     1
102
RTVSPost2010Prop30
280
     1
102
RTVSPost2010PropOp30
 70
     1
102
RTVSPost2010Prop31
280
     0
102
RTVSPost2010PropOp31
 70
     1
102
RTVSPost2010Prop32
280
     0
102
RTVSPost2010PropOp32
 70
     1
102
RTVSPost2010Prop33
280
     0
102
RTVSPost2010PropOp33
 70
     1
102
RTVSPost2010Prop34
280
     0
102
RTVSPost2010PropOp34
 70
     1
102
RTVSPost2010Prop35
280
     0
102
RTVSPost2010PropOp35
 70
     1
102
RTVSPost2010Prop36
280
     0
102
RTVSPost2010PropOp36
 70
     1
102
RTVSPost2010Prop37
 90
       50
102
RTVSPost2010PropOp37
 70
     1
102
RTVSPost2010Prop38
140
0.0
102
RTVSPost2010PropOp38
 70
     1
102
RTVSPost2010Prop39
140
1.0
102
RTVSPost2010PropOp39
 70
     1
102
RTVSPost2010Prop40
 90
        0
102
RTVSPost2010PropOp40
 70
     1
102
RTVSPost2010Prop41ColorIndex
 90
       18
102
RTVSPost2010Prop41ColorRGB
 90
        0
102
RTVSPost2010PropOp41
 70
     1
102
RTVSPost2010Prop42
 90
       50
102
RTVSPost2010PropOp42
 70
     1
102
RTVSPost2010Prop43
 90
        3
102
RTVSPost2010PropOp43
 70
     1
102
RTVSPost2010Prop44ColorIndex
 90
        5
102
RTVSPost2010Prop44ColorRGB
 90
      255
102
RTVSPost2010PropOp44
 70
     1
102
RTVSPost2010Prop45
280
     0
102
RTVSPost2010PropOp45
 70
     1
102
RTVSPost2010Prop46
 90
       50
102
RTVSPost2010PropOp46
 70
     1
102
RTVSPost2010Prop47
 90
       50
102
RTVSPost2010PropOp47
 70
     1
102
RTVSPost2010Prop48
 90
       50
102
RTVSPost2010PropOp48
 70
     1
102
RTVSPost2010Prop49
280
     0
102
RTVSPost2010PropOp49
 70
     1
102
RTVSPost2010Prop50
 90
       50
102
RTVSPost2010PropOp50
 70
     1
102
RTVSPost2010Prop51ColorIndex
 90
      256
102
RTVSPost2010Prop51ColorRGB
 90
-16777216
102
RTVSPost2010PropOp51
 70
     0
102
RTVSPost2010Prop52
140
1.0
102
RTVSPost2010PropOp52
 70
     0
102
RTVSPost2010Prop53
 90
        2
102
RTVSPost2010PropOp53
 70
     1
102
RTVSPost2010Prop54
  1
strokes_ogs.tif
102
RTVSPost2010PropOp54
 70
     1
102
RTVSPost2010Prop55
280
     0
102
RTVSPost2010PropOp55
 70
     1
102
RTVSPost2010Prop56
140
1.0
102
RTVSPost2010PropOp56
 70
     1
102
RTVSPost2010Prop57
140
1.0
102
RTVSPost2010PropOp57
 70
     1
102
RTVSPropertyOp0
 70
     1
102
RTVSPropertyOp1
 70
     1
102
RTVSPropertyOp2
 70
     1
102
RTVSPropertyOp3
 70
     1
102
RTVSPropertyOp4
 70
     1
102
RTVSPropertyOp5
 70
     1
102
RTVSPropertyOp6
 70
     1
102
RTVSPropertyOp7
 70
     1
102
RTVSPropertyOp8
 70
     1
102
RTVSPropertyOp9
 70
     1
102
RTVSPropertyOp10
 70
     1
102
RTVSPropertyOp11
 70
     1
102
RTVSPropertyOp12
 70
     1
102
RTVSPropertyOp13
 70
     1
102
RTVSPropertyOp14
 70
     1
102
RTVSPropertyOp15
 70
     1
102
RTVSPropertyOp16
 70
     1
102
RTVSPropertyOp17
 70
     1
102
RTVSPropertyOp18
 70
     1
102
RTVSPropertyOp19
 70
     1
102
RTVSPropertyOp20
 70
     1
102
RTVSPropertyOp21
 70
     1
102
RTVSPropertyOp22
 70
     1
102
RTVSPropertyOp23
 70
     1
102
RTVSPropertyOp24
 70
     1
102
RTVSPropertyOp25
 70
     1
102
RTVSPropertyOp26
 70
     1
102
RTVSPropertyOp27
 70
     1
102
RTVSPropertyOp28
 70
     1
102
RTVSPropertyOp29
 70
     1
102
RTVSPropertyOp30
 70
     1
102
RTVSPropertyOp31
 70
     1
102
RTVSPropertyOp32
 70
     1
102
RTVSPropertyOp33
 70
     1
102
RTVSPropertyOp34
 70
     1
102
RTVSPropertyOp35
 70
     1
102
RTVSPropertyOp36
 70
     1
102
RTVSPropertyOp37
 70
     1
102
RTVSPropertyOp38
 70
     1
102
RTVSPropertyOp39
 70
     1
102
RTVSPropertyOp40
 70
     1
102
RTVSPropertyOp41
 70
     1
102
RTVSPropertyOp42
 70
     1
102
RTVSPropertyOp43
 70
     1
102
RTVSPropertyOp44
 70
     1
102
RTVSPropertyOp45
 70
     1
102
RTVSPropertyOp46
 70
     1
102
RTVSPropertyOp47
 70
     1
102
RTVSPropertyOp48
 70
     1
102
RTVSPropertyOp49
 70
     1
102
RTVSPropertyOp50
 70
     1
102
RTVSPropertyOp51
 70
     0
102
RTVSPropertyOp52
 70
     0
102
RTVSPropertyOp53
 70
     1
102
RTVSPropertyOp54
 70
     1
102
RTVSPropertyOp55
 70
     1
102
RTVSPropertyOp56
 70
     1
102
RTVSPropertyOp57
 70
     1
102
RTVSPropertyOp58
 70
     1
102
RTVSPropertyOp59
 70
     1
102
RTVSPropertyOp60
 70
     1
102
RTVSPropertyOp61
 70
     1
102
RTVSPropertyOp62
 70
     1
  0
XRECORD
  5
E2C2
102
{ACAD_REACTORS
330
E2C1
102
}
330
E2C1
100
AcDbXrecord
280
     1
102
RTVSPost2010Prop28
280
     0
102
RTVSPost2010PropOp28
 70
     1
102
RTVSPost2010Prop29
280
     1
102
RTVSPost2010PropOp29
 70
     1
102
RTVSPost2010Prop30
280
     1
102
RTVSPost2010PropOp30
 70
     1
102
RTVSPost2010Prop31
280
     0
102
RTVSPost2010PropOp31
 70
     1
102
RTVSPost2010Prop32
280
     0
102
RTVSPost2010PropOp32
 70
     1
102
RTVSPost2010Prop33
280
     0
102
RTVSPost2010PropOp33
 70
     1
102
RTVSPost2010Prop34
280
     0
102
RTVSPost2010PropOp34
 70
     1
102
RTVSPost2010Prop35
280
     0
102
RTVSPost2010PropOp35
 70
     1
102
RTVSPost2010Prop36
280
     0
102
RTVSPost2010PropOp36
 70
     1
102
RTVSPost2010Prop37
 90
       50
102
RTVSPost2010PropOp37
 70
     1
102
RTVSPost2010Prop38
140
0.0
102
RTVSPost2010PropOp38
 70
     1
102
RTVSPost2010Prop39
140
1.0
102
RTVSPost2010PropOp39
 70
     1
102
RTVSPost2010Prop40
 90
        0
102
RTVSPost2010PropOp40
 70
     1
102
RTVSPost2010Prop41ColorIndex
 90
       18
102
RTVSPost2010Prop41ColorRGB
 90
        0
102
RTVSPost2010PropOp41
 70
     1
102
RTVSPost2010Prop42
 90
       50
102
RTVSPost2010PropOp42
 70
     1
102
RTVSPost2010Prop43
 90
        3
102
RTVSPost2010PropOp43
 70
     1
102
RTVSPost2010Prop44ColorIndex
 90
        5
102
RTVSPost2010Prop44ColorRGB
 90
      255
102
RTVSPost2010PropOp44
 70
     1
102
RTVSPost2010Prop45
280
     0
102
RTVSPost2010PropOp45
 70
     1
102
RTVSPost2010Prop46
 90
       50
102
RTVSPost2010PropOp46
 70
     1
102
RTVSPost2010Prop47
 90
       50
102
RTVSPost2010PropOp47
 70
     1
102
RTVSPost2010Prop48
 90
       50
102
RTVSPost2010PropOp48
 70
     1
102
RTVSPost2010Prop49
280
     0
102
RTVSPost2010PropOp49
 70
     1
102
RTVSPost2010Prop50
 90
       50
102
RTVSPost2010PropOp50
 70
     1
102
RTVSPost2010Prop51ColorIndex
 90
      256
102
RTVSPost2010Prop51ColorRGB
 90
-16777216
102
RTVSPost2010PropOp51
 70
     0
102
RTVSPost2010Prop52
140
1.0
102
RTVSPost2010PropOp52
 70
     0
102
RTVSPost2010Prop53
 90
        2
102
RTVSPost2010PropOp53
 70
     1
102
RTVSPost2010Prop54
  1
strokes_ogs.tif
102
RTVSPost2010PropOp54
 70
     1
102
RTVSPost2010Prop55
280
     0
102
RTVSPost2010PropOp55
 70
     1
102
RTVSPost2010Prop56
140
1.0
102
RTVSPost2010PropOp56
 70
     1
102
RTVSPost2010Prop57
140
1.0
102
RTVSPost2010PropOp57
 70
     1
102
RTVSPropertyOp0
 70
     0
102
RTVSPropertyOp1
 70
     0
102
RTVSPropertyOp2
 70
     0
102
RTVSPropertyOp3
 70
     0
102
RTVSPropertyOp4
 70
     0
102
RTVSPropertyOp5
 70
     0
102
RTVSPropertyOp6
 70
     0
102
RTVSPropertyOp7
 70
     0
102
RTVSPropertyOp8
 70
     0
102
RTVSPropertyOp9
 70
     0
102
RTVSPropertyOp10
 70
     0
102
RTVSPropertyOp11
 70
     0
102
RTVSPropertyOp12
 70
     0
102
RTVSPropertyOp13
 70
     0
102
RTVSPropertyOp14
 70
     2
102
RTVSPropertyOp15
 70
     0
102
RTVSPropertyOp16
 70
     0
102
RTVSPropertyOp17
 70
     0
102
RTVSPropertyOp18
 70
     0
102
RTVSPropertyOp19
 70
     0
102
RTVSPropertyOp20
 70
     0
102
RTVSPropertyOp21
 70
     0
102
RTVSPropertyOp22
 70
     0
102
RTVSPropertyOp23
 70
     0
102
RTVSPropertyOp24
 70
     0
102
RTVSPropertyOp25
 70
     0
102
RTVSPropertyOp26
 70
     0
102
RTVSPropertyOp27
 70
     0
102
RTVSPropertyOp28
 70
     1
102
RTVSPropertyOp29
 70
     1
102
RTVSPropertyOp30
 70
     1
102
RTVSPropertyOp31
 70
     1
102
RTVSPropertyOp32
 70
     1
102
RTVSPropertyOp33
 70
     1
102
RTVSPropertyOp34
 70
     1
102
RTVSPropertyOp35
 70
     1
102
RTVSPropertyOp36
 70
     1
102
RTVSPropertyOp37
 70
     1
102
RTVSPropertyOp38
 70
     1
102
RTVSPropertyOp39
 70
     1
102
RTVSPropertyOp40
 70
     1
102
RTVSPropertyOp41
 70
     1
102
RTVSPropertyOp42
 70
     1
102
RTVSPropertyOp43
 70
     1
102
RTVSPropertyOp44
 70
     1
102
RTVSPropertyOp45
 70
     1
102
RTVSPropertyOp46
 70
     1
102
RTVSPropertyOp47
 70
     1
102
RTVSPropertyOp48
 70
     1
102
RTVSPropertyOp49
 70
     1
102
RTVSPropertyOp50
 70
     1
102
RTVSPropertyOp51
 70
     0
102
RTVSPropertyOp52
 70
     0
102
RTVSPropertyOp53
 70
     1
102
RTVSPropertyOp54
 70
     1
102
RTVSPropertyOp55
 70
     1
102
RTVSPropertyOp56
 70
     1
102
RTVSPropertyOp57
 70
     1
102
RTVSPropertyOp58
 70
     1
102
RTVSPropertyOp59
 70
     1
102
RTVSPropertyOp60
 70
     1
102
RTVSPropertyOp61
 70
     1
102
RTVSPropertyOp62
 70
     1
  0
XRECORD
  5
E2BC
102
{ACAD_REACTORS
330
E2BB
102
}
330
E2BB
100
AcDbXrecord
280
     1
102
RTVSPost2010Prop28
280
     0
102
RTVSPost2010PropOp28
 70
     1
102
RTVSPost2010Prop29
280
     1
102
RTVSPost2010PropOp29
 70
     1
102
RTVSPost2010Prop30
280
     1
102
RTVSPost2010PropOp30
 70
     1
102
RTVSPost2010Prop31
280
     0
102
RTVSPost2010PropOp31
 70
     1
102
RTVSPost2010Prop32
280
     0
102
RTVSPost2010PropOp32
 70
     1
102
RTVSPost2010Prop33
280
     0
102
RTVSPost2010PropOp33
 70
     1
102
RTVSPost2010Prop34
280
     0
102
RTVSPost2010PropOp34
 70
     1
102
RTVSPost2010Prop35
280
     0
102
RTVSPost2010PropOp35
 70
     1
102
RTVSPost2010Prop36
280
     0
102
RTVSPost2010PropOp36
 70
     1
102
RTVSPost2010Prop37
 90
       50
102
RTVSPost2010PropOp37
 70
     1
102
RTVSPost2010Prop38
140
0.0
102
RTVSPost2010PropOp38
 70
     1
102
RTVSPost2010Prop39
140
1.0
102
RTVSPost2010PropOp39
 70
     1
102
RTVSPost2010Prop40
 90
        0
102
RTVSPost2010PropOp40
 70
     1
102
RTVSPost2010Prop41ColorIndex
 90
       18
102
RTVSPost2010Prop41ColorRGB
 90
        0
102
RTVSPost2010PropOp41
 70
     1
102
RTVSPost2010Prop42
 90
       50
102
RTVSPost2010PropOp42
 70
     1
102
RTVSPost2010Prop43
 90
        3
102
RTVSPost2010PropOp43
 70
     1
102
RTVSPost2010Prop44ColorIndex
 90
        5
102
RTVSPost2010Prop44ColorRGB
 90
      255
102
RTVSPost2010PropOp44
 70
     1
102
RTVSPost2010Prop45
280
     0
102
RTVSPost2010PropOp45
 70
     1
102
RTVSPost2010Prop46
 90
       50
102
RTVSPost2010PropOp46
 70
     1
102
RTVSPost2010Prop47
 90
       50
102
RTVSPost2010PropOp47
 70
     1
102
RTVSPost2010Prop48
 90
       50
102
RTVSPost2010PropOp48
 70
     1
102
RTVSPost2010Prop49
280
     0
102
RTVSPost2010PropOp49
 70
     1
102
RTVSPost2010Prop50
 90
       50
102
RTVSPost2010PropOp50
 70
     1
102
RTVSPost2010Prop51ColorIndex
 90
      256
102
RTVSPost2010Prop51ColorRGB
 90
-16777216
102
RTVSPost2010PropOp51
 70
     0
102
RTVSPost2010Prop52
140
1.0
102
RTVSPost2010PropOp52
 70
     0
102
RTVSPost2010Prop53
 90
        2
102
RTVSPost2010PropOp53
 70
     1
102
RTVSPost2010Prop54
  1
strokes_ogs.tif
102
RTVSPost2010PropOp54
 70
     1
102
RTVSPost2010Prop55
280
     0
102
RTVSPost2010PropOp55
 70
     1
102
RTVSPost2010Prop56
140
1.0
102
RTVSPost2010PropOp56
 70
     1
102
RTVSPost2010Prop57
140
1.0
102
RTVSPost2010PropOp57
 70
     1
102
RTVSPropertyOp0
 70
     1
102
RTVSPropertyOp1
 70
     1
102
RTVSPropertyOp2
 70
     1
102
RTVSPropertyOp3
 70
     1
102
RTVSPropertyOp4
 70
     1
102
RTVSPropertyOp5
 70
     1
102
RTVSPropertyOp6
 70
     1
102
RTVSPropertyOp7
 70
     1
102
RTVSPropertyOp8
 70
     1
102
RTVSPropertyOp9
 70
     1
102
RTVSPropertyOp10
 70
     1
102
RTVSPropertyOp11
 70
     1
102
RTVSPropertyOp12
 70
     1
102
RTVSPropertyOp13
 70
     1
102
RTVSPropertyOp14
 70
     1
102
RTVSPropertyOp15
 70
     1
102
RTVSPropertyOp16
 70
     1
102
RTVSPropertyOp17
 70
     1
102
RTVSPropertyOp18
 70
     1
102
RTVSPropertyOp19
 70
     1
102
RTVSPropertyOp20
 70
     1
102
RTVSPropertyOp21
 70
     1
102
RTVSPropertyOp22
 70
     1
102
RTVSPropertyOp23
 70
     1
102
RTVSPropertyOp24
 70
     1
102
RTVSPropertyOp25
 70
     1
102
RTVSPropertyOp26
 70
     1
102
RTVSPropertyOp27
 70
     1
102
RTVSPropertyOp28
 70
     1
102
RTVSPropertyOp29
 70
     1
102
RTVSPropertyOp30
 70
     1
102
RTVSPropertyOp31
 70
     1
102
RTVSPropertyOp32
 70
     1
102
RTVSPropertyOp33
 70
     1
102
RTVSPropertyOp34
 70
     1
102
RTVSPropertyOp35
 70
     1
102
RTVSPropertyOp36
 70
     1
102
RTVSPropertyOp37
 70
     1
102
RTVSPropertyOp38
 70
     1
102
RTVSPropertyOp39
 70
     1
102
RTVSPropertyOp40
 70
     1
102
RTVSPropertyOp41
 70
     1
102
RTVSPropertyOp42
 70
     1
102
RTVSPropertyOp43
 70
     1
102
RTVSPropertyOp44
 70
     1
102
RTVSPropertyOp45
 70
     1
102
RTVSPropertyOp46
 70
     1
102
RTVSPropertyOp47
 70
     1
102
RTVSPropertyOp48
 70
     1
102
RTVSPropertyOp49
 70
     1
102
RTVSPropertyOp50
 70
     1
102
RTVSPropertyOp51
 70
     0
102
RTVSPropertyOp52
 70
     0
102
RTVSPropertyOp53
 70
     1
102
RTVSPropertyOp54
 70
     1
102
RTVSPropertyOp55
 70
     1
102
RTVSPropertyOp56
 70
     1
102
RTVSPropertyOp57
 70
     1
102
RTVSPropertyOp58
 70
     1
102
RTVSPropertyOp59
 70
     1
102
RTVSPropertyOp60
 70
     1
102
RTVSPropertyOp61
 70
     1
102
RTVSPropertyOp62
 70
     1
  0
XRECORD
  5
E2C4
102
{ACAD_REACTORS
330
E2C3
102
}
330
E2C3
100
AcDbXrecord
280
     1
102
RTVSPost2010Prop28
280
     0
102
RTVSPost2010PropOp28
 70
     1
102
RTVSPost2010Prop29
280
     1
102
RTVSPost2010PropOp29
 70
     1
102
RTVSPost2010Prop30
280
     1
102
RTVSPost2010PropOp30
 70
     1
102
RTVSPost2010Prop31
280
     0
102
RTVSPost2010PropOp31
 70
     1
102
RTVSPost2010Prop32
280
     0
102
RTVSPost2010PropOp32
 70
     1
102
RTVSPost2010Prop33
280
     0
102
RTVSPost2010PropOp33
 70
     1
102
RTVSPost2010Prop34
280
     0
102
RTVSPost2010PropOp34
 70
     1
102
RTVSPost2010Prop35
280
     0
102
RTVSPost2010PropOp35
 70
     1
102
RTVSPost2010Prop36
280
     0
102
RTVSPost2010PropOp36
 70
     1
102
RTVSPost2010Prop37
 90
       50
102
RTVSPost2010PropOp37
 70
     1
102
RTVSPost2010Prop38
140
0.0
102
RTVSPost2010PropOp38
 70
     1
102
RTVSPost2010Prop39
140
1.0
102
RTVSPost2010PropOp39
 70
     1
102
RTVSPost2010Prop40
 90
        0
102
RTVSPost2010PropOp40
 70
     1
102
RTVSPost2010Prop41ColorIndex
 90
       18
102
RTVSPost2010Prop41ColorRGB
 90
        0
102
RTVSPost2010PropOp41
 70
     1
102
RTVSPost2010Prop42
 90
       50
102
RTVSPost2010PropOp42
 70
     1
102
RTVSPost2010Prop43
 90
        3
102
RTVSPost2010PropOp43
 70
     1
102
RTVSPost2010Prop44ColorIndex
 90
        5
102
RTVSPost2010Prop44ColorRGB
 90
      255
102
RTVSPost2010PropOp44
 70
     1
102
RTVSPost2010Prop45
280
     0
102
RTVSPost2010PropOp45
 70
     1
102
RTVSPost2010Prop46
 90
       50
102
RTVSPost2010PropOp46
 70
     1
102
RTVSPost2010Prop47
 90
       50
102
RTVSPost2010PropOp47
 70
     1
102
RTVSPost2010Prop48
 90
       50
102
RTVSPost2010PropOp48
 70
     1
102
RTVSPost2010Prop49
280
     0
102
RTVSPost2010PropOp49
 70
     1
102
RTVSPost2010Prop50
 90
       50
102
RTVSPost2010PropOp50
 70
     1
102
RTVSPost2010Prop51ColorIndex
 90
      256
102
RTVSPost2010Prop51ColorRGB
 90
-16777216
102
RTVSPost2010PropOp51
 70
     0
102
RTVSPost2010Prop52
140
1.0
102
RTVSPost2010PropOp52
 70
     0
102
RTVSPost2010Prop53
 90
        2
102
RTVSPost2010PropOp53
 70
     1
102
RTVSPost2010Prop54
  1
strokes_ogs.tif
102
RTVSPost2010PropOp54
 70
     1
102
RTVSPost2010Prop55
280
     0
102
RTVSPost2010PropOp55
 70
     1
102
RTVSPost2010Prop56
140
1.0
102
RTVSPost2010PropOp56
 70
     1
102
RTVSPost2010Prop57
140
1.0
102
RTVSPost2010PropOp57
 70
     1
102
RTVSPropertyOp0
 70
     0
102
RTVSPropertyOp1
 70
     0
102
RTVSPropertyOp2
 70
     0
102
RTVSPropertyOp3
 70
     0
102
RTVSPropertyOp4
 70
     0
102
RTVSPropertyOp5
 70
     0
102
RTVSPropertyOp6
 70
     0
102
RTVSPropertyOp7
 70
     0
102
RTVSPropertyOp8
 70
     0
102
RTVSPropertyOp9
 70
     0
102
RTVSPropertyOp10
 70
     0
102
RTVSPropertyOp11
 70
     0
102
RTVSPropertyOp12
 70
     0
102
RTVSPropertyOp13
 70
     0
102
RTVSPropertyOp14
 70
     2
102
RTVSPropertyOp15
 70
     0
102
RTVSPropertyOp16
 70
     0
102
RTVSPropertyOp17
 70
     0
102
RTVSPropertyOp18
 70
     0
102
RTVSPropertyOp19
 70
     0
102
RTVSPropertyOp20
 70
     0
102
RTVSPropertyOp21
 70
     0
102
RTVSPropertyOp22
 70
     0
102
RTVSPropertyOp23
 70
     0
102
RTVSPropertyOp24
 70
     0
102
RTVSPropertyOp25
 70
     0
102
RTVSPropertyOp26
 70
     0
102
RTVSPropertyOp27
 70
     0
102
RTVSPropertyOp28
 70
     1
102
RTVSPropertyOp29
 70
     1
102
RTVSPropertyOp30
 70
     1
102
RTVSPropertyOp31
 70
     1
102
RTVSPropertyOp32
 70
     1
102
RTVSPropertyOp33
 70
     1
102
RTVSPropertyOp34
 70
     1
102
RTVSPropertyOp35
 70
     1
102
RTVSPropertyOp36
 70
     1
102
RTVSPropertyOp37
 70
     1
102
RTVSPropertyOp38
 70
     1
102
RTVSPropertyOp39
 70
     1
102
RTVSPropertyOp40
 70
     1
102
RTVSPropertyOp41
 70
     1
102
RTVSPropertyOp42
 70
     1
102
RTVSPropertyOp43
 70
     1
102
RTVSPropertyOp44
 70
     1
102
RTVSPropertyOp45
 70
     1
102
RTVSPropertyOp46
 70
     1
102
RTVSPropertyOp47
 70
     1
102
RTVSPropertyOp48
 70
     1
102
RTVSPropertyOp49
 70
     1
102
RTVSPropertyOp50
 70
     1
102
RTVSPropertyOp51
 70
     0
102
RTVSPropertyOp52
 70
     0
102
RTVSPropertyOp53
 70
     1
102
RTVSPropertyOp54
 70
     1
102
RTVSPropertyOp55
 70
     1
102
RTVSPropertyOp56
 70
     1
102
RTVSPropertyOp57
 70
     1
102
RTVSPropertyOp58
 70
     1
102
RTVSPropertyOp59
 70
     1
102
RTVSPropertyOp60
 70
     1
102
RTVSPropertyOp61
 70
     1
102
RTVSPropertyOp62
 70
     1
  0
XRECORD
  5
E2B4
102
{ACAD_REACTORS
330
E2B3
102
}
330
E2B3
100
AcDbXrecord
280
     1
102
RTVSPost2010Prop28
280
     0
102
RTVSPost2010PropOp28
 70
     1
102
RTVSPost2010Prop29
280
     1
102
RTVSPost2010PropOp29
 70
     1
102
RTVSPost2010Prop30
280
     1
102
RTVSPost2010PropOp30
 70
     1
102
RTVSPost2010Prop31
280
     0
102
RTVSPost2010PropOp31
 70
     1
102
RTVSPost2010Prop32
280
     0
102
RTVSPost2010PropOp32
 70
     1
102
RTVSPost2010Prop33
280
     0
102
RTVSPost2010PropOp33
 70
     1
102
RTVSPost2010Prop34
280
     0
102
RTVSPost2010PropOp34
 70
     1
102
RTVSPost2010Prop35
280
     0
102
RTVSPost2010PropOp35
 70
     1
102
RTVSPost2010Prop36
280
     0
102
RTVSPost2010PropOp36
 70
     1
102
RTVSPost2010Prop37
 90
       50
102
RTVSPost2010PropOp37
 70
     1
102
RTVSPost2010Prop38
140
0.0
102
RTVSPost2010PropOp38
 70
     1
102
RTVSPost2010Prop39
140
1.0
102
RTVSPost2010PropOp39
 70
     1
102
RTVSPost2010Prop40
 90
        0
102
RTVSPost2010PropOp40
 70
     1
102
RTVSPost2010Prop41ColorIndex
 90
       18
102
RTVSPost2010Prop41ColorRGB
 90
        0
102
RTVSPost2010PropOp41
 70
     1
102
RTVSPost2010Prop42
 90
       50
102
RTVSPost2010PropOp42
 70
     1
102
RTVSPost2010Prop43
 90
        3
102
RTVSPost2010PropOp43
 70
     1
102
RTVSPost2010Prop44ColorIndex
 90
        5
102
RTVSPost2010Prop44ColorRGB
 90
      255
102
RTVSPost2010PropOp44
 70
     1
102
RTVSPost2010Prop45
280
     0
102
RTVSPost2010PropOp45
 70
     1
102
RTVSPost2010Prop46
 90
       50
102
RTVSPost2010PropOp46
 70
     1
102
RTVSPost2010Prop47
 90
       50
102
RTVSPost2010PropOp47
 70
     1
102
RTVSPost2010Prop48
 90
       50
102
RTVSPost2010PropOp48
 70
     1
102
RTVSPost2010Prop49
280
     0
102
RTVSPost2010PropOp49
 70
     1
102
RTVSPost2010Prop50
 90
       50
102
RTVSPost2010PropOp50
 70
     1
102
RTVSPost2010Prop51ColorIndex
 90
      256
102
RTVSPost2010Prop51ColorRGB
 90
-16777216
102
RTVSPost2010PropOp51
 70
     0
102
RTVSPost2010Prop52
140
1.0
102
RTVSPost2010PropOp52
 70
     0
102
RTVSPost2010Prop53
 90
        2
102
RTVSPost2010PropOp53
 70
     1
102
RTVSPost2010Prop54
  1
strokes_ogs.tif
102
RTVSPost2010PropOp54
 70
     1
102
RTVSPost2010Prop55
280
     0
102
RTVSPost2010PropOp55
 70
     1
102
RTVSPost2010Prop56
140
1.0
102
RTVSPost2010PropOp56
 70
     1
102
RTVSPost2010Prop57
140
1.0
102
RTVSPost2010PropOp57
 70
     1
102
RTVSPropertyOp0
 70
     1
102
RTVSPropertyOp1
 70
     1
102
RTVSPropertyOp2
 70
     1
102
RTVSPropertyOp3
 70
     1
102
RTVSPropertyOp4
 70
     1
102
RTVSPropertyOp5
 70
     1
102
RTVSPropertyOp6
 70
     1
102
RTVSPropertyOp7
 70
     1
102
RTVSPropertyOp8
 70
     1
102
RTVSPropertyOp9
 70
     1
102
RTVSPropertyOp10
 70
     1
102
RTVSPropertyOp11
 70
     1
102
RTVSPropertyOp12
 70
     1
102
RTVSPropertyOp13
 70
     1
102
RTVSPropertyOp14
 70
     1
102
RTVSPropertyOp15
 70
     1
102
RTVSPropertyOp16
 70
     1
102
RTVSPropertyOp17
 70
     1
102
RTVSPropertyOp18
 70
     1
102
RTVSPropertyOp19
 70
     1
102
RTVSPropertyOp20
 70
     1
102
RTVSPropertyOp21
 70
     1
102
RTVSPropertyOp22
 70
     1
102
RTVSPropertyOp23
 70
     1
102
RTVSPropertyOp24
 70
     1
102
RTVSPropertyOp25
 70
     1
102
RTVSPropertyOp26
 70
     1
102
RTVSPropertyOp27
 70
     1
102
RTVSPropertyOp28
 70
     1
102
RTVSPropertyOp29
 70
     1
102
RTVSPropertyOp30
 70
     1
102
RTVSPropertyOp31
 70
     1
102
RTVSPropertyOp32
 70
     1
102
RTVSPropertyOp33
 70
     1
102
RTVSPropertyOp34
 70
     1
102
RTVSPropertyOp35
 70
     1
102
RTVSPropertyOp36
 70
     1
102
RTVSPropertyOp37
 70
     1
102
RTVSPropertyOp38
 70
     1
102
RTVSPropertyOp39
 70
     1
102
RTVSPropertyOp40
 70
     1
102
RTVSPropertyOp41
 70
     1
102
RTVSPropertyOp42
 70
     1
102
RTVSPropertyOp43
 70
     1
102
RTVSPropertyOp44
 70
     1
102
RTVSPropertyOp45
 70
     1
102
RTVSPropertyOp46
 70
     1
102
RTVSPropertyOp47
 70
     1
102
RTVSPropertyOp48
 70
     1
102
RTVSPropertyOp49
 70
     1
102
RTVSPropertyOp50
 70
     1
102
RTVSPropertyOp51
 70
     0
102
RTVSPropertyOp52
 70
     0
102
RTVSPropertyOp53
 70
     1
102
RTVSPropertyOp54
 70
     1
102
RTVSPropertyOp55
 70
     1
102
RTVSPropertyOp56
 70
     1
102
RTVSPropertyOp57
 70
     1
102
RTVSPropertyOp58
 70
     1
102
RTVSPropertyOp59
 70
     1
102
RTVSPropertyOp60
 70
     1
102
RTVSPropertyOp61
 70
     1
102
RTVSPropertyOp62
 70
     1
  0
XRECORD
  5
E2D5
102
{ACAD_REACTORS
330
E2D4
102
}
330
E2D4
100
AcDbXrecord
280
     1
102
RTVSPost2010Prop28
280
     0
102
RTVSPost2010PropOp28
 70
     1
102
RTVSPost2010Prop29
280
     1
102
RTVSPost2010PropOp29
 70
     1
102
RTVSPost2010Prop30
280
     1
102
RTVSPost2010PropOp30
 70
     1
102
RTVSPost2010Prop31
280
     0
102
RTVSPost2010PropOp31
 70
     1
102
RTVSPost2010Prop32
280
     0
102
RTVSPost2010PropOp32
 70
     1
102
RTVSPost2010Prop33
280
     0
102
RTVSPost2010PropOp33
 70
     1
102
RTVSPost2010Prop34
280
     0
102
RTVSPost2010PropOp34
 70
     1
102
RTVSPost2010Prop35
280
     0
102
RTVSPost2010PropOp35
 70
     1
102
RTVSPost2010Prop36
280
     0
102
RTVSPost2010PropOp36
 70
     1
102
RTVSPost2010Prop37
 90
       50
102
RTVSPost2010PropOp37
 70
     1
102
RTVSPost2010Prop38
140
0.0
102
RTVSPost2010PropOp38
 70
     1
102
RTVSPost2010Prop39
140
1.0
102
RTVSPost2010PropOp39
 70
     1
102
RTVSPost2010Prop40
 90
        0
102
RTVSPost2010PropOp40
 70
     1
102
RTVSPost2010Prop41ColorIndex
 90
       18
102
RTVSPost2010Prop41ColorRGB
 90
        0
102
RTVSPost2010PropOp41
 70
     1
102
RTVSPost2010Prop42
 90
       50
102
RTVSPost2010PropOp42
 70
     1
102
RTVSPost2010Prop43
 90
        3
102
RTVSPost2010PropOp43
 70
     1
102
RTVSPost2010Prop44ColorIndex
 90
        5
102
RTVSPost2010Prop44ColorRGB
 90
      255
102
RTVSPost2010PropOp44
 70
     1
102
RTVSPost2010Prop45
280
     0
102
RTVSPost2010PropOp45
 70
     1
102
RTVSPost2010Prop46
 90
       50
102
RTVSPost2010PropOp46
 70
     1
102
RTVSPost2010Prop47
 90
       50
102
RTVSPost2010PropOp47
 70
     1
102
RTVSPost2010Prop48
 90
       50
102
RTVSPost2010PropOp48
 70
     1
102
RTVSPost2010Prop49
280
     0
102
RTVSPost2010PropOp49
 70
     1
102
RTVSPost2010Prop50
 90
       50
102
RTVSPost2010PropOp50
 70
     1
102
RTVSPost2010Prop51ColorIndex
 90
      256
102
RTVSPost2010Prop51ColorRGB
 90
-16777216
102
RTVSPost2010PropOp51
 70
     0
102
RTVSPost2010Prop52
140
1.0
102
RTVSPost2010PropOp52
 70
     0
102
RTVSPost2010Prop53
 90
        2
102
RTVSPost2010PropOp53
 70
     1
102
RTVSPost2010Prop54
  1
strokes_ogs.tif
102
RTVSPost2010PropOp54
 70
     1
102
RTVSPost2010Prop55
280
     0
102
RTVSPost2010PropOp55
 70
     1
102
RTVSPost2010Prop56
140
1.0
102
RTVSPost2010PropOp56
 70
     1
102
RTVSPost2010Prop57
140
1.0
102
RTVSPost2010PropOp57
 70
     1
102
RTVSPropertyOp0
 70
     1
102
RTVSPropertyOp1
 70
     1
102
RTVSPropertyOp2
 70
     1
102
RTVSPropertyOp3
 70
     1
102
RTVSPropertyOp4
 70
     1
102
RTVSPropertyOp5
 70
     1
102
RTVSPropertyOp6
 70
     1
102
RTVSPropertyOp7
 70
     1
102
RTVSPropertyOp8
 70
     1
102
RTVSPropertyOp9
 70
     1
102
RTVSPropertyOp10
 70
     1
102
RTVSPropertyOp11
 70
     1
102
RTVSPropertyOp12
 70
     1
102
RTVSPropertyOp13
 70
     1
102
RTVSPropertyOp14
 70
     1
102
RTVSPropertyOp15
 70
     1
102
RTVSPropertyOp16
 70
     1
102
RTVSPropertyOp17
 70
     1
102
RTVSPropertyOp18
 70
     1
102
RTVSPropertyOp19
 70
     1
102
RTVSPropertyOp20
 70
     1
102
RTVSPropertyOp21
 70
     1
102
RTVSPropertyOp22
 70
     1
102
RTVSPropertyOp23
 70
     1
102
RTVSPropertyOp24
 70
     1
102
RTVSPropertyOp25
 70
     1
102
RTVSPropertyOp26
 70
     1
102
RTVSPropertyOp27
 70
     1
102
RTVSPropertyOp28
 70
     1
102
RTVSPropertyOp29
 70
     1
102
RTVSPropertyOp30
 70
     1
102
RTVSPropertyOp31
 70
     1
102
RTVSPropertyOp32
 70
     1
102
RTVSPropertyOp33
 70
     1
102
RTVSPropertyOp34
 70
     1
102
RTVSPropertyOp35
 70
     1
102
RTVSPropertyOp36
 70
     1
102
RTVSPropertyOp37
 70
     1
102
RTVSPropertyOp38
 70
     1
102
RTVSPropertyOp39
 70
     1
102
RTVSPropertyOp40
 70
     1
102
RTVSPropertyOp41
 70
     1
102
RTVSPropertyOp42
 70
     1
102
RTVSPropertyOp43
 70
     1
102
RTVSPropertyOp44
 70
     1
102
RTVSPropertyOp45
 70
     1
102
RTVSPropertyOp46
 70
     1
102
RTVSPropertyOp47
 70
     1
102
RTVSPropertyOp48
 70
     1
102
RTVSPropertyOp49
 70
     1
102
RTVSPropertyOp50
 70
     1
102
RTVSPropertyOp51
 70
     0
102
RTVSPropertyOp52
 70
     0
102
RTVSPropertyOp53
 70
     1
102
RTVSPropertyOp54
 70
     1
102
RTVSPropertyOp55
 70
     1
102
RTVSPropertyOp56
 70
     1
102
RTVSPropertyOp57
 70
     1
102
RTVSPropertyOp58
 70
     1
102
RTVSPropertyOp59
 70
     1
102
RTVSPropertyOp60
 70
     1
102
RTVSPropertyOp61
 70
     1
102
RTVSPropertyOp62
 70
     1
  0
XRECORD
  5
E2D3
102
{ACAD_REACTORS
330
E2D2
102
}
330
E2D2
100
AcDbXrecord
280
     1
102
RTVSPost2010Prop28
280
     0
102
RTVSPost2010PropOp28
 70
     1
102
RTVSPost2010Prop29
280
     1
102
RTVSPost2010PropOp29
 70
     1
102
RTVSPost2010Prop30
280
     1
102
RTVSPost2010PropOp30
 70
     1
102
RTVSPost2010Prop31
280
     0
102
RTVSPost2010PropOp31
 70
     1
102
RTVSPost2010Prop32
280
     0
102
RTVSPost2010PropOp32
 70
     1
102
RTVSPost2010Prop33
280
     0
102
RTVSPost2010PropOp33
 70
     1
102
RTVSPost2010Prop34
280
     0
102
RTVSPost2010PropOp34
 70
     1
102
RTVSPost2010Prop35
280
     0
102
RTVSPost2010PropOp35
 70
     1
102
RTVSPost2010Prop36
280
     0
102
RTVSPost2010PropOp36
 70
     1
102
RTVSPost2010Prop37
 90
       50
102
RTVSPost2010PropOp37
 70
     1
102
RTVSPost2010Prop38
140
0.0
102
RTVSPost2010PropOp38
 70
     1
102
RTVSPost2010Prop39
140
1.0
102
RTVSPost2010PropOp39
 70
     1
102
RTVSPost2010Prop40
 90
        0
102
RTVSPost2010PropOp40
 70
     1
102
RTVSPost2010Prop41ColorIndex
 90
       18
102
RTVSPost2010Prop41ColorRGB
 90
        0
102
RTVSPost2010PropOp41
 70
     1
102
RTVSPost2010Prop42
 90
       50
102
RTVSPost2010PropOp42
 70
     1
102
RTVSPost2010Prop43
 90
        3
102
RTVSPost2010PropOp43
 70
     1
102
RTVSPost2010Prop44ColorIndex
 90
        5
102
RTVSPost2010Prop44ColorRGB
 90
      255
102
RTVSPost2010PropOp44
 70
     1
102
RTVSPost2010Prop45
280
     0
102
RTVSPost2010PropOp45
 70
     1
102
RTVSPost2010Prop46
 90
       50
102
RTVSPost2010PropOp46
 70
     1
102
RTVSPost2010Prop47
 90
       50
102
RTVSPost2010PropOp47
 70
     1
102
RTVSPost2010Prop48
 90
       50
102
RTVSPost2010PropOp48
 70
     1
102
RTVSPost2010Prop49
280
     0
102
RTVSPost2010PropOp49
 70
     1
102
RTVSPost2010Prop50
 90
       50
102
RTVSPost2010PropOp50
 70
     1
102
RTVSPost2010Prop51ColorIndex
 90
      256
102
RTVSPost2010Prop51ColorRGB
 90
-16777216
102
RTVSPost2010PropOp51
 70
     0
102
RTVSPost2010Prop52
140
1.0
102
RTVSPost2010PropOp52
 70
     0
102
RTVSPost2010Prop53
 90
        2
102
RTVSPost2010PropOp53
 70
     1
102
RTVSPost2010Prop54
  1
strokes_ogs.tif
102
RTVSPost2010PropOp54
 70
     1
102
RTVSPost2010Prop55
280
     0
102
RTVSPost2010PropOp55
 70
     1
102
RTVSPost2010Prop56
140
1.0
102
RTVSPost2010PropOp56
 70
     1
102
RTVSPost2010Prop57
140
1.0
102
RTVSPost2010PropOp57
 70
     1
102
RTVSPropertyOp0
 70
     1
102
RTVSPropertyOp1
 70
     1
102
RTVSPropertyOp2
 70
     1
102
RTVSPropertyOp3
 70
     1
102
RTVSPropertyOp4
 70
     1
102
RTVSPropertyOp5
 70
     1
102
RTVSPropertyOp6
 70
     1
102
RTVSPropertyOp7
 70
     1
102
RTVSPropertyOp8
 70
     1
102
RTVSPropertyOp9
 70
     1
102
RTVSPropertyOp10
 70
     1
102
RTVSPropertyOp11
 70
     1
102
RTVSPropertyOp12
 70
     1
102
RTVSPropertyOp13
 70
     1
102
RTVSPropertyOp14
 70
     1
102
RTVSPropertyOp15
 70
     1
102
RTVSPropertyOp16
 70
     1
102
RTVSPropertyOp17
 70
     1
102
RTVSPropertyOp18
 70
     1
102
RTVSPropertyOp19
 70
     1
102
RTVSPropertyOp20
 70
     1
102
RTVSPropertyOp21
 70
     1
102
RTVSPropertyOp22
 70
     1
102
RTVSPropertyOp23
 70
     1
102
RTVSPropertyOp24
 70
     1
102
RTVSPropertyOp25
 70
     1
102
RTVSPropertyOp26
 70
     1
102
RTVSPropertyOp27
 70
     1
102
RTVSPropertyOp28
 70
     1
102
RTVSPropertyOp29
 70
     1
102
RTVSPropertyOp30
 70
     1
102
RTVSPropertyOp31
 70
     1
102
RTVSPropertyOp32
 70
     1
102
RTVSPropertyOp33
 70
     1
102
RTVSPropertyOp34
 70
     1
102
RTVSPropertyOp35
 70
     1
102
RTVSPropertyOp36
 70
     1
102
RTVSPropertyOp37
 70
     1
102
RTVSPropertyOp38
 70
     1
102
RTVSPropertyOp39
 70
     1
102
RTVSPropertyOp40
 70
     1
102
RTVSPropertyOp41
 70
     1
102
RTVSPropertyOp42
 70
     1
102
RTVSPropertyOp43
 70
     1
102
RTVSPropertyOp44
 70
     1
102
RTVSPropertyOp45
 70
     1
102
RTVSPropertyOp46
 70
     1
102
RTVSPropertyOp47
 70
     1
102
RTVSPropertyOp48
 70
     1
102
RTVSPropertyOp49
 70
     1
102
RTVSPropertyOp50
 70
     1
102
RTVSPropertyOp51
 70
     0
102
RTVSPropertyOp52
 70
     0
102
RTVSPropertyOp53
 70
     1
102
RTVSPropertyOp54
 70
     1
102
RTVSPropertyOp55
 70
     1
102
RTVSPropertyOp56
 70
     1
102
RTVSPropertyOp57
 70
     1
102
RTVSPropertyOp58
 70
     1
102
RTVSPropertyOp59
 70
     1
102
RTVSPropertyOp60
 70
     1
102
RTVSPropertyOp61
 70
     1
102
RTVSPropertyOp62
 70
     1
  0
XRECORD
  5
E2CD
102
{ACAD_REACTORS
330
E2CC
102
}
330
E2CC
100
AcDbXrecord
280
     1
102
RTVSPost2010Prop28
280
     0
102
RTVSPost2010PropOp28
 70
     1
102
RTVSPost2010Prop29
280
     1
102
RTVSPost2010PropOp29
 70
     1
102
RTVSPost2010Prop30
280
     1
102
RTVSPost2010PropOp30
 70
     1
102
RTVSPost2010Prop31
280
     0
102
RTVSPost2010PropOp31
 70
     1
102
RTVSPost2010Prop32
280
     0
102
RTVSPost2010PropOp32
 70
     1
102
RTVSPost2010Prop33
280
     0
102
RTVSPost2010PropOp33
 70
     1
102
RTVSPost2010Prop34
280
     0
102
RTVSPost2010PropOp34
 70
     1
102
RTVSPost2010Prop35
280
     0
102
RTVSPost2010PropOp35
 70
     1
102
RTVSPost2010Prop36
280
     0
102
RTVSPost2010PropOp36
 70
     1
102
RTVSPost2010Prop37
 90
       50
102
RTVSPost2010PropOp37
 70
     1
102
RTVSPost2010Prop38
140
0.0
102
RTVSPost2010PropOp38
 70
     1
102
RTVSPost2010Prop39
140
1.0
102
RTVSPost2010PropOp39
 70
     1
102
RTVSPost2010Prop40
 90
        0
102
RTVSPost2010PropOp40
 70
     1
102
RTVSPost2010Prop41ColorIndex
 90
       18
102
RTVSPost2010Prop41ColorRGB
 90
        0
102
RTVSPost2010PropOp41
 70
     1
102
RTVSPost2010Prop42
 90
       50
102
RTVSPost2010PropOp42
 70
     1
102
RTVSPost2010Prop43
 90
        3
102
RTVSPost2010PropOp43
 70
     1
102
RTVSPost2010Prop44ColorIndex
 90
        5
102
RTVSPost2010Prop44ColorRGB
 90
      255
102
RTVSPost2010PropOp44
 70
     1
102
RTVSPost2010Prop45
280
     0
102
RTVSPost2010PropOp45
 70
     1
102
RTVSPost2010Prop46
 90
       50
102
RTVSPost2010PropOp46
 70
     1
102
RTVSPost2010Prop47
 90
       50
102
RTVSPost2010PropOp47
 70
     1
102
RTVSPost2010Prop48
 90
       50
102
RTVSPost2010PropOp48
 70
     1
102
RTVSPost2010Prop49
280
     0
102
RTVSPost2010PropOp49
 70
     1
102
RTVSPost2010Prop50
 90
       50
102
RTVSPost2010PropOp50
 70
     1
102
RTVSPost2010Prop51ColorIndex
 90
      256
102
RTVSPost2010Prop51ColorRGB
 90
-16777216
102
RTVSPost2010PropOp51
 70
     0
102
RTVSPost2010Prop52
140
1.0
102
RTVSPost2010PropOp52
 70
     0
102
RTVSPost2010Prop53
 90
        2
102
RTVSPost2010PropOp53
 70
     1
102
RTVSPost2010Prop54
  1
strokes_ogs.tif
102
RTVSPost2010PropOp54
 70
     1
102
RTVSPost2010Prop55
280
     0
102
RTVSPost2010PropOp55
 70
     1
102
RTVSPost2010Prop56
140
1.0
102
RTVSPost2010PropOp56
 70
     1
102
RTVSPost2010Prop57
140
1.0
102
RTVSPost2010PropOp57
 70
     1
102
RTVSPropertyOp0
 70
     1
102
RTVSPropertyOp1
 70
     1
102
RTVSPropertyOp2
 70
     1
102
RTVSPropertyOp3
 70
     1
102
RTVSPropertyOp4
 70
     1
102
RTVSPropertyOp5
 70
     1
102
RTVSPropertyOp6
 70
     1
102
RTVSPropertyOp7
 70
     1
102
RTVSPropertyOp8
 70
     1
102
RTVSPropertyOp9
 70
     1
102
RTVSPropertyOp10
 70
     1
102
RTVSPropertyOp11
 70
     1
102
RTVSPropertyOp12
 70
     1
102
RTVSPropertyOp13
 70
     1
102
RTVSPropertyOp14
 70
     1
102
RTVSPropertyOp15
 70
     1
102
RTVSPropertyOp16
 70
     1
102
RTVSPropertyOp17
 70
     1
102
RTVSPropertyOp18
 70
     1
102
RTVSPropertyOp19
 70
     1
102
RTVSPropertyOp20
 70
     1
102
RTVSPropertyOp21
 70
     1
102
RTVSPropertyOp22
 70
     1
102
RTVSPropertyOp23
 70
     1
102
RTVSPropertyOp24
 70
     1
102
RTVSPropertyOp25
 70
     1
102
RTVSPropertyOp26
 70
     1
102
RTVSPropertyOp27
 70
     1
102
RTVSPropertyOp28
 70
     1
102
RTVSPropertyOp29
 70
     1
102
RTVSPropertyOp30
 70
     1
102
RTVSPropertyOp31
 70
     1
102
RTVSPropertyOp32
 70
     1
102
RTVSPropertyOp33
 70
     1
102
RTVSPropertyOp34
 70
     1
102
RTVSPropertyOp35
 70
     1
102
RTVSPropertyOp36
 70
     1
102
RTVSPropertyOp37
 70
     1
102
RTVSPropertyOp38
 70
     1
102
RTVSPropertyOp39
 70
     1
102
RTVSPropertyOp40
 70
     1
102
RTVSPropertyOp41
 70
     1
102
RTVSPropertyOp42
 70
     1
102
RTVSPropertyOp43
 70
     1
102
RTVSPropertyOp44
 70
     1
102
RTVSPropertyOp45
 70
     1
102
RTVSPropertyOp46
 70
     1
102
RTVSPropertyOp47
 70
     1
102
RTVSPropertyOp48
 70
     1
102
RTVSPropertyOp49
 70
     1
102
RTVSPropertyOp50
 70
     1
102
RTVSPropertyOp51
 70
     0
102
RTVSPropertyOp52
 70
     0
102
RTVSPropertyOp53
 70
     1
102
RTVSPropertyOp54
 70
     1
102
RTVSPropertyOp55
 70
     1
102
RTVSPropertyOp56
 70
     1
102
RTVSPropertyOp57
 70
     1
102
RTVSPropertyOp58
 70
     1
102
RTVSPropertyOp59
 70
     1
102
RTVSPropertyOp60
 70
     1
102
RTVSPropertyOp61
 70
     1
102
RTVSPropertyOp62
 70
     1
  0
XRECORD
  5
E2CF
102
{ACAD_REACTORS
330
E2CE
102
}
330
E2CE
100
AcDbXrecord
280
     1
102
RTVSPost2010Prop28
280
     0
102
RTVSPost2010PropOp28
 70
     1
102
RTVSPost2010Prop29
280
     1
102
RTVSPost2010PropOp29
 70
     1
102
RTVSPost2010Prop30
280
     1
102
RTVSPost2010PropOp30
 70
     1
102
RTVSPost2010Prop31
280
     0
102
RTVSPost2010PropOp31
 70
     1
102
RTVSPost2010Prop32
280
     0
102
RTVSPost2010PropOp32
 70
     1
102
RTVSPost2010Prop33
280
     0
102
RTVSPost2010PropOp33
 70
     1
102
RTVSPost2010Prop34
280
     0
102
RTVSPost2010PropOp34
 70
     1
102
RTVSPost2010Prop35
280
     0
102
RTVSPost2010PropOp35
 70
     1
102
RTVSPost2010Prop36
280
     0
102
RTVSPost2010PropOp36
 70
     1
102
RTVSPost2010Prop37
 90
       50
102
RTVSPost2010PropOp37
 70
     1
102
RTVSPost2010Prop38
140
0.0
102
RTVSPost2010PropOp38
 70
     1
102
RTVSPost2010Prop39
140
1.0
102
RTVSPost2010PropOp39
 70
     1
102
RTVSPost2010Prop40
 90
        0
102
RTVSPost2010PropOp40
 70
     1
102
RTVSPost2010Prop41ColorIndex
 90
       18
102
RTVSPost2010Prop41ColorRGB
 90
        0
102
RTVSPost2010PropOp41
 70
     1
102
RTVSPost2010Prop42
 90
       50
102
RTVSPost2010PropOp42
 70
     1
102
RTVSPost2010Prop43
 90
        3
102
RTVSPost2010PropOp43
 70
     1
102
RTVSPost2010Prop44ColorIndex
 90
        5
102
RTVSPost2010Prop44ColorRGB
 90
      255
102
RTVSPost2010PropOp44
 70
     1
102
RTVSPost2010Prop45
280
     0
102
RTVSPost2010PropOp45
 70
     1
102
RTVSPost2010Prop46
 90
       50
102
RTVSPost2010PropOp46
 70
     1
102
RTVSPost2010Prop47
 90
       50
102
RTVSPost2010PropOp47
 70
     1
102
RTVSPost2010Prop48
 90
       50
102
RTVSPost2010PropOp48
 70
     1
102
RTVSPost2010Prop49
280
     0
102
RTVSPost2010PropOp49
 70
     1
102
RTVSPost2010Prop50
 90
       50
102
RTVSPost2010PropOp50
 70
     1
102
RTVSPost2010Prop51ColorIndex
 90
      256
102
RTVSPost2010Prop51ColorRGB
 90
-16777216
102
RTVSPost2010PropOp51
 70
     0
102
RTVSPost2010Prop52
140
1.0
102
RTVSPost2010PropOp52
 70
     0
102
RTVSPost2010Prop53
 90
        2
102
RTVSPost2010PropOp53
 70
     1
102
RTVSPost2010Prop54
  1
strokes_ogs.tif
102
RTVSPost2010PropOp54
 70
     1
102
RTVSPost2010Prop55
280
     0
102
RTVSPost2010PropOp55
 70
     1
102
RTVSPost2010Prop56
140
1.0
102
RTVSPost2010PropOp56
 70
     1
102
RTVSPost2010Prop57
140
1.0
102
RTVSPost2010PropOp57
 70
     1
102
RTVSPropertyOp0
 70
     1
102
RTVSPropertyOp1
 70
     1
102
RTVSPropertyOp2
 70
     1
102
RTVSPropertyOp3
 70
     1
102
RTVSPropertyOp4
 70
     1
102
RTVSPropertyOp5
 70
     1
102
RTVSPropertyOp6
 70
     1
102
RTVSPropertyOp7
 70
     1
102
RTVSPropertyOp8
 70
     1
102
RTVSPropertyOp9
 70
     1
102
RTVSPropertyOp10
 70
     1
102
RTVSPropertyOp11
 70
     1
102
RTVSPropertyOp12
 70
     1
102
RTVSPropertyOp13
 70
     1
102
RTVSPropertyOp14
 70
     1
102
RTVSPropertyOp15
 70
     1
102
RTVSPropertyOp16
 70
     1
102
RTVSPropertyOp17
 70
     1
102
RTVSPropertyOp18
 70
     1
102
RTVSPropertyOp19
 70
     1
102
RTVSPropertyOp20
 70
     1
102
RTVSPropertyOp21
 70
     1
102
RTVSPropertyOp22
 70
     1
102
RTVSPropertyOp23
 70
     1
102
RTVSPropertyOp24
 70
     1
102
RTVSPropertyOp25
 70
     1
102
RTVSPropertyOp26
 70
     1
102
RTVSPropertyOp27
 70
     1
102
RTVSPropertyOp28
 70
     1
102
RTVSPropertyOp29
 70
     1
102
RTVSPropertyOp30
 70
     1
102
RTVSPropertyOp31
 70
     1
102
RTVSPropertyOp32
 70
     1
102
RTVSPropertyOp33
 70
     1
102
RTVSPropertyOp34
 70
     1
102
RTVSPropertyOp35
 70
     1
102
RTVSPropertyOp36
 70
     1
102
RTVSPropertyOp37
 70
     1
102
RTVSPropertyOp38
 70
     1
102
RTVSPropertyOp39
 70
     1
102
RTVSPropertyOp40
 70
     1
102
RTVSPropertyOp41
 70
     1
102
RTVSPropertyOp42
 70
     1
102
RTVSPropertyOp43
 70
     1
102
RTVSPropertyOp44
 70
     1
102
RTVSPropertyOp45
 70
     1
102
RTVSPropertyOp46
 70
     1
102
RTVSPropertyOp47
 70
     1
102
RTVSPropertyOp48
 70
     1
102
RTVSPropertyOp49
 70
     1
102
RTVSPropertyOp50
 70
     1
102
RTVSPropertyOp51
 70
     0
102
RTVSPropertyOp52
 70
     0
102
RTVSPropertyOp53
 70
     1
102
RTVSPropertyOp54
 70
     1
102
RTVSPropertyOp55
 70
     1
102
RTVSPropertyOp56
 70
     1
102
RTVSPropertyOp57
 70
     1
102
RTVSPropertyOp58
 70
     1
102
RTVSPropertyOp59
 70
     1
102
RTVSPropertyOp60
 70
     1
102
RTVSPropertyOp61
 70
     1
102
RTVSPropertyOp62
 70
     1
  0
XRECORD
  5
E2BA
102
{ACAD_REACTORS
330
E2B9
102
}
330
E2B9
100
AcDbXrecord
280
     1
102
RTVSPost2010Prop28
280
     0
102
RTVSPost2010PropOp28
 70
     1
102
RTVSPost2010Prop29
280
     1
102
RTVSPost2010PropOp29
 70
     1
102
RTVSPost2010Prop30
280
     1
102
RTVSPost2010PropOp30
 70
     1
102
RTVSPost2010Prop31
280
     0
102
RTVSPost2010PropOp31
 70
     1
102
RTVSPost2010Prop32
280
     0
102
RTVSPost2010PropOp32
 70
     1
102
RTVSPost2010Prop33
280
     0
102
RTVSPost2010PropOp33
 70
     1
102
RTVSPost2010Prop34
280
     0
102
RTVSPost2010PropOp34
 70
     1
102
RTVSPost2010Prop35
280
     0
102
RTVSPost2010PropOp35
 70
     1
102
RTVSPost2010Prop36
280
     0
102
RTVSPost2010PropOp36
 70
     1
102
RTVSPost2010Prop37
 90
       50
102
RTVSPost2010PropOp37
 70
     1
102
RTVSPost2010Prop38
140
0.0
102
RTVSPost2010PropOp38
 70
     1
102
RTVSPost2010Prop39
140
1.0
102
RTVSPost2010PropOp39
 70
     1
102
RTVSPost2010Prop40
 90
        0
102
RTVSPost2010PropOp40
 70
     1
102
RTVSPost2010Prop41ColorIndex
 90
       18
102
RTVSPost2010Prop41ColorRGB
 90
        0
102
RTVSPost2010PropOp41
 70
     1
102
RTVSPost2010Prop42
 90
       50
102
RTVSPost2010PropOp42
 70
     1
102
RTVSPost2010Prop43
 90
        3
102
RTVSPost2010PropOp43
 70
     1
102
RTVSPost2010Prop44ColorIndex
 90
        5
102
RTVSPost2010Prop44ColorRGB
 90
      255
102
RTVSPost2010PropOp44
 70
     1
102
RTVSPost2010Prop45
280
     0
102
RTVSPost2010PropOp45
 70
     1
102
RTVSPost2010Prop46
 90
       50
102
RTVSPost2010PropOp46
 70
     1
102
RTVSPost2010Prop47
 90
       50
102
RTVSPost2010PropOp47
 70
     1
102
RTVSPost2010Prop48
 90
       50
102
RTVSPost2010PropOp48
 70
     1
102
RTVSPost2010Prop49
280
     0
102
RTVSPost2010PropOp49
 70
     1
102
RTVSPost2010Prop50
 90
       50
102
RTVSPost2010PropOp50
 70
     1
102
RTVSPost2010Prop51ColorIndex
 90
      256
102
RTVSPost2010Prop51ColorRGB
 90
-16777216
102
RTVSPost2010PropOp51
 70
     0
102
RTVSPost2010Prop52
140
1.0
102
RTVSPost2010PropOp52
 70
     0
102
RTVSPost2010Prop53
 90
        2
102
RTVSPost2010PropOp53
 70
     1
102
RTVSPost2010Prop54
  1
strokes_ogs.tif
102
RTVSPost2010PropOp54
 70
     1
102
RTVSPost2010Prop55
280
     0
102
RTVSPost2010PropOp55
 70
     1
102
RTVSPost2010Prop56
140
1.0
102
RTVSPost2010PropOp56
 70
     1
102
RTVSPost2010Prop57
140
1.0
102
RTVSPost2010PropOp57
 70
     1
102
RTVSPropertyOp0
 70
     1
102
RTVSPropertyOp1
 70
     1
102
RTVSPropertyOp2
 70
     1
102
RTVSPropertyOp3
 70
     1
102
RTVSPropertyOp4
 70
     1
102
RTVSPropertyOp5
 70
     1
102
RTVSPropertyOp6
 70
     1
102
RTVSPropertyOp7
 70
     1
102
RTVSPropertyOp8
 70
     1
102
RTVSPropertyOp9
 70
     1
102
RTVSPropertyOp10
 70
     1
102
RTVSPropertyOp11
 70
     1
102
RTVSPropertyOp12
 70
     1
102
RTVSPropertyOp13
 70
     1
102
RTVSPropertyOp14
 70
     1
102
RTVSPropertyOp15
 70
     1
102
RTVSPropertyOp16
 70
     1
102
RTVSPropertyOp17
 70
     1
102
RTVSPropertyOp18
 70
     1
102
RTVSPropertyOp19
 70
     1
102
RTVSPropertyOp20
 70
     1
102
RTVSPropertyOp21
 70
     1
102
RTVSPropertyOp22
 70
     1
102
RTVSPropertyOp23
 70
     1
102
RTVSPropertyOp24
 70
     1
102
RTVSPropertyOp25
 70
     1
102
RTVSPropertyOp26
 70
     1
102
RTVSPropertyOp27
 70
     1
102
RTVSPropertyOp28
 70
     1
102
RTVSPropertyOp29
 70
     1
102
RTVSPropertyOp30
 70
     1
102
RTVSPropertyOp31
 70
     1
102
RTVSPropertyOp32
 70
     1
102
RTVSPropertyOp33
 70
     1
102
RTVSPropertyOp34
 70
     1
102
RTVSPropertyOp35
 70
     1
102
RTVSPropertyOp36
 70
     1
102
RTVSPropertyOp37
 70
     1
102
RTVSPropertyOp38
 70
     1
102
RTVSPropertyOp39
 70
     1
102
RTVSPropertyOp40
 70
     1
102
RTVSPropertyOp41
 70
     1
102
RTVSPropertyOp42
 70
     1
102
RTVSPropertyOp43
 70
     1
102
RTVSPropertyOp44
 70
     1
102
RTVSPropertyOp45
 70
     1
102
RTVSPropertyOp46
 70
     1
102
RTVSPropertyOp47
 70
     1
102
RTVSPropertyOp48
 70
     1
102
RTVSPropertyOp49
 70
     1
102
RTVSPropertyOp50
 70
     1
102
RTVSPropertyOp51
 70
     0
102
RTVSPropertyOp52
 70
     0
102
RTVSPropertyOp53
 70
     1
102
RTVSPropertyOp54
 70
     1
102
RTVSPropertyOp55
 70
     1
102
RTVSPropertyOp56
 70
     1
102
RTVSPropertyOp57
 70
     1
102
RTVSPropertyOp58
 70
     1
102
RTVSPropertyOp59
 70
     1
102
RTVSPropertyOp60
 70
     1
102
RTVSPropertyOp61
 70
     1
102
RTVSPropertyOp62
 70
     1
  0
XRECORD
  5
E2C9
102
{ACAD_REACTORS
330
E2C8
102
}
330
E2C8
100
AcDbXrecord
280
     1
102
RTVSPost2010Prop28
280
     0
102
RTVSPost2010PropOp28
 70
     1
102
RTVSPost2010Prop29
280
     1
102
RTVSPost2010PropOp29
 70
     1
102
RTVSPost2010Prop30
280
     1
102
RTVSPost2010PropOp30
 70
     1
102
RTVSPost2010Prop31
280
     0
102
RTVSPost2010PropOp31
 70
     1
102
RTVSPost2010Prop32
280
     0
102
RTVSPost2010PropOp32
 70
     1
102
RTVSPost2010Prop33
280
     0
102
RTVSPost2010PropOp33
 70
     1
102
RTVSPost2010Prop34
280
     0
102
RTVSPost2010PropOp34
 70
     1
102
RTVSPost2010Prop35
280
     0
102
RTVSPost2010PropOp35
 70
     1
102
RTVSPost2010Prop36
280
     0
102
RTVSPost2010PropOp36
 70
     1
102
RTVSPost2010Prop37
 90
       50
102
RTVSPost2010PropOp37
 70
     1
102
RTVSPost2010Prop38
140
0.0
102
RTVSPost2010PropOp38
 70
     1
102
RTVSPost2010Prop39
140
1.0
102
RTVSPost2010PropOp39
 70
     1
102
RTVSPost2010Prop40
 90
        0
102
RTVSPost2010PropOp40
 70
     1
102
RTVSPost2010Prop41ColorIndex
 90
       18
102
RTVSPost2010Prop41ColorRGB
 90
        0
102
RTVSPost2010PropOp41
 70
     1
102
RTVSPost2010Prop42
 90
       50
102
RTVSPost2010PropOp42
 70
     1
102
RTVSPost2010Prop43
 90
        3
102
RTVSPost2010PropOp43
 70
     1
102
RTVSPost2010Prop44ColorIndex
 90
        5
102
RTVSPost2010Prop44ColorRGB
 90
      255
102
RTVSPost2010PropOp44
 70
     1
102
RTVSPost2010Prop45
280
     0
102
RTVSPost2010PropOp45
 70
     1
102
RTVSPost2010Prop46
 90
       50
102
RTVSPost2010PropOp46
 70
     1
102
RTVSPost2010Prop47
 90
       50
102
RTVSPost2010PropOp47
 70
     1
102
RTVSPost2010Prop48
 90
       50
102
RTVSPost2010PropOp48
 70
     1
102
RTVSPost2010Prop49
280
     0
102
RTVSPost2010PropOp49
 70
     1
102
RTVSPost2010Prop50
 90
       50
102
RTVSPost2010PropOp50
 70
     1
102
RTVSPost2010Prop51ColorIndex
 90
      256
102
RTVSPost2010Prop51ColorRGB
 90
-16777216
102
RTVSPost2010PropOp51
 70
     0
102
RTVSPost2010Prop52
140
1.0
102
RTVSPost2010PropOp52
 70
     0
102
RTVSPost2010Prop53
 90
        2
102
RTVSPost2010PropOp53
 70
     1
102
RTVSPost2010Prop54
  1
strokes_ogs.tif
102
RTVSPost2010PropOp54
 70
     1
102
RTVSPost2010Prop55
280
     0
102
RTVSPost2010PropOp55
 70
     1
102
RTVSPost2010Prop56
140
1.0
102
RTVSPost2010PropOp56
 70
     1
102
RTVSPost2010Prop57
140
1.0
102
RTVSPost2010PropOp57
 70
     1
102
RTVSPropertyOp0
 70
     1
102
RTVSPropertyOp1
 70
     1
102
RTVSPropertyOp2
 70
     1
102
RTVSPropertyOp3
 70
     1
102
RTVSPropertyOp4
 70
     1
102
RTVSPropertyOp5
 70
     1
102
RTVSPropertyOp6
 70
     1
102
RTVSPropertyOp7
 70
     1
102
RTVSPropertyOp8
 70
     1
102
RTVSPropertyOp9
 70
     1
102
RTVSPropertyOp10
 70
     1
102
RTVSPropertyOp11
 70
     1
102
RTVSPropertyOp12
 70
     1
102
RTVSPropertyOp13
 70
     1
102
RTVSPropertyOp14
 70
     1
102
RTVSPropertyOp15
 70
     1
102
RTVSPropertyOp16
 70
     1
102
RTVSPropertyOp17
 70
     1
102
RTVSPropertyOp18
 70
     1
102
RTVSPropertyOp19
 70
     1
102
RTVSPropertyOp20
 70
     1
102
RTVSPropertyOp21
 70
     1
102
RTVSPropertyOp22
 70
     1
102
RTVSPropertyOp23
 70
     1
102
RTVSPropertyOp24
 70
     1
102
RTVSPropertyOp25
 70
     1
102
RTVSPropertyOp26
 70
     1
102
RTVSPropertyOp27
 70
     1
102
RTVSPropertyOp28
 70
     1
102
RTVSPropertyOp29
 70
     1
102
RTVSPropertyOp30
 70
     1
102
RTVSPropertyOp31
 70
     1
102
RTVSPropertyOp32
 70
     1
102
RTVSPropertyOp33
 70
     1
102
RTVSPropertyOp34
 70
     1
102
RTVSPropertyOp35
 70
     1
102
RTVSPropertyOp36
 70
     1
102
RTVSPropertyOp37
 70
     1
102
RTVSPropertyOp38
 70
     1
102
RTVSPropertyOp39
 70
     1
102
RTVSPropertyOp40
 70
     1
102
RTVSPropertyOp41
 70
     1
102
RTVSPropertyOp42
 70
     1
102
RTVSPropertyOp43
 70
     1
102
RTVSPropertyOp44
 70
     1
102
RTVSPropertyOp45
 70
     1
102
RTVSPropertyOp46
 70
     1
102
RTVSPropertyOp47
 70
     1
102
RTVSPropertyOp48
 70
     1
102
RTVSPropertyOp49
 70
     1
102
RTVSPropertyOp50
 70
     1
102
RTVSPropertyOp51
 70
     0
102
RTVSPropertyOp52
 70
     0
102
RTVSPropertyOp53
 70
     1
102
RTVSPropertyOp54
 70
     1
102
RTVSPropertyOp55
 70
     1
102
RTVSPropertyOp56
 70
     1
102
RTVSPropertyOp57
 70
     1
102
RTVSPropertyOp58
 70
     1
102
RTVSPropertyOp59
 70
     1
102
RTVSPropertyOp60
 70
     1
102
RTVSPropertyOp61
 70
     1
102
RTVSPropertyOp62
 70
     1
  0
XRECORD
  5
E2D1
102
{ACAD_REACTORS
330
E2D0
102
}
330
E2D0
100
AcDbXrecord
280
     1
102
RTVSPost2010Prop28
280
     0
102
RTVSPost2010PropOp28
 70
     1
102
RTVSPost2010Prop29
280
     1
102
RTVSPost2010PropOp29
 70
     1
102
RTVSPost2010Prop30
280
     1
102
RTVSPost2010PropOp30
 70
     1
102
RTVSPost2010Prop31
280
     0
102
RTVSPost2010PropOp31
 70
     1
102
RTVSPost2010Prop32
280
     0
102
RTVSPost2010PropOp32
 70
     1
102
RTVSPost2010Prop33
280
     0
102
RTVSPost2010PropOp33
 70
     1
102
RTVSPost2010Prop34
280
     0
102
RTVSPost2010PropOp34
 70
     1
102
RTVSPost2010Prop35
280
     0
102
RTVSPost2010PropOp35
 70
     1
102
RTVSPost2010Prop36
280
     0
102
RTVSPost2010PropOp36
 70
     1
102
RTVSPost2010Prop37
 90
       50
102
RTVSPost2010PropOp37
 70
     1
102
RTVSPost2010Prop38
140
0.0
102
RTVSPost2010PropOp38
 70
     1
102
RTVSPost2010Prop39
140
1.0
102
RTVSPost2010PropOp39
 70
     1
102
RTVSPost2010Prop40
 90
        0
102
RTVSPost2010PropOp40
 70
     1
102
RTVSPost2010Prop41ColorIndex
 90
       18
102
RTVSPost2010Prop41ColorRGB
 90
        0
102
RTVSPost2010PropOp41
 70
     1
102
RTVSPost2010Prop42
 90
       50
102
RTVSPost2010PropOp42
 70
     1
102
RTVSPost2010Prop43
 90
        3
102
RTVSPost2010PropOp43
 70
     1
102
RTVSPost2010Prop44ColorIndex
 90
        5
102
RTVSPost2010Prop44ColorRGB
 90
      255
102
RTVSPost2010PropOp44
 70
     1
102
RTVSPost2010Prop45
280
     0
102
RTVSPost2010PropOp45
 70
     1
102
RTVSPost2010Prop46
 90
       50
102
RTVSPost2010PropOp46
 70
     1
102
RTVSPost2010Prop47
 90
       50
102
RTVSPost2010PropOp47
 70
     1
102
RTVSPost2010Prop48
 90
       50
102
RTVSPost2010PropOp48
 70
     1
102
RTVSPost2010Prop49
280
     0
102
RTVSPost2010PropOp49
 70
     1
102
RTVSPost2010Prop50
 90
       50
102
RTVSPost2010PropOp50
 70
     1
102
RTVSPost2010Prop51ColorIndex
 90
      256
102
RTVSPost2010Prop51ColorRGB
 90
-16777216
102
RTVSPost2010PropOp51
 70
     0
102
RTVSPost2010Prop52
140
1.0
102
RTVSPost2010PropOp52
 70
     0
102
RTVSPost2010Prop53
 90
        2
102
RTVSPost2010PropOp53
 70
     1
102
RTVSPost2010Prop54
  1
strokes_ogs.tif
102
RTVSPost2010PropOp54
 70
     1
102
RTVSPost2010Prop55
280
     0
102
RTVSPost2010PropOp55
 70
     1
102
RTVSPost2010Prop56
140
1.0
102
RTVSPost2010PropOp56
 70
     1
102
RTVSPost2010Prop57
140
1.0
102
RTVSPost2010PropOp57
 70
     1
102
RTVSPropertyOp0
 70
     1
102
RTVSPropertyOp1
 70
     1
102
RTVSPropertyOp2
 70
     1
102
RTVSPropertyOp3
 70
     1
102
RTVSPropertyOp4
 70
     1
102
RTVSPropertyOp5
 70
     1
102
RTVSPropertyOp6
 70
     1
102
RTVSPropertyOp7
 70
     1
102
RTVSPropertyOp8
 70
     1
102
RTVSPropertyOp9
 70
     1
102
RTVSPropertyOp10
 70
     1
102
RTVSPropertyOp11
 70
     1
102
RTVSPropertyOp12
 70
     1
102
RTVSPropertyOp13
 70
     1
102
RTVSPropertyOp14
 70
     1
102
RTVSPropertyOp15
 70
     1
102
RTVSPropertyOp16
 70
     1
102
RTVSPropertyOp17
 70
     1
102
RTVSPropertyOp18
 70
     1
102
RTVSPropertyOp19
 70
     1
102
RTVSPropertyOp20
 70
     1
102
RTVSPropertyOp21
 70
     1
102
RTVSPropertyOp22
 70
     1
102
RTVSPropertyOp23
 70
     1
102
RTVSPropertyOp24
 70
     1
102
RTVSPropertyOp25
 70
     1
102
RTVSPropertyOp26
 70
     1
102
RTVSPropertyOp27
 70
     1
102
RTVSPropertyOp28
 70
     1
102
RTVSPropertyOp29
 70
     1
102
RTVSPropertyOp30
 70
     1
102
RTVSPropertyOp31
 70
     1
102
RTVSPropertyOp32
 70
     1
102
RTVSPropertyOp33
 70
     1
102
RTVSPropertyOp34
 70
     1
102
RTVSPropertyOp35
 70
     1
102
RTVSPropertyOp36
 70
     1
102
RTVSPropertyOp37
 70
     1
102
RTVSPropertyOp38
 70
     1
102
RTVSPropertyOp39
 70
     1
102
RTVSPropertyOp40
 70
     1
102
RTVSPropertyOp41
 70
     1
102
RTVSPropertyOp42
 70
     1
102
RTVSPropertyOp43
 70
     1
102
RTVSPropertyOp44
 70
     1
102
RTVSPropertyOp45
 70
     1
102
RTVSPropertyOp46
 70
     1
102
RTVSPropertyOp47
 70
     1
102
RTVSPropertyOp48
 70
     1
102
RTVSPropertyOp49
 70
     1
102
RTVSPropertyOp50
 70
     1
102
RTVSPropertyOp51
 70
     0
102
RTVSPropertyOp52
 70
     0
102
RTVSPropertyOp53
 70
     1
102
RTVSPropertyOp54
 70
     1
102
RTVSPropertyOp55
 70
     1
102
RTVSPropertyOp56
 70
     1
102
RTVSPropertyOp57
 70
     1
102
RTVSPropertyOp58
 70
     1
102
RTVSPropertyOp59
 70
     1
102
RTVSPropertyOp60
 70
     1
102
RTVSPropertyOp61
 70
     1
102
RTVSPropertyOp62
 70
     1
  0
ENDSEC
  0
EOF
