  0
SECTION
  2
HEADER
  9
$ACADVER
  1
AC1015
  9
$ACADMAINTVER
 70
    20
  9
$DWGCODEPAGE
  3
ANSI_932
  9
$INSBASE
 10
0.0
 20
0.0
 30
0.0
  9
$EXTMIN
 10
-0.2166417405669563
 20
-0.1502761369429209
 30
-0.0015258207003583
  9
$EXTMAX
 10
1104.008694211024
 20
764.0051763332557
 30
0.0000000349246037
  9
$LIMMIN
 10
0.0
 20
0.0
  9
$LIMMAX
 10
2840.0
 20
1970.0
  9
$ORTHOMODE
 70
     0
  9
$REGENMODE
 70
     1
  9
$FILLMODE
 70
     1
  9
$QTEXTMODE
 70
     0
  9
$MIRRTEXT
 70
     1
  9
$LTSCALE
 40
1.0
  9
$ATTMODE
 70
     1
  9
$TEXTSIZE
 40
2.5
  9
$TRACEWID
 40
1.0
  9
$TEXTSTYLE
  7
Standard
  9
$CLAYER
  8
SUNPO
  9
$CELTYPE
  6
ByLayer
  9
$CECOLOR
 62
   256
  9
$CELTSCALE
 40
1.0
  9
$DISPSILH
 70
     0
  9
$DIMSCALE
 40
4.0
  9
$DIMASZ
 40
0.8
  9
$DIMEXO
 40
1.0
  9
$DIMDLI
 40
0.0
  9
$DIMRND
 40
0.0
  9
$DIMDLE
 40
0.0
  9
$DIMEXE
 40
0.0
  9
$DIMTP
 40
0.0
  9
$DIMTM
 40
0.0
  9
$DIMTXT
 40
2.0
  9
$DIMCEN
 40
2.5
  9
$DIMTSZ
 40
0.0
  9
$DIMTOL
 70
     0
  9
$DIMLIM
 70
     0
  9
$DIMTIH
 70
     0
  9
$DIMTOH
 70
     0
  9
$DIMSE1
 70
     0
  9
$DIMSE2
 70
     0
  9
$DIMTAD
 70
     2
  9
$DIMZIN
 70
     8
  9
$DIMBLK
  1

  9
$DIMASO
 70
     1
  9
$DIMSHO
 70
     1
  9
$DIMPOST
  1

  9
$DIMAPOST
  1

  9
$DIMALT
 70
     0
  9
$DIMALTD
 70
     4
  9
$DIMALTF
 40
0.0394
  9
$DIMLFAC
 40
1.0
  9
$DIMTOFL
 70
     1
  9
$DIMTVP
 40
0.0
  9
$DIMTIX
 70
     0
  9
$DIMSOXD
 70
     0
  9
$DIMSAH
 70
     1
  9
$DIMBLK1
  1
DOT
  9
$DIMBLK2
  1
DOT
  9
$DIMSTYLE
  2
STANDARD
  9
$DIMCLRD
 70
     0
  9
$DIMCLRE
 70
     0
  9
$DIMCLRT
 70
     0
  9
$DIMTFAC
 40
1.0
  9
$DIMGAP
 40
0.1
  9
$DIMJUST
 70
     0
  9
$DIMSD1
 70
     0
  9
$DIMSD2
 70
     0
  9
$DIMTOLJ
 70
     1
  9
$DIMTZIN
 70
     0
  9
$DIMALTZ
 70
     0
  9
$DIMALTTZ
 70
     0
  9
$DIMUPT
 70
     0
  9
$DIMDEC
 70
     4
  9
$DIMTDEC
 70
     4
  9
$DIMALTU
 70
     8
  9
$DIMALTTD
 70
     4
  9
$DIMTXSTY
  7
Standard
  9
$DIMAUNIT
 70
     0
  9
$DIMADEC
 70
     0
  9
$DIMALTRND
 40
0.0
  9
$DIMAZIN
 70
     0
  9
$DIMDSEP
 70
    46
  9
$DIMATFIT
 70
     3
  9
$DIMFRAC
 70
     0
  9
$DIMLDRBLK
  1
DOT
  9
$DIMLUNIT
 70
     2
  9
$DIMLWD
 70
    -2
  9
$DIMLWE
 70
    -2
  9
$DIMTMOVE
 70
     1
  9
$LUNITS
 70
     2
  9
$LUPREC
 70
     8
  9
$SKETCHINC
 40
1.0
  9
$FILLETRAD
 40
0.0
  9
$AUNITS
 70
     0
  9
$AUPREC
 70
     8
  9
$MENU
  1
.
  9
$ELEVATION
 40
0.0
  9
$PELEVATION
 40
0.0
  9
$THICKNESS
 40
0.0
  9
$LIMCHECK
 70
     0
  9
$CHAMFERA
 40
10.0
  9
$CHAMFERB
 40
10.0
  9
$CHAMFERC
 40
20.0
  9
$CHAMFERD
 40
0.0
  9
$SKPOLY
 70
     0
  9
$TDCREATE
 40
2453276.413761574
  9
$TDUCREATE
 40
2453276.038766620
  9
$TDUPDATE
 40
2459975.542060185
  9
$TDUUPDATE
 40
2459975.167060185
  9
$TDINDWG
 40
0.2376857986
  9
$TDUSRTIMER
 40
0.2376857986
  9
$USRTIMER
 70
     1
  9
$ANGBASE
 50
0.0
  9
$ANGDIR
 70
     0
  9
$PDMODE
 70
     0
  9
$PDSIZE
 40
0.0
  9
$PLINEWID
 40
0.0
  9
$SPLFRAME
 70
     0
  9
$SPLINETYPE
 70
     6
  9
$SPLINESEGS
 70
     8
  9
$HANDSEED
  5
DF80
  9
$SURFTAB1
 70
     6
  9
$SURFTAB2
 70
     6
  9
$SURFTYPE
 70
     6
  9
$SURFU
 70
     6
  9
$SURFV
 70
     6
  9
$UCSBASE
  2

  9
$UCSNAME
  2

  9
$UCSORG
 10
0.0
 20
0.0
 30
0.0
  9
$UCSXDIR
 10
1.0
 20
0.0
 30
0.0
  9
$UCSYDIR
 10
0.0
 20
1.0
 30
0.0
  9
$UCSORTHOREF
  2

  9
$UCSORTHOVIEW
 70
     0
  9
$UCSORGTOP
 10
0.0
 20
0.0
 30
0.0
  9
$UCSORGBOTTOM
 10
0.0
 20
0.0
 30
0.0
  9
$UCSORGLEFT
 10
0.0
 20
0.0
 30
0.0
  9
$UCSORGRIGHT
 10
0.0
 20
0.0
 30
0.0
  9
$UCSORGFRONT
 10
0.0
 20
0.0
 30
0.0
  9
$UCSORGBACK
 10
0.0
 20
0.0
 30
0.0
  9
$PUCSBASE
  2

  9
$PUCSNAME
  2

  9
$PUCSORG
 10
0.0
 20
0.0
 30
0.0
  9
$PUCSXDIR
 10
1.0
 20
0.0
 30
0.0
  9
$PUCSYDIR
 10
0.0
 20
1.0
 30
0.0
  9
$PUCSORTHOREF
  2

  9
$PUCSORTHOVIEW
 70
     0
  9
$PUCSORGTOP
 10
0.0
 20
0.0
 30
0.0
  9
$PUCSORGBOTTOM
 10
0.0
 20
0.0
 30
0.0
  9
$PUCSORGLEFT
 10
0.0
 20
0.0
 30
0.0
  9
$PUCSORGRIGHT
 10
0.0
 20
0.0
 30
0.0
  9
$PUCSORGFRONT
 10
0.0
 20
0.0
 30
0.0
  9
$PUCSORGBACK
 10
0.0
 20
0.0
 30
0.0
  9
$USERI1
 70
     0
  9
$USERI2
 70
     0
  9
$USERI3
 70
     0
  9
$USERI4
 70
     0
  9
$USERI5
 70
     0
  9
$USERR1
 40
0.0
  9
$USERR2
 40
0.0
  9
$USERR3
 40
0.0
  9
$USERR4
 40
0.0
  9
$USERR5
 40
0.0
  9
$WORLDVIEW
 70
     1
  9
$SHADEDGE
 70
     2
  9
$SHADEDIF
 70
    70
  9
$TILEMODE
 70
     1
  9
$MAXACTVP
 70
    64
  9
$PINSBASE
 10
0.0
 20
0.0
 30
0.0
  9
$PLIMCHECK
 70
     0
  9
$PEXTMIN
 10
0.0
 20
0.0
 30
0.0
  9
$PEXTMAX
 10
0.0
 20
0.0
 30
0.0
  9
$PLIMMIN
 10
0.0
 20
0.0
  9
$PLIMMAX
 10
12.0
 20
9.0
  9
$UNITMODE
 70
     0
  9
$VISRETAIN
 70
     1
  9
$PLINEGEN
 70
     0
  9
$PSLTSCALE
 70
     1
  9
$TREEDEPTH
 70
  3020
  9
$CMLSTYLE
  2
Standard
  9
$CMLJUST
 70
     0
  9
$CMLSCALE
 40
20.0
  9
$PROXYGRAPHICS
 70
     1
  9
$MEASUREMENT
 70
     1
  9
$CELWEIGHT
370
    -1
  9
$ENDCAPS
280
     0
  9
$JOINSTYLE
280
     0
  9
$LWDISPLAY
290
     0
  9
$INSUNITS
 70
     4
  9
$HYPERLINKBASE
  1

  9
$STYLESHEET
  1
monochrome.stb
  9
$XEDIT
290
     1
  9
$CEPSNTYPE
380
     0
  9
$PSTYLEMODE
290
     1
  9
$FINGERPRINTGUID
  2
{B4E61C12-08AD-407D-A83C-7C7812CA1D8B}
  9
$VERSIONGUID
  2
{A5751610-466D-8E41-BDBB-A5CE4485EAE7}
  9
$EXTNAMES
290
     1
  9
$PSVPSCALE
 40
0.0
  9
$OLESTARTUP
290
     0
  0
ENDSEC
  0
SECTION
  2
CLASSES
  0
CLASS
  1
ACDBDICTIONARYWDFLT
  2
AcDbDictionaryWithDefault
  3
ObjectDBX Classes
 90
        0
280
     0
281
     0
  0
CLASS
  1
ACDBPLACEHOLDER
  2
AcDbPlaceHolder
  3
ObjectDBX Classes
 90
        0
280
     0
281
     0
  0
CLASS
  1
LAYOUT
  2
AcDbLayout
  3
ObjectDBX Classes
 90
        0
280
     0
281
     0
  0
CLASS
  1
DICTIONARYVAR
  2
AcDbDictionaryVar
  3
ObjectDBX Classes
 90
        0
280
     0
281
     0
  0
CLASS
  1
SORTENTSTABLE
  2
AcDbSortentsTable
  3
ObjectDBX Classes
 90
        0
280
     0
281
     0
  0
CLASS
  1
MATERIAL
  2
AcDbMaterial
  3
ObjectDBX Classes
 90
     1153
280
     0
281
     0
  0
CLASS
  1
VISUALSTYLE
  2
AcDbVisualStyle
  3
ObjectDBX Classes
 90
     4095
280
     0
281
     0
  0
CLASS
  1
TABLESTYLE
  2
AcDbTableStyle
  3
ObjectDBX Classes
 90
     4095
280
     0
281
     0
  0
CLASS
  1
SCALE
  2
AcDbScale
  3
ObjectDBX Classes
 90
     1153
280
     0
281
     0
  0
CLASS
  1
MLEADERSTYLE
  2
AcDbMLeaderStyle
  3
ACDB_MLEADERSTYLE_CLASS
 90
     4095
280
     0
281
     0
  0
CLASS
  1
AEC_REFEDIT_STATUS_TRACKER
  2
AecDbRefEditStatusTracker
  3
AecArchBase60|Product Desc: Autodesk Architectural Desktop 2007 |Company: Autodesk,Inc. |WEB Address: www.autodesk.com
 90
    32897
280
     0
281
     0
  0
CLASS
  1
NPOCOLLECTION
  2
AcDbImpNonPersistentObjectsCollection
  3
ObjectDBX Classes
 90
    33921
280
     0
281
     0
  0
CLASS
  1
CELLSTYLEMAP
  2
AcDbCellStyleMap
  3
ObjectDBX Classes
 90
     1152
280
     0
281
     0
  0
CLASS
  1
ACDBSECTIONVIEWSTYLE
  2
AcDbSectionViewStyle
  3
ObjectDBX Classes
 90
     1025
280
     0
281
     0
  0
CLASS
  1
ACDBDETAILVIEWSTYLE
  2
AcDbDetailViewStyle
  3
ObjectDBX Classes
 90
     1025
280
     0
281
     0
  0
ENDSEC
  0
SECTION
  2
TABLES
  0
TABLE
  2
VPORT
  5
8
102
{ACAD_XDICTIONARY
360
8D16
102
}
330
0
100
AcDbSymbolTable
 70
     1
  0
VPORT
  5
52C0
330
8
100
AcDbSymbolTableRecord
100
AcDbViewportTableRecord
  2
*Active
 70
     0
 10
0.0
 20
0.0
 11
1.0
 21
1.0
 12
551.8960262352287
 22
381.9274500981564
 13
0.0
 23
0.0
 14
10.0
 24
10.0
 15
10.0
 25
10.0
 16
0.0
 26
0.0
 36
1.0
 17
0.0
 27
0.0
 37
0.0
 40
792.4575062653912
 41
3.341614906832298
 42
50.0
 43
0.0
 44
0.0
 50
0.0
 51
0.0
 71
     0
 72
   100
 73
     1
 74
     3
 75
     0
 76
     0
 77
     0
 78
     0
281
     0
 65
     1
110
0.0
120
0.0
130
0.0
111
1.0
121
0.0
131
0.0
112
0.0
122
1.0
132
0.0
 79
     0
146
0.0
1001
ACAD_NAV_VCDISPLAY
1070
     3
  0
ENDTAB
  0
TABLE
  2
LTYPE
  5
5
330
0
100
AcDbSymbolTable
 70
     2
  0
LTYPE
  5
14
330
5
100
AcDbSymbolTableRecord
100
AcDbLinetypeTableRecord
  2
ByBlock
 70
     0
  3

 72
    65
 73
     0
 40
0.0
  0
LTYPE
  5
15
330
5
100
AcDbSymbolTableRecord
100
AcDbLinetypeTableRecord
  2
ByLayer
 70
     0
  3

 72
    65
 73
     0
 40
0.0
  0
LTYPE
  5
16
330
5
100
AcDbSymbolTableRecord
100
AcDbLinetypeTableRecord
  2
Continuous
 70
     0
  3
Solid line
 72
    65
 73
     0
 40
0.0
  0
LTYPE
  5
6035
330
5
100
AcDbSymbolTableRecord
100
AcDbLinetypeTableRecord
  2
CENTER
 70
     0
  3
Center ____ _ ____ _ ____ _ ____ _ ____ _ ____
 72
    65
 73
     4
 40
50.8
 49
31.75
 74
     0
 49
-6.349999999999999
 74
     0
 49
6.349999999999999
 74
     0
 49
-6.349999999999999
 74
     0
  0
ENDTAB
  0
TABLE
  2
LAYER
  5
2
102
{ACAD_XDICTIONARY
360
2D
102
}
330
0
100
AcDbSymbolTable
 70
     8
  0
LAYER
  5
10
102
{ACAD_XDICTIONARY
360
8D05
102
}
330
2
100
AcDbSymbolTableRecord
100
AcDbLayerTableRecord
  2
0
 70
     0
 62
     7
  6
Continuous
290
     0
370
    -3
390
29
  0
LAYER
  5
2301
330
2
100
AcDbSymbolTableRecord
100
AcDbLayerTableRecord
  2
Defpoints
 70
     0
 62
     7
  6
Continuous
290
     0
370
    -3
390
F
  0
LAYER
  5
2388
102
{ACAD_XDICTIONARY
360
8D07
102
}
330
2
100
AcDbSymbolTableRecord
100
AcDbLayerTableRecord
  2
moji
 70
     0
 62
     7
  6
Continuous
370
    -3
390
29
  0
LAYER
  5
2389
102
{ACAD_XDICTIONARY
360
8D09
102
}
330
2
100
AcDbSymbolTableRecord
100
AcDbLayerTableRecord
  2
kasagi
 70
     0
 62
   150
  6
Continuous
370
    -3
390
29
  0
LAYER
  5
238A
102
{ACAD_XDICTIONARY
360
8D0B
102
}
330
2
100
AcDbSymbolTableRecord
100
AcDbLayerTableRecord
  2
SUNPO
 70
     0
 62
     7
  6
Continuous
370
    -3
390
29
  0
LAYER
  5
238B
102
{ACAD_XDICTIONARY
360
8D0D
102
}
330
2
100
AcDbSymbolTableRecord
100
AcDbLayerTableRecord
  2
KANAMONO_SCREW
 70
     0
 62
     4
  6
Continuous
370
    -3
390
29
  0
LAYER
  5
6039
102
{ACAD_XDICTIONARY
360
603A
102
}
330
2
100
AcDbSymbolTableRecord
100
AcDbLayerTableRecord
  2
kijun
 70
     0
 62
     1
  6
CENTER
370
    -3
390
F
  0
LAYER
  5
D9B3
102
{ACAD_XDICTIONARY
360
D9B4
102
}
330
2
100
AcDbSymbolTableRecord
100
AcDbLayerTableRecord
  2
WAKU
 70
     0
 62
     7
  6
Continuous
370
    -3
390
29
  0
ENDTAB
  0
TABLE
  2
STYLE
  5
3
330
0
100
AcDbSymbolTable
 70
     2
  0
STYLE
  5
11
330
3
100
AcDbSymbolTableRecord
100
AcDbTextStyleTableRecord
  2
Standard
 70
     0
 40
0.0
 41
1.0
 50
0.0
 71
     0
 42
2.5
  3

  4

1001
ACAD
1000
MS Gothic
1071
    32817
  0
STYLE
  5
D9B5
330
3
100
AcDbSymbolTableRecord
100
AcDbTextStyleTableRecord
  2
MSゴシック
 70
     0
 40
0.0
 41
1.0
 50
0.0
 71
     0
 42
2.5
  3

  4

1001
ACAD
1000
MS Gothic
1071
    32817
  0
ENDTAB
  0
TABLE
  2
VIEW
  5
6
330
0
100
AcDbSymbolTable
 70
     0
  0
ENDTAB
  0
TABLE
  2
UCS
  5
7
330
0
100
AcDbSymbolTable
 70
     0
  0
ENDTAB
  0
TABLE
  2
APPID
  5
9
330
0
100
AcDbSymbolTable
 70
     9
  0
APPID
  5
12
330
9
100
AcDbSymbolTableRecord
100
AcDbRegAppTableRecord
  2
ACAD
 70
     0
  0
APPID
  5
8D46
330
9
100
AcDbSymbolTableRecord
100
AcDbRegAppTableRecord
  2
ACAD_MLEADERVER
 70
     0
  0
APPID
  5
9F08
330
9
100
AcDbSymbolTableRecord
100
AcDbRegAppTableRecord
  2
ACAD_PSEXT
 70
     0
  0
APPID
  5
9F09
330
9
100
AcDbSymbolTableRecord
100
AcDbRegAppTableRecord
  2
ACAD_DSTYLE_DIMJAG
 70
     0
  0
APPID
  5
9F0A
330
9
100
AcDbSymbolTableRecord
100
AcDbRegAppTableRecord
  2
ACAD_DSTYLE_DIMTALN
 70
     0
  0
APPID
  5
D58C
330
9
100
AcDbSymbolTableRecord
100
AcDbRegAppTableRecord
  2
ACAD_EXEMPT_FROM_CAD_STANDARDS
 70
     0
  0
APPID
  5
D9B6
330
9
100
AcDbSymbolTableRecord
100
AcDbRegAppTableRecord
  2
ACAD_NAV_VCDISPLAY
 70
     0
  0
APPID
  5
DCAD
330
9
100
AcDbSymbolTableRecord
100
AcDbRegAppTableRecord
  2
AcadAnnoPO
 70
     0
  0
APPID
  5
DCF7
330
9
100
AcDbSymbolTableRecord
100
AcDbRegAppTableRecord
  2
Acad_TC
 70
     0
  0
ENDTAB
  0
TABLE
  2
DIMSTYLE
  5
A
330
0
100
AcDbSymbolTable
 70
     1
100
AcDbDimStyleTable
 71
     1
340
22E4
  0
DIMSTYLE
105
22E4
330
A
100
AcDbSymbolTableRecord
100
AcDbDimStyleTableRecord
  2
STANDARD
 70
     0
 40
4.0
 41
0.8
 42
1.0
 43
0.0
 44
0.0
 73
     0
 74
     0
 77
     2
 78
     8
140
2.0
141
2.5
143
0.0394
147
0.1
171
     4
172
     1
173
     1
273
     8
274
     4
279
     1
340
11
341
903
343
903
344
903
  0
ENDTAB
  0
TABLE
  2
BLOCK_RECORD
  5
1
330
0
100
AcDbSymbolTable
 70
    12
  0
BLOCK_RECORD
  5
1F
102
{ACAD_XDICTIONARY
360
1C62
102
}
330
1
100
AcDbSymbolTableRecord
100
AcDbBlockTableRecord
  2
*Model_Space
340
22
  0
BLOCK_RECORD
  5
1CD0
330
1
100
AcDbSymbolTableRecord
100
AcDbBlockTableRecord
  2
*Paper_Space
340
1CD1
  0
BLOCK_RECORD
  5
903
330
1
100
AcDbSymbolTableRecord
100
AcDbBlockTableRecord
  2
_DOT
340
0
102
{BLKREFS
331
DE77
331
DE78
331
DE7D
331
DE7E
331
DE83
331
DE84
331
DE89
331
DE8A
331
DE8F
331
DE90
331
DE95
331
DE96
331
DE9B
331
DE9C
331
DEA1
331
DEA2
331
DEDB
331
DEDC
331
DF2B
331
DF2C
331
DF31
331
DF32
331
DD85
331
DD86
331
DD8E
331
DD8F
331
DD97
331
DD98
331
DDA0
331
DDA1
331
DDA9
331
DDAA
331
DDB2
331
DDB3
331
DDBE
331
DDBF
331
DD61
331
DD62
331
DD6A
331
DD6B
331
DD73
331
DD74
331
DD7C
331
DD7D
102
}
  0
BLOCK_RECORD
  5
D735
330
1
100
AcDbSymbolTableRecord
100
AcDbBlockTableRecord
  2
*D1
340
0
  0
BLOCK_RECORD
  5
D741
330
1
100
AcDbSymbolTableRecord
100
AcDbBlockTableRecord
  2
*D2
340
0
  0
BLOCK_RECORD
  5
D74D
330
1
100
AcDbSymbolTableRecord
100
AcDbBlockTableRecord
  2
*D3
340
0
  0
BLOCK_RECORD
  5
D759
330
1
100
AcDbSymbolTableRecord
100
AcDbBlockTableRecord
  2
*D4
340
0
  0
BLOCK_RECORD
  5
D767
330
1
100
AcDbSymbolTableRecord
100
AcDbBlockTableRecord
  2
*D5
340
0
  0
BLOCK_RECORD
  5
D775
330
1
100
AcDbSymbolTableRecord
100
AcDbBlockTableRecord
  2
*D6
340
0
  0
BLOCK_RECORD
  5
D781
330
1
100
AcDbSymbolTableRecord
100
AcDbBlockTableRecord
  2
*D7
340
0
  0
BLOCK_RECORD
  5
D78D
330
1
100
AcDbSymbolTableRecord
100
AcDbBlockTableRecord
  2
*D8
340
0
  0
BLOCK_RECORD
  5
D799
330
1
100
AcDbSymbolTableRecord
100
AcDbBlockTableRecord
  2
*D9
340
0
  0
BLOCK_RECORD
  5
D7A7
330
1
100
AcDbSymbolTableRecord
100
AcDbBlockTableRecord
  2
*D10
340
0
  0
BLOCK_RECORD
  5
D7B3
330
1
100
AcDbSymbolTableRecord
100
AcDbBlockTableRecord
  2
*D11
340
0
  0
ENDTAB
  0
ENDSEC
  0
SECTION
  2
BLOCKS
  0
BLOCK
  5
20
330
1F
100
AcDbEntity
  8
0
100
AcDbBlockBegin
  2
*Model_Space
 70
     0
 10
0.0
 20
0.0
 30
0.0
  3
*Model_Space
  1

  0
ENDBLK
  5
21
330
1F
100
AcDbEntity
  8
0
100
AcDbBlockEnd
  0
BLOCK
  5
1CD2
330
1CD0
100
AcDbEntity
 67
     1
  8
0
100
AcDbBlockBegin
  2
*Paper_Space
 70
     0
 10
0.0
 20
0.0
 30
0.0
  3
*Paper_Space
  1

  0
ENDBLK
  5
1CD3
330
1CD0
100
AcDbEntity
 67
     1
  8
0
100
AcDbBlockEnd
  0
BLOCK
  5
906
330
903
100
AcDbEntity
  8
0
100
AcDbBlockBegin
  2
_DOT
 70
     0
 10
0.0
 20
0.0
 30
0.0
  3
_DOT
  1

  0
LWPOLYLINE
  5
904
330
903
100
AcDbEntity
  8
0
  6
ByBlock
 62
     0
100
AcDbPolyline
 90
        2
 70
     1
 43
0.5
 10
-0.25
 20
0.0
 42
1.0
 10
0.25
 20
0.0
 42
1.0
  0
LINE
  5
905
330
903
100
AcDbEntity
  8
0
  6
ByBlock
 62
     0
100
AcDbLine
 10
-0.5
 20
0.0
 30
0.0
 11
-1.0
 21
0.0
 31
0.0
  0
ENDBLK
  5
907
330
903
100
AcDbEntity
  8
0
100
AcDbBlockEnd
  0
BLOCK
  5
D736
330
D735
100
AcDbEntity
  8
0
100
AcDbBlockBegin
  2
*D1
 70
     1
 10
0.0
 20
0.0
 30
0.0
  3
*D1
  1

  0
LINE
  5
DD5E
330
D735
100
AcDbEntity
  8
SUNPO
 62
     0
370
    -2
100
AcDbLine
 10
662.9903854000003
 20
266.0022360000003
 30
0.0
 11
662.9903854000003
 21
300.611666186006
 31
0.0
  0
LINE
  5
DD5F
330
D735
100
AcDbEntity
  8
SUNPO
 62
     0
370
    -2
100
AcDbLine
 10
643.9903854000004
 20
266.0022360000003
 30
0.0
 11
643.9903854000004
 21
300.611666186006
 31
0.0
  0
LINE
  5
DD60
330
D735
100
AcDbEntity
  8
SUNPO
 62
     0
370
    -2
100
AcDbLine
 10
659.7903854000003
 20
300.611666186006
 30
0.0
 11
647.1903854000004
 21
300.611666186006
 31
0.0
  0
INSERT
  5
DD61
330
D735
100
AcDbEntity
  8
SUNPO
 62
     0
370
    -2
100
AcDbBlockReference
  2
_DOT
 10
662.9903854000003
 20
300.611666186006
 30
0.0
 41
3.2
 42
3.2
 43
3.2
  0
INSERT
  5
DD62
330
D735
100
AcDbEntity
  8
SUNPO
 62
     0
370
    -2
100
AcDbBlockReference
  2
_DOT
 10
643.9903854000004
 20
300.611666186006
 30
0.0
 41
3.2
 42
3.2
 43
3.2
 50
180.0
  0
MTEXT
  5
DD63
330
D735
100
AcDbEntity
  8
SUNPO
 62
     0
100
AcDbMText
 10
653.4903854000003
 20
305.011666186006
 30
0.0
 40
8.0
 41
0.0
 71
     5
 72
     1
  1
\A1;19
  7
MSゴシック
 73
     1
 44
1.0
1001
ACAD
1000
MTEXTBEGIN
1070
    73
1070
     1
1070
    44
1040
1.0
1070
    74
1070
     0
1000
MTEXTEND
  0
POINT
  5
DD64
330
D735
100
AcDbEntity
  8
Defpoints
 62
     0
100
AcDbPoint
 10
662.9903854000003
 20
262.0022360000003
 30
0.0
  0
POINT
  5
DD65
330
D735
100
AcDbEntity
  8
Defpoints
 62
     0
100
AcDbPoint
 10
643.9903854000004
 20
262.0022360000003
 30
0.0
  0
POINT
  5
DD66
330
D735
100
AcDbEntity
  8
Defpoints
 62
     0
100
AcDbPoint
 10
643.9903854000004
 20
300.611666186006
 30
0.0
  0
ENDBLK
  5
D737
330
D735
100
AcDbEntity
  8
0
100
AcDbBlockEnd
  0
BLOCK
  5
D742
330
D741
100
AcDbEntity
  8
0
100
AcDbBlockBegin
  2
*D2
 70
     1
 10
0.0
 20
0.0
 30
0.0
  3
*D2
  1

  0
LINE
  5
DD67
330
D741
100
AcDbEntity
  8
SUNPO
 62
     0
370
    -2
100
AcDbLine
 10
643.9903854000004
 20
266.0022360000003
 30
0.0
 11
643.9903854000004
 21
300.611666186006
 31
0.0
  0
LINE
  5
DD68
330
D741
100
AcDbEntity
  8
SUNPO
 62
     0
370
    -2
100
AcDbLine
 10
453.9903854000003
 20
244.0022360000003
 30
0.0
 11
453.9903854000003
 21
300.611666186006
 31
0.0
  0
LINE
  5
DD69
330
D741
100
AcDbEntity
  8
SUNPO
 62
     0
370
    -2
100
AcDbLine
 10
640.7903854000003
 20
300.611666186006
 30
0.0
 11
457.1903854000003
 21
300.611666186006
 31
0.0
  0
INSERT
  5
DD6A
330
D741
100
AcDbEntity
  8
SUNPO
 62
     0
370
    -2
100
AcDbBlockReference
  2
_DOT
 10
643.9903854000004
 20
300.611666186006
 30
0.0
 41
3.2
 42
3.2
 43
3.2
  0
INSERT
  5
DD6B
330
D741
100
AcDbEntity
  8
SUNPO
 62
     0
370
    -2
100
AcDbBlockReference
  2
_DOT
 10
453.9903854000003
 20
300.611666186006
 30
0.0
 41
3.2
 42
3.2
 43
3.2
 50
180.0
  0
MTEXT
  5
DD6C
330
D741
100
AcDbEntity
  8
SUNPO
 62
     0
100
AcDbMText
 10
548.9903854000004
 20
305.011666186006
 30
0.0
 40
8.0
 41
0.0
 71
     5
 72
     1
  1
\A1;190
  7
MSゴシック
 73
     1
 44
1.0
1001
ACAD
1000
MTEXTBEGIN
1070
    73
1070
     1
1070
    44
1040
1.0
1070
    74
1070
     0
1000
MTEXTEND
  0
POINT
  5
DD6D
330
D741
100
AcDbEntity
  8
Defpoints
 62
     0
100
AcDbPoint
 10
643.9903854000004
 20
262.0022360000003
 30
0.0
  0
POINT
  5
DD6E
330
D741
100
AcDbEntity
  8
Defpoints
 62
     0
100
AcDbPoint
 10
453.9903854000003
 20
240.0022360000003
 30
0.0
  0
POINT
  5
DD6F
330
D741
100
AcDbEntity
  8
Defpoints
 62
     0
100
AcDbPoint
 10
453.9903854000003
 20
300.611666186006
 30
0.0
  0
ENDBLK
  5
D743
330
D741
100
AcDbEntity
  8
0
100
AcDbBlockEnd
  0
BLOCK
  5
D74E
330
D74D
100
AcDbEntity
  8
0
100
AcDbBlockBegin
  2
*D3
 70
     1
 10
0.0
 20
0.0
 30
0.0
  3
*D3
  1

  0
LINE
  5
DD70
330
D74D
100
AcDbEntity
  8
SUNPO
 62
     0
370
    -2
100
AcDbLine
 10
450.4903854000006
 20
182.0022360000003
 30
0.0
 11
401.467912431261
 21
182.0022360000003
 31
0.0
  0
LINE
  5
DD71
330
D74D
100
AcDbEntity
  8
SUNPO
 62
     0
370
    -2
100
AcDbLine
 10
450.4903854000006
 20
242.0022360000004
 30
0.0
 11
401.467912431261
 21
242.0022360000003
 31
0.0
  0
LINE
  5
DD72
330
D74D
100
AcDbEntity
  8
SUNPO
 62
     0
370
    -2
100
AcDbLine
 10
401.467912431261
 20
185.2022360000003
 30
0.0
 11
401.467912431261
 21
238.8022360000004
 31
0.0
  0
INSERT
  5
DD73
330
D74D
100
AcDbEntity
  8
SUNPO
 62
     0
370
    -2
100
AcDbBlockReference
  2
_DOT
 10
401.467912431261
 20
182.0022360000003
 30
0.0
 41
3.2
 42
3.2
 43
3.2
 50
270.0
  0
INSERT
  5
DD74
330
D74D
100
AcDbEntity
  8
SUNPO
 62
     0
370
    -2
100
AcDbBlockReference
  2
_DOT
 10
401.467912431261
 20
242.0022360000003
 30
0.0
 41
3.2
 42
3.2
 43
3.2
 50
90.0
  0
MTEXT
  5
DD75
330
D74D
100
AcDbEntity
  8
SUNPO
 62
     0
100
AcDbMText
 10
397.067912431261
 20
212.0022360000002
 30
0.0
 40
8.0
 41
0.0
 71
     5
 72
     1
  1
\A1;60
  7
MSゴシック
 11
0.0000000000000001
 21
1.0
 31
0.0
 73
     1
 44
1.0
1001
ACAD
1000
MTEXTBEGIN
1070
    73
1070
     1
1070
    44
1040
1.0
1070
    74
1070
     0
1000
MTEXTEND
  0
POINT
  5
DD76
330
D74D
100
AcDbEntity
  8
Defpoints
 62
     0
100
AcDbPoint
 10
454.4903854000006
 20
182.0022360000003
 30
0.0
  0
POINT
  5
DD77
330
D74D
100
AcDbEntity
  8
Defpoints
 62
     0
100
AcDbPoint
 10
454.4903854000006
 20
242.0022360000004
 30
0.0
  0
POINT
  5
DD78
330
D74D
100
AcDbEntity
  8
Defpoints
 62
     0
100
AcDbPoint
 10
401.467912431261
 20
242.0022360000003
 30
0.0
  0
ENDBLK
  5
D74F
330
D74D
100
AcDbEntity
  8
0
100
AcDbBlockEnd
  0
BLOCK
  5
D75A
330
D759
100
AcDbEntity
  8
0
100
AcDbBlockBegin
  2
*D4
 70
     1
 10
0.0
 20
0.0
 30
0.0
  3
*D4
  1

  0
LINE
  5
DD79
330
D759
100
AcDbEntity
  8
SUNPO
 62
     0
370
    -2
100
AcDbLine
 10
450.4903854000006
 20
242.0022360000004
 30
0.0
 11
401.467912431261
 21
242.0022360000003
 31
0.0
  0
LINE
  5
DD7A
330
D759
100
AcDbEntity
  8
SUNPO
 62
     0
370
    -2
100
AcDbLine
 10
547.9903854000006
 20
252.0022360000004
 30
0.0
 11
401.467912431261
 21
252.0022360000004
 31
0.0
  0
LINE
  5
DD7B
330
D759
100
AcDbEntity
  8
SUNPO
 62
     0
370
    -2
100
AcDbLine
 10
401.467912431261
 20
245.2022360000003
 30
0.0
 11
401.467912431261
 21
248.8022360000003
 31
0.0
  0
INSERT
  5
DD7C
330
D759
100
AcDbEntity
  8
SUNPO
 62
     0
370
    -2
100
AcDbBlockReference
  2
_DOT
 10
401.467912431261
 20
242.0022360000003
 30
0.0
 41
3.2
 42
3.2
 43
3.2
 50
270.0
  0
INSERT
  5
DD7D
330
D759
100
AcDbEntity
  8
SUNPO
 62
     0
370
    -2
100
AcDbBlockReference
  2
_DOT
 10
401.467912431261
 20
252.0022360000004
 30
0.0
 41
3.2
 42
3.2
 43
3.2
 50
90.0
  0
MTEXT
  5
DD7E
330
D759
100
AcDbEntity
  8
SUNPO
 62
     0
100
AcDbMText
 10
397.067912431261
 20
247.0022360000002
 30
0.0
 40
8.0
 41
0.0
 71
     5
 72
     1
  1
\A1;10
  7
MSゴシック
 11
0.0000000000000001
 21
1.0
 31
0.0
 73
     1
 44
1.0
1001
ACAD
1000
MTEXTBEGIN
1070
    73
1070
     1
1070
    44
1040
1.0
1070
    74
1070
     0
1000
MTEXTEND
  0
POINT
  5
DD7F
330
D759
100
AcDbEntity
  8
Defpoints
 62
     0
100
AcDbPoint
 10
454.4903854000006
 20
242.0022360000004
 30
0.0
  0
POINT
  5
DD80
330
D759
100
AcDbEntity
  8
Defpoints
 62
     0
100
AcDbPoint
 10
551.9903854000006
 20
252.0022360000004
 30
0.0
  0
POINT
  5
DD81
330
D759
100
AcDbEntity
  8
Defpoints
 62
     0
100
AcDbPoint
 10
401.467912431261
 20
252.0022360000004
 30
0.0
  0
ENDBLK
  5
D75B
330
D759
100
AcDbEntity
  8
0
100
AcDbBlockEnd
  0
BLOCK
  5
D768
330
D767
100
AcDbEntity
  8
0
100
AcDbBlockBegin
  2
*D5
 70
     1
 10
0.0
 20
0.0
 30
0.0
  3
*D5
  1

  0
LINE
  5
DD82
330
D767
100
AcDbEntity
  8
SUNPO
 62
     0
370
    -2
100
AcDbLine
 10
547.9903854000006
 20
252.0022360000004
 30
0.0
 11
401.467912431261
 21
252.0022360000004
 31
0.0
  0
LINE
  5
DD83
330
D767
100
AcDbEntity
  8
SUNPO
 62
     0
370
    -2
100
AcDbLine
 10
549.9903854000006
 20
262.0022360000004
 30
0.0
 11
401.467912431261
 21
262.0022360000004
 31
0.0
  0
LINE
  5
DD84
330
D767
100
AcDbEntity
  8
SUNPO
 62
     0
370
    -2
100
AcDbLine
 10
401.467912431261
 20
255.2022360000004
 30
0.0
 11
401.467912431261
 21
258.8022360000004
 31
0.0
  0
INSERT
  5
DD85
330
D767
100
AcDbEntity
  8
SUNPO
 62
     0
370
    -2
100
AcDbBlockReference
  2
_DOT
 10
401.467912431261
 20
252.0022360000004
 30
0.0
 41
3.2
 42
3.2
 43
3.2
 50
270.0
  0
INSERT
  5
DD86
330
D767
100
AcDbEntity
  8
SUNPO
 62
     0
370
    -2
100
AcDbBlockReference
  2
_DOT
 10
401.467912431261
 20
262.0022360000004
 30
0.0
 41
3.2
 42
3.2
 43
3.2
 50
90.0
  0
MTEXT
  5
DD87
330
D767
100
AcDbEntity
  8
SUNPO
 62
     0
100
AcDbMText
 10
397.067912431261
 20
257.0022360000002
 30
0.0
 40
8.0
 41
0.0
 71
     5
 72
     1
  1
\A1;10
  7
MSゴシック
 11
0.0000000000000001
 21
1.0
 31
0.0
 73
     1
 44
1.0
1001
ACAD
1000
MTEXTBEGIN
1070
    73
1070
     1
1070
    44
1040
1.0
1070
    74
1070
     0
1000
MTEXTEND
  0
POINT
  5
DD88
330
D767
100
AcDbEntity
  8
Defpoints
 62
     0
100
AcDbPoint
 10
551.9903854000006
 20
252.0022360000004
 30
0.0
  0
POINT
  5
DD89
330
D767
100
AcDbEntity
  8
Defpoints
 62
     0
100
AcDbPoint
 10
553.9903854000006
 20
262.0022360000004
 30
0.0
  0
POINT
  5
DD8A
330
D767
100
AcDbEntity
  8
Defpoints
 62
     0
100
AcDbPoint
 10
401.467912431261
 20
262.0022360000004
 30
0.0
  0
ENDBLK
  5
D769
330
D767
100
AcDbEntity
  8
0
100
AcDbBlockEnd
  0
BLOCK
  5
D776
330
D775
100
AcDbEntity
  8
0
100
AcDbBlockBegin
  2
*D6
 70
     1
 10
0.0
 20
0.0
 30
0.0
  3
*D6
  1

  0
LINE
  5
DD8B
330
D775
100
AcDbEntity
  8
SUNPO
 62
     0
370
    -2
100
AcDbLine
 10
551.4903854000003
 20
267.2083333333339
 30
0.0
 11
551.4903854000003
 21
290.1304868328357
 31
0.0
  0
LINE
  5
DD8C
330
D775
100
AcDbEntity
  8
SUNPO
 62
     0
370
    -2
100
AcDbLine
 10
643.9903854000004
 20
266.0022360000003
 30
0.0
 11
643.9903854000004
 21
290.1304868328357
 31
0.0
  0
LINE
  5
DD8D
330
D775
100
AcDbEntity
  8
SUNPO
 62
     0
370
    -2
100
AcDbLine
 10
554.6903854000004
 20
290.1304868328357
 30
0.0
 11
640.7903854000003
 21
290.1304868328357
 31
0.0
  0
INSERT
  5
DD8E
330
D775
100
AcDbEntity
  8
SUNPO
 62
     0
370
    -2
100
AcDbBlockReference
  2
_DOT
 10
551.4903854000003
 20
290.1304868328357
 30
0.0
 41
3.2
 42
3.2
 43
3.2
 50
180.0
  0
INSERT
  5
DD8F
330
D775
100
AcDbEntity
  8
SUNPO
 62
     0
370
    -2
100
AcDbBlockReference
  2
_DOT
 10
643.9903854000004
 20
290.1304868328357
 30
0.0
 41
3.2
 42
3.2
 43
3.2
  0
MTEXT
  5
DD90
330
D775
100
AcDbEntity
  8
SUNPO
 62
     0
100
AcDbMText
 10
597.7403854000003
 20
294.5304868328356
 30
0.0
 40
8.0
 41
0.0
 71
     5
 72
     1
  1
\A1;93
  7
MSゴシック
 73
     1
 44
1.0
1001
ACAD
1000
MTEXTBEGIN
1070
    73
1070
     1
1070
    44
1040
1.0
1070
    74
1070
     0
1000
MTEXTEND
  0
POINT
  5
DD91
330
D775
100
AcDbEntity
  8
Defpoints
 62
     0
100
AcDbPoint
 10
551.4903854000003
 20
263.2083333333339
 30
0.0
  0
POINT
  5
DD92
330
D775
100
AcDbEntity
  8
Defpoints
 62
     0
100
AcDbPoint
 10
643.9903854000004
 20
262.0022360000003
 30
0.0
  0
POINT
  5
DD93
330
D775
100
AcDbEntity
  8
Defpoints
 62
     0
100
AcDbPoint
 10
643.9903854000004
 20
290.1304868328357
 30
0.0
  0
ENDBLK
  5
D777
330
D775
100
AcDbEntity
  8
0
100
AcDbBlockEnd
  0
BLOCK
  5
D782
330
D781
100
AcDbEntity
  8
0
100
AcDbBlockBegin
  2
*D7
 70
     1
 10
0.0
 20
0.0
 30
0.0
  3
*D7
  1

  0
LINE
  5
DD94
330
D781
100
AcDbEntity
  8
SUNPO
 62
     0
370
    -2
100
AcDbLine
 10
660.6903854000013
 20
228.0022359999999
 30
0.0
 11
681.8995095727228
 21
228.0022359999999
 31
0.0
  0
LINE
  5
DD95
330
D781
100
AcDbEntity
  8
SUNPO
 62
     0
370
    -2
100
AcDbLine
 10
666.9903854000006
 20
262.0022360000004
 30
0.0
 11
681.8995095727228
 21
262.0022360000004
 31
0.0
  0
LINE
  5
DD96
330
D781
100
AcDbEntity
  8
SUNPO
 62
     0
370
    -2
100
AcDbLine
 10
681.8995095727228
 20
231.2022359999999
 30
0.0
 11
681.8995095727228
 21
258.8022360000004
 31
0.0
  0
INSERT
  5
DD97
330
D781
100
AcDbEntity
  8
SUNPO
 62
     0
370
    -2
100
AcDbBlockReference
  2
_DOT
 10
681.8995095727228
 20
228.0022359999999
 30
0.0
 41
3.2
 42
3.2
 43
3.2
 50
270.0
  0
INSERT
  5
DD98
330
D781
100
AcDbEntity
  8
SUNPO
 62
     0
370
    -2
100
AcDbBlockReference
  2
_DOT
 10
681.8995095727228
 20
262.0022360000004
 30
0.0
 41
3.2
 42
3.2
 43
3.2
 50
90.0
  0
MTEXT
  5
DD99
330
D781
100
AcDbEntity
  8
SUNPO
 62
     0
100
AcDbMText
 10
686.2995095727227
 20
245.0022359999999
 30
0.0
 40
8.0
 41
0.0
 71
     5
 72
     1
  1
\A1;34
  7
MSゴシック
 11
0.0000000000000001
 21
1.0
 31
0.0
 73
     1
 44
1.0
1001
ACAD
1000
MTEXTBEGIN
1070
    73
1070
     1
1070
    44
1040
1.0
1070
    74
1070
     0
1000
MTEXTEND
  0
POINT
  5
DD9A
330
D781
100
AcDbEntity
  8
Defpoints
 62
     0
100
AcDbPoint
 10
656.6903854000013
 20
228.0022359999999
 30
0.0
  0
POINT
  5
DD9B
330
D781
100
AcDbEntity
  8
Defpoints
 62
     0
100
AcDbPoint
 10
662.9903854000006
 20
262.0022360000004
 30
0.0
  0
POINT
  5
DD9C
330
D781
100
AcDbEntity
  8
Defpoints
 62
     0
100
AcDbPoint
 10
681.8995095727228
 20
262.0022360000004
 30
0.0
  0
ENDBLK
  5
D783
330
D781
100
AcDbEntity
  8
0
100
AcDbBlockEnd
  0
BLOCK
  5
D78E
330
D78D
100
AcDbEntity
  8
0
100
AcDbBlockBegin
  2
*D8
 70
     1
 10
0.0
 20
0.0
 30
0.0
  3
*D8
  1

  0
LINE
  5
DD9D
330
D78D
100
AcDbEntity
  8
SUNPO
 62
     0
370
    -2
100
AcDbLine
 10
463.6092088163116
 20
228.0022360000002
 30
0.0
 11
419.6699714979772
 21
228.0022360000001
 31
0.0
  0
LINE
  5
DD9E
330
D78D
100
AcDbEntity
  8
SUNPO
 62
     0
370
    -2
100
AcDbLine
 10
450.4903854000006
 20
182.0022360000003
 30
0.0
 11
419.6699714979772
 21
182.0022360000003
 31
0.0
  0
LINE
  5
DD9F
330
D78D
100
AcDbEntity
  8
SUNPO
 62
     0
370
    -2
100
AcDbLine
 10
419.6699714979772
 20
224.8022360000001
 30
0.0
 11
419.6699714979772
 21
185.2022360000003
 31
0.0
  0
INSERT
  5
DDA0
330
D78D
100
AcDbEntity
  8
SUNPO
 62
     0
370
    -2
100
AcDbBlockReference
  2
_DOT
 10
419.6699714979772
 20
228.0022360000001
 30
0.0
 41
3.2
 42
3.2
 43
3.2
 50
90.0
  0
INSERT
  5
DDA1
330
D78D
100
AcDbEntity
  8
SUNPO
 62
     0
370
    -2
100
AcDbBlockReference
  2
_DOT
 10
419.6699714979772
 20
182.0022360000003
 30
0.0
 41
3.2
 42
3.2
 43
3.2
 50
270.0
  0
MTEXT
  5
DDA2
330
D78D
100
AcDbEntity
  8
SUNPO
 62
     0
100
AcDbMText
 10
415.2699714979772
 20
205.0022360000001
 30
0.0
 40
8.0
 41
0.0
 71
     5
 72
     1
  1
\A1;46
  7
MSゴシック
 11
0.0000000000000001
 21
1.0
 31
0.0
 73
     1
 44
1.0
1001
ACAD
1000
MTEXTBEGIN
1070
    73
1070
     1
1070
    44
1040
1.0
1070
    74
1070
     0
1000
MTEXTEND
  0
POINT
  5
DDA3
330
D78D
100
AcDbEntity
  8
Defpoints
 62
     0
100
AcDbPoint
 10
467.6092088163115
 20
228.0022360000002
 30
0.0
  0
POINT
  5
DDA4
330
D78D
100
AcDbEntity
  8
Defpoints
 62
     0
100
AcDbPoint
 10
454.4903854000006
 20
182.0022360000003
 30
0.0
  0
POINT
  5
DDA5
330
D78D
100
AcDbEntity
  8
Defpoints
 62
     0
100
AcDbPoint
 10
419.6699714979772
 20
182.0022360000003
 30
0.0
  0
ENDBLK
  5
D78F
330
D78D
100
AcDbEntity
  8
0
100
AcDbBlockEnd
  0
BLOCK
  5
D79A
330
D799
100
AcDbEntity
  8
0
100
AcDbBlockBegin
  2
*D9
 70
     1
 10
0.0
 20
0.0
 30
0.0
  3
*D9
  1

  0
LINE
  5
DDB8
330
D799
100
AcDbEntity
  8
SUNPO
 62
     0
370
    -2
100
AcDbLine
 10
532.6133593123918
 20
246.1843090804461
 30
0.0
 11
532.1279665544972
 21
246.1584903167282
 31
0.0
  0
LINE
  5
DDB9
330
D799
100
AcDbEntity
  8
SUNPO
 62
     0
370
    -2
100
AcDbLine
 10
532.7195921132
 20
244.1871324252567
 30
0.0
 11
532.2341993553055
 21
244.1613136615389
 31
0.0
  0
LINE
  5
DDBA
330
D799
100
AcDbEntity
  8
SUNPO
 62
     0
370
    -2
100
AcDbLine
 10
531.9579940732038
 20
249.3539729650308
 30
0.0
 11
531.7880215919106
 21
252.5494556133335
 31
0.0
  0
LINE
  5
DDBB
330
D799
100
AcDbEntity
  8
SUNPO
 62
     0
370
    -2
100
AcDbLine
 10
532.4041718365989
 20
240.9658310132363
 30
0.0
 11
532.5741443178923
 21
237.7703483649336
 31
0.0
  0
MTEXT
  5
DDBC
330
D799
100
AcDbEntity
  8
SUNPO
 62
     0
100
AcDbMText
 10
536.6208606897047
 20
254.9064052253446
 30
0.0
 40
8.0
 41
0.0
 71
     5
 72
     1
  1
\A1;2
  7
MSゴシック
 11
0.0531164004041723
 21
-0.9985883275945617
 31
0.0
 73
     1
 44
1.0
1001
ACAD
1000
MTEXTBEGIN
1070
    73
1070
     1
1070
    44
1040
1.0
1070
    74
1070
     0
1000
MTEXTEND
  0
LINE
  5
DDBD
330
D799
100
AcDbEntity
  8
SUNPO
 62
     0
370
    -2
100
AcDbLine
 10
532.1279665544972
 20
246.1584903167282
 30
0.0
 11
532.2341993553055
 21
244.1613136615389
 31
0.0
  0
INSERT
  5
DDBE
330
D799
100
AcDbEntity
  8
SUNPO
 62
     0
370
    -2
100
AcDbBlockReference
  2
_DOT
 10
532.1279665544972
 20
246.1584903167282
 30
0.0
 41
3.2
 42
3.2
 43
3.2
 50
273.0447784442057
  0
INSERT
  5
DDBF
330
D799
100
AcDbEntity
  8
SUNPO
 62
     0
370
    -2
100
AcDbBlockReference
  2
_DOT
 10
532.2341993553055
 20
244.1613136615389
 30
0.0
 41
3.2
 42
3.2
 43
3.2
 50
93.0447784442058
  0
POINT
  5
DDC0
330
D799
100
AcDbEntity
  8
Defpoints
 62
     0
100
AcDbPoint
 10
536.60771262277
 20
246.3967746820628
 30
0.0
  0
POINT
  5
DDC1
330
D799
100
AcDbEntity
  8
Defpoints
 62
     0
100
AcDbPoint
 10
536.7139454235782
 20
244.3995980268734
 30
0.0
  0
POINT
  5
DDC2
330
D799
100
AcDbEntity
  8
Defpoints
 62
     0
100
AcDbPoint
 10
532.2341993553055
 20
244.1613136615389
 30
0.0
  0
ENDBLK
  5
D79B
330
D799
100
AcDbEntity
  8
0
100
AcDbBlockEnd
  0
BLOCK
  5
D7A8
330
D7A7
100
AcDbEntity
  8
0
100
AcDbBlockBegin
  2
*D10
 70
     1
 10
0.0
 20
0.0
 30
0.0
  3
*D10
  1

  0
LINE
  5
DDA6
330
D7A7
100
AcDbEntity
  8
SUNPO
 62
     0
370
    -2
100
AcDbLine
 10
511.4903854000004
 20
240.4022360000003
 30
0.0
 11
511.4903854000004
 21
279.2717661527631
 31
0.0
  0
LINE
  5
DDA7
330
D7A7
100
AcDbEntity
  8
SUNPO
 62
     0
370
    -2
100
AcDbLine
 10
551.4903854000003
 20
267.2083333333339
 30
0.0
 11
551.4903854000003
 21
279.2717661527631
 31
0.0
  0
LINE
  5
DDA8
330
D7A7
100
AcDbEntity
  8
SUNPO
 62
     0
370
    -2
100
AcDbLine
 10
514.6903854000004
 20
279.2717661527631
 30
0.0
 11
548.2903854000003
 21
279.2717661527631
 31
0.0
  0
INSERT
  5
DDA9
330
D7A7
100
AcDbEntity
  8
SUNPO
 62
     0
370
    -2
100
AcDbBlockReference
  2
_DOT
 10
511.4903854000004
 20
279.2717661527631
 30
0.0
 41
3.2
 42
3.2
 43
3.2
 50
180.0
  0
INSERT
  5
DDAA
330
D7A7
100
AcDbEntity
  8
SUNPO
 62
     0
370
    -2
100
AcDbBlockReference
  2
_DOT
 10
551.4903854000003
 20
279.2717661527631
 30
0.0
 41
3.2
 42
3.2
 43
3.2
  0
MTEXT
  5
DDAB
330
D7A7
100
AcDbEntity
  8
SUNPO
 62
     0
100
AcDbMText
 10
531.4903854000004
 20
283.6717661527631
 30
0.0
 40
8.0
 41
0.0
 71
     5
 72
     1
  1
\A1;40
  7
MSゴシック
 73
     1
 44
1.0
1001
ACAD
1000
MTEXTBEGIN
1070
    73
1070
     1
1070
    44
1040
1.0
1070
    74
1070
     0
1000
MTEXTEND
  0
POINT
  5
DDAC
330
D7A7
100
AcDbEntity
  8
Defpoints
 62
     0
100
AcDbPoint
 10
511.4903854000004
 20
236.4022360000003
 30
0.0
  0
POINT
  5
DDAD
330
D7A7
100
AcDbEntity
  8
Defpoints
 62
     0
100
AcDbPoint
 10
551.4903854000003
 20
263.2083333333339
 30
0.0
  0
POINT
  5
DDAE
330
D7A7
100
AcDbEntity
  8
Defpoints
 62
     0
100
AcDbPoint
 10
551.4903854000003
 20
279.2717661527631
 30
0.0
  0
ENDBLK
  5
D7A9
330
D7A7
100
AcDbEntity
  8
0
100
AcDbBlockEnd
  0
BLOCK
  5
D7B4
330
D7B3
100
AcDbEntity
  8
0
100
AcDbBlockBegin
  2
*D11
 70
     1
 10
0.0
 20
0.0
 30
0.0
  3
*D11
  1

  0
LINE
  5
DDAF
330
D7B3
100
AcDbEntity
  8
SUNPO
 62
     0
370
    -2
100
AcDbLine
 10
551.4903854000003
 20
267.2083333333339
 30
0.0
 11
551.4903854000003
 21
279.2717661527631
 31
0.0
  0
LINE
  5
DDB0
330
D7B3
100
AcDbEntity
  8
SUNPO
 62
     0
370
    -2
100
AcDbLine
 10
591.4903853999994
 20
240.4022360000001
 30
0.0
 11
591.4903853999994
 21
279.2717661527631
 31
0.0
  0
LINE
  5
DDB1
330
D7B3
100
AcDbEntity
  8
SUNPO
 62
     0
370
    -2
100
AcDbLine
 10
554.6903854000004
 20
279.2717661527631
 30
0.0
 11
588.2903853999994
 21
279.2717661527631
 31
0.0
  0
INSERT
  5
DDB2
330
D7B3
100
AcDbEntity
  8
SUNPO
 62
     0
370
    -2
100
AcDbBlockReference
  2
_DOT
 10
551.4903854000003
 20
279.2717661527631
 30
0.0
 41
3.2
 42
3.2
 43
3.2
 50
180.0
  0
INSERT
  5
DDB3
330
D7B3
100
AcDbEntity
  8
SUNPO
 62
     0
370
    -2
100
AcDbBlockReference
  2
_DOT
 10
591.4903853999994
 20
279.2717661527631
 30
0.0
 41
3.2
 42
3.2
 43
3.2
  0
MTEXT
  5
DDB4
330
D7B3
100
AcDbEntity
  8
SUNPO
 62
     0
100
AcDbMText
 10
571.4903853999999
 20
283.6717661527631
 30
0.0
 40
8.0
 41
0.0
 71
     5
 72
     1
  1
\A1;40
  7
MSゴシック
 73
     1
 44
1.0
1001
ACAD
1000
MTEXTBEGIN
1070
    73
1070
     1
1070
    44
1040
1.0
1070
    74
1070
     0
1000
MTEXTEND
  0
POINT
  5
DDB5
330
D7B3
100
AcDbEntity
  8
Defpoints
 62
     0
100
AcDbPoint
 10
551.4903854000003
 20
263.2083333333339
 30
0.0
  0
POINT
  5
DDB6
330
D7B3
100
AcDbEntity
  8
Defpoints
 62
     0
100
AcDbPoint
 10
591.4903853999994
 20
236.4022360000001
 30
0.0
  0
POINT
  5
DDB7
330
D7B3
100
AcDbEntity
  8
Defpoints
 62
     0
100
AcDbPoint
 10
591.4903853999994
 20
279.2717661527631
 30
0.0
  0
ENDBLK
  5
D7B5
330
D7B3
100
AcDbEntity
  8
0
100
AcDbBlockEnd
  0
ENDSEC
  0
SECTION
  2
ENTITIES
  0
TEXT
  5
D6C8
330
1F
100
AcDbEntity
  8
moji
100
AcDbText
 10
549.5006613999994
 20
389.0
 30
0.0
 40
8.0
  1
(厚さx有効幅x長さ)
  7
MSゴシック
100
AcDbText
  0
LINE
  5
D6C9
330
1F
100
AcDbEntity
  8
moji
100
AcDbLine
 10
309.5006613999994
 20
428.0
 30
0.0
 11
794.5006613999994
 21
428.0
 31
0.0
  0
LINE
  5
D6CA
330
1F
100
AcDbEntity
  8
moji
100
AcDbLine
 10
389.5006613999994
 20
414.0
 30
0.0
 11
794.5006613999994
 21
414.0
 31
0.0
  0
LINE
  5
D6CB
330
1F
100
AcDbEntity
  8
moji
100
AcDbLine
 10
309.5006613999994
 20
386.0
 30
0.0
 11
794.5006613999994
 21
386.0
 31
0.0
  0
LINE
  5
D6CC
330
1F
100
AcDbEntity
  8
moji
100
AcDbLine
 10
309.5006613999994
 20
372.0
 30
0.0
 11
794.5006613999994
 21
372.0
 31
0.0
  0
LINE
  5
D6CE
330
1F
100
AcDbEntity
  8
kijun
  6
CENTER
100
AcDbLine
 10
551.4903854000003
 20
263.2083333333339
 30
0.0
 11
551.4903854000003
 21
155.3546883395138
 31
0.0
  0
LINE
  5
D6CF
330
1F
100
AcDbEntity
  8
KANAMONO_SCREW
 48
20.0
100
AcDbLine
 10
597.0033314000001
 20
185.1601550000014
 30
0.0
 11
593.5081284623484
 21
184.9769791381495
 31
0.0
  0
LINE
  5
D6D0
330
1F
100
AcDbEntity
  8
KANAMONO_SCREW
 48
20.0
100
AcDbLine
 10
585.9774393999996
 20
185.1601550000014
 30
0.0
 11
589.4726432764746
 21
184.9769792018505
 31
0.0
  0
LINE
  5
D6D2
330
1F
100
AcDbEntity
  8
KANAMONO_SCREW
100
AcDbLine
 10
595.4903854000003
 20
216.9372359999997
 30
0.0
 11
595.4903854000003
 21
221.9372359999998
 31
0.0
  0
LINE
  5
D6D4
330
1F
100
AcDbEntity
  8
KANAMONO_SCREW
100
AcDbLine
 10
593.9983854000002
 20
232.9932360000003
 30
0.0
 11
593.9983854000002
 21
221.9372359999998
 31
0.0
  0
LINE
  5
D6D5
330
1F
100
AcDbEntity
  8
KANAMONO_SCREW
100
AcDbLine
 10
592.9983854000002
 20
232.9932360000003
 30
0.0
 11
592.9983854000002
 21
221.9372359999998
 31
0.0
  0
LINE
  5
D6D6
330
1F
100
AcDbEntity
  8
KANAMONO_SCREW
100
AcDbLine
 10
590.4903854000004
 20
221.9372359999998
 30
0.0
 11
591.4903854000003
 21
216.9372359999997
 31
0.0
  0
LINE
  5
D6D7
330
1F
100
AcDbEntity
  8
KANAMONO_SCREW
100
AcDbLine
 10
587.4903854000003
 20
216.9372359999997
 30
0.0
 11
587.4903854000003
 21
221.9372359999998
 31
0.0
  0
LINE
  5
D6D8
330
1F
100
AcDbEntity
  8
KANAMONO_SCREW
100
AcDbLine
 10
591.4903854000003
 20
216.9372359999997
 30
0.0
 11
591.4903854000003
 21
221.9372359999998
 31
0.0
  0
LINE
  5
D6DA
330
1F
100
AcDbEntity
  8
KANAMONO_SCREW
100
AcDbLine
 10
588.9983854000002
 20
232.9932360000003
 30
0.0
 11
588.9983854000002
 21
221.9372359999998
 31
0.0
  0
LINE
  5
D6DB
330
1F
100
AcDbEntity
  8
KANAMONO_SCREW
100
AcDbLine
 10
589.9983854000002
 20
232.9932360000003
 30
0.0
 11
589.9983854000002
 21
221.9372359999998
 31
0.0
  0
LINE
  5
D6DD
330
1F
100
AcDbEntity
  8
KANAMONO_SCREW
100
AcDbLine
 10
592.4903854000003
 20
221.9372359999998
 30
0.0
 11
591.4903854000003
 21
216.9372359999997
 31
0.0
  0
LINE
  5
D6E0
330
1F
100
AcDbEntity
  8
moji
100
AcDbLine
 10
544.5006613999994
 20
372.0
 30
0.0
 11
544.5006613999994
 21
414.0
 31
0.0
  0
TEXT
  5
D6E1
330
1F
100
AcDbEntity
  8
moji
100
AcDbText
 10
549.5006613999994
 20
403.0
 30
0.0
 40
8.0
  1
力板
  7
MSゴシック
100
AcDbText
  0
TEXT
  5
D6E2
330
1F
100
AcDbEntity
  8
moji
100
AcDbText
 10
549.5006613999994
 20
375.0
 30
0.0
 40
8.0
  1
3.0~4.0x198.3x50
  7
MSゴシック
100
AcDbText
  0
TEXT
  5
D6E3
330
1F
100
AcDbEntity
  8
moji
100
AcDbText
 10
429.5006613999994
 20
389.0
 30
0.0
 40
8.0
  1
外形
  7
MSゴシック
100
AcDbText
  0
LINE
  5
D6E4
330
1F
100
AcDbEntity
  8
moji
100
AcDbLine
 10
459.5006613999994
 20
372.0
 30
0.0
 11
459.5006613999994
 21
414.0
 31
0.0
  0
LINE
  5
D6E5
330
1F
100
AcDbEntity
  8
moji
100
AcDbLine
 10
424.5006613999994
 20
372.0
 30
0.0
 11
424.5006613999994
 21
414.0
 31
0.0
  0
TEXT
  5
D6E6
330
1F
100
AcDbEntity
  8
moji
100
AcDbText
 10
429.5006613999994
 20
403.0
 30
0.0
 40
8.0
  1
幅
  7
MSゴシック
100
AcDbText
  0
TEXT
  5
D6E7
330
1F
100
AcDbEntity
  8
moji
100
AcDbText
 10
429.5006613999994
 20
375.0
 30
0.0
 40
8.0
  1
190
  7
MSゴシック
100
AcDbText
  0
TEXT
  5
D6E8
330
1F
100
AcDbEntity
  8
moji
100
AcDbText
 10
464.5006613999994
 20
375.0
 30
0.0
 40
8.0
  1
2.0
  7
MSゴシック
100
AcDbText
  0
TEXT
  5
D6E9
330
1F
100
AcDbEntity
  8
moji
100
AcDbText
 10
464.5006613999994
 20
403.0
 30
0.0
 40
8.0
  1
厚さ
  7
MSゴシック
100
AcDbText
  0
LINE
  5
D6EA
330
1F
100
AcDbEntity
  8
moji
100
AcDbLine
 10
494.5006613999994
 20
372.0
 30
0.0
 11
494.5006613999994
 21
414.0
 31
0.0
  0
TEXT
  5
D6EB
330
1F
100
AcDbEntity
  8
moji
100
AcDbText
 10
499.5006613999994
 20
375.0
 30
0.0
 40
8.0
  1
60
  7
MSゴシック
100
AcDbText
  0
TEXT
  5
D6EC
330
1F
100
AcDbEntity
  8
moji
100
AcDbText
 10
499.5006613999994
 20
389.0
 30
0.0
 40
8.0
  1
（見付）
  7
MSゴシック
100
AcDbText
  0
TEXT
  5
D6ED
330
1F
100
AcDbEntity
  8
moji
100
AcDbText
 10
499.5006613999994
 20
403.0
 30
0.0
 40
8.0
  1
高さ
  7
MSゴシック
100
AcDbText
  0
LINE
  5
D6EE
330
1F
100
AcDbEntity
  8
moji
100
AcDbLine
 10
389.5006613999994
 20
372.0
 30
0.0
 11
389.5006613999994
 21
428.0
 31
0.0
  0
LINE
  5
D6EF
330
1F
100
AcDbEntity
  8
moji
100
AcDbLine
 10
309.5006613999994
 20
372.0
 30
0.0
 11
309.5006613999994
 21
428.0
 31
0.0
  0
TEXT
  5
D6F0
330
1F
100
AcDbEntity
  8
moji
100
AcDbText
 10
314.5006613999994
 20
375.0
 30
0.0
 40
8.0
  1
150～175mm
  7
MSゴシック
100
AcDbText
  0
TEXT
  5
D6F1
330
1F
100
AcDbEntity
  8
moji
100
AcDbText
 10
314.5006613999994
 20
389.0
 30
0.0
 40
8.0
  1
パラペットの幅
  7
MSゴシック
100
AcDbText
  0
TEXT
  5
D6F2
330
1F
100
AcDbEntity
  8
moji
100
AcDbText
 10
314.5006613999994
 20
529.0
 30
0.0
 40
8.0
  1
ライナーキープＳ190
  7
MSゴシック
100
AcDbText
  0
TEXT
  5
D6F3
330
1F
100
AcDbEntity
  8
moji
100
AcDbText
 10
394.5006613999995
 20
417.0
 30
0.0
 40
8.0
  1
規格寸法
  7
MSゴシック
100
AcDbText
  0
TEXT
  5
D6F4
330
1F
100
AcDbEntity
  8
moji
100
AcDbText
 10
394.5006613999995
 20
403.0
 30
0.0
 40
8.0
  1
長さ
  7
MSゴシック
100
AcDbText
  0
TEXT
  5
D6F5
330
1F
100
AcDbEntity
  8
moji
100
AcDbText
 10
394.5006613999995
 20
375.0
 30
0.0
 40
8.0
  1
3000
  7
MSゴシック
100
AcDbText
  0
LINE
  5
D6F6
330
1F
100
AcDbEntity
  8
moji
100
AcDbLine
 10
794.5006613999994
 20
372.0
 30
0.0
 11
794.5006613999994
 21
428.0
 31
0.0
  0
LINE
  5
D6F7
330
1F
100
AcDbEntity
  8
moji
100
AcDbLine
 10
729.5006613999994
 20
372.0
 30
0.0
 11
729.5006613999994
 21
414.0
 31
0.0
  0
LINE
  5
D6F8
330
1F
100
AcDbEntity
  8
moji
100
AcDbLine
 10
659.5006613999994
 20
372.0
 30
0.0
 11
659.5006613999994
 21
414.0
 31
0.0
  0
TEXT
  5
D6F9
330
1F
100
AcDbEntity
  8
moji
100
AcDbText
 10
734.5006613999994
 20
375.0
 30
0.0
 40
8.0
  1
500x500
  7
MSゴシック
100
AcDbText
  0
TEXT
  5
D6FA
330
1F
100
AcDbEntity
  8
moji
100
AcDbText
 10
734.5006613999994
 20
403.0
 30
0.0
 40
8.0
  1
コーナー
  7
MSゴシック
100
AcDbText
  0
TEXT
  5
D6FB
330
1F
100
AcDbEntity
  8
moji
100
AcDbText
 10
664.5006613999994
 20
389.0
 30
0.0
 40
8.0
  1
(幅x長さ)
  7
MSゴシック
100
AcDbText
  0
TEXT
  5
D6FC
330
1F
100
AcDbEntity
  8
moji
100
AcDbText
 10
664.5006613999994
 20
403.0
 30
0.0
 40
8.0
  1
ジョイント板
  7
MSゴシック
100
AcDbText
  0
TEXT
  5
D6FD
330
1F
100
AcDbEntity
  8
moji
100
AcDbText
 10
664.5006613999994
 20
375.0
 30
0.0
 40
8.0
  1
195.5x100
  7
MSゴシック
100
AcDbText
  0
LINE
  5
D709
330
1F
100
AcDbEntity
  8
kasagi
  6
Continuous
100
AcDbLine
 10
501.4903853999985
 20
232.0022360000002
 30
0.0
 11
501.4903853999985
 21
228.0022360000003
 31
0.0
  0
LINE
  5
D70A
330
1F
100
AcDbEntity
  8
kasagi
  6
Continuous
100
AcDbLine
 10
601.4903855029096
 20
232.0022360000002
 30
0.0
 11
601.4903855029096
 21
228.0022360000003
 31
0.0
  0
LINE
  5
D70D
330
1F
100
AcDbEntity
  8
KANAMONO_SCREW
 48
20.0
100
AcDbLine
 10
517.0033314000002
 20
185.1601550000014
 30
0.0
 11
513.5081284623484
 21
184.9769791381495
 31
0.0
  0
LINE
  5
D70E
330
1F
100
AcDbEntity
  8
KANAMONO_SCREW
 48
20.0
100
AcDbLine
 10
505.9774393999996
 20
185.1601550000014
 30
0.0
 11
509.4726432764746
 21
184.9769792018505
 31
0.0
  0
LINE
  5
D710
330
1F
100
AcDbEntity
  8
KANAMONO_SCREW
100
AcDbLine
 10
515.4903854000004
 20
216.9372359999997
 30
0.0
 11
515.4903854000004
 21
221.9372359999998
 31
0.0
  0
LINE
  5
D712
330
1F
100
AcDbEntity
  8
KANAMONO_SCREW
100
AcDbLine
 10
513.9983854000002
 20
232.9932360000003
 30
0.0
 11
513.9983854000002
 21
221.9372359999998
 31
0.0
  0
LINE
  5
D713
330
1F
100
AcDbEntity
  8
KANAMONO_SCREW
100
AcDbLine
 10
512.9983854000001
 20
232.9932360000003
 30
0.0
 11
512.9983854000001
 21
221.9372359999998
 31
0.0
  0
LINE
  5
D714
330
1F
100
AcDbEntity
  8
KANAMONO_SCREW
100
AcDbLine
 10
510.4903854000004
 20
221.9372359999998
 30
0.0
 11
511.4903854000004
 21
216.9372359999997
 31
0.0
  0
LINE
  5
D715
330
1F
100
AcDbEntity
  8
KANAMONO_SCREW
100
AcDbLine
 10
507.4903854000003
 20
216.9372359999997
 30
0.0
 11
507.4903854000003
 21
221.9372359999998
 31
0.0
  0
LINE
  5
D716
330
1F
100
AcDbEntity
  8
KANAMONO_SCREW
100
AcDbLine
 10
511.4903854000004
 20
216.9372359999997
 30
0.0
 11
511.4903854000004
 21
221.9372359999998
 31
0.0
  0
LINE
  5
D718
330
1F
100
AcDbEntity
  8
KANAMONO_SCREW
100
AcDbLine
 10
508.9983854000002
 20
232.9932360000003
 30
0.0
 11
508.9983854000002
 21
221.9372359999998
 31
0.0
  0
LINE
  5
D719
330
1F
100
AcDbEntity
  8
KANAMONO_SCREW
100
AcDbLine
 10
509.9983854000002
 20
232.9932360000003
 30
0.0
 11
509.9983854000002
 21
221.9372359999998
 31
0.0
  0
LINE
  5
D71B
330
1F
100
AcDbEntity
  8
KANAMONO_SCREW
100
AcDbLine
 10
512.4903854000003
 20
221.9372359999998
 30
0.0
 11
511.4903854000004
 21
216.9372359999997
 31
0.0
  0
LINE
  5
D720
330
1F
100
AcDbEntity
  8
moji
100
AcDbLine
 10
309.5006613999994
 20
526.0
 30
0.0
 11
794.5006613999994
 21
526.0
 31
0.0
  0
LINE
  5
D721
330
1F
100
AcDbEntity
  8
moji
100
AcDbLine
 10
309.5006613999994
 20
512.0
 30
0.0
 11
794.5006613999994
 21
512.0
 31
0.0
  0
LINE
  5
D722
330
1F
100
AcDbEntity
  8
moji
100
AcDbLine
 10
309.5006613999994
 20
498.0
 30
0.0
 11
794.5006613999994
 21
498.0
 31
0.0
  0
LINE
  5
D723
330
1F
100
AcDbEntity
  8
moji
100
AcDbLine
 10
309.5006613999994
 20
470.0
 30
0.0
 11
794.5006613999994
 21
470.0
 31
0.0
  0
LINE
  5
D724
330
1F
100
AcDbEntity
  8
moji
100
AcDbLine
 10
309.5006613999994
 20
442.0
 30
0.0
 11
794.5006613999994
 21
442.0
 31
0.0
  0
TEXT
  5
D725
330
1F
100
AcDbEntity
  8
moji
100
AcDbText
 10
394.5006613999995
 20
445.0
 30
0.0
 40
8.0
  1
アクリル樹脂系塗装（デュラクロン他）
  7
MSゴシック
100
AcDbText
  0
LINE
  5
D726
330
1F
100
AcDbEntity
  8
moji
100
AcDbLine
 10
389.5006613999994
 20
442.0
 30
0.0
 11
389.5006613999994
 21
526.0
 31
0.0
  0
LINE
  5
D727
330
1F
100
AcDbEntity
  8
moji
100
AcDbLine
 10
309.5006613999994
 20
442.0
 30
0.0
 11
309.5006613999994
 21
526.0
 31
0.0
  0
TEXT
  5
D728
330
1F
100
AcDbEntity
  8
moji
100
AcDbText
 10
394.5006613999995
 20
515.0
 30
0.0
 40
8.0
  1
本体
  7
MSゴシック
100
AcDbText
  0
TEXT
  5
D729
330
1F
100
AcDbEntity
  8
moji
100
AcDbText
 10
529.5006613999994
 20
515.0
 30
0.0
 40
8.0
  1
ジョイント板
  7
MSゴシック
100
AcDbText
  0
LINE
  5
D72A
330
1F
100
AcDbEntity
  8
moji
100
AcDbLine
 10
524.5006613999994
 20
512.0
 30
0.0
 11
524.5006613999994
 21
526.0
 31
0.0
  0
TEXT
  5
D72B
330
1F
100
AcDbEntity
  8
moji
100
AcDbText
 10
394.5006613999995
 20
487.0
 30
0.0
 40
8.0
  1
JIS H 8602-2010 A1
  7
MSゴシック
100
AcDbText
  0
TEXT
  5
D72C
330
1F
100
AcDbEntity
  8
moji
100
AcDbText
 10
394.5006613999995
 20
459.0
 30
0.0
 40
8.0
  1
2次電解着色（ブロンズ）
  7
MSゴシック
100
AcDbText
  0
TEXT
  5
D72D
330
1F
100
AcDbEntity
  8
moji
100
AcDbText
 10
314.5006613999994
 20
487.0
 30
0.0
 40
8.0
  1
表面処理　標準
  7
MSゴシック
100
AcDbText
  0
TEXT
  5
D72E
330
1F
100
AcDbEntity
  8
moji
100
AcDbText
 10
314.5006613999994
 20
459.0
 30
0.0
 40
8.0
  1
　　　　　特注
  7
MSゴシック
100
AcDbText
  0
TEXT
  5
D72F
330
1F
100
AcDbEntity
  8
moji
100
AcDbText
 10
314.5006613999994
 20
501.0
 30
0.0
 40
8.0
  1
材質
  7
MSゴシック
100
AcDbText
  0
TEXT
  5
D730
330
1F
100
AcDbEntity
  8
moji
100
AcDbText
 10
394.5006613999995
 20
501.0
 30
0.0
 40
8.0
  1
A6063S-T5
  7
MSゴシック
100
AcDbText
  0
LINE
  5
D731
330
1F
100
AcDbEntity
  8
moji
100
AcDbLine
 10
659.5006613999994
 20
441.9999999999998
 30
0.0
 11
659.5006613999994
 21
498.0
 31
0.0
  0
LINE
  5
D732
330
1F
100
AcDbEntity
  8
moji
100
AcDbLine
 10
794.5006613999994
 20
442.0
 30
0.0
 11
794.5006613999994
 21
526.0
 31
0.0
  0
LINE
  5
D733
330
1F
100
AcDbEntity
  8
moji
100
AcDbLine
 10
659.5006613999994
 20
512.0
 30
0.0
 11
659.5006613999994
 21
526.0
 31
0.0
  0
TEXT
  5
D734
330
1F
100
AcDbEntity
  8
moji
100
AcDbText
 10
664.5006613999994
 20
515.0
 30
0.0
 40
8.0
  1
力板
  7
MSゴシック
100
AcDbText
  0
LINE
  5
D9C9
330
1F
100
AcDbEntity
  8
0
100
AcDbLine
 10
0.0
 20
739.9999999999993
 30
0.0
 11
1104.0
 21
739.9999999999979
 31
0.0
  0
TEXT
  5
D9CA
330
1F
100
AcDbEntity
  8
WAKU
100
AcDbText
 10
1051.218274111675
 20
744.0
 30
0.0
 40
12.0
  1
lk-190
  7
MSゴシック
 72
     2
 11
1098.0
 21
744.0
 31
0.0
100
AcDbText
  0
TEXT
  5
D9CC
330
1F
100
AcDbEntity
  8
WAKU
100
AcDbText
 10
6.0
 20
744.0
 30
0.0
 40
16.0
  1
アルミ雨仕舞材／腰壁水切
  7
MSゴシック
100
AcDbText
  0
TEXT
  5
D9CD
330
1F
100
AcDbEntity
  8
WAKU
100
AcDbText
 10
6.0
 20
720.0000000000016
 30
0.0
 40
12.0
  1
ライナーキープＳ１９０／アルミ腰壁水切 幅１９０
  7
MSゴシック
100
AcDbText
  0
TEXT
  5
D9CE
330
1F
100
AcDbEntity
  8
WAKU
100
AcDbText
 10
1043.421319796954
 20
720.0000000000017
 30
0.0
 40
12.0
  1
1/4(A4)
  7
MSゴシック
 72
     2
 11
1098.0
 21
720.0000000000017
 31
0.0
100
AcDbText
  0
LINE
  5
DE08
330
1F
100
AcDbEntity
  8
0
100
AcDbLine
 10
192.0
 20
118.0
 30
0.0
 11
912.0
 21
118.0
 31
0.0
  0
LINE
  5
DE09
330
1F
100
AcDbEntity
  8
0
100
AcDbLine
 10
912.0
 20
118.0
 30
0.0
 11
912.0
 21
598.0
 31
0.0
  0
LINE
  5
DE0A
330
1F
100
AcDbEntity
  8
0
100
AcDbLine
 10
912.0
 20
598.0
 30
0.0
 11
192.0
 21
598.0
 31
0.0
  0
LINE
  5
DE0B
330
1F
100
AcDbEntity
  8
0
100
AcDbLine
 10
192.0
 20
598.0
 30
0.0
 11
192.0
 21
118.0
 31
0.0
  0
LINE
  5
DE0C
330
1F
100
AcDbEntity
  8
KANAMONO_SCREW
100
AcDbLine
 10
593.3598294000002
 20
187.8066800000015
 30
0.0
 11
591.4903854000003
 21
185.9965420000007
 31
0.0
  0
LINE
  5
DE0D
330
1F
100
AcDbEntity
  8
KANAMONO_SCREW
100
AcDbLine
 10
591.4903854000003
 20
185.9965420000007
 30
0.0
 11
589.6209414000004
 21
187.8066800000015
 31
0.0
  0
LINE
  5
DE0E
330
1F
100
AcDbEntity
  8
KANAMONO_SCREW
100
AcDbLine
 10
596.1136203999995
 20
202.1368570000013
 30
0.0
 11
597.6103763999999
 21
207.1368570000013
 31
0.0
  0
LINE
  5
DE0F
330
1F
100
AcDbEntity
  8
KANAMONO_SCREW
100
AcDbLine
 10
597.6103763999999
 20
207.1368570000013
 30
0.0
 11
598.5007764910615
 21
212.4792615463684
 31
0.0
  0
ARC
  5
DE10
330
1F
100
AcDbEntity
  8
KANAMONO_SCREW
100
AcDbCircle
 10
598.0075794747335
 20
212.5614609484029
 30
0.0
 40
0.5000000386096089
100
AcDbArc
 50
350.5376891728497
 51
170.5376784293652
  0
LINE
  5
DE11
330
1F
100
AcDbEntity
  8
KANAMONO_SCREW
100
AcDbLine
 10
597.5143824738188
 20
212.6436604429164
 30
0.0
 11
596.5965823999995
 21
207.1368570000013
 31
0.0
  0
LINE
  5
DE12
330
1F
100
AcDbEntity
  8
KANAMONO_SCREW
100
AcDbLine
 10
596.5965823999995
 20
207.1368570000013
 30
0.0
 11
595.0509013999999
 21
202.0811620000004
 31
0.0
  0
LINE
  5
DE13
330
1F
100
AcDbEntity
  8
KANAMONO_SCREW
100
AcDbLine
 10
586.8671503999994
 20
202.1368570000013
 30
0.0
 11
585.3703943999999
 21
207.1368570000013
 31
0.0
  0
LINE
  5
DE14
330
1F
100
AcDbEntity
  8
KANAMONO_SCREW
100
AcDbLine
 10
585.3703943999999
 20
207.1368570000013
 30
0.0
 11
584.4799943089383
 21
212.4792615463684
 31
0.0
  0
ARC
  5
DE15
330
1F
100
AcDbEntity
  8
KANAMONO_SCREW
100
AcDbCircle
 10
584.9731913252658
 20
212.5614609484029
 30
0.0
 40
0.5000000386091604
100
AcDbArc
 50
9.462321570643384
 51
189.4623108271589
  0
LINE
  5
DE16
330
1F
100
AcDbEntity
  8
KANAMONO_SCREW
100
AcDbLine
 10
585.46638832618
 20
212.6436604429164
 30
0.0
 11
586.3841883999993
 21
207.1368570000013
 31
0.0
  0
LINE
  5
DE17
330
1F
100
AcDbEntity
  8
KANAMONO_SCREW
100
AcDbLine
 10
586.3841883999993
 20
207.1368570000013
 30
0.0
 11
587.9298693999999
 21
202.0811620000004
 31
0.0
  0
LINE
  5
DE18
330
1F
100
AcDbEntity
  8
KANAMONO_SCREW
100
AcDbLine
 10
586.2391194000001
 20
190.1533030000009
 30
0.0
 11
588.1840424000001
 21
189.0500010000014
 31
0.0
  0
LINE
  5
DE19
330
1F
100
AcDbEntity
  8
KANAMONO_SCREW
100
AcDbLine
 10
588.1840424000001
 20
189.0500010000014
 30
0.0
 11
588.0793704000007
 21
187.0527420000017
 31
0.0
  0
LINE
  5
DE1A
330
1F
100
AcDbEntity
  8
KANAMONO_SCREW
100
AcDbLine
 10
588.0793704000007
 20
187.0527420000017
 30
0.0
 11
586.0821114
 21
187.1574140000011
 31
0.0
  0
LINE
  5
DE1B
330
1F
100
AcDbEntity
  8
KANAMONO_SCREW
100
AcDbLine
 10
586.0821114
 20
187.1574140000011
 30
0.0
 11
585.9774393999996
 21
185.1601550000014
 31
0.0
  0
LINE
  5
DE1C
330
1F
100
AcDbEntity
  8
KANAMONO_SCREW
100
AcDbLine
 10
585.9774393999996
 20
185.1601550000014
 30
0.0
 11
587.8700263999999
 21
183.0582240000003
 31
0.0
  0
LINE
  5
DE1D
330
1F
100
AcDbEntity
  8
KANAMONO_SCREW
100
AcDbLine
 10
587.8700263999999
 20
183.0582240000003
 30
0.0
 11
589.3679714
 21
182.9797200000012
 31
0.0
  0
LINE
  5
DE1E
330
1F
100
AcDbEntity
  8
KANAMONO_SCREW
100
AcDbLine
 10
589.3679714
 20
182.9797200000012
 30
0.0
 11
590.9903854000003
 21
213.9372359999998
 31
0.0
  0
LINE
  5
DE1F
330
1F
100
AcDbEntity
  8
KANAMONO_SCREW
100
AcDbLine
 10
590.9903854000003
 20
213.9372359999998
 30
0.0
 11
591.4903854000003
 21
213.9372359999998
 31
0.0
  0
LINE
  5
DE20
330
1F
100
AcDbEntity
  8
KANAMONO_SCREW
100
AcDbLine
 10
591.4903854000003
 20
213.9372359999998
 30
0.0
 11
591.9903854000003
 21
213.9372359999998
 31
0.0
  0
LINE
  5
DE21
330
1F
100
AcDbEntity
  8
KANAMONO_SCREW
100
AcDbLine
 10
591.9903854000003
 20
213.9372359999998
 30
0.0
 11
593.6128004000002
 21
182.9797200000012
 31
0.0
  0
LINE
  5
DE22
330
1F
100
AcDbEntity
  8
KANAMONO_SCREW
100
AcDbLine
 10
593.6128004000002
 20
182.9797200000012
 30
0.0
 11
595.1107443999999
 21
183.0582240000003
 31
0.0
  0
LINE
  5
DE23
330
1F
100
AcDbEntity
  8
KANAMONO_SCREW
100
AcDbLine
 10
595.1107443999999
 20
183.0582240000003
 30
0.0
 11
597.0033314000001
 21
185.1601550000014
 31
0.0
  0
LINE
  5
DE24
330
1F
100
AcDbEntity
  8
KANAMONO_SCREW
100
AcDbLine
 10
597.0033314000001
 20
185.1601550000014
 30
0.0
 11
596.8986604000001
 21
187.1574140000011
 31
0.0
  0
LINE
  5
DE25
330
1F
100
AcDbEntity
  8
KANAMONO_SCREW
100
AcDbLine
 10
596.8986604000001
 20
187.1574140000011
 30
0.0
 11
594.9014014000003
 21
187.0527420000017
 31
0.0
  0
LINE
  5
DE26
330
1F
100
AcDbEntity
  8
KANAMONO_SCREW
100
AcDbLine
 10
594.9014014000003
 20
187.0527420000017
 30
0.0
 11
594.7967294
 21
189.0500010000014
 31
0.0
  0
LINE
  5
DE27
330
1F
100
AcDbEntity
  8
KANAMONO_SCREW
100
AcDbLine
 10
594.7967294
 20
189.0500010000014
 30
0.0
 11
596.7416523999999
 21
190.1533030000009
 31
0.0
  0
LINE
  5
DE28
330
1F
100
AcDbEntity
  8
KANAMONO_SCREW
100
AcDbLine
 10
596.7416523999999
 20
190.1533030000009
 30
0.0
 11
596.6369804000005
 21
192.1505620000007
 31
0.0
  0
LINE
  5
DE29
330
1F
100
AcDbEntity
  8
KANAMONO_SCREW
100
AcDbLine
 10
596.6369804000005
 20
192.1505620000007
 30
0.0
 11
594.6397213999999
 21
192.0458900000012
 31
0.0
  0
LINE
  5
DE2A
330
1F
100
AcDbEntity
  8
KANAMONO_SCREW
100
AcDbLine
 10
594.6397213999999
 20
192.0458900000012
 30
0.0
 11
594.5350493999995
 21
194.043149000001
 31
0.0
  0
LINE
  5
DE2B
330
1F
100
AcDbEntity
  8
KANAMONO_SCREW
100
AcDbLine
 10
594.5350493999995
 20
194.043149000001
 30
0.0
 11
596.4799724000004
 21
195.1464500000002
 31
0.0
  0
LINE
  5
DE2C
330
1F
100
AcDbEntity
  8
KANAMONO_SCREW
100
AcDbLine
 10
596.4799724000004
 20
195.1464500000002
 30
0.0
 11
596.3753003999999
 21
197.1437089999999
 31
0.0
  0
LINE
  5
DE2D
330
1F
100
AcDbEntity
  8
KANAMONO_SCREW
100
AcDbLine
 10
596.3753003999999
 20
197.1437089999999
 30
0.0
 11
594.3780414000002
 21
197.0390370000004
 31
0.0
  0
LINE
  5
DE2E
330
1F
100
AcDbEntity
  8
KANAMONO_SCREW
100
AcDbLine
 10
594.3780414000002
 20
197.0390370000004
 30
0.0
 11
594.2733693999998
 21
199.0362960000002
 31
0.0
  0
LINE
  5
DE2F
330
1F
100
AcDbEntity
  8
KANAMONO_SCREW
100
AcDbLine
 10
594.2733693999998
 20
199.0362960000002
 30
0.0
 11
596.2182923999998
 21
200.1395979999998
 31
0.0
  0
LINE
  5
DE30
330
1F
100
AcDbEntity
  8
KANAMONO_SCREW
100
AcDbLine
 10
596.2182923999998
 20
200.1395979999998
 30
0.0
 11
596.1136203999995
 21
202.1368570000013
 31
0.0
  0
LINE
  5
DE31
330
1F
100
AcDbEntity
  8
KANAMONO_SCREW
100
AcDbLine
 10
596.1136203999995
 20
202.1368570000013
 30
0.0
 11
594.1163613999997
 21
202.032185
 31
0.0
  0
LINE
  5
DE32
330
1F
100
AcDbEntity
  8
KANAMONO_SCREW
100
AcDbLine
 10
594.1163613999997
 20
202.032185
 30
0.0
 11
594.0116894000002
 21
204.0294440000016
 31
0.0
  0
LINE
  5
DE33
330
1F
100
AcDbEntity
  8
KANAMONO_SCREW
100
AcDbLine
 10
594.0116894000002
 20
204.0294440000016
 30
0.0
 11
595.9566124000002
 21
205.1327460000011
 31
0.0
  0
LINE
  5
DE34
330
1F
100
AcDbEntity
  8
KANAMONO_SCREW
100
AcDbLine
 10
595.9566124000002
 20
205.1327460000011
 30
0.0
 11
595.8519403999998
 21
207.1300050000009
 31
0.0
  0
LINE
  5
DE35
330
1F
100
AcDbEntity
  8
KANAMONO_SCREW
100
AcDbLine
 10
595.8519403999998
 20
207.1300050000009
 30
0.0
 11
593.8546814000001
 21
207.0253329999996
 31
0.0
  0
LINE
  5
DE36
330
1F
100
AcDbEntity
  8
KANAMONO_SCREW
100
AcDbLine
 10
593.8546814000001
 20
207.0253329999996
 30
0.0
 11
593.7500094000006
 21
209.0225920000011
 31
0.0
  0
LINE
  5
DE37
330
1F
100
AcDbEntity
  8
KANAMONO_SCREW
100
AcDbLine
 10
593.7500094000006
 20
209.0225920000011
 30
0.0
 11
595.4903854000003
 21
209.9372359999998
 31
0.0
  0
LINE
  5
DE38
330
1F
100
AcDbEntity
  8
KANAMONO_SCREW
100
AcDbLine
 10
595.4903854000003
 20
209.9372359999998
 30
0.0
 11
595.4903854000003
 21
213.9372359999998
 31
0.0
  0
LINE
  5
DE39
330
1F
100
AcDbEntity
  8
KANAMONO_SCREW
100
AcDbLine
 10
595.4903854000003
 20
213.9372359999998
 30
0.0
 11
595.4903854000003
 21
216.9372359999997
 31
0.0
  0
LINE
  5
DE3A
330
1F
100
AcDbEntity
  8
KANAMONO_SCREW
100
AcDbLine
 10
595.4903854000003
 20
216.9372359999997
 30
0.0
 11
596.4903854000003
 21
221.9372359999998
 31
0.0
  0
LINE
  5
DE3B
330
1F
100
AcDbEntity
  8
KANAMONO_SCREW
100
AcDbLine
 10
596.4903854000003
 20
221.9372359999998
 30
0.0
 11
591.4903854000003
 21
221.9372359999998
 31
0.0
  0
LINE
  5
DE3C
330
1F
100
AcDbEntity
  8
KANAMONO_SCREW
100
AcDbLine
 10
591.4903854000003
 20
221.9372359999998
 30
0.0
 11
586.4903854000004
 21
221.9372359999998
 31
0.0
  0
LINE
  5
DE3D
330
1F
100
AcDbEntity
  8
KANAMONO_SCREW
100
AcDbLine
 10
586.4903854000004
 20
221.9372359999998
 30
0.0
 11
587.4903854000003
 21
216.9372359999997
 31
0.0
  0
LINE
  5
DE3E
330
1F
100
AcDbEntity
  8
KANAMONO_SCREW
100
AcDbLine
 10
587.4903854000003
 20
216.9372359999997
 30
0.0
 11
587.4903854000003
 21
213.9372359999998
 31
0.0
  0
LINE
  5
DE3F
330
1F
100
AcDbEntity
  8
KANAMONO_SCREW
100
AcDbLine
 10
587.4903854000003
 20
213.9372359999998
 30
0.0
 11
587.4903854000003
 21
209.9372359999998
 31
0.0
  0
LINE
  5
DE40
330
1F
100
AcDbEntity
  8
KANAMONO_SCREW
100
AcDbLine
 10
587.4903854000003
 20
209.9372359999998
 30
0.0
 11
589.2307614000001
 21
209.0225920000011
 31
0.0
  0
LINE
  5
DE41
330
1F
100
AcDbEntity
  8
KANAMONO_SCREW
100
AcDbLine
 10
589.2307614000001
 20
209.0225920000011
 30
0.0
 11
589.1260894000006
 21
207.0253329999996
 31
0.0
  0
LINE
  5
DE42
330
1F
100
AcDbEntity
  8
KANAMONO_SCREW
100
AcDbLine
 10
589.1260894000006
 20
207.0253329999996
 30
0.0
 11
587.1288304
 21
207.1300050000009
 31
0.0
  0
LINE
  5
DE43
330
1F
100
AcDbEntity
  8
KANAMONO_SCREW
100
AcDbLine
 10
587.1288304
 20
207.1300050000009
 30
0.0
 11
587.0241583999995
 21
205.1327460000011
 31
0.0
  0
LINE
  5
DE44
330
1F
100
AcDbEntity
  8
KANAMONO_SCREW
100
AcDbLine
 10
587.0241583999995
 20
205.1327460000011
 30
0.0
 11
588.9690823999999
 21
204.0294440000016
 31
0.0
  0
LINE
  5
DE45
330
1F
100
AcDbEntity
  8
KANAMONO_SCREW
100
AcDbLine
 10
588.9690823999999
 20
204.0294440000016
 30
0.0
 11
588.8644103999995
 21
202.032185
 31
0.0
  0
LINE
  5
DE46
330
1F
100
AcDbEntity
  8
KANAMONO_SCREW
100
AcDbLine
 10
588.8644103999995
 20
202.032185
 30
0.0
 11
586.8671513999998
 21
202.1368570000013
 31
0.0
  0
LINE
  5
DE47
330
1F
100
AcDbEntity
  8
KANAMONO_SCREW
100
AcDbLine
 10
586.8671513999998
 20
202.1368570000013
 30
0.0
 11
586.7624794000002
 21
200.1395979999998
 31
0.0
  0
LINE
  5
DE48
330
1F
100
AcDbEntity
  8
KANAMONO_SCREW
100
AcDbLine
 10
586.7624794000002
 20
200.1395979999998
 30
0.0
 11
588.7074023999994
 21
199.0362960000002
 31
0.0
  0
LINE
  5
DE49
330
1F
100
AcDbEntity
  8
KANAMONO_SCREW
100
AcDbLine
 10
588.7074023999994
 20
199.0362960000002
 30
0.0
 11
588.6027303999999
 21
197.0390370000004
 31
0.0
  0
LINE
  5
DE4A
330
1F
100
AcDbEntity
  8
KANAMONO_SCREW
100
AcDbLine
 10
588.6027303999999
 20
197.0390370000004
 30
0.0
 11
586.6054714000001
 21
197.1437089999999
 31
0.0
  0
LINE
  5
DE4B
330
1F
100
AcDbEntity
  8
KANAMONO_SCREW
100
AcDbLine
 10
586.6054714000001
 20
197.1437089999999
 30
0.0
 11
586.5007994000007
 21
195.1464500000002
 31
0.0
  0
LINE
  5
DE4C
330
1F
100
AcDbEntity
  8
KANAMONO_SCREW
100
AcDbLine
 10
586.5007994000007
 20
195.1464500000002
 30
0.0
 11
588.4457223999998
 21
194.043149000001
 31
0.0
  0
LINE
  5
DE4D
330
1F
100
AcDbEntity
  8
KANAMONO_SCREW
100
AcDbLine
 10
588.4457223999998
 20
194.043149000001
 30
0.0
 11
588.3410504000003
 21
192.0458900000012
 31
0.0
  0
LINE
  5
DE4E
330
1F
100
AcDbEntity
  8
KANAMONO_SCREW
100
AcDbLine
 10
588.3410504000003
 20
192.0458900000012
 30
0.0
 11
586.3437914000005
 21
192.1505620000007
 31
0.0
  0
LINE
  5
DE4F
330
1F
100
AcDbEntity
  8
KANAMONO_SCREW
100
AcDbLine
 10
586.3437914000005
 20
192.1505620000007
 30
0.0
 11
586.2391194000001
 21
190.1533030000009
 31
0.0
  0
ARC
  5
DE50
330
1F
100
AcDbEntity
  8
KANAMONO_SCREW
 48
20.0
100
AcDbCircle
 10
592.9931518403493
 20
232.8735269019519
 30
0.0
 40
2.999996524121709
100
AcDbArc
 50
2.458911608832009
 51
51.38541751255226
  0
ARC
  5
DE51
330
1F
100
AcDbEntity
  8
KANAMONO_SCREW
 48
20.0
100
AcDbCircle
 10
591.4903853999999
 20
231.0022384928434
 30
0.0
 40
5.399997507157105
100
AcDbArc
 50
51.317795166881
 51
128.682204833119
  0
ARC
  5
DE52
330
1F
100
AcDbEntity
  8
KANAMONO_SCREW
 48
20.0
100
AcDbCircle
 10
589.9876189596504
 20
232.8735269019519
 30
0.0
 40
2.999996524121712
100
AcDbArc
 50
128.6145824874477
 51
177.541088391168
  0
LINE
  5
DE53
330
1F
100
AcDbEntity
  8
KANAMONO_SCREW
 48
20.0
100
AcDbLine
 10
578.9903854000003
 20
233.0022360000003
 30
0.0
 11
603.9903854000003
 21
233.0022360000003
 31
0.0
  0
LINE
  5
DE54
330
1F
100
AcDbEntity
  8
KANAMONO_SCREW
 48
20.0
100
AcDbLine
 10
603.9903854000003
 20
233.0022360000003
 30
0.0
 11
603.9903854000003
 21
232.0022360000002
 31
0.0
  0
LINE
  5
DE55
330
1F
100
AcDbEntity
  8
KANAMONO_SCREW
 48
20.0
100
AcDbLine
 10
603.9903854000003
 20
232.0022360000002
 30
0.0
 11
578.9903854000003
 21
232.0022360000002
 31
0.0
  0
LINE
  5
DE56
330
1F
100
AcDbEntity
  8
KANAMONO_SCREW
 48
20.0
100
AcDbLine
 10
578.9903854000003
 20
232.0022360000002
 30
0.0
 11
578.9903854000003
 21
233.0022360000003
 31
0.0
  0
ARC
  5
DE57
330
1F
100
AcDbEntity
  8
kasagi
  6
Continuous
100
AcDbCircle
 10
455.4903854000003
 20
182.5022360000002
 30
0.0
 40
0.5
100
AcDbArc
 50
270.0
 51
0.0
  0
LINE
  5
DE58
330
1F
100
AcDbEntity
  8
kasagi
  6
Continuous
100
AcDbLine
 10
455.9903854000004
 20
182.5022360000002
 30
0.0
 11
455.9903854000004
 21
189.0022360000003
 31
0.0
  0
LINE
  5
DE59
330
1F
100
AcDbEntity
  8
kasagi
  6
Continuous
100
AcDbLine
 10
455.9903854000004
 20
189.0022360000003
 30
0.0
 11
458.9474541408362
 21
189.9482815749543
 31
0.0
  0
ARC
  5
DE5A
330
1F
100
AcDbEntity
  8
kasagi
  6
Continuous
100
AcDbCircle
 10
458.4903853999999
 20
191.3769481442249
 30
0.0
 40
1.500000000000441
100
AcDbArc
 50
287.7408676919493
 51
359.9999999999675
  0
LINE
  5
DE5B
330
1F
100
AcDbEntity
  8
kasagi
  6
Continuous
100
AcDbLine
 10
459.9903854000003
 20
191.3769481442241
 30
0.0
 11
459.9903854000003
 21
191.7457588927618
 31
0.0
  0
ARC
  5
DE5C
330
1F
100
AcDbEntity
  8
kasagi
  6
Continuous
100
AcDbCircle
 10
459.4903854
 20
191.7457588927615
 30
0.0
 40
0.5000000000003411
100
AcDbArc
 50
0.0000000000358258
 51
94.00000000004599
  0
LINE
  5
DE5D
330
1F
100
AcDbEntity
  8
kasagi
  6
Continuous
100
AcDbLine
 10
459.4555071631275
 20
192.2445409178917
 30
0.0
 11
455.9903854000004
 21
192.0022360000002
 31
0.0
  0
LINE
  5
DE5E
330
1F
100
AcDbEntity
  8
kasagi
  6
Continuous
100
AcDbLine
 10
455.9903854000004
 20
192.0022360000002
 30
0.0
 11
455.9903853999985
 21
237.261125106601
 31
0.0
  0
ARC
  5
DE5F
330
1F
100
AcDbEntity
  8
kasagi
  6
Continuous
100
AcDbCircle
 10
458.9903853999992
 20
237.2611251066004
 30
0.0
 40
3.000000000000625
100
AcDbArc
 50
93.04477844418267
 51
179.9999999999896
  0
LINE
  5
DE60
330
1F
100
AcDbEntity
  8
kasagi
  6
Continuous
100
AcDbLine
 10
458.8310361987878
 20
240.2568900893848
 30
0.0
 11
642.8623671992609
 21
250.045790674516
 31
0.0
  0
LINE
  5
DE61
330
1F
100
AcDbEntity
  8
kasagi
  6
Continuous
100
AcDbLine
 10
642.8623671992609
 20
250.045790674516
 30
0.0
 11
645.9903854000003
 21
253.1738088752545
 31
0.0
  0
LINE
  5
DE62
330
1F
100
AcDbEntity
  8
kasagi
  6
Continuous
100
AcDbLine
 10
645.9903854000003
 20
253.1738088752545
 30
0.0
 11
645.9903854000003
 21
260.0022360000003
 31
0.0
  0
LINE
  5
DE63
330
1F
100
AcDbEntity
  8
kasagi
  6
Continuous
100
AcDbLine
 10
645.9903854000003
 20
260.0022360000003
 30
0.0
 11
656.9903854000004
 21
260.0022360000003
 31
0.0
  0
LINE
  5
DE64
330
1F
100
AcDbEntity
  8
kasagi
  6
Continuous
100
AcDbLine
 10
656.9903854000004
 20
260.0022360000003
 30
0.0
 11
656.9903854000004
 21
255.0022360000003
 31
0.0
  0
LINE
  5
DE65
330
1F
100
AcDbEntity
  8
kasagi
  6
Continuous
100
AcDbLine
 10
656.9903854000004
 20
255.0022360000003
 30
0.0
 11
654.9903854000003
 21
255.0022360000003
 31
0.0
  0
LINE
  5
DE66
330
1F
100
AcDbEntity
  8
kasagi
  6
Continuous
100
AcDbLine
 10
654.9903854000003
 20
255.0022360000003
 30
0.0
 11
654.9903854000003
 21
254.0022360000003
 31
0.0
  0
LINE
  5
DE67
330
1F
100
AcDbEntity
  8
kasagi
  6
Continuous
100
AcDbLine
 10
654.9903854000003
 20
254.0022360000003
 30
0.0
 11
656.9903854000004
 21
252.0022360000003
 31
0.0
  0
LINE
  5
DE68
330
1F
100
AcDbEntity
  8
kasagi
  6
Continuous
100
AcDbLine
 10
656.9903854000004
 20
252.0022360000003
 30
0.0
 11
658.9903854000003
 21
252.0022360000003
 31
0.0
  0
LINE
  5
DE69
330
1F
100
AcDbEntity
  8
kasagi
  6
Continuous
100
AcDbLine
 10
658.9903854000003
 20
252.0022360000003
 30
0.0
 11
658.9903854000003
 21
260.0022360000003
 31
0.0
  0
LINE
  5
DE6A
330
1F
100
AcDbEntity
  8
kasagi
  6
Continuous
100
AcDbLine
 10
658.9903854000003
 20
260.0022360000003
 30
0.0
 11
662.9903854000003
 21
260.0022360000003
 31
0.0
  0
LINE
  5
DE6B
330
1F
100
AcDbEntity
  8
kasagi
  6
Continuous
100
AcDbLine
 10
662.9903854000003
 20
260.0022360000003
 30
0.0
 11
662.9903854000003
 21
262.0022360000003
 31
0.0
  0
LINE
  5
DE6C
330
1F
100
AcDbEntity
  8
kasagi
  6
Continuous
100
AcDbLine
 10
662.9903854000003
 20
262.0022360000003
 30
0.0
 11
643.9903854000004
 21
262.0022360000003
 31
0.0
  0
LINE
  5
DE6D
330
1F
100
AcDbEntity
  8
kasagi
  6
Continuous
100
AcDbLine
 10
643.9903854000004
 20
262.0022360000003
 30
0.0
 11
643.9903854000004
 21
254.0022360000003
 31
0.0
  0
LINE
  5
DE6E
330
1F
100
AcDbEntity
  8
kasagi
  6
Continuous
100
AcDbLine
 10
643.9903854000004
 20
254.0022360000003
 30
0.0
 11
641.9903854000003
 21
252.0022360000003
 31
0.0
  0
LINE
  5
DE6F
330
1F
100
AcDbEntity
  8
kasagi
  6
Continuous
100
AcDbLine
 10
641.9903854000003
 20
252.0022360000003
 30
0.0
 11
456.1027449505618
 21
242.1145955505626
 31
0.0
  0
LINE
  5
DE70
330
1F
100
AcDbEntity
  8
kasagi
  6
Continuous
100
AcDbLine
 10
456.1027449505618
 20
242.1145955505626
 30
0.0
 11
453.9903854000003
 21
240.0022360000003
 31
0.0
  0
LINE
  5
DE71
330
1F
100
AcDbEntity
  8
kasagi
  6
Continuous
100
AcDbLine
 10
453.9903854000003
 20
240.0022360000003
 30
0.0
 11
453.9903854000003
 21
182.5022360000002
 31
0.0
  0
ARC
  5
DE72
330
1F
100
AcDbEntity
  8
kasagi
  6
Continuous
100
AcDbCircle
 10
454.4903854000003
 20
182.5022360000002
 30
0.0
 40
0.5
100
AcDbArc
 50
180.0
 51
270.0
  0
LINE
  5
DE73
330
1F
100
AcDbEntity
  8
kasagi
  6
Continuous
100
AcDbLine
 10
454.4903854000003
 20
182.0022360000002
 30
0.0
 11
455.4903854000003
 21
182.0022360000002
 31
0.0
  0
LINE
  5
DE74
330
1F
100
AcDbEntity
  8
SUNPO
100
AcDbLine
 10
662.9903854000003
 20
266.0022360000003
 30
0.0
 11
662.9903854000003
 21
300.611666186006
 31
0.0
  0
LINE
  5
DE75
330
1F
100
AcDbEntity
  8
SUNPO
100
AcDbLine
 10
643.9903854000004
 20
266.0022360000003
 30
0.0
 11
643.9903854000004
 21
300.611666186006
 31
0.0
  0
LINE
  5
DE76
330
1F
100
AcDbEntity
  8
SUNPO
100
AcDbLine
 10
659.7903854000003
 20
300.611666186006
 30
0.0
 11
647.1903854000004
 21
300.611666186006
 31
0.0
  0
INSERT
  5
DE77
330
1F
100
AcDbEntity
  8
SUNPO
100
AcDbBlockReference
  2
_DOT
 10
662.9903854000003
 20
300.611666186006
 30
0.0
 41
3.2
 42
3.2
 43
3.2
  0
INSERT
  5
DE78
330
1F
100
AcDbEntity
  8
SUNPO
100
AcDbBlockReference
  2
_DOT
 10
643.9903854000004
 20
300.611666186006
 30
0.0
 41
3.2
 42
3.2
 43
3.2
 50
180.0
  0
MTEXT
  5
DE79
330
1F
100
AcDbEntity
  8
SUNPO
100
AcDbMText
 10
653.4903854000003
 20
305.011666186006
 30
0.0
 40
8.0
 41
0.0
 71
     5
 72
     1
  1
\A1;19
  7
MSゴシック
 73
     1
 44
1.0
1001
ACAD
1000
MTEXTBEGIN
1070
    73
1070
     1
1070
    44
1040
1.0
1070
    74
1070
     0
1000
MTEXTEND
  0
LINE
  5
DE7A
330
1F
100
AcDbEntity
  8
SUNPO
100
AcDbLine
 10
643.9903854000004
 20
266.0022360000003
 30
0.0
 11
643.9903854000004
 21
300.611666186006
 31
0.0
  0
LINE
  5
DE7B
330
1F
100
AcDbEntity
  8
SUNPO
100
AcDbLine
 10
453.9903854000003
 20
244.0022360000003
 30
0.0
 11
453.9903854000003
 21
300.611666186006
 31
0.0
  0
LINE
  5
DE7C
330
1F
100
AcDbEntity
  8
SUNPO
100
AcDbLine
 10
640.7903854000003
 20
300.611666186006
 30
0.0
 11
457.1903854000003
 21
300.611666186006
 31
0.0
  0
INSERT
  5
DE7D
330
1F
100
AcDbEntity
  8
SUNPO
100
AcDbBlockReference
  2
_DOT
 10
643.9903854000004
 20
300.611666186006
 30
0.0
 41
3.2
 42
3.2
 43
3.2
  0
INSERT
  5
DE7E
330
1F
100
AcDbEntity
  8
SUNPO
100
AcDbBlockReference
  2
_DOT
 10
453.9903854000003
 20
300.611666186006
 30
0.0
 41
3.2
 42
3.2
 43
3.2
 50
180.0
  0
MTEXT
  5
DE7F
330
1F
100
AcDbEntity
  8
SUNPO
100
AcDbMText
 10
548.9903854000004
 20
305.011666186006
 30
0.0
 40
8.0
 41
0.0
 71
     5
 72
     1
  1
\A1;190
  7
MSゴシック
 73
     1
 44
1.0
1001
ACAD
1000
MTEXTBEGIN
1070
    73
1070
     1
1070
    44
1040
1.0
1070
    74
1070
     0
1000
MTEXTEND
  0
LINE
  5
DE80
330
1F
100
AcDbEntity
  8
SUNPO
100
AcDbLine
 10
450.4903854000006
 20
182.0022360000003
 30
0.0
 11
401.467912431261
 21
182.0022360000003
 31
0.0
  0
LINE
  5
DE81
330
1F
100
AcDbEntity
  8
SUNPO
100
AcDbLine
 10
450.4903854000006
 20
242.0022360000004
 30
0.0
 11
401.467912431261
 21
242.0022360000003
 31
0.0
  0
LINE
  5
DE82
330
1F
100
AcDbEntity
  8
SUNPO
100
AcDbLine
 10
401.467912431261
 20
185.2022360000003
 30
0.0
 11
401.467912431261
 21
238.8022360000004
 31
0.0
  0
INSERT
  5
DE83
330
1F
100
AcDbEntity
  8
SUNPO
100
AcDbBlockReference
  2
_DOT
 10
401.467912431261
 20
182.0022360000003
 30
0.0
 41
3.2
 42
3.2
 43
3.2
 50
270.0
  0
INSERT
  5
DE84
330
1F
100
AcDbEntity
  8
SUNPO
100
AcDbBlockReference
  2
_DOT
 10
401.467912431261
 20
242.0022360000003
 30
0.0
 41
3.2
 42
3.2
 43
3.2
 50
90.0
  0
MTEXT
  5
DE85
330
1F
100
AcDbEntity
  8
SUNPO
100
AcDbMText
 10
397.067912431261
 20
212.0022360000002
 30
0.0
 40
8.0
 41
0.0
 71
     5
 72
     1
  1
\A1;60
  7
MSゴシック
 11
0.0000000000000001
 21
1.0
 31
0.0
 73
     1
 44
1.0
1001
ACAD
1000
MTEXTBEGIN
1070
    73
1070
     1
1070
    44
1040
1.0
1070
    74
1070
     0
1000
MTEXTEND
  0
LINE
  5
DE86
330
1F
100
AcDbEntity
  8
SUNPO
100
AcDbLine
 10
450.4903854000006
 20
242.0022360000004
 30
0.0
 11
401.467912431261
 21
242.0022360000003
 31
0.0
  0
LINE
  5
DE87
330
1F
100
AcDbEntity
  8
SUNPO
100
AcDbLine
 10
547.9903854000006
 20
252.0022360000004
 30
0.0
 11
401.467912431261
 21
252.0022360000004
 31
0.0
  0
LINE
  5
DE88
330
1F
100
AcDbEntity
  8
SUNPO
100
AcDbLine
 10
401.467912431261
 20
245.2022360000003
 30
0.0
 11
401.467912431261
 21
248.8022360000003
 31
0.0
  0
INSERT
  5
DE89
330
1F
100
AcDbEntity
  8
SUNPO
100
AcDbBlockReference
  2
_DOT
 10
401.467912431261
 20
242.0022360000003
 30
0.0
 41
3.2
 42
3.2
 43
3.2
 50
270.0
  0
INSERT
  5
DE8A
330
1F
100
AcDbEntity
  8
SUNPO
100
AcDbBlockReference
  2
_DOT
 10
401.467912431261
 20
252.0022360000004
 30
0.0
 41
3.2
 42
3.2
 43
3.2
 50
90.0
  0
MTEXT
  5
DE8B
330
1F
100
AcDbEntity
  8
SUNPO
100
AcDbMText
 10
397.067912431261
 20
247.0022360000002
 30
0.0
 40
8.0
 41
0.0
 71
     5
 72
     1
  1
\A1;10
  7
MSゴシック
 11
0.0000000000000001
 21
1.0
 31
0.0
 73
     1
 44
1.0
1001
ACAD
1000
MTEXTBEGIN
1070
    73
1070
     1
1070
    44
1040
1.0
1070
    74
1070
     0
1000
MTEXTEND
  0
LINE
  5
DE8C
330
1F
100
AcDbEntity
  8
SUNPO
100
AcDbLine
 10
547.9903854000006
 20
252.0022360000004
 30
0.0
 11
401.467912431261
 21
252.0022360000004
 31
0.0
  0
LINE
  5
DE8D
330
1F
100
AcDbEntity
  8
SUNPO
100
AcDbLine
 10
549.9903854000006
 20
262.0022360000004
 30
0.0
 11
401.467912431261
 21
262.0022360000004
 31
0.0
  0
LINE
  5
DE8E
330
1F
100
AcDbEntity
  8
SUNPO
100
AcDbLine
 10
401.467912431261
 20
255.2022360000004
 30
0.0
 11
401.467912431261
 21
258.8022360000004
 31
0.0
  0
INSERT
  5
DE8F
330
1F
100
AcDbEntity
  8
SUNPO
100
AcDbBlockReference
  2
_DOT
 10
401.467912431261
 20
252.0022360000004
 30
0.0
 41
3.2
 42
3.2
 43
3.2
 50
270.0
  0
INSERT
  5
DE90
330
1F
100
AcDbEntity
  8
SUNPO
100
AcDbBlockReference
  2
_DOT
 10
401.467912431261
 20
262.0022360000004
 30
0.0
 41
3.2
 42
3.2
 43
3.2
 50
90.0
  0
MTEXT
  5
DE91
330
1F
100
AcDbEntity
  8
SUNPO
100
AcDbMText
 10
397.067912431261
 20
257.0022360000002
 30
0.0
 40
8.0
 41
0.0
 71
     5
 72
     1
  1
\A1;10
  7
MSゴシック
 11
0.0000000000000001
 21
1.0
 31
0.0
 73
     1
 44
1.0
1001
ACAD
1000
MTEXTBEGIN
1070
    73
1070
     1
1070
    44
1040
1.0
1070
    74
1070
     0
1000
MTEXTEND
  0
LINE
  5
DE92
330
1F
100
AcDbEntity
  8
SUNPO
100
AcDbLine
 10
551.4903854000003
 20
267.2083333333339
 30
0.0
 11
551.4903854000003
 21
290.1304868328357
 31
0.0
  0
LINE
  5
DE93
330
1F
100
AcDbEntity
  8
SUNPO
100
AcDbLine
 10
643.9903854000004
 20
266.0022360000003
 30
0.0
 11
643.9903854000004
 21
290.1304868328357
 31
0.0
  0
LINE
  5
DE94
330
1F
100
AcDbEntity
  8
SUNPO
100
AcDbLine
 10
554.6903854000004
 20
290.1304868328357
 30
0.0
 11
640.7903854000003
 21
290.1304868328357
 31
0.0
  0
INSERT
  5
DE95
330
1F
100
AcDbEntity
  8
SUNPO
100
AcDbBlockReference
  2
_DOT
 10
551.4903854000003
 20
290.1304868328357
 30
0.0
 41
3.2
 42
3.2
 43
3.2
 50
180.0
  0
INSERT
  5
DE96
330
1F
100
AcDbEntity
  8
SUNPO
100
AcDbBlockReference
  2
_DOT
 10
643.9903854000004
 20
290.1304868328357
 30
0.0
 41
3.2
 42
3.2
 43
3.2
  0
MTEXT
  5
DE97
330
1F
100
AcDbEntity
  8
SUNPO
100
AcDbMText
 10
597.7403854000003
 20
294.5304868328356
 30
0.0
 40
8.0
 41
0.0
 71
     5
 72
     1
  1
\A1;93
  7
MSゴシック
 73
     1
 44
1.0
1001
ACAD
1000
MTEXTBEGIN
1070
    73
1070
     1
1070
    44
1040
1.0
1070
    74
1070
     0
1000
MTEXTEND
  0
LINE
  5
DE98
330
1F
100
AcDbEntity
  8
SUNPO
100
AcDbLine
 10
660.6903854000013
 20
228.0022359999999
 30
0.0
 11
681.8995095727228
 21
228.0022359999999
 31
0.0
  0
LINE
  5
DE99
330
1F
100
AcDbEntity
  8
SUNPO
100
AcDbLine
 10
666.9903854000006
 20
262.0022360000004
 30
0.0
 11
681.8995095727228
 21
262.0022360000004
 31
0.0
  0
LINE
  5
DE9A
330
1F
100
AcDbEntity
  8
SUNPO
100
AcDbLine
 10
681.8995095727228
 20
231.2022359999999
 30
0.0
 11
681.8995095727228
 21
258.8022360000004
 31
0.0
  0
INSERT
  5
DE9B
330
1F
100
AcDbEntity
  8
SUNPO
100
AcDbBlockReference
  2
_DOT
 10
681.8995095727228
 20
228.0022359999999
 30
0.0
 41
3.2
 42
3.2
 43
3.2
 50
270.0
  0
INSERT
  5
DE9C
330
1F
100
AcDbEntity
  8
SUNPO
100
AcDbBlockReference
  2
_DOT
 10
681.8995095727228
 20
262.0022360000004
 30
0.0
 41
3.2
 42
3.2
 43
3.2
 50
90.0
  0
MTEXT
  5
DE9D
330
1F
100
AcDbEntity
  8
SUNPO
100
AcDbMText
 10
686.2995095727227
 20
245.0022359999999
 30
0.0
 40
8.0
 41
0.0
 71
     5
 72
     1
  1
\A1;34
  7
MSゴシック
 11
0.0000000000000001
 21
1.0
 31
0.0
 73
     1
 44
1.0
1001
ACAD
1000
MTEXTBEGIN
1070
    73
1070
     1
1070
    44
1040
1.0
1070
    74
1070
     0
1000
MTEXTEND
  0
LINE
  5
DE9E
330
1F
100
AcDbEntity
  8
SUNPO
100
AcDbLine
 10
463.6092088163116
 20
228.0022360000002
 30
0.0
 11
419.6699714979772
 21
228.0022360000001
 31
0.0
  0
LINE
  5
DE9F
330
1F
100
AcDbEntity
  8
SUNPO
100
AcDbLine
 10
450.4903854000006
 20
182.0022360000003
 30
0.0
 11
419.6699714979772
 21
182.0022360000003
 31
0.0
  0
LINE
  5
DEA0
330
1F
100
AcDbEntity
  8
SUNPO
100
AcDbLine
 10
419.6699714979772
 20
224.8022360000001
 30
0.0
 11
419.6699714979772
 21
185.2022360000003
 31
0.0
  0
INSERT
  5
DEA1
330
1F
100
AcDbEntity
  8
SUNPO
100
AcDbBlockReference
  2
_DOT
 10
419.6699714979772
 20
228.0022360000001
 30
0.0
 41
3.2
 42
3.2
 43
3.2
 50
90.0
  0
INSERT
  5
DEA2
330
1F
100
AcDbEntity
  8
SUNPO
100
AcDbBlockReference
  2
_DOT
 10
419.6699714979772
 20
182.0022360000003
 30
0.0
 41
3.2
 42
3.2
 43
3.2
 50
270.0
  0
MTEXT
  5
DEA3
330
1F
100
AcDbEntity
  8
SUNPO
100
AcDbMText
 10
415.2699714979772
 20
205.0022360000001
 30
0.0
 40
8.0
 41
0.0
 71
     5
 72
     1
  1
\A1;46
  7
MSゴシック
 11
0.0000000000000001
 21
1.0
 31
0.0
 73
     1
 44
1.0
1001
ACAD
1000
MTEXTBEGIN
1070
    73
1070
     1
1070
    44
1040
1.0
1070
    74
1070
     0
1000
MTEXTEND
  0
LINE
  5
DEA4
330
1F
100
AcDbEntity
  8
kasagi
  6
Continuous
100
AcDbLine
 10
474.9903854000017
 20
241.0908287863999
 30
0.0
 11
475.0174248212005
 21
241.1178682075988
 31
0.0
1001
ACAD
1010
0.0
1020
0.0
1030
0.0
  0
LINE
  5
DEA5
330
1F
100
AcDbEntity
  8
kasagi
  6
Continuous
100
AcDbLine
 10
474.9903854000022
 20
239.968296771266
 30
0.0
 11
476.2030204326897
 21
241.1809318039536
 31
0.0
1001
ACAD
1010
0.0
1020
0.0
1030
0.0
  0
LINE
  5
DEA6
330
1F
100
AcDbEntity
  8
kasagi
  6
Continuous
100
AcDbLine
 10
474.9903854000017
 20
238.8457647561322
 30
0.0
 11
477.3886160441793
 21
241.2439954003098
 31
0.0
1001
ACAD
1010
0.0
1020
0.0
1030
0.0
  0
LINE
  5
DEA7
330
1F
100
AcDbEntity
  8
kasagi
  6
Continuous
100
AcDbLine
 10
476.3314365252163
 20
239.0642838662134
 30
0.0
 11
478.5742116556685
 21
241.3070589966655
 31
0.0
1001
ACAD
1010
0.0
1020
0.0
1030
0.0
  0
LINE
  5
DEA8
330
1F
100
AcDbEntity
  8
kasagi
  6
Continuous
100
AcDbLine
 10
477.6705085634894
 20
239.2808238893531
 30
0.0
 11
479.7598072671576
 21
241.3701225930213
 31
0.0
1001
ACAD
1010
0.0
1020
0.0
1030
0.0
  0
LINE
  5
DEA9
330
1F
100
AcDbEntity
  8
kasagi
  6
Continuous
100
AcDbLine
 10
478.9293505486102
 20
239.4171338593396
 30
0.0
 11
480.9454028786476
 21
241.433186189377
 31
0.0
1001
ACAD
1010
0.0
1020
0.0
1030
0.0
  0
LINE
  5
DEAA
330
1F
100
AcDbEntity
  8
kasagi
  6
Continuous
100
AcDbLine
 10
480.1218946256931
 20
239.4871459212891
 30
0.0
 11
482.1309984901372
 21
241.4962497857332
 31
0.0
1001
ACAD
1010
0.0
1020
0.0
1030
0.0
  0
LINE
  5
DEAB
330
1F
100
AcDbEntity
  8
kasagi
  6
Continuous
100
AcDbLine
 10
481.2580834337063
 20
239.5008027141689
 30
0.0
 11
483.3165941016259
 21
241.5593133820885
 31
0.0
1001
ACAD
1010
0.0
1020
0.0
1030
0.0
  0
LINE
  5
DEAC
330
1F
100
AcDbEntity
  8
kasagi
  6
Continuous
100
AcDbLine
 10
482.3453055606214
 20
239.4654928259506
 30
0.0
 11
484.5021897131155
 21
241.6223769784447
 31
0.0
1001
ACAD
1010
0.0
1020
0.0
1030
0.0
  0
LINE
  5
DEAD
330
1F
100
AcDbEntity
  8
kasagi
  6
Continuous
100
AcDbLine
 10
483.3892259000817
 20
239.3868811502766
 30
0.0
 11
485.6877853246055
 21
241.6854405748004
 31
0.0
1001
ACAD
1010
0.0
1020
0.0
1030
0.0
  0
LINE
  5
DEAE
330
1F
100
AcDbEntity
  8
kasagi
  6
Continuous
100
AcDbLine
 10
484.3942964832631
 20
239.2694197183246
 30
0.0
 11
486.8733809360951
 21
241.7485041711566
 31
0.0
1001
ACAD
1010
0.0
1020
0.0
1030
0.0
  0
LINE
  5
DEAF
330
1F
100
AcDbEntity
  8
kasagi
  6
Continuous
100
AcDbLine
 10
485.3640864569506
 20
239.1166776768787
 30
0.0
 11
486.9903854000012
 21
240.7429766199293
 31
0.0
1001
ACAD
1010
0.0
1020
0.0
1030
0.0
  0
LINE
  5
DEB0
330
1F
100
AcDbEntity
  8
kasagi
  6
Continuous
100
AcDbLine
 10
486.3015038577336
 20
238.9315630625274
 30
0.0
 11
486.9903854000017
 21
239.6204446047955
 31
0.0
1001
ACAD
1010
0.0
1020
0.0
1030
0.0
  0
LINE
  5
DEB1
330
1F
100
AcDbEntity
  8
kasagi
  6
Continuous
100
AcDbLine
 10
458.5961415029105
 20
192.184448216979
 30
0.0
 11
456.5252636368714
 21
192.0396383298825
 31
0.0
  0
ARC
  5
DEB2
330
1F
100
AcDbEntity
  8
kasagi
  6
Continuous
100
AcDbCircle
 10
456.4903853999999
 20
192.538420355012
 30
0.0
 40
0.4999999999995335
100
AcDbArc
 50
179.9999999999511
 51
273.9999999999349
  0
LINE
  5
DEB3
330
1F
100
AcDbEntity
  8
kasagi
  6
Continuous
100
AcDbLine
 10
455.9903854000004
 20
192.5384203550125
 30
0.0
 11
455.9903854000004
 21
197.0022360000002
 31
0.0
  0
LINE
  5
DEB4
330
1F
100
AcDbEntity
  8
kasagi
  6
Continuous
100
AcDbLine
 10
455.9903854000004
 20
197.0022360000002
 30
0.0
 11
462.1865015351377
 21
227.9828166756911
 31
0.0
  0
ARC
  5
DEB5
330
1F
100
AcDbEntity
  8
kasagi
  6
Continuous
100
AcDbCircle
 10
467.0894049135929
 20
227.0022359999995
 30
0.0
 40
5.000000000000732
100
AcDbArc
 50
89.99999999999738
 51
168.690067525974
  0
LINE
  5
DEB6
330
1F
100
AcDbEntity
  8
kasagi
  6
Continuous
100
AcDbLine
 10
467.0894049135931
 20
232.0022360000002
 30
0.0
 11
478.4903854000003
 21
232.0022360000002
 31
0.0
  0
ARC
  5
DEB7
330
1F
100
AcDbEntity
  8
kasagi
  6
Continuous
100
AcDbCircle
 10
478.4903854000003
 20
233.0022360000003
 30
0.0
 40
1.0
100
AcDbArc
 50
270.0
 51
0.0
  0
LINE
  5
DEB8
330
1F
100
AcDbEntity
  8
kasagi
  6
Continuous
100
AcDbLine
 10
479.4903854000003
 20
233.0022360000003
 30
0.0
 11
479.4903854000003
 21
236.5022360000003
 31
0.0
  0
ARC
  5
DEB9
330
1F
100
AcDbEntity
  8
kasagi
  6
Continuous
100
AcDbCircle
 10
478.4903854000003
 20
236.5022360000003
 30
0.0
 40
1.0
100
AcDbArc
 50
0.0
 51
90.0
  0
LINE
  5
DEBA
330
1F
100
AcDbEntity
  8
kasagi
  6
Continuous
100
AcDbLine
 10
478.4903854000003
 20
237.5022360000003
 30
0.0
 11
474.9903854000003
 21
237.5022360000003
 31
0.0
  0
LINE
  5
DEBB
330
1F
100
AcDbEntity
  8
kasagi
  6
Continuous
100
AcDbLine
 10
474.9903854000003
 20
237.5022360000003
 30
0.0
 11
474.9903854000003
 21
238.7715581990233
 31
0.0
  0
ARC
  5
DEBC
330
1F
100
AcDbEntity
  8
kasagi
  6
Continuous
100
AcDbCircle
 10
480.9903854000004
 20
214.502236
 30
0.0
 40
25.00000000000004
100
AcDbArc
 50
76.11345963737104
 51
103.8865403626289
  0
LINE
  5
DEBD
330
1F
100
AcDbEntity
  8
kasagi
  6
Continuous
100
AcDbLine
 10
486.9903854000003
 20
238.7715581990233
 30
0.0
 11
486.9903854000003
 21
237.5022360000003
 31
0.0
  0
LINE
  5
DEBE
330
1F
100
AcDbEntity
  8
kasagi
  6
Continuous
100
AcDbLine
 10
486.9903854000003
 20
237.5022360000003
 30
0.0
 11
483.4903854000003
 21
237.5022360000003
 31
0.0
  0
ARC
  5
DEBF
330
1F
100
AcDbEntity
  8
kasagi
  6
Continuous
100
AcDbCircle
 10
483.4903854000004
 20
236.5022360000002
 30
0.0
 40
1.000000000000056
100
AcDbArc
 50
90.00000000000325
 51
179.9999999999967
  0
LINE
  5
DEC0
330
1F
100
AcDbEntity
  8
kasagi
  6
Continuous
100
AcDbLine
 10
482.4903854000003
 20
236.5022360000003
 30
0.0
 11
482.4903854000003
 21
233.0022360000003
 31
0.0
  0
ARC
  5
DEC1
330
1F
100
AcDbEntity
  8
kasagi
  6
Continuous
100
AcDbCircle
 10
483.4903854000003
 20
233.0022360000003
 30
0.0
 40
1.0
100
AcDbArc
 50
180.0
 51
270.0
  0
LINE
  5
DEC2
330
1F
100
AcDbEntity
  8
kasagi
  6
Continuous
100
AcDbLine
 10
483.4903854000003
 20
232.0022360000002
 30
0.0
 11
550.9903854000003
 21
232.0022360000002
 31
0.0
  0
LINE
  5
DEC3
330
1F
100
AcDbEntity
  8
kasagi
  6
Continuous
100
AcDbLine
 10
550.9903854000003
 20
232.0022360000002
 30
0.0
 11
551.4903854000003
 21
231.5022360000003
 31
0.0
  0
LINE
  5
DEC4
330
1F
100
AcDbEntity
  8
kasagi
  6
Continuous
100
AcDbLine
 10
551.4903854000003
 20
231.5022360000003
 30
0.0
 11
551.9903854000004
 21
232.0022360000002
 31
0.0
  0
LINE
  5
DEC5
330
1F
100
AcDbEntity
  8
kasagi
  6
Continuous
100
AcDbLine
 10
551.9903854000004
 20
232.0022360000002
 30
0.0
 11
649.2903853999997
 21
232.0022360000002
 31
0.0
  0
ARC
  5
DEC6
330
1F
100
AcDbEntity
  8
kasagi
  6
Continuous
100
AcDbCircle
 10
649.2903853999997
 20
234.0022360000002
 30
0.0
 40
2.0
100
AcDbArc
 50
270.0
 51
0.0
  0
LINE
  5
DEC7
330
1F
100
AcDbEntity
  8
kasagi
  6
Continuous
100
AcDbLine
 10
651.2903853999996
 20
234.0022360000002
 30
0.0
 11
651.2903853999996
 21
259.5022360000003
 31
0.0
  0
ARC
  5
DEC8
330
1F
100
AcDbEntity
  8
kasagi
  6
Continuous
100
AcDbCircle
 10
651.7903853999996
 20
259.5022360000003
 30
0.0
 40
0.5
100
AcDbArc
 50
90.0
 51
180.0
  0
LINE
  5
DEC9
330
1F
100
AcDbEntity
  8
kasagi
  6
Continuous
100
AcDbLine
 10
651.7903853999996
 20
260.0022360000003
 30
0.0
 11
653.113578702003
 21
260.0022360000003
 31
0.0
  0
ARC
  5
DECA
330
1F
100
AcDbEntity
  8
kasagi
  6
Continuous
100
AcDbCircle
 10
653.1135787020023
 20
258.0022360000012
 30
0.0
 40
1.99999999999909
100
AcDbArc
 50
29.054604099055
 51
89.99999999998046
  0
LINE
  5
DECB
330
1F
100
AcDbEntity
  8
kasagi
  6
Continuous
100
AcDbLine
 10
654.8618932542449
 20
258.9735218623573
 30
0.0
 11
656.6253139632026
 21
255.7993645862357
 31
0.0
  0
ARC
  5
DECC
330
1F
100
AcDbEntity
  8
kasagi
  6
Continuous
100
AcDbCircle
 10
656.4504825079786
 20
255.7022360000001
 30
0.0
 40
0.1999999999997596
100
AcDbArc
 50
269.9999999999674
 51
29.05460409908743
  0
LINE
  5
DECD
330
1F
100
AcDbEntity
  8
kasagi
  6
Continuous
100
AcDbLine
 10
656.4504825079784
 20
255.5022360000003
 30
0.0
 11
654.2903853999996
 21
255.5022360000003
 31
0.0
  0
LINE
  5
DECE
330
1F
100
AcDbEntity
  8
kasagi
  6
Continuous
100
AcDbLine
 10
654.2903853999996
 20
255.5022360000003
 30
0.0
 11
654.2903853999996
 21
228.0022360000003
 31
0.0
  0
LINE
  5
DECF
330
1F
100
AcDbEntity
  8
kasagi
  6
Continuous
100
AcDbLine
 10
654.2903853999996
 20
228.0022360000003
 30
0.0
 11
467.8092088163102
 21
228.0022360000003
 31
0.0
  0
ARC
  5
DED0
330
1F
100
AcDbEntity
  8
kasagi
  6
Continuous
100
AcDbCircle
 10
467.8092088163106
 20
225.5022360000005
 30
0.0
 40
2.499999999999801
100
AcDbArc
 50
90.00000000000911
 51
168.6900675259901
  0
LINE
  5
DED1
330
1F
100
AcDbEntity
  8
kasagi
  6
Continuous
100
AcDbLine
 10
465.3577571270834
 20
225.9925263378455
 30
0.0
 11
458.5961415029105
 21
192.184448216979
 31
0.0
  0
LINE
  5
DED2
330
1F
100
AcDbEntity
  8
kasagi
  6
Continuous
100
AcDbLine
 10
486.9903854000003
 20
238.7715579014491
 30
0.0
 11
486.9903854000003
 21
241.7547278128534
 31
0.0
  0
LINE
  5
DED3
330
1F
100
AcDbEntity
  8
kasagi
  6
Continuous
100
AcDbLine
 10
486.9903854000003
 20
241.7547278128534
 30
0.0
 11
474.9903854000003
 21
241.1164299405132
 31
0.0
  0
LINE
  5
DED4
330
1F
100
AcDbEntity
  8
kasagi
  6
Continuous
100
AcDbLine
 10
474.9903854000003
 20
241.1164299405132
 30
0.0
 11
474.9903854000003
 21
238.7715579014491
 31
0.0
  0
LINE
  5
DED5
330
1F
100
AcDbEntity
  8
SUNPO
100
AcDbLine
 10
532.6133593123918
 20
246.1843090804461
 30
0.0
 11
532.1279665544972
 21
246.1584903167282
 31
0.0
  0
LINE
  5
DED6
330
1F
100
AcDbEntity
  8
SUNPO
100
AcDbLine
 10
532.7195921132
 20
244.1871324252567
 30
0.0
 11
532.2341993553055
 21
244.1613136615389
 31
0.0
  0
LINE
  5
DED7
330
1F
100
AcDbEntity
  8
SUNPO
100
AcDbLine
 10
531.9579940732038
 20
249.3539729650308
 30
0.0
 11
531.7880215919106
 21
252.5494556133335
 31
0.0
  0
LINE
  5
DED8
330
1F
100
AcDbEntity
  8
SUNPO
100
AcDbLine
 10
532.4041718365989
 20
240.9658310132363
 30
0.0
 11
532.5741443178923
 21
237.7703483649336
 31
0.0
  0
MTEXT
  5
DED9
330
1F
100
AcDbEntity
  8
SUNPO
100
AcDbMText
 10
536.6208606897047
 20
254.9064052253446
 30
0.0
 40
8.0
 41
0.0
 71
     5
 72
     1
  1
\A1;2
  7
MSゴシック
 11
0.0531164004041723
 21
-0.9985883275945617
 31
0.0
 73
     1
 44
1.0
1001
ACAD
1000
MTEXTBEGIN
1070
    73
1070
     1
1070
    44
1040
1.0
1070
    74
1070
     0
1000
MTEXTEND
  0
LINE
  5
DEDA
330
1F
100
AcDbEntity
  8
SUNPO
100
AcDbLine
 10
532.1279665544972
 20
246.1584903167282
 30
0.0
 11
532.2341993553055
 21
244.1613136615389
 31
0.0
  0
INSERT
  5
DEDB
330
1F
100
AcDbEntity
  8
SUNPO
100
AcDbBlockReference
  2
_DOT
 10
532.1279665544972
 20
246.1584903167282
 30
0.0
 41
3.2
 42
3.2
 43
3.2
 50
273.0447784442057
  0
INSERT
  5
DEDC
330
1F
100
AcDbEntity
  8
SUNPO
100
AcDbBlockReference
  2
_DOT
 10
532.2341993553055
 20
244.1613136615389
 30
0.0
 41
3.2
 42
3.2
 43
3.2
 50
93.0447784442058
  0
LINE
  5
DEDD
330
1F
100
AcDbEntity
  8
KANAMONO_SCREW
100
AcDbLine
 10
513.3598294000003
 20
187.8066800000015
 30
0.0
 11
511.4903854000004
 21
185.9965420000007
 31
0.0
  0
LINE
  5
DEDE
330
1F
100
AcDbEntity
  8
KANAMONO_SCREW
100
AcDbLine
 10
511.4903854000004
 20
185.9965420000007
 30
0.0
 11
509.6209414000004
 21
187.8066800000015
 31
0.0
  0
LINE
  5
DEDF
330
1F
100
AcDbEntity
  8
KANAMONO_SCREW
100
AcDbLine
 10
516.1136203999994
 20
202.1368570000013
 30
0.0
 11
517.6103763999999
 21
207.1368570000013
 31
0.0
  0
LINE
  5
DEE0
330
1F
100
AcDbEntity
  8
KANAMONO_SCREW
100
AcDbLine
 10
517.6103763999999
 20
207.1368570000013
 30
0.0
 11
518.5007764910615
 21
212.4792615463684
 31
0.0
  0
ARC
  5
DEE1
330
1F
100
AcDbEntity
  8
KANAMONO_SCREW
100
AcDbCircle
 10
518.0075794747335
 20
212.5614609484029
 30
0.0
 40
0.5000000386096089
100
AcDbArc
 50
350.5376891728497
 51
170.5376784293652
  0
LINE
  5
DEE2
330
1F
100
AcDbEntity
  8
KANAMONO_SCREW
100
AcDbLine
 10
517.5143824738188
 20
212.6436604429164
 30
0.0
 11
516.5965823999995
 21
207.1368570000013
 31
0.0
  0
LINE
  5
DEE3
330
1F
100
AcDbEntity
  8
KANAMONO_SCREW
100
AcDbLine
 10
516.5965823999995
 20
207.1368570000013
 30
0.0
 11
515.0509013999999
 21
202.0811620000004
 31
0.0
  0
LINE
  5
DEE4
330
1F
100
AcDbEntity
  8
KANAMONO_SCREW
100
AcDbLine
 10
506.8671503999994
 20
202.1368570000013
 30
0.0
 11
505.3703943999998
 21
207.1368570000013
 31
0.0
  0
LINE
  5
DEE5
330
1F
100
AcDbEntity
  8
KANAMONO_SCREW
100
AcDbLine
 10
505.3703943999998
 20
207.1368570000013
 30
0.0
 11
504.4799943089383
 21
212.4792615463684
 31
0.0
  0
ARC
  5
DEE6
330
1F
100
AcDbEntity
  8
KANAMONO_SCREW
100
AcDbCircle
 10
504.9731913252657
 20
212.5614609484029
 30
0.0
 40
0.5000000386091043
100
AcDbArc
 50
9.462321570642314
 51
189.4623108271599
  0
LINE
  5
DEE7
330
1F
100
AcDbEntity
  8
KANAMONO_SCREW
100
AcDbLine
 10
505.4663883261801
 20
212.6436604429164
 30
0.0
 11
506.3841883999994
 21
207.1368570000013
 31
0.0
  0
LINE
  5
DEE8
330
1F
100
AcDbEntity
  8
KANAMONO_SCREW
100
AcDbLine
 10
506.3841883999994
 20
207.1368570000013
 30
0.0
 11
507.9298693999999
 21
202.0811620000004
 31
0.0
  0
LINE
  5
DEE9
330
1F
100
AcDbEntity
  8
KANAMONO_SCREW
100
AcDbLine
 10
506.2391194000001
 20
190.1533030000009
 30
0.0
 11
508.1840424000001
 21
189.0500010000014
 31
0.0
  0
LINE
  5
DEEA
330
1F
100
AcDbEntity
  8
KANAMONO_SCREW
100
AcDbLine
 10
508.1840424000001
 20
189.0500010000014
 30
0.0
 11
508.0793704000007
 21
187.0527420000017
 31
0.0
  0
LINE
  5
DEEB
330
1F
100
AcDbEntity
  8
KANAMONO_SCREW
100
AcDbLine
 10
508.0793704000007
 20
187.0527420000017
 30
0.0
 11
506.0821114
 21
187.1574140000011
 31
0.0
  0
LINE
  5
DEEC
330
1F
100
AcDbEntity
  8
KANAMONO_SCREW
100
AcDbLine
 10
506.0821114
 20
187.1574140000011
 30
0.0
 11
505.9774393999996
 21
185.1601550000014
 31
0.0
  0
LINE
  5
DEED
330
1F
100
AcDbEntity
  8
KANAMONO_SCREW
100
AcDbLine
 10
505.9774393999996
 20
185.1601550000014
 30
0.0
 11
507.8700263999999
 21
183.0582240000003
 31
0.0
  0
LINE
  5
DEEE
330
1F
100
AcDbEntity
  8
KANAMONO_SCREW
100
AcDbLine
 10
507.8700263999999
 20
183.0582240000003
 30
0.0
 11
509.3679714
 21
182.9797200000012
 31
0.0
  0
LINE
  5
DEEF
330
1F
100
AcDbEntity
  8
KANAMONO_SCREW
100
AcDbLine
 10
509.3679714
 20
182.9797200000012
 30
0.0
 11
510.9903854000004
 21
213.9372359999998
 31
0.0
  0
LINE
  5
DEF0
330
1F
100
AcDbEntity
  8
KANAMONO_SCREW
100
AcDbLine
 10
510.9903854000004
 20
213.9372359999998
 30
0.0
 11
511.4903854000004
 21
213.9372359999998
 31
0.0
  0
LINE
  5
DEF1
330
1F
100
AcDbEntity
  8
KANAMONO_SCREW
100
AcDbLine
 10
511.4903854000004
 20
213.9372359999998
 30
0.0
 11
511.9903854000003
 21
213.9372359999998
 31
0.0
  0
LINE
  5
DEF2
330
1F
100
AcDbEntity
  8
KANAMONO_SCREW
100
AcDbLine
 10
511.9903854000003
 20
213.9372359999998
 30
0.0
 11
513.6128004000002
 21
182.9797200000012
 31
0.0
  0
LINE
  5
DEF3
330
1F
100
AcDbEntity
  8
KANAMONO_SCREW
100
AcDbLine
 10
513.6128004000002
 20
182.9797200000012
 30
0.0
 11
515.1107443999999
 21
183.0582240000003
 31
0.0
  0
LINE
  5
DEF4
330
1F
100
AcDbEntity
  8
KANAMONO_SCREW
100
AcDbLine
 10
515.1107443999999
 20
183.0582240000003
 30
0.0
 11
517.0033314000002
 21
185.1601550000014
 31
0.0
  0
LINE
  5
DEF5
330
1F
100
AcDbEntity
  8
KANAMONO_SCREW
100
AcDbLine
 10
517.0033314000002
 20
185.1601550000014
 30
0.0
 11
516.8986604000001
 21
187.1574140000011
 31
0.0
  0
LINE
  5
DEF6
330
1F
100
AcDbEntity
  8
KANAMONO_SCREW
100
AcDbLine
 10
516.8986604000001
 20
187.1574140000011
 30
0.0
 11
514.9014014000004
 21
187.0527420000017
 31
0.0
  0
LINE
  5
DEF7
330
1F
100
AcDbEntity
  8
KANAMONO_SCREW
100
AcDbLine
 10
514.9014014000004
 20
187.0527420000017
 30
0.0
 11
514.7967293999999
 21
189.0500010000014
 31
0.0
  0
LINE
  5
DEF8
330
1F
100
AcDbEntity
  8
KANAMONO_SCREW
100
AcDbLine
 10
514.7967293999999
 20
189.0500010000014
 30
0.0
 11
516.7416524
 21
190.1533030000009
 31
0.0
  0
LINE
  5
DEF9
330
1F
100
AcDbEntity
  8
KANAMONO_SCREW
100
AcDbLine
 10
516.7416524
 20
190.1533030000009
 30
0.0
 11
516.6369804000005
 21
192.1505620000007
 31
0.0
  0
LINE
  5
DEFA
330
1F
100
AcDbEntity
  8
KANAMONO_SCREW
100
AcDbLine
 10
516.6369804000005
 20
192.1505620000007
 30
0.0
 11
514.6397213999998
 21
192.0458900000012
 31
0.0
  0
LINE
  5
DEFB
330
1F
100
AcDbEntity
  8
KANAMONO_SCREW
100
AcDbLine
 10
514.6397213999998
 20
192.0458900000012
 30
0.0
 11
514.5350493999995
 21
194.043149000001
 31
0.0
  0
LINE
  5
DEFC
330
1F
100
AcDbEntity
  8
KANAMONO_SCREW
100
AcDbLine
 10
514.5350493999995
 20
194.043149000001
 30
0.0
 11
516.4799724000004
 21
195.1464500000002
 31
0.0
  0
LINE
  5
DEFD
330
1F
100
AcDbEntity
  8
KANAMONO_SCREW
100
AcDbLine
 10
516.4799724000004
 20
195.1464500000002
 30
0.0
 11
516.3753004
 21
197.1437089999999
 31
0.0
  0
LINE
  5
DEFE
330
1F
100
AcDbEntity
  8
KANAMONO_SCREW
100
AcDbLine
 10
516.3753004
 20
197.1437089999999
 30
0.0
 11
514.3780414000002
 21
197.0390370000004
 31
0.0
  0
LINE
  5
DEFF
330
1F
100
AcDbEntity
  8
KANAMONO_SCREW
100
AcDbLine
 10
514.3780414000002
 20
197.0390370000004
 30
0.0
 11
514.2733693999998
 21
199.0362960000002
 31
0.0
  0
LINE
  5
DF00
330
1F
100
AcDbEntity
  8
KANAMONO_SCREW
100
AcDbLine
 10
514.2733693999998
 20
199.0362960000002
 30
0.0
 11
516.2182923999998
 21
200.1395979999998
 31
0.0
  0
LINE
  5
DF01
330
1F
100
AcDbEntity
  8
KANAMONO_SCREW
100
AcDbLine
 10
516.2182923999998
 20
200.1395979999998
 30
0.0
 11
516.1136203999994
 21
202.1368570000013
 31
0.0
  0
LINE
  5
DF02
330
1F
100
AcDbEntity
  8
KANAMONO_SCREW
100
AcDbLine
 10
516.1136203999994
 20
202.1368570000013
 30
0.0
 11
514.1163613999997
 21
202.032185
 31
0.0
  0
LINE
  5
DF03
330
1F
100
AcDbEntity
  8
KANAMONO_SCREW
100
AcDbLine
 10
514.1163613999997
 20
202.032185
 30
0.0
 11
514.0116894000002
 21
204.0294440000016
 31
0.0
  0
LINE
  5
DF04
330
1F
100
AcDbEntity
  8
KANAMONO_SCREW
100
AcDbLine
 10
514.0116894000002
 20
204.0294440000016
 30
0.0
 11
515.9566124000003
 21
205.1327460000011
 31
0.0
  0
LINE
  5
DF05
330
1F
100
AcDbEntity
  8
KANAMONO_SCREW
100
AcDbLine
 10
515.9566124000003
 20
205.1327460000011
 30
0.0
 11
515.8519403999998
 21
207.1300050000009
 31
0.0
  0
LINE
  5
DF06
330
1F
100
AcDbEntity
  8
KANAMONO_SCREW
100
AcDbLine
 10
515.8519403999998
 20
207.1300050000009
 30
0.0
 11
513.8546814000001
 21
207.0253329999996
 31
0.0
  0
LINE
  5
DF07
330
1F
100
AcDbEntity
  8
KANAMONO_SCREW
100
AcDbLine
 10
513.8546814000001
 20
207.0253329999996
 30
0.0
 11
513.7500094000006
 21
209.0225920000011
 31
0.0
  0
LINE
  5
DF08
330
1F
100
AcDbEntity
  8
KANAMONO_SCREW
100
AcDbLine
 10
513.7500094000006
 20
209.0225920000011
 30
0.0
 11
515.4903854000004
 21
209.9372359999998
 31
0.0
  0
LINE
  5
DF09
330
1F
100
AcDbEntity
  8
KANAMONO_SCREW
100
AcDbLine
 10
515.4903854000004
 20
209.9372359999998
 30
0.0
 11
515.4903854000004
 21
213.9372359999998
 31
0.0
  0
LINE
  5
DF0A
330
1F
100
AcDbEntity
  8
KANAMONO_SCREW
100
AcDbLine
 10
515.4903854000004
 20
213.9372359999998
 30
0.0
 11
515.4903854000004
 21
216.9372359999997
 31
0.0
  0
LINE
  5
DF0B
330
1F
100
AcDbEntity
  8
KANAMONO_SCREW
100
AcDbLine
 10
515.4903854000004
 20
216.9372359999997
 30
0.0
 11
516.4903854000003
 21
221.9372359999998
 31
0.0
  0
LINE
  5
DF0C
330
1F
100
AcDbEntity
  8
KANAMONO_SCREW
100
AcDbLine
 10
516.4903854000003
 20
221.9372359999998
 30
0.0
 11
511.4903854000004
 21
221.9372359999998
 31
0.0
  0
LINE
  5
DF0D
330
1F
100
AcDbEntity
  8
KANAMONO_SCREW
100
AcDbLine
 10
511.4903854000004
 20
221.9372359999998
 30
0.0
 11
506.4903854000004
 21
221.9372359999998
 31
0.0
  0
LINE
  5
DF0E
330
1F
100
AcDbEntity
  8
KANAMONO_SCREW
100
AcDbLine
 10
506.4903854000004
 20
221.9372359999998
 30
0.0
 11
507.4903854000003
 21
216.9372359999997
 31
0.0
  0
LINE
  5
DF0F
330
1F
100
AcDbEntity
  8
KANAMONO_SCREW
100
AcDbLine
 10
507.4903854000003
 20
216.9372359999997
 30
0.0
 11
507.4903854000003
 21
213.9372359999998
 31
0.0
  0
LINE
  5
DF10
330
1F
100
AcDbEntity
  8
KANAMONO_SCREW
100
AcDbLine
 10
507.4903854000003
 20
213.9372359999998
 30
0.0
 11
507.4903854000003
 21
209.9372359999998
 31
0.0
  0
LINE
  5
DF11
330
1F
100
AcDbEntity
  8
KANAMONO_SCREW
100
AcDbLine
 10
507.4903854000003
 20
209.9372359999998
 30
0.0
 11
509.2307614
 21
209.0225920000011
 31
0.0
  0
LINE
  5
DF12
330
1F
100
AcDbEntity
  8
KANAMONO_SCREW
100
AcDbLine
 10
509.2307614
 20
209.0225920000011
 30
0.0
 11
509.1260894000006
 21
207.0253329999996
 31
0.0
  0
LINE
  5
DF13
330
1F
100
AcDbEntity
  8
KANAMONO_SCREW
100
AcDbLine
 10
509.1260894000006
 20
207.0253329999996
 30
0.0
 11
507.1288303999999
 21
207.1300050000009
 31
0.0
  0
LINE
  5
DF14
330
1F
100
AcDbEntity
  8
KANAMONO_SCREW
100
AcDbLine
 10
507.1288303999999
 20
207.1300050000009
 30
0.0
 11
507.0241583999996
 21
205.1327460000011
 31
0.0
  0
LINE
  5
DF15
330
1F
100
AcDbEntity
  8
KANAMONO_SCREW
100
AcDbLine
 10
507.0241583999996
 20
205.1327460000011
 30
0.0
 11
508.9690823999999
 21
204.0294440000016
 31
0.0
  0
LINE
  5
DF16
330
1F
100
AcDbEntity
  8
KANAMONO_SCREW
100
AcDbLine
 10
508.9690823999999
 20
204.0294440000016
 30
0.0
 11
508.8644103999995
 21
202.032185
 31
0.0
  0
LINE
  5
DF17
330
1F
100
AcDbEntity
  8
KANAMONO_SCREW
100
AcDbLine
 10
508.8644103999995
 20
202.032185
 30
0.0
 11
506.8671513999998
 21
202.1368570000013
 31
0.0
  0
LINE
  5
DF18
330
1F
100
AcDbEntity
  8
KANAMONO_SCREW
100
AcDbLine
 10
506.8671513999998
 20
202.1368570000013
 30
0.0
 11
506.7624794000002
 21
200.1395979999998
 31
0.0
  0
LINE
  5
DF19
330
1F
100
AcDbEntity
  8
KANAMONO_SCREW
100
AcDbLine
 10
506.7624794000002
 20
200.1395979999998
 30
0.0
 11
508.7074023999994
 21
199.0362960000002
 31
0.0
  0
LINE
  5
DF1A
330
1F
100
AcDbEntity
  8
KANAMONO_SCREW
100
AcDbLine
 10
508.7074023999994
 20
199.0362960000002
 30
0.0
 11
508.6027303999999
 21
197.0390370000004
 31
0.0
  0
LINE
  5
DF1B
330
1F
100
AcDbEntity
  8
KANAMONO_SCREW
100
AcDbLine
 10
508.6027303999999
 20
197.0390370000004
 30
0.0
 11
506.6054714000001
 21
197.1437089999999
 31
0.0
  0
LINE
  5
DF1C
330
1F
100
AcDbEntity
  8
KANAMONO_SCREW
100
AcDbLine
 10
506.6054714000001
 20
197.1437089999999
 30
0.0
 11
506.5007994000007
 21
195.1464500000002
 31
0.0
  0
LINE
  5
DF1D
330
1F
100
AcDbEntity
  8
KANAMONO_SCREW
100
AcDbLine
 10
506.5007994000007
 20
195.1464500000002
 30
0.0
 11
508.4457223999997
 21
194.043149000001
 31
0.0
  0
LINE
  5
DF1E
330
1F
100
AcDbEntity
  8
KANAMONO_SCREW
100
AcDbLine
 10
508.4457223999997
 20
194.043149000001
 30
0.0
 11
508.3410504000003
 21
192.0458900000012
 31
0.0
  0
LINE
  5
DF1F
330
1F
100
AcDbEntity
  8
KANAMONO_SCREW
100
AcDbLine
 10
508.3410504000003
 20
192.0458900000012
 30
0.0
 11
506.3437914000005
 21
192.1505620000007
 31
0.0
  0
LINE
  5
DF20
330
1F
100
AcDbEntity
  8
KANAMONO_SCREW
100
AcDbLine
 10
506.3437914000005
 20
192.1505620000007
 30
0.0
 11
506.2391194000001
 21
190.1533030000009
 31
0.0
  0
ARC
  5
DF21
330
1F
100
AcDbEntity
  8
KANAMONO_SCREW
 48
20.0
100
AcDbCircle
 10
512.9931518403493
 20
232.8735269019519
 30
0.0
 40
2.999996524121709
100
AcDbArc
 50
2.458911608832009
 51
51.38541751255226
  0
ARC
  5
DF22
330
1F
100
AcDbEntity
  8
KANAMONO_SCREW
 48
20.0
100
AcDbCircle
 10
511.4903853999999
 20
231.0022384928434
 30
0.0
 40
5.399997507157105
100
AcDbArc
 50
51.317795166881
 51
128.682204833119
  0
ARC
  5
DF23
330
1F
100
AcDbEntity
  8
KANAMONO_SCREW
 48
20.0
100
AcDbCircle
 10
509.9876189596504
 20
232.8735269019519
 30
0.0
 40
2.999996524121712
100
AcDbArc
 50
128.6145824874477
 51
177.541088391168
  0
LINE
  5
DF24
330
1F
100
AcDbEntity
  8
KANAMONO_SCREW
 48
20.0
100
AcDbLine
 10
498.9903854000004
 20
233.0022360000003
 30
0.0
 11
523.9903854000004
 21
233.0022360000003
 31
0.0
  0
LINE
  5
DF25
330
1F
100
AcDbEntity
  8
KANAMONO_SCREW
 48
20.0
100
AcDbLine
 10
523.9903854000004
 20
233.0022360000003
 30
0.0
 11
523.9903854000004
 21
232.0022360000002
 31
0.0
  0
LINE
  5
DF26
330
1F
100
AcDbEntity
  8
KANAMONO_SCREW
 48
20.0
100
AcDbLine
 10
523.9903854000004
 20
232.0022360000002
 30
0.0
 11
498.9903854000004
 21
232.0022360000002
 31
0.0
  0
LINE
  5
DF27
330
1F
100
AcDbEntity
  8
KANAMONO_SCREW
 48
20.0
100
AcDbLine
 10
498.9903854000004
 20
232.0022360000002
 30
0.0
 11
498.9903854000004
 21
233.0022360000003
 31
0.0
  0
LINE
  5
DF28
330
1F
100
AcDbEntity
  8
SUNPO
100
AcDbLine
 10
511.4903854000004
 20
240.4022360000003
 30
0.0
 11
511.4903854000004
 21
279.2717661527631
 31
0.0
  0
LINE
  5
DF29
330
1F
100
AcDbEntity
  8
SUNPO
100
AcDbLine
 10
551.4903854000003
 20
267.2083333333339
 30
0.0
 11
551.4903854000003
 21
279.2717661527631
 31
0.0
  0
LINE
  5
DF2A
330
1F
100
AcDbEntity
  8
SUNPO
100
AcDbLine
 10
514.6903854000004
 20
279.2717661527631
 30
0.0
 11
548.2903854000003
 21
279.2717661527631
 31
0.0
  0
INSERT
  5
DF2B
330
1F
100
AcDbEntity
  8
SUNPO
100
AcDbBlockReference
  2
_DOT
 10
511.4903854000004
 20
279.2717661527631
 30
0.0
 41
3.2
 42
3.2
 43
3.2
 50
180.0
  0
INSERT
  5
DF2C
330
1F
100
AcDbEntity
  8
SUNPO
100
AcDbBlockReference
  2
_DOT
 10
551.4903854000003
 20
279.2717661527631
 30
0.0
 41
3.2
 42
3.2
 43
3.2
  0
MTEXT
  5
DF2D
330
1F
100
AcDbEntity
  8
SUNPO
100
AcDbMText
 10
531.4903854000004
 20
283.6717661527631
 30
0.0
 40
8.0
 41
0.0
 71
     5
 72
     1
  1
\A1;40
  7
MSゴシック
 73
     1
 44
1.0
1001
ACAD
1000
MTEXTBEGIN
1070
    73
1070
     1
1070
    44
1040
1.0
1070
    74
1070
     0
1000
MTEXTEND
  0
LINE
  5
DF2E
330
1F
100
AcDbEntity
  8
SUNPO
100
AcDbLine
 10
551.4903854000003
 20
267.2083333333339
 30
0.0
 11
551.4903854000003
 21
279.2717661527631
 31
0.0
  0
LINE
  5
DF2F
330
1F
100
AcDbEntity
  8
SUNPO
100
AcDbLine
 10
591.4903853999994
 20
240.4022360000001
 30
0.0
 11
591.4903853999994
 21
279.2717661527631
 31
0.0
  0
LINE
  5
DF30
330
1F
100
AcDbEntity
  8
SUNPO
100
AcDbLine
 10
554.6903854000004
 20
279.2717661527631
 30
0.0
 11
588.2903853999994
 21
279.2717661527631
 31
0.0
  0
INSERT
  5
DF31
330
1F
100
AcDbEntity
  8
SUNPO
100
AcDbBlockReference
  2
_DOT
 10
551.4903854000003
 20
279.2717661527631
 30
0.0
 41
3.2
 42
3.2
 43
3.2
 50
180.0
  0
INSERT
  5
DF32
330
1F
100
AcDbEntity
  8
SUNPO
100
AcDbBlockReference
  2
_DOT
 10
591.4903853999994
 20
279.2717661527631
 30
0.0
 41
3.2
 42
3.2
 43
3.2
  0
MTEXT
  5
DF33
330
1F
100
AcDbEntity
  8
SUNPO
100
AcDbMText
 10
571.4903853999999
 20
283.6717661527631
 30
0.0
 40
8.0
 41
0.0
 71
     5
 72
     1
  1
\A1;40
  7
MSゴシック
 73
     1
 44
1.0
1001
ACAD
1000
MTEXTBEGIN
1070
    73
1070
     1
1070
    44
1040
1.0
1070
    74
1070
     0
1000
MTEXTEND
  0
LINE
  5
DF34
330
1F
100
AcDbEntity
  8
WAKU
100
AcDbLine
 10
1104.0
 20
716.0
 30
0.0
 11
0.0
 21
716.0
 31
0.0
  0
LINE
  5
DF35
330
1F
100
AcDbEntity
  8
WAKU
100
AcDbLine
 10
0.0
 20
716.0
 30
0.0
 11
0.0
 21
764.0
 31
0.0
  0
LINE
  5
DF36
330
1F
100
AcDbEntity
  8
WAKU
100
AcDbLine
 10
0.0
 20
764.0
 30
0.0
 11
1104.0
 21
764.0
 31
0.0
  0
LINE
  5
DF37
330
1F
100
AcDbEntity
  8
WAKU
100
AcDbLine
 10
1104.0
 20
764.0
 30
0.0
 11
1104.0
 21
716.0
 31
0.0
  0
LINE
  5
DF38
330
1F
100
AcDbEntity
  8
WAKU
100
AcDbLine
 10
0.0
 20
0.0
 30
0.0
 11
1104.0
 21
0.0
 31
0.0
  0
LINE
  5
DF39
330
1F
100
AcDbEntity
  8
WAKU
100
AcDbLine
 10
1104.0
 20
0.0
 30
0.0
 11
1104.0
 21
764.0
 31
0.0
  0
LINE
  5
DF3A
330
1F
100
AcDbEntity
  8
WAKU
100
AcDbLine
 10
1104.0
 20
764.0
 30
0.0
 11
0.0
 21
764.0
 31
0.0
  0
LINE
  5
DF3B
330
1F
100
AcDbEntity
  8
WAKU
100
AcDbLine
 10
0.0
 20
764.0
 30
0.0
 11
0.0
 21
0.0
 31
0.0
  0
ENDSEC
  0
SECTION
  2
OBJECTS
  0
DICTIONARY
  5
C
330
0
100
AcDbDictionary
281
     1
  3
ACAD_CIP_PREVIOUS_PRODUCT_INFO
350
D9B2
  3
ACAD_COLOR
350
52EF
  3
ACAD_DETAILVIEWSTYLE
350
D9AD
  3
ACAD_GROUP
350
D
  3
ACAD_LAYOUT
350
1A
  3
ACAD_MATERIAL
350
52C2
  3
ACAD_MLEADERSTYLE
350
5304
  3
ACAD_MLINESTYLE
350
17
  3
ACAD_PLOTSETTINGS
350
19
  3
ACAD_PLOTSTYLENAME
350
E
  3
ACAD_SCALELIST
350
52F2
  3
ACAD_SECTIONVIEWSTYLE
350
D9AB
  3
ACAD_TABLESTYLE
350
52F0
  3
ACAD_VISUALSTYLE
350
52DB
  3
ACDB_RECOMPOSE_DATA
350
DF3E
  3
AcDbVariableDictionary
350
1835
  3
AEC_PROPERTY_SET_DEFS
350
6AAF
  3
DWGPROPS
350
DF3F
  0
DICTIONARY
  5
8D16
330
8
100
AcDbDictionary
280
     1
281
     1
  0
DICTIONARY
  5
2D
330
2
100
AcDbDictionary
280
     1
281
     1
  3
ACAD_LAYERFILTERS
360
2E
  3
ACAD_LAYERSTATES
360
918
  0
DICTIONARY
  5
8D05
330
10
100
AcDbDictionary
280
     1
281
     1
  3
ADSK_XREC_LAYER_RECONCILED
360
8D06
  0
DICTIONARY
  5
8D07
330
2388
100
AcDbDictionary
280
     1
281
     1
  3
ADSK_XREC_LAYER_RECONCILED
360
8D08
  0
DICTIONARY
  5
8D09
330
2389
100
AcDbDictionary
280
     1
281
     1
  3
ADSK_XREC_LAYER_RECONCILED
360
8D0A
  0
DICTIONARY
  5
8D0B
330
238A
100
AcDbDictionary
280
     1
281
     1
  3
ADSK_XREC_LAYER_RECONCILED
360
8D0C
  0
DICTIONARY
  5
8D0D
330
238B
100
AcDbDictionary
280
     1
281
     1
  3
ADSK_XREC_LAYER_RECONCILED
360
8D0E
  0
DICTIONARY
  5
603A
330
6039
100
AcDbDictionary
280
     1
281
     1
  3
ADSK_XREC_LAYER_RECONCILED
360
8D10
  0
DICTIONARY
  5
D9B4
330
D9B3
100
AcDbDictionary
280
     1
281
     1
  0
DICTIONARY
  5
1C62
330
1F
100
AcDbDictionary
280
     1
281
     1
  3
ACAD_SORTENTS
360
1C63
  0
XRECORD
  5
D9B2
102
{ACAD_REACTORS
330
C
102
}
330
C
100
AcDbXrecord
280
     1
300
ACD
300
2022
300

  0
DICTIONARY
  5
52EF
102
{ACAD_REACTORS
330
C
102
}
330
C
100
AcDbDictionary
281
     1
  0
DICTIONARY
  5
D9AD
102
{ACAD_REACTORS
330
C
102
}
330
C
100
AcDbDictionary
281
     1
  3
Metric50
350
D9AE
  0
DICTIONARY
  5
D
102
{ACAD_REACTORS
330
C
102
}
330
C
100
AcDbDictionary
281
     1
  0
DICTIONARY
  5
1A
102
{ACAD_REACTORS
330
C
102
}
330
C
100
AcDbDictionary
281
     1
  3
Model
350
22
  3
\U+FF9A\U+FF72\U+FF71\U+FF73\U+FF841
350
1CD1
  0
DICTIONARY
  5
52C2
102
{ACAD_REACTORS
330
C
102
}
330
C
100
AcDbDictionary
281
     1
  3
ByBlock
350
52CB
  3
ByLayer
350
52C3
  3
Global
350
52D3
  0
DICTIONARY
  5
5304
102
{ACAD_REACTORS
330
C
102
}
330
C
100
AcDbDictionary
281
     1
  3
Standard
350
5305
  0
DICTIONARY
  5
17
102
{ACAD_REACTORS
330
C
102
}
330
C
100
AcDbDictionary
281
     1
  3
Standard
350
18
  0
DICTIONARY
  5
19
102
{ACAD_REACTORS
330
C
102
}
330
C
100
AcDbDictionary
281
     1
  0
ACDBDICTIONARYWDFLT
  5
E
102
{ACAD_REACTORS
330
C
102
}
330
C
100
AcDbDictionary
281
     1
  3
Normal
350
F
  3
通常
350
29
100
AcDbDictionaryWithDefault
340
F
  0
DICTIONARY
  5
52F2
102
{ACAD_REACTORS
330
C
102
}
330
C
100
AcDbDictionary
281
     1
  3
A0
350
52F3
  3
A1
350
52F4
  3
A2
350
52F5
  3
A3
350
52F6
  3
A4
350
52F7
  3
A5
350
52F8
  3
A6
350
52F9
  3
A7
350
52FA
  3
A8
350
52FB
  3
A9
350
52FC
  3
B0
350
52FD
  3
B1
350
52FE
  3
B2
350
52FF
  3
B3
350
5300
  3
B4
350
5301
  3
B5
350
5302
  3
B6
350
5303
  0
DICTIONARY
  5
D9AB
102
{ACAD_REACTORS
330
C
102
}
330
C
100
AcDbDictionary
281
     1
  3
Metric50
350
D9AC
  0
DICTIONARY
  5
52F0
102
{ACAD_REACTORS
330
C
102
}
330
C
100
AcDbDictionary
281
     1
  3
Standard
350
52F1
  0
DICTIONARY
  5
52DB
102
{ACAD_REACTORS
330
C
102
}
330
C
100
AcDbDictionary
281
     1
  3
2dWireframe
350
52E1
  3
3D Hidden
350
52E3
  3
3dWireframe
350
52E2
  3
Basic
350
52E0
  3
Brighten
350
52E7
  3
ColorChange
350
52EB
  3
Conceptual
350
52E4
  3
Dim
350
52E6
  3
EdgeColorOff
350
52EE
  3
Facepattern
350
52EA
  3
Flat
350
52DC
  3
FlatWithEdges
350
52DD
  3
Gouraud
350
52DE
  3
GouraudWithEdges
350
52DF
  3
Hidden
350
D9A5
  3
JitterOff
350
52EC
  3
Linepattern
350
52E9
  3
OverhangOff
350
52ED
  3
Realistic
350
52E5
  3
Shaded
350
D9AA
  3
Shaded with edges
350
D9A9
  3
Shades of Gray
350
D9A6
  3
Sketchy
350
D9A7
  3
Thicken
350
52E8
  3
Wireframe
350
D9A4
  3
X-Ray
350
D9A8
  0
XRECORD
  5
DF3E
102
{ACAD_REACTORS
330
C
102
}
330
C
100
AcDbXrecord
280
     1
 90
        1
330
52F1
  0
DICTIONARY
  5
1835
102
{ACAD_REACTORS
330
C
102
}
330
C
100
AcDbDictionary
281
     1
  3
CANNOSCALE
350
8D49
  3
CMLEADERSTYLE
350
8D48
  3
CTABLESTYLE
350
8D47
  3
CVIEWDETAILSTYLE
350
DAC5
  3
CVIEWSECTIONSTYLE
350
DAC6
  3
DIMASSOC
350
8D4B
  3
INDEXCTL
350
8D4A
  3
SORTENTS
350
1836
  3
XCLIPFRAME
350
DF3C
  0
DICTIONARY
  5
6AAF
102
{ACAD_REACTORS
330
C
102
}
330
C
100
AcDbDictionary
281
     1
  0
XRECORD
  5
DF3F
102
{ACAD_REACTORS
330
C
102
}
330
C
100
AcDbXrecord
280
     1
  1
DWGPROPS COOKIE
  2

  3

  4

  6

  7

  8
2020009
  9

300
=
301
=
302
=
303
=
304
=
305
=
306
=
307
=
308
=
309
=
 40
0.2376857986111111
 41
2453276.413761574
 42
2459975.542060185
  1

 90
        0
  0
DICTIONARY
  5
2E
102
{ACAD_REACTORS
330
2D
102
}
330
2D
100
AcDbDictionary
280
     1
281
     1
  0
DICTIONARY
  5
918
102
{ACAD_REACTORS
330
2D
102
}
330
2D
100
AcDbDictionary
281
     1
  0
XRECORD
  5
8D06
102
{ACAD_REACTORS
330
8D05
102
}
330
8D05
100
AcDbXrecord
280
     1
290
     1
  0
XRECORD
  5
8D08
102
{ACAD_REACTORS
330
8D07
102
}
330
8D07
100
AcDbXrecord
280
     1
290
     1
  0
XRECORD
  5
8D0A
102
{ACAD_REACTORS
330
8D09
102
}
330
8D09
100
AcDbXrecord
280
     1
290
     1
  0
XRECORD
  5
8D0C
102
{ACAD_REACTORS
330
8D0B
102
}
330
8D0B
100
AcDbXrecord
280
     1
290
     1
  0
XRECORD
  5
8D0E
102
{ACAD_REACTORS
330
8D0D
102
}
330
8D0D
100
AcDbXrecord
280
     1
290
     1
  0
XRECORD
  5
8D10
102
{ACAD_REACTORS
330
603A
102
}
330
603A
100
AcDbXrecord
280
     1
290
     1
  0
SORTENTSTABLE
  5
1C63
102
{ACAD_REACTORS
330
1C62
102
}
330
1C62
100
AcDbSortentsTable
330
1F
331
D6CE
  5
D6D4
331
D6CF
  5
D6D5
331
D6D0
  5
D6D6
331
D6D2
  5
D6DA
331
D6D4
  5
D6E3
331
D6D5
  5
D6E4
331
D6D6
  5
D6E5
331
D6D7
  5
D6E6
331
D6D8
  5
D6E7
331
D6DA
  5
D6ED
331
D6DB
  5
D6EE
331
D6DD
  5
DE0A
331
D6E0
  5
DE12
331
D6E1
  5
DE13
331
D6E2
  5
DE14
331
D6E3
  5
DE15
331
D6E4
  5
DE16
331
D6E5
  5
DE17
331
D6E6
  5
DE18
331
D6E7
  5
DE19
331
D6E8
  5
DE1A
331
D6E9
  5
DE1B
331
D6EA
  5
DE1C
331
D6EB
  5
DE1D
331
D6EC
  5
DE1E
331
D6ED
  5
DE1F
331
D6EE
  5
DE20
331
D6EF
  5
DE21
331
D6F0
  5
DE22
331
D6F1
  5
DE23
331
D6F2
  5
DE24
331
D6F3
  5
DE25
331
D6F4
  5
DE26
331
D6F5
  5
DE27
331
D6F6
  5
DE28
331
D6F7
  5
DE29
331
D6F8
  5
DE2A
331
D6F9
  5
DE2B
331
D6FA
  5
DE2C
331
D6FB
  5
DE2D
331
D6FC
  5
DE2E
331
D6FD
  5
DE2F
331
D709
  5
DEAB
331
D70A
  5
DEAC
331
D70D
  5
DEB8
331
D70E
  5
DEB9
331
D710
  5
DEBC
331
D712
  5
DEC2
331
D713
  5
DEC3
331
D714
  5
DEC4
331
D715
  5
DEC5
331
D716
  5
DEC6
331
D718
  5
DECC
331
D719
  5
DECD
331
D71B
  5
DF06
331
D720
  5
DF1A
331
D721
  5
DF1B
331
D722
  5
DF1C
331
D723
  5
DF1D
331
D724
  5
DF1E
331
D725
  5
DF1F
331
D726
  5
DF20
331
D727
  5
DF21
331
D728
  5
DF22
331
D729
  5
DF23
331
D72A
  5
DF24
331
D72B
  5
DF25
331
D72C
  5
DF26
331
D72D
  5
DF27
331
D72E
  5
DF28
331
D72F
  5
DF29
331
D730
  5
DF2A
331
D731
  5
DF2B
331
D732
  5
DF2C
331
D733
  5
DF2D
331
D734
  5
DF2E
331
D9C9
  5
DF33
331
D9CA
  5
DF34
331
D9CC
  5
DF39
331
D9CD
  5
DF3A
331
D9CE
  5
DF3B
331
DE08
  5
D6CE
331
DE09
  5
D6CF
331
DE0A
  5
D6D0
331
DE0B
  5
D6D2
331
DE0C
  5
D6D7
331
DE0D
  5
D6D8
331
DE0E
  5
D6DB
331
DE0F
  5
D6DD
331
DE10
  5
D6E0
331
DE11
  5
D6E1
331
DE12
  5
D6E2
331
DE13
  5
D6E8
331
DE14
  5
D6E9
331
DE15
  5
D6EA
331
DE16
  5
D6EB
331
DE17
  5
D6EC
331
DE18
  5
D6EF
331
DE19
  5
D6F0
331
DE1A
  5
D6F1
331
DE1B
  5
D6F2
331
DE1C
  5
D6F3
331
DE1D
  5
D6F4
331
DE1E
  5
D6F5
331
DE1F
  5
D6F6
331
DE20
  5
D6F7
331
DE21
  5
D6F8
331
DE22
  5
D6F9
331
DE23
  5
D6FA
331
DE24
  5
D6FB
331
DE25
  5
D6FC
331
DE26
  5
D6FD
331
DE27
  5
D709
331
DE28
  5
D70A
331
DE29
  5
D70D
331
DE2A
  5
D70E
331
DE2B
  5
D710
331
DE2C
  5
D712
331
DE2D
  5
D713
331
DE2E
  5
D714
331
DE2F
  5
D715
331
DE30
  5
D716
331
DE31
  5
D718
331
DE32
  5
D719
331
DE33
  5
D71B
331
DE34
  5
D720
331
DE35
  5
D721
331
DE36
  5
D722
331
DE37
  5
D723
331
DE38
  5
D724
331
DE39
  5
D725
331
DE3A
  5
D726
331
DE3B
  5
D727
331
DE3C
  5
D728
331
DE3D
  5
D729
331
DE3E
  5
D72A
331
DE3F
  5
D72B
331
DE40
  5
D72C
331
DE41
  5
D72D
331
DE42
  5
D72E
331
DE43
  5
D72F
331
DE44
  5
D730
331
DE45
  5
D731
331
DE46
  5
D732
331
DE47
  5
D733
331
DE48
  5
D734
331
DE49
  5
D9C9
331
DE4A
  5
D9CA
331
DE4B
  5
D9CC
331
DE4C
  5
D9CD
331
DE4D
  5
D9CE
331
DE4E
  5
DE08
331
DE4F
  5
DE09
331
DE50
  5
DE0B
331
DE51
  5
DE0C
331
DE52
  5
DE0D
331
DE53
  5
DE0E
331
DE54
  5
DE0F
331
DE55
  5
DE10
331
DE56
  5
DE11
331
DE57
  5
DE30
331
DE58
  5
DE31
331
DE59
  5
DE32
331
DE5A
  5
DE33
331
DE5B
  5
DE34
331
DE5C
  5
DE35
331
DE5D
  5
DE36
331
DE5E
  5
DE37
331
DE5F
  5
DE38
331
DE60
  5
DE39
331
DE61
  5
DE3A
331
DE62
  5
DE3B
331
DE63
  5
DE3C
331
DE64
  5
DE3D
331
DE65
  5
DE3E
331
DE66
  5
DE3F
331
DE67
  5
DE40
331
DE68
  5
DE41
331
DE69
  5
DE42
331
DE6A
  5
DE43
331
DE6B
  5
DE44
331
DE6C
  5
DE45
331
DE6D
  5
DE46
331
DE6E
  5
DE47
331
DE6F
  5
DE48
331
DE70
  5
DE49
331
DE71
  5
DE4A
331
DE72
  5
DE4B
331
DE73
  5
DE4C
331
DE74
  5
DE4D
331
DE75
  5
DE4E
331
DE76
  5
DE4F
331
DE77
  5
DE50
331
DE78
  5
DE51
331
DE79
  5
DE52
331
DE7A
  5
DE53
331
DE7B
  5
DE54
331
DE7C
  5
DE55
331
DE7D
  5
DE56
331
DE7E
  5
DE57
331
DE7F
  5
DE58
331
DE80
  5
DE59
331
DE81
  5
DE5A
331
DE82
  5
DE5B
331
DE83
  5
DE5C
331
DE84
  5
DE5D
331
DE85
  5
DE5E
331
DE86
  5
DE5F
331
DE87
  5
DE60
331
DE88
  5
DE61
331
DE89
  5
DE62
331
DE8A
  5
DE63
331
DE8B
  5
DE64
331
DE8C
  5
DE65
331
DE8D
  5
DE66
331
DE8E
  5
DE67
331
DE8F
  5
DE68
331
DE90
  5
DE69
331
DE91
  5
DE6A
331
DE92
  5
DE6B
331
DE93
  5
DE6C
331
DE94
  5
DE6D
331
DE95
  5
DE6E
331
DE96
  5
DE6F
331
DE97
  5
DE70
331
DE98
  5
DE71
331
DE99
  5
DE72
331
DE9A
  5
DE73
331
DE9B
  5
DE74
331
DE9C
  5
DE75
331
DE9D
  5
DE76
331
DE9E
  5
DE77
331
DE9F
  5
DE78
331
DEA0
  5
DE79
331
DEA1
  5
DE7A
331
DEA2
  5
DE7B
331
DEA3
  5
DE7C
331
DEA4
  5
DE7D
331
DEA5
  5
DE7E
331
DEA6
  5
DE7F
331
DEA7
  5
DE80
331
DEA8
  5
DE81
331
DEA9
  5
DE82
331
DEAA
  5
DE83
331
DEAB
  5
DE84
331
DEAC
  5
DE85
331
DEAD
  5
DE86
331
DEAE
  5
DE87
331
DEAF
  5
DE88
331
DEB0
  5
DE89
331
DEB1
  5
DE8A
331
DEB2
  5
DE8B
331
DEB3
  5
DE8C
331
DEB4
  5
DE8D
331
DEB5
  5
DE8E
331
DEB6
  5
DE8F
331
DEB7
  5
DE90
331
DEB8
  5
DE91
331
DEB9
  5
DE92
331
DEBA
  5
DE93
331
DEBB
  5
DE94
331
DEBC
  5
DE95
331
DEBD
  5
DE96
331
DEBE
  5
DE97
331
DEBF
  5
DE98
331
DEC0
  5
DE99
331
DEC1
  5
DE9A
331
DEC2
  5
DE9B
331
DEC3
  5
DE9C
331
DEC4
  5
DE9D
331
DEC5
  5
DE9E
331
DEC6
  5
DE9F
331
DEC7
  5
DEA0
331
DEC8
  5
DEA1
331
DEC9
  5
DEA2
331
DECA
  5
DEA3
331
DECB
  5
DEA4
331
DECC
  5
DEA5
331
DECD
  5
DEA6
331
DECE
  5
DEA7
331
DECF
  5
DEA8
331
DED0
  5
DEA9
331
DED1
  5
DEAA
331
DED2
  5
DEAD
331
DED3
  5
DEAE
331
DED4
  5
DEAF
331
DED5
  5
DEB0
331
DED6
  5
DEB1
331
DED7
  5
DEB2
331
DED8
  5
DEB3
331
DED9
  5
DEB4
331
DEDA
  5
DEB5
331
DEDB
  5
DEB6
331
DEDC
  5
DEB7
331
DEDD
  5
DEBA
331
DEDE
  5
DEBB
331
DEDF
  5
DEBD
331
DEE0
  5
DEBE
331
DEE1
  5
DEBF
331
DEE2
  5
DEC0
331
DEE3
  5
DEC1
331
DEE4
  5
DEC7
331
DEE5
  5
DEC8
331
DEE6
  5
DEC9
331
DEE7
  5
DECA
331
DEE8
  5
DECB
331
DEE9
  5
DECE
331
DEEA
  5
DECF
331
DEEB
  5
DED0
331
DEEC
  5
DED1
331
DEED
  5
DED2
331
DEEE
  5
DED3
331
DEEF
  5
DED4
331
DEF0
  5
DED5
331
DEF1
  5
DED6
331
DEF2
  5
DED7
331
DEF3
  5
DED8
331
DEF4
  5
DED9
331
DEF5
  5
DEDA
331
DEF6
  5
DEDB
331
DEF7
  5
DEDC
331
DEF8
  5
DEDD
331
DEF9
  5
DEDE
331
DEFA
  5
DEDF
331
DEFB
  5
DEE0
331
DEFC
  5
DEE1
331
DEFD
  5
DEE2
331
DEFE
  5
DEE3
331
DEFF
  5
DEE4
331
DF00
  5
DEE5
331
DF01
  5
DEE6
331
DF02
  5
DEE7
331
DF03
  5
DEE8
331
DF04
  5
DEE9
331
DF05
  5
DEEA
331
DF06
  5
DEEB
331
DF07
  5
DEEC
331
DF08
  5
DEED
331
DF09
  5
DEEE
331
DF0A
  5
DEEF
331
DF0B
  5
DEF0
331
DF0C
  5
DEF1
331
DF0D
  5
DEF2
331
DF0E
  5
DEF3
331
DF0F
  5
DEF4
331
DF10
  5
DEF5
331
DF11
  5
DEF6
331
DF12
  5
DEF7
331
DF13
  5
DEF8
331
DF14
  5
DEF9
331
DF15
  5
DEFA
331
DF16
  5
DEFB
331
DF17
  5
DEFC
331
DF18
  5
DEFD
331
DF19
  5
DEFE
331
DF1A
  5
DEFF
331
DF1B
  5
DF00
331
DF1C
  5
DF01
331
DF1D
  5
DF02
331
DF1E
  5
DF03
331
DF1F
  5
DF04
331
DF20
  5
DF05
331
DF21
  5
DF07
331
DF22
  5
DF08
331
DF23
  5
DF09
331
DF24
  5
DF0A
331
DF25
  5
DF0B
331
DF26
  5
DF0C
331
DF27
  5
DF0D
331
DF28
  5
DF0E
331
DF29
  5
DF0F
331
DF2A
  5
DF10
331
DF2B
  5
DF11
331
DF2C
  5
DF12
331
DF2D
  5
DF13
331
DF2E
  5
DF14
331
DF2F
  5
DF15
331
DF30
  5
DF16
331
DF31
  5
DF17
331
DF32
  5
DF18
331
DF33
  5
DF19
331
DF34
  5
DF2F
331
DF35
  5
DF30
331
DF36
  5
DF31
331
DF37
  5
DF32
331
DF38
  5
DF35
331
DF39
  5
DF36
331
DF3A
  5
DF37
331
DF3B
  5
DF38
  0
ACDBDETAILVIEWSTYLE
  5
D9AE
102
{ACAD_XDICTIONARY
360
DF7E
102
}
102
{ACAD_REACTORS
330
D9AD
102
}
330
D9AD
100
AcDbModelDocViewStyle
 70
     0
  3
Metric50
290
     0
100
AcDbDetailViewStyle
 70
     0
 71
     0
 90
        3
 71
     1
340
11
 40
5.0
340
0
 40
5.0
300

 40
0.0
280
     1
 71
     2
340
16
 90
       25
 71
     3
340
11
 40
5.0
 90
        0
 40
15.0
 90
        1
300
%<\AcVar ViewDetailId>% (%<\AcVar ViewScale \f "%sn">%)
 71
     4
340
16
 90
       25
340
16
 90
       25
280
     0
1001
ACAD
1000
AcRTDxfName
1000
ACDBDETAILVIEWSTYLE
  0
LAYOUT
  5
22
102
{ACAD_XDICTIONARY
360
DF40
102
}
102
{ACAD_REACTORS
330
1A
102
}
330
1A
100
AcDbPlotSettings
  1

  2
Canon LBP3800 LIPSLX
  4
A4
  6

 40
5.873749732971191
 41
5.873747825622558
 42
5.873748779296875
 43
5.873748779296875
 44
209.9733276367187
 45
296.9259948730469
 46
0.61
 47
0.59
 48
444.9983463649091
 49
-1090.000000918417
140
2395.001653364909
141
1659.999999081583
142
1.0
143
10.0
 70
 11940
 72
     1
 73
     1
 74
     2
  7
monochrome.ctb
 75
     0
147
0.1
148
0.0
149
0.0
100
AcDbLayout
  1
Model
 70
     1
 71
     0
 10
0.0
 20
0.0
 11
12.0
 21
9.0
 12
0.0
 22
0.0
 32
0.0
 14
0.0
 24
0.0
 34
0.0
 15
0.0
 25
0.0
 35
0.0
146
0.0
 13
0.0
 23
0.0
 33
0.0
 16
1.0
 26
0.0
 36
0.0
 17
0.0
 27
1.0
 37
0.0
 76
     0
330
1F
331
52C0
  0
LAYOUT
  5
1CD1
102
{ACAD_XDICTIONARY
360
DF42
102
}
102
{ACAD_REACTORS
330
1A
102
}
330
1A
100
AcDbPlotSettings
  1

  2
\\ek_srv\Canon LBP-880 LIPS4
  4

  6

 40
0.0
 41
0.0
 42
0.0
 43
0.0
 44
0.0
 45
0.0
 46
0.0
 47
0.0
 48
0.0
 49
0.0
140
0.0
141
0.0
142
1.0
143
1.0
 70
   688
 72
     0
 73
     0
 74
     5
  7
monochrome.ctb
 75
    16
147
1.0
148
0.0
149
0.0
100
AcDbLayout
  1
\U+FF9A\U+FF72\U+FF71\U+FF73\U+FF841
 70
     1
 71
     1
 10
0.0
 20
0.0
 11
12.0
 21
9.0
 12
0.0
 22
0.0
 32
0.0
 14
0.0
 24
0.0
 34
0.0
 15
0.0
 25
0.0
 35
0.0
146
0.0
 13
0.0
 23
0.0
 33
0.0
 16
1.0
 26
0.0
 36
0.0
 17
0.0
 27
1.0
 37
0.0
 76
     0
330
1CD0
  0
MATERIAL
  5
52CB
102
{ACAD_XDICTIONARY
360
52CC
102
}
102
{ACAD_REACTORS
330
52C2
102
}
330
52C2
100
AcDbMaterial
  1
ByBlock
 72
     0
 43
0.0008202099737533
 43
0.0
 43
0.0
 43
0.0
 43
0.0
 43
0.0008202099737533
 43
0.0
 43
0.0
 43
0.0
 43
0.0
 43
1.0
 43
0.0
 43
0.0
 43
0.0
 43
0.0
 43
1.0
 77
     0
 47
0.0008202099737533
 47
0.0
 47
0.0
 47
0.0
 47
0.0
 47
0.0008202099737533
 47
0.0
 47
0.0
 47
0.0
 47
0.0
 47
1.0
 47
0.0
 47
0.0
 47
0.0
 47
0.0
 47
1.0
171
     0
 49
0.0008202099737533
 49
0.0
 49
0.0
 49
0.0
 49
0.0
 49
0.0008202099737533
 49
0.0
 49
0.0
 49
0.0
 49
0.0
 49
1.0
 49
0.0
 49
0.0
 49
0.0
 49
0.0
 49
1.0
175
     0
142
0.0008202099737533
142
0.0
142
0.0
142
0.0
142
0.0
142
0.0008202099737533
142
0.0
142
0.0
142
0.0
142
0.0
142
1.0
142
0.0
142
0.0
142
0.0
142
0.0
142
1.0
179
     0
144
0.0008202099737533
144
0.0
144
0.0
144
0.0
144
0.0
144
0.0008202099737533
144
0.0
144
0.0
144
0.0
144
0.0
144
1.0
144
0.0
144
0.0
144
0.0
144
0.0
144
1.0
147
0.0008202099737533
147
0.0
147
0.0
147
0.0
147
0.0
147
0.0008202099737533
147
0.0
147
0.0
147
0.0
147
0.0
147
1.0
147
0.0
147
0.0
147
0.0
147
0.0
147
1.0
  0
MATERIAL
  5
52C3
102
{ACAD_XDICTIONARY
360
52C4
102
}
102
{ACAD_REACTORS
330
52C2
102
}
330
52C2
100
AcDbMaterial
  1
ByLayer
 72
     0
 43
0.0008202099737533
 43
0.0
 43
0.0
 43
0.0
 43
0.0
 43
0.0008202099737533
 43
0.0
 43
0.0
 43
0.0
 43
0.0
 43
1.0
 43
0.0
 43
0.0
 43
0.0
 43
0.0
 43
1.0
 77
     0
 47
0.0008202099737533
 47
0.0
 47
0.0
 47
0.0
 47
0.0
 47
0.0008202099737533
 47
0.0
 47
0.0
 47
0.0
 47
0.0
 47
1.0
 47
0.0
 47
0.0
 47
0.0
 47
0.0
 47
1.0
171
     0
 49
0.0008202099737533
 49
0.0
 49
0.0
 49
0.0
 49
0.0
 49
0.0008202099737533
 49
0.0
 49
0.0
 49
0.0
 49
0.0
 49
1.0
 49
0.0
 49
0.0
 49
0.0
 49
0.0
 49
1.0
175
     0
142
0.0008202099737533
142
0.0
142
0.0
142
0.0
142
0.0
142
0.0008202099737533
142
0.0
142
0.0
142
0.0
142
0.0
142
1.0
142
0.0
142
0.0
142
0.0
142
0.0
142
1.0
179
     0
144
0.0008202099737533
144
0.0
144
0.0
144
0.0
144
0.0
144
0.0008202099737533
144
0.0
144
0.0
144
0.0
144
0.0
144
1.0
144
0.0
144
0.0
144
0.0
144
0.0
144
1.0
147
0.0008202099737533
147
0.0
147
0.0
147
0.0
147
0.0
147
0.0008202099737533
147
0.0
147
0.0
147
0.0
147
0.0
147
1.0
147
0.0
147
0.0
147
0.0
147
0.0
147
1.0
  0
MATERIAL
  5
52D3
102
{ACAD_XDICTIONARY
360
52D4
102
}
102
{ACAD_REACTORS
330
52C2
102
}
330
52C2
100
AcDbMaterial
  1
Global
 72
     0
 43
0.0008202099737533
 43
0.0
 43
0.0
 43
0.0
 43
0.0
 43
0.0008202099737533
 43
0.0
 43
0.0
 43
0.0
 43
0.0
 43
1.0
 43
0.0
 43
0.0
 43
0.0
 43
0.0
 43
1.0
 77
     0
 47
0.0008202099737533
 47
0.0
 47
0.0
 47
0.0
 47
0.0
 47
0.0008202099737533
 47
0.0
 47
0.0
 47
0.0
 47
0.0
 47
1.0
 47
0.0
 47
0.0
 47
0.0
 47
0.0
 47
1.0
171
     0
 49
0.0008202099737533
 49
0.0
 49
0.0
 49
0.0
 49
0.0
 49
0.0008202099737533
 49
0.0
 49
0.0
 49
0.0
 49
0.0
 49
1.0
 49
0.0
 49
0.0
 49
0.0
 49
0.0
 49
1.0
175
     0
142
0.0008202099737533
142
0.0
142
0.0
142
0.0
142
0.0
142
0.0008202099737533
142
0.0
142
0.0
142
0.0
142
0.0
142
1.0
142
0.0
142
0.0
142
0.0
142
0.0
142
1.0
179
     0
144
0.0008202099737533
144
0.0
144
0.0
144
0.0
144
0.0
144
0.0008202099737533
144
0.0
144
0.0
144
0.0
144
0.0
144
1.0
144
0.0
144
0.0
144
0.0
144
0.0
144
1.0
147
0.0008202099737533
147
0.0
147
0.0
147
0.0
147
0.0
147
0.0008202099737533
147
0.0
147
0.0
147
0.0
147
0.0
147
1.0
147
0.0
147
0.0
147
0.0
147
0.0
147
1.0
  0
MLEADERSTYLE
  5
5305
102
{ACAD_REACTORS
330
5304
102
}
330
5304
100
AcDbMLeaderStyle
170
     2
171
     1
172
     0
 90
        2
 40
0.0
 41
0.0
173
     1
 91
-1056964608
340
14
 92
       -2
290
     1
 42
2.0
291
     1
 43
0.36
  3
Standard
 44
4.0
300

342
11
174
     1
178
     6
175
     1
176
     0
 93
-1056964608
 45
4.0
292
     0
297
     0
 46
4.0
 94
-1056964608
 47
1.0
 49
1.0
140
1.0
293
     1
141
0.0
294
     1
177
     0
142
1.0
295
     0
296
     0
143
0.125
1001
ACAD_MLEADERVER
1070
     2
  0
MLINESTYLE
  5
18
102
{ACAD_REACTORS
330
17
102
}
330
17
100
AcDbMlineStyle
  2
STANDARD
 70
     0
  3

 62
   256
 51
90.0
 52
90.0
 71
     2
 49
0.5
 62
   256
  6
BYLAYER
 49
-0.5
 62
   256
  6
BYLAYER
  0
ACDBPLACEHOLDER
  5
F
102
{ACAD_REACTORS
330
E
102
}
330
E
  0
ACDBPLACEHOLDER
  5
29
102
{ACAD_REACTORS
330
E
102
}
330
E
  0
SCALE
  5
52F3
102
{ACAD_REACTORS
330
52F2
102
}
330
52F2
100
AcDbScale
 70
     0
300
1:1
140
1.0
141
1.0
290
     1
  0
SCALE
  5
52F4
102
{ACAD_REACTORS
330
52F2
102
}
330
52F2
100
AcDbScale
 70
     0
300
1:2
140
1.0
141
2.0
290
     0
  0
SCALE
  5
52F5
102
{ACAD_REACTORS
330
52F2
102
}
330
52F2
100
AcDbScale
 70
     0
300
1:4
140
1.0
141
4.0
290
     0
  0
SCALE
  5
52F6
102
{ACAD_REACTORS
330
52F2
102
}
330
52F2
100
AcDbScale
 70
     0
300
1:5
140
1.0
141
5.0
290
     0
  0
SCALE
  5
52F7
102
{ACAD_REACTORS
330
52F2
102
}
330
52F2
100
AcDbScale
 70
     0
300
1:8
140
1.0
141
8.0
290
     0
  0
SCALE
  5
52F8
102
{ACAD_REACTORS
330
52F2
102
}
330
52F2
100
AcDbScale
 70
     0
300
1:10
140
1.0
141
10.0
290
     0
  0
SCALE
  5
52F9
102
{ACAD_REACTORS
330
52F2
102
}
330
52F2
100
AcDbScale
 70
     0
300
1:16
140
1.0
141
16.0
290
     0
  0
SCALE
  5
52FA
102
{ACAD_REACTORS
330
52F2
102
}
330
52F2
100
AcDbScale
 70
     0
300
1:20
140
1.0
141
20.0
290
     0
  0
SCALE
  5
52FB
102
{ACAD_REACTORS
330
52F2
102
}
330
52F2
100
AcDbScale
 70
     0
300
1:30
140
1.0
141
30.0
290
     0
  0
SCALE
  5
52FC
102
{ACAD_REACTORS
330
52F2
102
}
330
52F2
100
AcDbScale
 70
     0
300
1:40
140
1.0
141
40.0
290
     0
  0
SCALE
  5
52FD
102
{ACAD_REACTORS
330
52F2
102
}
330
52F2
100
AcDbScale
 70
     0
300
1:50
140
1.0
141
50.0
290
     0
  0
SCALE
  5
52FE
102
{ACAD_REACTORS
330
52F2
102
}
330
52F2
100
AcDbScale
 70
     0
300
1:100
140
1.0
141
100.0
290
     0
  0
SCALE
  5
52FF
102
{ACAD_REACTORS
330
52F2
102
}
330
52F2
100
AcDbScale
 70
     0
300
2:1
140
2.0
141
1.0
290
     0
  0
SCALE
  5
5300
102
{ACAD_REACTORS
330
52F2
102
}
330
52F2
100
AcDbScale
 70
     0
300
4:1
140
4.0
141
1.0
290
     0
  0
SCALE
  5
5301
102
{ACAD_REACTORS
330
52F2
102
}
330
52F2
100
AcDbScale
 70
     0
300
8:1
140
8.0
141
1.0
290
     0
  0
SCALE
  5
5302
102
{ACAD_REACTORS
330
52F2
102
}
330
52F2
100
AcDbScale
 70
     0
300
10:1
140
10.0
141
1.0
290
     0
  0
SCALE
  5
5303
102
{ACAD_REACTORS
330
52F2
102
}
330
52F2
100
AcDbScale
 70
     0
300
100:1
140
100.0
141
1.0
290
     0
  0
ACDBSECTIONVIEWSTYLE
  5
D9AC
102
{ACAD_XDICTIONARY
360
DF7C
102
}
102
{ACAD_REACTORS
330
D9AB
102
}
330
D9AB
100
AcDbModelDocViewStyle
 70
     0
  3
Metric50
290
     0
100
AcDbSectionViewStyle
 70
     0
 71
     0
 90
      102
 71
     1
340
11
 40
5.0
340
0
340
0
 40
5.0
300
I, O, Q, S, X, Z
 40
10.0
 90
        0
 40
2.5
 90
        0
 71
     2
340
16
 90
       25
340
16
 90
       50
 40
5.0
 40
2.5
 40
5.0
 71
     3
340
11
 40
5.0
 90
        0
 40
15.0
 90
        1
300
%<\AcVar ViewSectionStartId>%-%<\AcVar ViewSectionEndId>% (%<\AcVar ViewScale \f "%sn">%)
 71
     4
300
ANSI31
 40
1.0
 90
        0
290
     0
290
     0
 90
        6
 40
0.0
 40
1.570796326794896
 40
0.2617993877991494
 40
1.308996938995747
 40
-0.2617993877991494
 40
1.832595714594046
1001
ACAD
1000
AcRTDxfName
1000
ACDBSECTIONVIEWSTYLE
  0
TABLESTYLE
  5
52F1
102
{ACAD_XDICTIONARY
360
8D12
102
}
102
{ACAD_REACTORS
330
52F0
102
}
330
52F0
100
AcDbTableStyle
  3
Standard
 70
     0
 71
     0
 40
1.5
 41
1.5
280
     0
281
     0
  7
Standard
140
4.5
170
     2
 62
     0
 63
     7
283
     0
274
    -2
284
     1
 64
     0
275
    -2
285
     1
 65
     0
276
    -2
286
     1
 66
     0
277
    -2
287
     1
 67
     0
278
    -2
288
     1
 68
     0
279
    -2
289
     1
 69
     0
  7
Standard
140
6.0
170
     5
 62
     0
 63
     7
283
     0
274
    -2
284
     1
 64
     0
275
    -2
285
     1
 65
     0
276
    -2
286
     1
 66
     0
277
    -2
287
     1
 67
     0
278
    -2
288
     1
 68
     0
279
    -2
289
     1
 69
     0
  7
Standard
140
4.5
170
     5
 62
     0
 63
     7
283
     0
274
    -2
284
     1
 64
     0
275
    -2
285
     1
 65
     0
276
    -2
286
     1
 66
     0
277
    -2
287
     1
 67
     0
278
    -2
288
     1
 68
     0
279
    -2
289
     1
 69
     0
  0
VISUALSTYLE
  5
52E1
102
{ACAD_XDICTIONARY
360
DF51
102
}
102
{ACAD_REACTORS
330
52DB
102
}
330
52DB
100
AcDbVisualStyle
  2
2dWireframe
 70
     4
 71
     0
 72
     2
 73
     0
 90
        0
 40
-0.6
 41
-30.0
 62
     5
 63
     7
 74
     1
 91
        4
 64
     7
 65
   257
 75
     1
175
     1
 42
1.0
 92
        0
 66
   257
 43
1.0
 76
     1
 77
     6
 78
     2
 67
     7
 79
     5
170
     0
171
     0
290
     0
174
     0
 93
        1
 44
0.0
173
     0
291
     0
 45
0.0
1001
ACAD
1000
AcDbSavedByObjectVersion
1070
     0
  0
VISUALSTYLE
  5
52E3
102
{ACAD_XDICTIONARY
360
DF55
102
}
102
{ACAD_REACTORS
330
52DB
102
}
330
52DB
100
AcDbVisualStyle
  2
3D Hidden
 70
     6
 71
     1
 72
     2
 73
     2
 90
        0
 40
-0.6
 41
-30.0
 62
     5
 63
     7
 74
     2
 91
        2
 64
     7
 65
   257
 75
     2
175
     1
 42
179.0
 92
        0
 66
   257
 43
1.0
 76
     1
 77
     6
 78
     2
 67
     7
 79
     3
170
     0
171
     0
290
     0
174
     0
 93
        1
 44
0.0
173
     0
291
     0
 45
0.0
1001
ACAD
1000
AcDbSavedByObjectVersion
1070
     0
  0
VISUALSTYLE
  5
52E2
102
{ACAD_XDICTIONARY
360
DF53
102
}
102
{ACAD_REACTORS
330
52DB
102
}
330
52DB
100
AcDbVisualStyle
  2
3dWireframe
 70
     5
 71
     0
 72
     2
 73
     0
 90
        0
 40
-0.6
 41
-30.0
 62
     5
 63
     7
 74
     1
 91
        4
 64
     7
 65
   257
 75
     1
175
     1
 42
1.0
 92
        0
 66
   257
 43
1.0
 76
     1
 77
     6
 78
     2
 67
     7
 79
     5
170
     0
171
     0
290
     0
174
     0
 93
        1
 44
0.0
173
     0
291
     0
 45
0.0
1001
ACAD
1000
AcDbSavedByObjectVersion
1070
     0
  0
VISUALSTYLE
  5
52E0
102
{ACAD_XDICTIONARY
360
DF4F
102
}
102
{ACAD_REACTORS
330
52DB
102
}
330
52DB
100
AcDbVisualStyle
  2
Basic
 70
     7
 71
     1
 72
     0
 73
     1
 90
        0
 40
-0.6
 41
-30.0
 62
     5
 63
     7
 74
     0
 91
        4
 64
     7
 65
   257
 75
     1
175
     1
 42
1.0
 92
        8
 66
     7
 43
1.0
 76
     1
 77
     6
 78
     2
 67
     7
 79
     5
170
     0
171
     0
290
     0
174
     0
 93
        1
 44
0.0
173
     0
291
     1
 45
0.0
1001
ACAD
1000
AcDbSavedByObjectVersion
1070
     0
  0
VISUALSTYLE
  5
52E7
102
{ACAD_XDICTIONARY
360
DF5D
102
}
102
{ACAD_REACTORS
330
52DB
102
}
330
52DB
100
AcDbVisualStyle
  2
Brighten
 70
    12
 71
     2
 72
     2
 73
     0
 90
        0
 40
-0.6
 41
-30.0
 62
     5
 63
     7
 74
     1
 91
        4
 64
     7
 65
   257
 75
     1
175
     1
 42
1.0
 92
        8
 66
     7
 43
1.0
 76
     1
 77
     6
 78
     2
 67
     7
 79
     5
170
     0
171
     0
290
     0
174
     0
 93
        1
 44
50.0
173
     0
291
     1
 45
0.0
1001
ACAD
1000
AcDbSavedByObjectVersion
1070
     0
  0
VISUALSTYLE
  5
52EB
102
{ACAD_XDICTIONARY
360
DF65
102
}
102
{ACAD_REACTORS
330
52DB
102
}
330
52DB
100
AcDbVisualStyle
  2
ColorChange
 70
    16
 71
     2
 72
     2
 73
     3
 90
        0
 40
-0.6
 41
-30.0
 62
     5
 63
     8
 74
     1
 91
        4
 64
     7
 65
   257
 75
     1
175
     1
 42
1.0
 92
        8
 66
     8
 43
1.0
 76
     1
 77
     6
 78
     2
 67
     7
 79
     5
170
     0
171
     0
290
     0
174
     0
 93
        1
 44
0.0
173
     0
291
     1
 45
0.0
1001
ACAD
1000
AcDbSavedByObjectVersion
1070
     0
  0
VISUALSTYLE
  5
52E4
102
{ACAD_XDICTIONARY
360
DF57
102
}
102
{ACAD_REACTORS
330
52DB
102
}
330
52DB
100
AcDbVisualStyle
  2
Conceptual
 70
     9
 71
     3
 72
     2
 73
     0
 90
        0
 40
-0.6
 41
-30.0
 62
     5
 63
     7
 74
     2
 91
        2
 64
     7
 65
   257
 75
     1
175
     1
 42
179.0
 92
        8
 66
     7
 43
1.0
 76
     1
 77
     6
 78
     2
 67
     7
 79
     3
170
     0
171
     0
290
     0
174
     0
 93
        1
 44
0.0
173
     0
291
     0
 45
0.0
1001
ACAD
1000
AcDbSavedByObjectVersion
1070
     0
  0
VISUALSTYLE
  5
52E6
102
{ACAD_XDICTIONARY
360
DF5B
102
}
102
{ACAD_REACTORS
330
52DB
102
}
330
52DB
100
AcDbVisualStyle
  2
Dim
 70
    11
 71
     2
 72
     2
 73
     0
 90
        0
 40
-0.6
 41
-30.0
 62
     5
 63
     7
 74
     1
 91
        4
 64
     7
 65
   257
 75
     1
175
     1
 42
1.0
 92
        8
 66
     7
 43
1.0
 76
     1
 77
     6
 78
     2
 67
     7
 79
     5
170
     0
171
     0
290
     0
174
     0
 93
        1
 44
-50.0
173
     0
291
     1
 45
0.0
1001
ACAD
1000
AcDbSavedByObjectVersion
1070
     0
  0
VISUALSTYLE
  5
52EE
102
{ACAD_XDICTIONARY
360
DF6B
102
}
102
{ACAD_REACTORS
330
52DB
102
}
330
52DB
100
AcDbVisualStyle
  2
EdgeColorOff
 70
    22
 71
     2
 72
     2
 73
     0
 90
        0
 40
-0.6
 41
-30.0
 62
     5
 63
     7
 74
     1
 91
        4
 64
     7
 65
   257
 75
     1
175
     1
 42
1.0
 92
        8
 66
     7
 43
1.0
 76
     1
 77
     6
 78
     2
 67
     7
 79
     5
170
     0
171
     0
290
     0
174
     0
 93
        1
 44
0.0
173
     0
291
     1
 45
0.0
1001
ACAD
1000
AcDbSavedByObjectVersion
1070
     0
  0
VISUALSTYLE
  5
52EA
102
{ACAD_XDICTIONARY
360
DF63
102
}
102
{ACAD_REACTORS
330
52DB
102
}
330
52DB
100
AcDbVisualStyle
  2
Facepattern
 70
    15
 71
     2
 72
     2
 73
     0
 90
        0
 40
-0.6
 41
-30.0
 62
     5
 63
     7
 74
     1
 91
        4
 64
     7
 65
   257
 75
     1
175
     1
 42
1.0
 92
        8
 66
     7
 43
1.0
 76
     1
 77
     6
 78
     2
 67
     7
 79
     5
170
     0
171
     0
290
     0
174
     0
 93
        1
 44
0.0
173
     0
291
     1
 45
0.0
1001
ACAD
1000
AcDbSavedByObjectVersion
1070
     0
  0
VISUALSTYLE
  5
52DC
102
{ACAD_XDICTIONARY
360
DF47
102
}
102
{ACAD_REACTORS
330
52DB
102
}
330
52DB
100
AcDbVisualStyle
  2
Flat
 70
     0
 71
     2
 72
     1
 73
     1
 90
        2
 40
-0.6
 41
30.0
 62
     5
 63
     7
 74
     0
 91
        4
 64
     7
 65
   257
 75
     1
175
     1
 42
1.0
 92
        8
 66
     7
 43
1.0
 76
     1
 77
     6
 78
     2
 67
     7
 79
     5
170
     0
171
     0
290
     0
174
     0
 93
       13
 44
0.0
173
     0
291
     1
 45
0.0
1001
ACAD
1000
AcDbSavedByObjectVersion
1070
     0
  0
VISUALSTYLE
  5
52DD
102
{ACAD_XDICTIONARY
360
DF49
102
}
102
{ACAD_REACTORS
330
52DB
102
}
330
52DB
100
AcDbVisualStyle
  2
FlatWithEdges
 70
     1
 71
     2
 72
     1
 73
     1
 90
        2
 40
-0.6
 41
30.0
 62
     5
 63
     7
 74
     1
 91
        4
 64
     7
 65
   257
 75
     1
175
     1
 42
1.0
 92
        0
 66
   257
 43
1.0
 76
     1
 77
     6
 78
     2
 67
     7
 79
     5
170
     0
171
     0
290
     0
174
     0
 93
       13
 44
0.0
173
     0
291
     1
 45
0.0
1001
ACAD
1000
AcDbSavedByObjectVersion
1070
     0
  0
VISUALSTYLE
  5
52DE
102
{ACAD_XDICTIONARY
360
DF4B
102
}
102
{ACAD_REACTORS
330
52DB
102
}
330
52DB
100
AcDbVisualStyle
  2
Gouraud
 70
     2
 71
     2
 72
     2
 73
     1
 90
        2
 40
-0.6
 41
30.0
 62
     5
 63
     7
 74
     0
 91
        4
 64
     7
 65
   257
 75
     1
175
     1
 42
1.0
 92
        0
 66
     7
 43
1.0
 76
     1
 77
     6
 78
     2
 67
     7
 79
     5
170
     0
171
     0
290
     0
174
     0
 93
       13
 44
0.0
173
     0
291
     1
 45
0.0
1001
ACAD
1000
AcDbSavedByObjectVersion
1070
     0
  0
VISUALSTYLE
  5
52DF
102
{ACAD_XDICTIONARY
360
DF4D
102
}
102
{ACAD_REACTORS
330
52DB
102
}
330
52DB
100
AcDbVisualStyle
  2
GouraudWithEdges
 70
     3
 71
     2
 72
     2
 73
     1
 90
        2
 40
-0.6
 41
30.0
 62
     5
 63
     7
 74
     1
 91
        4
 64
     7
 65
   257
 75
     1
175
     1
 42
1.0
 92
        0
 66
   257
 43
1.0
 76
     1
 77
     6
 78
     2
 67
     7
 79
     5
170
     0
171
     0
290
     0
174
     0
 93
       13
 44
0.0
173
     0
291
     1
 45
0.0
1001
ACAD
1000
AcDbSavedByObjectVersion
1070
     0
  0
VISUALSTYLE
  5
D9A5
102
{ACAD_XDICTIONARY
360
DF70
102
}
102
{ACAD_REACTORS
330
52DB
102
}
330
52DB
100
AcDbVisualStyle
  2
Hidden
 70
     6
 71
     1
 72
     2
 73
     2
 90
        0
 40
-0.6
 41
-30.0
 62
     5
 63
     7
 74
     2
 91
        2
 64
     7
 65
   257
 75
     2
175
     1
 42
40.0
 92
        0
 66
   257
 43
1.0
 76
     1
 77
     6
 78
     2
 67
     7
 79
     3
170
     0
171
     0
290
     0
174
     0
 93
        1
 44
0.0
173
     0
291
     0
 45
0.0
1001
ACAD
1000
AcDbSavedByObjectVersion
1070
     0
  0
VISUALSTYLE
  5
52EC
102
{ACAD_XDICTIONARY
360
DF67
102
}
102
{ACAD_REACTORS
330
52DB
102
}
330
52DB
100
AcDbVisualStyle
  2
JitterOff
 70
    20
 71
     2
 72
     2
 73
     0
 90
        0
 40
-0.6
 41
-30.0
 62
     5
 63
     7
 74
     1
 91
        4
 64
     7
 65
   257
 75
     1
175
     1
 42
1.0
 92
       10
 66
     7
 43
1.0
 76
     1
 77
     6
 78
     2
 67
     7
 79
     5
170
     0
171
     0
290
     0
174
     0
 93
        1
 44
0.0
173
     0
291
     1
 45
0.0
1001
ACAD
1000
AcDbSavedByObjectVersion
1070
     0
  0
VISUALSTYLE
  5
52E9
102
{ACAD_XDICTIONARY
360
DF61
102
}
102
{ACAD_REACTORS
330
52DB
102
}
330
52DB
100
AcDbVisualStyle
  2
Linepattern
 70
    14
 71
     2
 72
     2
 73
     0
 90
        0
 40
-0.6
 41
-30.0
 62
     5
 63
     7
 74
     1
 91
        4
 64
     7
 65
   257
 75
     7
175
     7
 42
1.0
 92
        8
 66
     7
 43
1.0
 76
     1
 77
     6
 78
     2
 67
     7
 79
     5
170
     0
171
     0
290
     0
174
     0
 93
        1
 44
0.0
173
     0
291
     1
 45
0.0
1001
ACAD
1000
AcDbSavedByObjectVersion
1070
     0
  0
VISUALSTYLE
  5
52ED
102
{ACAD_XDICTIONARY
360
DF69
102
}
102
{ACAD_REACTORS
330
52DB
102
}
330
52DB
100
AcDbVisualStyle
  2
OverhangOff
 70
    21
 71
     2
 72
     2
 73
     0
 90
        0
 40
-0.6
 41
-30.0
 62
     5
 63
     7
 74
     1
 91
        4
 64
     7
 65
   257
 75
     1
175
     1
 42
1.0
 92
        9
 66
     7
 43
1.0
 76
     1
 77
     6
 78
     2
 67
     7
 79
     5
170
     0
171
     0
290
     0
174
     0
 93
        1
 44
0.0
173
     0
291
     1
 45
0.0
1001
ACAD
1000
AcDbSavedByObjectVersion
1070
     0
  0
VISUALSTYLE
  5
52E5
102
{ACAD_XDICTIONARY
360
DF59
102
}
102
{ACAD_REACTORS
330
52DB
102
}
330
52DB
100
AcDbVisualStyle
  2
Realistic
 70
     8
 71
     2
 72
     2
 73
     0
 90
        0
 40
-0.6
 41
-30.0
 62
     5
 63
     7
 74
     1
 91
        0
 64
     7
 65
   257
 75
     1
175
     1
 42
1.0
 92
        8
 66
     8
 43
1.0
 76
     1
 77
     6
 78
     2
 67
     7
 79
     5
170
     0
171
     0
290
     0
174
     0
 93
       13
 44
0.0
173
     0
291
     0
 45
0.0
1001
ACAD
1000
AcDbSavedByObjectVersion
1070
     0
  0
VISUALSTYLE
  5
D9AA
102
{ACAD_XDICTIONARY
360
DF7A
102
}
102
{ACAD_REACTORS
330
52DB
102
}
330
52DB
100
AcDbVisualStyle
  2
Shaded
 70
    27
 71
     2
 72
     2
 73
     1
 90
        2
 40
-0.6
 41
30.0
 62
     5
 63
     7
 74
     0
 91
        4
 64
     7
 65
   257
 75
     1
175
     1
 42
1.0
 92
        8
 66
   257
 43
1.0
 76
     1
 77
     6
 78
     2
 67
     8
 79
     3
170
     0
171
     0
290
     0
174
     0
 93
        5
 44
0.0
173
     0
291
     0
 45
0.0
1001
ACAD
1000
AcDbSavedByObjectVersion
1070
     0
  0
VISUALSTYLE
  5
D9A9
102
{ACAD_XDICTIONARY
360
DF78
102
}
102
{ACAD_REACTORS
330
52DB
102
}
330
52DB
100
AcDbVisualStyle
  2
Shaded with edges
 70
    26
 71
     2
 72
     2
 73
     1
 90
        2
 40
-0.6
 41
30.0
 62
     5
 63
     7
 74
     1
 91
        2
 64
     7
 65
   257
 75
     2
175
     1
 42
1.0
 92
        8
 66
   257
 43
1.0
 76
     1
 77
     6
 78
     2
 67
     7
 79
     3
170
     0
171
     0
290
     0
174
     0
 93
        5
 44
0.0
173
     0
291
     0
 45
0.0
1001
ACAD
1000
AcDbSavedByObjectVersion
1070
     0
  0
VISUALSTYLE
  5
D9A6
102
{ACAD_XDICTIONARY
360
DF72
102
}
102
{ACAD_REACTORS
330
52DB
102
}
330
52DB
100
AcDbVisualStyle
  2
Shades of Gray
 70
    23
 71
     2
 72
     2
 73
     3
 90
        0
 40
-0.6
 41
-30.0
 62
     5
 63
     7
 74
     2
 91
        2
 64
     7
 65
     7
 75
     1
175
     1
 42
40.0
 92
        8
 66
     7
 43
1.0
 76
     1
 77
     6
 78
     2
 67
     7
 79
     3
170
     0
171
     0
290
     0
174
     0
 93
        1
 44
0.0
173
     0
291
     0
 45
0.0
1001
ACAD
1000
AcDbSavedByObjectVersion
1070
     0
  0
VISUALSTYLE
  5
D9A7
102
{ACAD_XDICTIONARY
360
DF74
102
}
102
{ACAD_REACTORS
330
52DB
102
}
330
52DB
100
AcDbVisualStyle
  2
Sketchy
 70
    24
 71
     1
 72
     2
 73
     2
 90
        0
 40
-0.6
 41
-30.0
 62
     5
 63
     7
 74
     2
 91
        2
 64
     7
 65
     7
 75
     1
175
     1
 42
40.0
 92
       11
 66
     7
 43
1.0
 76
     1
 77
     6
 78
     2
 67
     7
 79
     6
170
     0
171
     0
290
     0
174
     0
 93
        1
 44
0.0
173
     0
291
     0
 45
0.0
1001
ACAD
1000
AcDbSavedByObjectVersion
1070
     0
  0
VISUALSTYLE
  5
52E8
102
{ACAD_XDICTIONARY
360
DF5F
102
}
102
{ACAD_REACTORS
330
52DB
102
}
330
52DB
100
AcDbVisualStyle
  2
Thicken
 70
    13
 71
     2
 72
     2
 73
     0
 90
        0
 40
-0.6
 41
-30.0
 62
     5
 63
     7
 74
     1
 91
        4
 64
     7
 65
   257
 75
     1
175
     1
 42
1.0
 92
       12
 66
     7
 43
1.0
 76
     1
 77
     6
 78
     2
 67
     7
 79
     5
170
     0
171
     0
290
     0
174
     0
 93
        1
 44
0.0
173
     0
291
     1
 45
0.0
1001
ACAD
1000
AcDbSavedByObjectVersion
1070
     0
  0
VISUALSTYLE
  5
D9A4
102
{ACAD_XDICTIONARY
360
DF6E
102
}
102
{ACAD_REACTORS
330
52DB
102
}
330
52DB
100
AcDbVisualStyle
  2
Wireframe
 70
     5
 71
     0
 72
     2
 73
     0
 90
        0
 40
-0.6
 41
-30.0
 62
     5
 63
     7
 74
     1
 91
        4
 64
     7
 65
   257
 75
     1
175
     1
 42
1.0
 92
        0
 66
   257
 43
1.0
 76
     1
 77
     6
 78
     2
 67
     7
 79
     3
170
     0
171
     0
290
     0
174
     0
 93
        1
 44
0.0
173
     0
291
     0
 45
0.0
1001
ACAD
1000
AcDbSavedByObjectVersion
1070
     0
  0
VISUALSTYLE
  5
D9A8
102
{ACAD_XDICTIONARY
360
DF76
102
}
102
{ACAD_REACTORS
330
52DB
102
}
330
52DB
100
AcDbVisualStyle
  2
X-Ray
 70
    25
 71
     2
 72
     2
 73
     1
 90
        1
 40
0.5
 41
-30.0
 62
     5
 63
     7
 74
     1
 91
        0
 64
     7
 65
   257
 75
     1
175
     1
 42
1.0
 92
        8
 66
     7
 43
1.0
 76
     1
 77
     6
 78
     2
 67
     7
 79
     3
170
     0
171
     0
290
     0
174
     0
 93
       13
 44
0.0
173
     0
291
     0
 45
0.0
1001
ACAD
1000
AcDbSavedByObjectVersion
1070
     0
  0
DICTIONARYVAR
  5
8D49
102
{ACAD_REACTORS
330
1835
102
}
330
1835
100
DictionaryVariables
280
     0
  1
1:1
  0
DICTIONARYVAR
  5
8D48
102
{ACAD_REACTORS
330
1835
102
}
330
1835
100
DictionaryVariables
280
     0
  1
STANDARD
  0
DICTIONARYVAR
  5
8D47
102
{ACAD_REACTORS
330
1835
102
}
330
1835
100
DictionaryVariables
280
     0
  1
STANDARD
  0
DICTIONARYVAR
  5
DAC5
102
{ACAD_REACTORS
330
1835
102
}
330
1835
100
DictionaryVariables
280
     0
  1
Metric50
  0
DICTIONARYVAR
  5
DAC6
102
{ACAD_REACTORS
330
1835
102
}
330
1835
100
DictionaryVariables
280
     0
  1
Metric50
  0
DICTIONARYVAR
  5
8D4B
102
{ACAD_REACTORS
330
1835
102
}
330
1835
100
DictionaryVariables
280
     0
  1
1
  0
DICTIONARYVAR
  5
8D4A
102
{ACAD_REACTORS
330
1835
102
}
330
1835
100
DictionaryVariables
280
     0
  1
0
  0
DICTIONARYVAR
  5
1836
102
{ACAD_REACTORS
330
1835
102
}
330
1835
100
DictionaryVariables
280
     0
  1
127
  0
DICTIONARYVAR
  5
DF3C
102
{ACAD_REACTORS
330
1835
102
}
330
1835
100
DictionaryVariables
280
     0
  1
2
  0
DICTIONARY
  5
DF7E
330
D9AE
100
AcDbDictionary
280
     1
281
     1
  3
ACAD_XREC_ROUNDTRIP
360
DF7F
  0
DICTIONARY
  5
DF40
330
22
100
AcDbDictionary
280
     1
281
     1
  3
ACAD_XREC_ROUNDTRIP
360
DF41
  0
DICTIONARY
  5
DF42
330
1CD1
100
AcDbDictionary
280
     1
281
     1
  3
ACAD_XREC_ROUNDTRIP
360
DF43
  0
DICTIONARY
  5
52CC
330
52CB
100
AcDbDictionary
280
     1
281
     1
  3
ACAD_XREC_ROUNDTRIP
360
DF45
  3
BUMPTILE
360
52CE
  3
DIFFUSETILE
360
52CD
  3
OPACITYTILE
360
52D1
  3
REFLECTIONTILE
360
52D0
  3
REFRACTIONTILE
360
52D2
  3
SPECULARTILE
360
52CF
  0
DICTIONARY
  5
52C4
330
52C3
100
AcDbDictionary
280
     1
281
     1
  3
ACAD_XREC_ROUNDTRIP
360
DF44
  3
BUMPTILE
360
52C6
  3
DIFFUSETILE
360
52C5
  3
OPACITYTILE
360
52C9
  3
REFLECTIONTILE
360
52C8
  3
REFRACTIONTILE
360
52CA
  3
SPECULARTILE
360
52C7
  0
DICTIONARY
  5
52D4
330
52D3
100
AcDbDictionary
280
     1
281
     1
  3
ACAD_XREC_ROUNDTRIP
360
DF46
  3
BUMPTILE
360
52D6
  3
DIFFUSETILE
360
52D5
  3
OPACITYTILE
360
52D9
  3
REFLECTIONTILE
360
52D8
  3
REFRACTIONTILE
360
52DA
  3
SPECULARTILE
360
52D7
  0
DICTIONARY
  5
DF7C
330
D9AC
100
AcDbDictionary
280
     1
281
     1
  3
ACAD_XREC_ROUNDTRIP
360
DF7D
  0
DICTIONARY
  5
8D12
330
52F1
100
AcDbDictionary
280
     1
281
     1
  3
ACAD_ROUNDTRIP_2008_TABLESTYLE_CELLSTYLEMAP
360
DF3D
  3
ACAD_XREC_ROUNDTRIP
360
DF6D
  0
DICTIONARY
  5
DF51
330
52E1
100
AcDbDictionary
280
     1
281
     1
  3
ACAD_XREC_ROUNDTRIP
360
DF52
  0
DICTIONARY
  5
DF55
330
52E3
100
AcDbDictionary
280
     1
281
     1
  3
ACAD_XREC_ROUNDTRIP
360
DF56
  0
DICTIONARY
  5
DF53
330
52E2
100
AcDbDictionary
280
     1
281
     1
  3
ACAD_XREC_ROUNDTRIP
360
DF54
  0
DICTIONARY
  5
DF4F
330
52E0
100
AcDbDictionary
280
     1
281
     1
  3
ACAD_XREC_ROUNDTRIP
360
DF50
  0
DICTIONARY
  5
DF5D
330
52E7
100
AcDbDictionary
280
     1
281
     1
  3
ACAD_XREC_ROUNDTRIP
360
DF5E
  0
DICTIONARY
  5
DF65
330
52EB
100
AcDbDictionary
280
     1
281
     1
  3
ACAD_XREC_ROUNDTRIP
360
DF66
  0
DICTIONARY
  5
DF57
330
52E4
100
AcDbDictionary
280
     1
281
     1
  3
ACAD_XREC_ROUNDTRIP
360
DF58
  0
DICTIONARY
  5
DF5B
330
52E6
100
AcDbDictionary
280
     1
281
     1
  3
ACAD_XREC_ROUNDTRIP
360
DF5C
  0
DICTIONARY
  5
DF6B
330
52EE
100
AcDbDictionary
280
     1
281
     1
  3
ACAD_XREC_ROUNDTRIP
360
DF6C
  0
DICTIONARY
  5
DF63
330
52EA
100
AcDbDictionary
280
     1
281
     1
  3
ACAD_XREC_ROUNDTRIP
360
DF64
  0
DICTIONARY
  5
DF47
330
52DC
100
AcDbDictionary
280
     1
281
     1
  3
ACAD_XREC_ROUNDTRIP
360
DF48
  0
DICTIONARY
  5
DF49
330
52DD
100
AcDbDictionary
280
     1
281
     1
  3
ACAD_XREC_ROUNDTRIP
360
DF4A
  0
DICTIONARY
  5
DF4B
330
52DE
100
AcDbDictionary
280
     1
281
     1
  3
ACAD_XREC_ROUNDTRIP
360
DF4C
  0
DICTIONARY
  5
DF4D
330
52DF
100
AcDbDictionary
280
     1
281
     1
  3
ACAD_XREC_ROUNDTRIP
360
DF4E
  0
DICTIONARY
  5
DF70
330
D9A5
100
AcDbDictionary
280
     1
281
     1
  3
ACAD_XREC_ROUNDTRIP
360
DF71
  0
DICTIONARY
  5
DF67
330
52EC
100
AcDbDictionary
280
     1
281
     1
  3
ACAD_XREC_ROUNDTRIP
360
DF68
  0
DICTIONARY
  5
DF61
330
52E9
100
AcDbDictionary
280
     1
281
     1
  3
ACAD_XREC_ROUNDTRIP
360
DF62
  0
DICTIONARY
  5
DF69
330
52ED
100
AcDbDictionary
280
     1
281
     1
  3
ACAD_XREC_ROUNDTRIP
360
DF6A
  0
DICTIONARY
  5
DF59
330
52E5
100
AcDbDictionary
280
     1
281
     1
  3
ACAD_XREC_ROUNDTRIP
360
DF5A
  0
DICTIONARY
  5
DF7A
330
D9AA
100
AcDbDictionary
280
     1
281
     1
  3
ACAD_XREC_ROUNDTRIP
360
DF7B
  0
DICTIONARY
  5
DF78
330
D9A9
100
AcDbDictionary
280
     1
281
     1
  3
ACAD_XREC_ROUNDTRIP
360
DF79
  0
DICTIONARY
  5
DF72
330
D9A6
100
AcDbDictionary
280
     1
281
     1
  3
ACAD_XREC_ROUNDTRIP
360
DF73
  0
DICTIONARY
  5
DF74
330
D9A7
100
AcDbDictionary
280
     1
281
     1
  3
ACAD_XREC_ROUNDTRIP
360
DF75
  0
DICTIONARY
  5
DF5F
330
52E8
100
AcDbDictionary
280
     1
281
     1
  3
ACAD_XREC_ROUNDTRIP
360
DF60
  0
DICTIONARY
  5
DF6E
330
D9A4
100
AcDbDictionary
280
     1
281
     1
  3
ACAD_XREC_ROUNDTRIP
360
DF6F
  0
DICTIONARY
  5
DF76
330
D9A8
100
AcDbDictionary
280
     1
281
     1
  3
ACAD_XREC_ROUNDTRIP
360
DF77
  0
XRECORD
  5
DF7F
102
{ACAD_REACTORS
330
DF7E
102
}
330
DF7E
100
AcDbXrecord
280
     1
102
DISPLAYNAME
  1
Metric50
102
FLAGS
 90
        0
  0
XRECORD
  5
DF41
102
{ACAD_REACTORS
330
DF40
102
}
330
DF40
100
AcDbXrecord
280
     1
102
SHADEPLOT
 70
     0
102
SHADEPLOTRESLEVEL
 70
     2
102
SHADEPLOTCUSTOMDPI
 70
   300
  0
XRECORD
  5
DF43
102
{ACAD_REACTORS
330
DF42
102
}
330
DF42
100
AcDbXrecord
280
     1
102
SHADEPLOT
 70
     0
102
SHADEPLOTRESLEVEL
 70
     2
102
SHADEPLOTCUSTOMDPI
 70
   300
  0
XRECORD
  5
DF45
102
{ACAD_REACTORS
330
52CC
102
}
330
52CC
100
AcDbXrecord
280
     1
102
MATERIAL
148
0.0
149
0.0
149
0.0
 93
        0
 94
      127
282
     0
 72
     0
 77
     0
171
     0
175
     0
179
     0
273
     0
  0
XRECORD
  5
52CE
102
{ACAD_REACTORS
330
52CC
102
}
330
52CC
100
AcDbXrecord
280
     1
270
     1
271
     1
  0
XRECORD
  5
52CD
102
{ACAD_REACTORS
330
52CC
102
}
330
52CC
100
AcDbXrecord
280
     1
270
     1
271
     1
  0
XRECORD
  5
52D1
102
{ACAD_REACTORS
330
52CC
102
}
330
52CC
100
AcDbXrecord
280
     1
270
     1
271
     1
  0
XRECORD
  5
52D0
102
{ACAD_REACTORS
330
52CC
102
}
330
52CC
100
AcDbXrecord
280
     1
270
     1
271
     1
  0
XRECORD
  5
52D2
102
{ACAD_REACTORS
330
52CC
102
}
330
52CC
100
AcDbXrecord
280
     1
270
     1
271
     1
  0
XRECORD
  5
52CF
102
{ACAD_REACTORS
330
52CC
102
}
330
52CC
100
AcDbXrecord
280
     1
270
     1
271
     1
  0
XRECORD
  5
DF44
102
{ACAD_REACTORS
330
52C4
102
}
330
52C4
100
AcDbXrecord
280
     1
102
MATERIAL
148
0.0
149
0.0
149
0.0
 93
        0
 94
      127
282
     0
 72
     0
 77
     0
171
     0
175
     0
179
     0
273
     0
  0
XRECORD
  5
52C6
102
{ACAD_REACTORS
330
52C4
102
}
330
52C4
100
AcDbXrecord
280
     1
270
     1
271
     1
  0
XRECORD
  5
52C5
102
{ACAD_REACTORS
330
52C4
102
}
330
52C4
100
AcDbXrecord
280
     1
270
     1
271
     1
  0
XRECORD
  5
52C9
102
{ACAD_REACTORS
330
52C4
102
}
330
52C4
100
AcDbXrecord
280
     1
270
     1
271
     1
  0
XRECORD
  5
52C8
102
{ACAD_REACTORS
330
52C4
102
}
330
52C4
100
AcDbXrecord
280
     1
270
     1
271
     1
  0
XRECORD
  5
52CA
102
{ACAD_REACTORS
330
52C4
102
}
330
52C4
100
AcDbXrecord
280
     1
270
     1
271
     1
  0
XRECORD
  5
52C7
102
{ACAD_REACTORS
330
52C4
102
}
330
52C4
100
AcDbXrecord
280
     1
270
     1
271
     1
  0
XRECORD
  5
DF46
102
{ACAD_REACTORS
330
52D4
102
}
330
52D4
100
AcDbXrecord
280
     1
102
MATERIAL
148
0.0
149
0.0
149
0.0
 93
        0
 94
      127
282
     0
 72
     0
 77
     0
171
     0
175
     0
179
     0
273
     0
  0
XRECORD
  5
52D6
102
{ACAD_REACTORS
330
52D4
102
}
330
52D4
100
AcDbXrecord
280
     1
270
     1
271
     1
  0
XRECORD
  5
52D5
102
{ACAD_REACTORS
330
52D4
102
}
330
52D4
100
AcDbXrecord
280
     1
270
     1
271
     1
  0
XRECORD
  5
52D9
102
{ACAD_REACTORS
330
52D4
102
}
330
52D4
100
AcDbXrecord
280
     1
270
     1
271
     1
  0
XRECORD
  5
52D8
102
{ACAD_REACTORS
330
52D4
102
}
330
52D4
100
AcDbXrecord
280
     1
270
     1
271
     1
  0
XRECORD
  5
52DA
102
{ACAD_REACTORS
330
52D4
102
}
330
52D4
100
AcDbXrecord
280
     1
270
     1
271
     1
  0
XRECORD
  5
52D7
102
{ACAD_REACTORS
330
52D4
102
}
330
52D4
100
AcDbXrecord
280
     1
270
     1
271
     1
  0
XRECORD
  5
DF7D
102
{ACAD_REACTORS
330
DF7C
102
}
330
DF7C
100
AcDbXrecord
280
     1
102
DISPLAYNAME
  1
Metric50
102
FLAGS
 90
        0
  0
CELLSTYLEMAP
  5
DF3D
102
{ACAD_REACTORS
330
8D12
102
}
330
8D12
100
AcDbCellStyleMap
 90
        3
300
CELLSTYLE
  1
TABLEFORMAT_BEGIN
 90
        5
170
     1
 91
        0
 92
    32768
 62
   257
 93
        1
300
CONTENTFORMAT
  1
CONTENTFORMAT_BEGIN
 90
        0
 91
        0
 92
      512
 93
        0
300

 40
0.0
140
1.0
 94
        5
 62
     0
340
11
144
6.0
309
CONTENTFORMAT_END
171
     1
301
MARGIN
  1
CELLMARGIN_BEGIN
 40
1.5
 40
1.5
 40
1.5
 40
1.5
 40
4.5
 40
4.5
309
CELLMARGIN_END
 94
        6
 95
        1
302
GRIDFORMAT
  1
GRIDFORMAT_BEGIN
 90
        0
 91
        1
 62
     0
 92
       -2
340
0
 93
        0
 40
1.125
309
GRIDFORMAT_END
 95
        2
302
GRIDFORMAT
  1
GRIDFORMAT_BEGIN
 90
        0
 91
        1
 62
     0
 92
       -2
340
0
 93
        0
 40
1.125
309
GRIDFORMAT_END
 95
        4
302
GRIDFORMAT
  1
GRIDFORMAT_BEGIN
 90
        0
 91
        1
 62
     0
 92
       -2
340
0
 93
        0
 40
1.125
309
GRIDFORMAT_END
 95
        8
302
GRIDFORMAT
  1
GRIDFORMAT_BEGIN
 90
        0
 91
        1
 62
     0
 92
       -2
340
0
 93
        0
 40
1.125
309
GRIDFORMAT_END
 95
       16
302
GRIDFORMAT
  1
GRIDFORMAT_BEGIN
 90
        0
 91
        1
 62
     0
 92
       -2
340
0
 93
        0
 40
1.125
309
GRIDFORMAT_END
 95
       32
302
GRIDFORMAT
  1
GRIDFORMAT_BEGIN
 90
        0
 91
        1
 62
     0
 92
       -2
340
0
 93
        0
 40
1.125
309
GRIDFORMAT_END
309
TABLEFORMAT_END
  1
CELLSTYLE_BEGIN
 90
        1
 91
        1
300
_TITLE
309
CELLSTYLE_END
300
CELLSTYLE
  1
TABLEFORMAT_BEGIN
 90
        5
170
     1
 91
        0
 92
        0
 62
   257
 93
        1
300
CONTENTFORMAT
  1
CONTENTFORMAT_BEGIN
 90
        0
 91
        0
 92
      512
 93
        0
300

 40
0.0
140
1.0
 94
        5
 62
     0
340
11
144
4.5
309
CONTENTFORMAT_END
171
     1
301
MARGIN
  1
CELLMARGIN_BEGIN
 40
1.5
 40
1.5
 40
1.5
 40
1.5
 40
4.5
 40
4.5
309
CELLMARGIN_END
 94
        6
 95
        1
302
GRIDFORMAT
  1
GRIDFORMAT_BEGIN
 90
        0
 91
        1
 62
     0
 92
       -2
340
0
 93
        0
 40
1.125
309
GRIDFORMAT_END
 95
        2
302
GRIDFORMAT
  1
GRIDFORMAT_BEGIN
 90
        0
 91
        1
 62
     0
 92
       -2
340
0
 93
        0
 40
1.125
309
GRIDFORMAT_END
 95
        4
302
GRIDFORMAT
  1
GRIDFORMAT_BEGIN
 90
        0
 91
        1
 62
     0
 92
       -2
340
0
 93
        0
 40
1.125
309
GRIDFORMAT_END
 95
        8
302
GRIDFORMAT
  1
GRIDFORMAT_BEGIN
 90
        0
 91
        1
 62
     0
 92
       -2
340
0
 93
        0
 40
1.125
309
GRIDFORMAT_END
 95
       16
302
GRIDFORMAT
  1
GRIDFORMAT_BEGIN
 90
        0
 91
        1
 62
     0
 92
       -2
340
0
 93
        0
 40
1.125
309
GRIDFORMAT_END
 95
       32
302
GRIDFORMAT
  1
GRIDFORMAT_BEGIN
 90
        0
 91
        1
 62
     0
 92
       -2
340
0
 93
        0
 40
1.125
309
GRIDFORMAT_END
309
TABLEFORMAT_END
  1
CELLSTYLE_BEGIN
 90
        2
 91
        1
300
_HEADER
309
CELLSTYLE_END
300
CELLSTYLE
  1
TABLEFORMAT_BEGIN
 90
        5
170
     1
 91
        0
 92
        0
 62
   257
 93
        1
300
CONTENTFORMAT
  1
CONTENTFORMAT_BEGIN
 90
        0
 91
        0
 92
      512
 93
        0
300

 40
0.0
140
1.0
 94
        2
 62
     0
340
11
144
4.5
309
CONTENTFORMAT_END
171
     1
301
MARGIN
  1
CELLMARGIN_BEGIN
 40
1.5
 40
1.5
 40
1.5
 40
1.5
 40
4.5
 40
4.5
309
CELLMARGIN_END
 94
        6
 95
        1
302
GRIDFORMAT
  1
GRIDFORMAT_BEGIN
 90
        0
 91
        1
 62
     0
 92
       -2
340
0
 93
        0
 40
1.125
309
GRIDFORMAT_END
 95
        2
302
GRIDFORMAT
  1
GRIDFORMAT_BEGIN
 90
        0
 91
        1
 62
     0
 92
       -2
340
0
 93
        0
 40
1.125
309
GRIDFORMAT_END
 95
        4
302
GRIDFORMAT
  1
GRIDFORMAT_BEGIN
 90
        0
 91
        1
 62
     0
 92
       -2
340
0
 93
        0
 40
1.125
309
GRIDFORMAT_END
 95
        8
302
GRIDFORMAT
  1
GRIDFORMAT_BEGIN
 90
        0
 91
        1
 62
     0
 92
       -2
340
0
 93
        0
 40
1.125
309
GRIDFORMAT_END
 95
       16
302
GRIDFORMAT
  1
GRIDFORMAT_BEGIN
 90
        0
 91
        1
 62
     0
 92
       -2
340
0
 93
        0
 40
1.125
309
GRIDFORMAT_END
 95
       32
302
GRIDFORMAT
  1
GRIDFORMAT_BEGIN
 90
        0
 91
        1
 62
     0
 92
       -2
340
0
 93
        0
 40
1.125
309
GRIDFORMAT_END
309
TABLEFORMAT_END
  1
CELLSTYLE_BEGIN
 90
        3
 91
        2
300
_DATA
309
CELLSTYLE_END
  0
XRECORD
  5
DF6D
102
{ACAD_REACTORS
330
8D12
102
}
330
8D12
100
AcDbXrecord
280
     1
102
ACAD_ROUNDTRIP_PRE2007_TABLESTYLE
 90
      512
 91
        0
  1

 92
      512
 93
        0
  2

 94
      512
 95
        0
  3

  0
XRECORD
  5
DF52
102
{ACAD_REACTORS
330
DF51
102
}
330
DF51
100
AcDbXrecord
280
     1
102
RTVSPost2010Prop28
280
     1
102
RTVSPost2010PropOp28
 70
     1
102
RTVSPost2010Prop29
280
     1
102
RTVSPost2010PropOp29
 70
     1
102
RTVSPost2010Prop30
280
     0
102
RTVSPost2010PropOp30
 70
     1
102
RTVSPost2010Prop31
280
     0
102
RTVSPost2010PropOp31
 70
     1
102
RTVSPost2010Prop32
280
     0
102
RTVSPost2010PropOp32
 70
     1
102
RTVSPost2010Prop33
280
     0
102
RTVSPost2010PropOp33
 70
     1
102
RTVSPost2010Prop34
280
     0
102
RTVSPost2010PropOp34
 70
     1
102
RTVSPost2010Prop35
280
     0
102
RTVSPost2010PropOp35
 70
     1
102
RTVSPost2010Prop36
280
     0
102
RTVSPost2010PropOp36
 70
     1
102
RTVSPost2010Prop37
 90
       50
102
RTVSPost2010PropOp37
 70
     1
102
RTVSPost2010Prop38
140
0.0
102
RTVSPost2010PropOp38
 70
     1
102
RTVSPost2010Prop39
140
1.0
102
RTVSPost2010PropOp39
 70
     1
102
RTVSPost2010Prop40
 90
        0
102
RTVSPost2010PropOp40
 70
     1
102
RTVSPost2010Prop41ColorIndex
 90
       18
102
RTVSPost2010Prop41ColorRGB
 90
        0
102
RTVSPost2010PropOp41
 70
     1
102
RTVSPost2010Prop42
 90
       50
102
RTVSPost2010PropOp42
 70
     1
102
RTVSPost2010Prop43
 90
        3
102
RTVSPost2010PropOp43
 70
     1
102
RTVSPost2010Prop44ColorIndex
 90
        5
102
RTVSPost2010Prop44ColorRGB
 90
      255
102
RTVSPost2010PropOp44
 70
     1
102
RTVSPost2010Prop45
280
     0
102
RTVSPost2010PropOp45
 70
     1
102
RTVSPost2010Prop46
 90
       50
102
RTVSPost2010PropOp46
 70
     1
102
RTVSPost2010Prop47
 90
       50
102
RTVSPost2010PropOp47
 70
     1
102
RTVSPost2010Prop48
 90
       50
102
RTVSPost2010PropOp48
 70
     1
102
RTVSPost2010Prop49
280
     0
102
RTVSPost2010PropOp49
 70
     1
102
RTVSPost2010Prop50
 90
       50
102
RTVSPost2010PropOp50
 70
     1
102
RTVSPost2010Prop51ColorIndex
 90
      256
102
RTVSPost2010Prop51ColorRGB
 90
-16777216
102
RTVSPost2010PropOp51
 70
     0
102
RTVSPost2010Prop52
140
1.0
102
RTVSPost2010PropOp52
 70
     0
102
RTVSPost2010Prop53
 90
        2
102
RTVSPost2010PropOp53
 70
     1
102
RTVSPost2010Prop54
  1
strokes_ogs.tif
102
RTVSPost2010PropOp54
 70
     1
102
RTVSPost2010Prop55
280
     0
102
RTVSPost2010PropOp55
 70
     1
102
RTVSPost2010Prop56
140
1.0
102
RTVSPost2010PropOp56
 70
     1
102
RTVSPost2010Prop57
140
1.0
102
RTVSPost2010PropOp57
 70
     1
102
RTVSPropertyOp0
 70
     1
102
RTVSPropertyOp1
 70
     1
102
RTVSPropertyOp2
 70
     1
102
RTVSPropertyOp3
 70
     1
102
RTVSPropertyOp4
 70
     1
102
RTVSPropertyOp5
 70
     1
102
RTVSPropertyOp6
 70
     1
102
RTVSPropertyOp7
 70
     1
102
RTVSPropertyOp8
 70
     1
102
RTVSPropertyOp9
 70
     1
102
RTVSPropertyOp10
 70
     1
102
RTVSPropertyOp11
 70
     1
102
RTVSPropertyOp12
 70
     1
102
RTVSPropertyOp13
 70
     1
102
RTVSPropertyOp14
 70
     1
102
RTVSPropertyOp15
 70
     1
102
RTVSPropertyOp16
 70
     1
102
RTVSPropertyOp17
 70
     1
102
RTVSPropertyOp18
 70
     1
102
RTVSPropertyOp19
 70
     1
102
RTVSPropertyOp20
 70
     1
102
RTVSPropertyOp21
 70
     1
102
RTVSPropertyOp22
 70
     1
102
RTVSPropertyOp23
 70
     1
102
RTVSPropertyOp24
 70
     1
102
RTVSPropertyOp25
 70
     1
102
RTVSPropertyOp26
 70
     1
102
RTVSPropertyOp27
 70
     1
102
RTVSPropertyOp28
 70
     1
102
RTVSPropertyOp29
 70
     1
102
RTVSPropertyOp30
 70
     1
102
RTVSPropertyOp31
 70
     1
102
RTVSPropertyOp32
 70
     1
102
RTVSPropertyOp33
 70
     1
102
RTVSPropertyOp34
 70
     1
102
RTVSPropertyOp35
 70
     1
102
RTVSPropertyOp36
 70
     1
102
RTVSPropertyOp37
 70
     1
102
RTVSPropertyOp38
 70
     1
102
RTVSPropertyOp39
 70
     1
102
RTVSPropertyOp40
 70
     1
102
RTVSPropertyOp41
 70
     1
102
RTVSPropertyOp42
 70
     1
102
RTVSPropertyOp43
 70
     1
102
RTVSPropertyOp44
 70
     1
102
RTVSPropertyOp45
 70
     1
102
RTVSPropertyOp46
 70
     1
102
RTVSPropertyOp47
 70
     1
102
RTVSPropertyOp48
 70
     1
102
RTVSPropertyOp49
 70
     1
102
RTVSPropertyOp50
 70
     1
102
RTVSPropertyOp51
 70
     0
102
RTVSPropertyOp52
 70
     0
102
RTVSPropertyOp53
 70
     1
102
RTVSPropertyOp54
 70
     1
102
RTVSPropertyOp55
 70
     1
102
RTVSPropertyOp56
 70
     1
102
RTVSPropertyOp57
 70
     1
102
RTVSPropertyOp58
 70
     1
102
RTVSPropertyOp59
 70
     1
102
RTVSPropertyOp60
 70
     1
102
RTVSPropertyOp61
 70
     1
102
RTVSPropertyOp62
 70
     1
  0
XRECORD
  5
DF56
102
{ACAD_REACTORS
330
DF55
102
}
330
DF55
100
AcDbXrecord
280
     1
102
RTVSPost2010Prop28
280
     0
102
RTVSPost2010PropOp28
 70
     1
102
RTVSPost2010Prop29
280
     1
102
RTVSPost2010PropOp29
 70
     1
102
RTVSPost2010Prop30
280
     1
102
RTVSPost2010PropOp30
 70
     1
102
RTVSPost2010Prop31
280
     0
102
RTVSPost2010PropOp31
 70
     1
102
RTVSPost2010Prop32
280
     0
102
RTVSPost2010PropOp32
 70
     1
102
RTVSPost2010Prop33
280
     0
102
RTVSPost2010PropOp33
 70
     1
102
RTVSPost2010Prop34
280
     0
102
RTVSPost2010PropOp34
 70
     1
102
RTVSPost2010Prop35
280
     0
102
RTVSPost2010PropOp35
 70
     1
102
RTVSPost2010Prop36
280
     0
102
RTVSPost2010PropOp36
 70
     1
102
RTVSPost2010Prop37
 90
       50
102
RTVSPost2010PropOp37
 70
     1
102
RTVSPost2010Prop38
140
0.0
102
RTVSPost2010PropOp38
 70
     1
102
RTVSPost2010Prop39
140
1.0
102
RTVSPost2010PropOp39
 70
     1
102
RTVSPost2010Prop40
 90
        0
102
RTVSPost2010PropOp40
 70
     1
102
RTVSPost2010Prop41ColorIndex
 90
       18
102
RTVSPost2010Prop41ColorRGB
 90
        0
102
RTVSPost2010PropOp41
 70
     1
102
RTVSPost2010Prop42
 90
       50
102
RTVSPost2010PropOp42
 70
     1
102
RTVSPost2010Prop43
 90
        3
102
RTVSPost2010PropOp43
 70
     1
102
RTVSPost2010Prop44ColorIndex
 90
        5
102
RTVSPost2010Prop44ColorRGB
 90
      255
102
RTVSPost2010PropOp44
 70
     1
102
RTVSPost2010Prop45
280
     0
102
RTVSPost2010PropOp45
 70
     1
102
RTVSPost2010Prop46
 90
       50
102
RTVSPost2010PropOp46
 70
     1
102
RTVSPost2010Prop47
 90
       50
102
RTVSPost2010PropOp47
 70
     1
102
RTVSPost2010Prop48
 90
       50
102
RTVSPost2010PropOp48
 70
     1
102
RTVSPost2010Prop49
280
     0
102
RTVSPost2010PropOp49
 70
     1
102
RTVSPost2010Prop50
 90
       50
102
RTVSPost2010PropOp50
 70
     1
102
RTVSPost2010Prop51ColorIndex
 90
      256
102
RTVSPost2010Prop51ColorRGB
 90
-16777216
102
RTVSPost2010PropOp51
 70
     0
102
RTVSPost2010Prop52
140
1.0
102
RTVSPost2010PropOp52
 70
     0
102
RTVSPost2010Prop53
 90
        2
102
RTVSPost2010PropOp53
 70
     1
102
RTVSPost2010Prop54
  1
strokes_ogs.tif
102
RTVSPost2010PropOp54
 70
     1
102
RTVSPost2010Prop55
280
     0
102
RTVSPost2010PropOp55
 70
     1
102
RTVSPost2010Prop56
140
1.0
102
RTVSPost2010PropOp56
 70
     1
102
RTVSPost2010Prop57
140
1.0
102
RTVSPost2010PropOp57
 70
     1
102
RTVSPropertyOp0
 70
     1
102
RTVSPropertyOp1
 70
     1
102
RTVSPropertyOp2
 70
     1
102
RTVSPropertyOp3
 70
     1
102
RTVSPropertyOp4
 70
     1
102
RTVSPropertyOp5
 70
     1
102
RTVSPropertyOp6
 70
     1
102
RTVSPropertyOp7
 70
     1
102
RTVSPropertyOp8
 70
     1
102
RTVSPropertyOp9
 70
     1
102
RTVSPropertyOp10
 70
     1
102
RTVSPropertyOp11
 70
     1
102
RTVSPropertyOp12
 70
     1
102
RTVSPropertyOp13
 70
     1
102
RTVSPropertyOp14
 70
     1
102
RTVSPropertyOp15
 70
     1
102
RTVSPropertyOp16
 70
     1
102
RTVSPropertyOp17
 70
     1
102
RTVSPropertyOp18
 70
     1
102
RTVSPropertyOp19
 70
     1
102
RTVSPropertyOp20
 70
     1
102
RTVSPropertyOp21
 70
     1
102
RTVSPropertyOp22
 70
     1
102
RTVSPropertyOp23
 70
     1
102
RTVSPropertyOp24
 70
     1
102
RTVSPropertyOp25
 70
     1
102
RTVSPropertyOp26
 70
     1
102
RTVSPropertyOp27
 70
     1
102
RTVSPropertyOp28
 70
     1
102
RTVSPropertyOp29
 70
     1
102
RTVSPropertyOp30
 70
     1
102
RTVSPropertyOp31
 70
     1
102
RTVSPropertyOp32
 70
     1
102
RTVSPropertyOp33
 70
     1
102
RTVSPropertyOp34
 70
     1
102
RTVSPropertyOp35
 70
     1
102
RTVSPropertyOp36
 70
     1
102
RTVSPropertyOp37
 70
     1
102
RTVSPropertyOp38
 70
     1
102
RTVSPropertyOp39
 70
     1
102
RTVSPropertyOp40
 70
     1
102
RTVSPropertyOp41
 70
     1
102
RTVSPropertyOp42
 70
     1
102
RTVSPropertyOp43
 70
     1
102
RTVSPropertyOp44
 70
     1
102
RTVSPropertyOp45
 70
     1
102
RTVSPropertyOp46
 70
     1
102
RTVSPropertyOp47
 70
     1
102
RTVSPropertyOp48
 70
     1
102
RTVSPropertyOp49
 70
     1
102
RTVSPropertyOp50
 70
     1
102
RTVSPropertyOp51
 70
     0
102
RTVSPropertyOp52
 70
     0
102
RTVSPropertyOp53
 70
     1
102
RTVSPropertyOp54
 70
     1
102
RTVSPropertyOp55
 70
     1
102
RTVSPropertyOp56
 70
     1
102
RTVSPropertyOp57
 70
     1
102
RTVSPropertyOp58
 70
     1
102
RTVSPropertyOp59
 70
     1
102
RTVSPropertyOp60
 70
     1
102
RTVSPropertyOp61
 70
     1
102
RTVSPropertyOp62
 70
     1
  0
XRECORD
  5
DF54
102
{ACAD_REACTORS
330
DF53
102
}
330
DF53
100
AcDbXrecord
280
     1
102
RTVSPost2010Prop28
280
     0
102
RTVSPost2010PropOp28
 70
     1
102
RTVSPost2010Prop29
280
     1
102
RTVSPost2010PropOp29
 70
     1
102
RTVSPost2010Prop30
280
     1
102
RTVSPost2010PropOp30
 70
     1
102
RTVSPost2010Prop31
280
     0
102
RTVSPost2010PropOp31
 70
     1
102
RTVSPost2010Prop32
280
     0
102
RTVSPost2010PropOp32
 70
     1
102
RTVSPost2010Prop33
280
     0
102
RTVSPost2010PropOp33
 70
     1
102
RTVSPost2010Prop34
280
     0
102
RTVSPost2010PropOp34
 70
     1
102
RTVSPost2010Prop35
280
     0
102
RTVSPost2010PropOp35
 70
     1
102
RTVSPost2010Prop36
280
     0
102
RTVSPost2010PropOp36
 70
     1
102
RTVSPost2010Prop37
 90
       50
102
RTVSPost2010PropOp37
 70
     1
102
RTVSPost2010Prop38
140
0.0
102
RTVSPost2010PropOp38
 70
     1
102
RTVSPost2010Prop39
140
1.0
102
RTVSPost2010PropOp39
 70
     1
102
RTVSPost2010Prop40
 90
        0
102
RTVSPost2010PropOp40
 70
     1
102
RTVSPost2010Prop41ColorIndex
 90
       18
102
RTVSPost2010Prop41ColorRGB
 90
        0
102
RTVSPost2010PropOp41
 70
     1
102
RTVSPost2010Prop42
 90
       50
102
RTVSPost2010PropOp42
 70
     1
102
RTVSPost2010Prop43
 90
        3
102
RTVSPost2010PropOp43
 70
     1
102
RTVSPost2010Prop44ColorIndex
 90
        5
102
RTVSPost2010Prop44ColorRGB
 90
      255
102
RTVSPost2010PropOp44
 70
     1
102
RTVSPost2010Prop45
280
     0
102
RTVSPost2010PropOp45
 70
     1
102
RTVSPost2010Prop46
 90
       50
102
RTVSPost2010PropOp46
 70
     1
102
RTVSPost2010Prop47
 90
       50
102
RTVSPost2010PropOp47
 70
     1
102
RTVSPost2010Prop48
 90
       50
102
RTVSPost2010PropOp48
 70
     1
102
RTVSPost2010Prop49
280
     0
102
RTVSPost2010PropOp49
 70
     1
102
RTVSPost2010Prop50
 90
       50
102
RTVSPost2010PropOp50
 70
     1
102
RTVSPost2010Prop51ColorIndex
 90
      256
102
RTVSPost2010Prop51ColorRGB
 90
-16777216
102
RTVSPost2010PropOp51
 70
     0
102
RTVSPost2010Prop52
140
1.0
102
RTVSPost2010PropOp52
 70
     0
102
RTVSPost2010Prop53
 90
        2
102
RTVSPost2010PropOp53
 70
     1
102
RTVSPost2010Prop54
  1
strokes_ogs.tif
102
RTVSPost2010PropOp54
 70
     1
102
RTVSPost2010Prop55
280
     0
102
RTVSPost2010PropOp55
 70
     1
102
RTVSPost2010Prop56
140
1.0
102
RTVSPost2010PropOp56
 70
     1
102
RTVSPost2010Prop57
140
1.0
102
RTVSPost2010PropOp57
 70
     1
102
RTVSPropertyOp0
 70
     1
102
RTVSPropertyOp1
 70
     1
102
RTVSPropertyOp2
 70
     1
102
RTVSPropertyOp3
 70
     1
102
RTVSPropertyOp4
 70
     1
102
RTVSPropertyOp5
 70
     1
102
RTVSPropertyOp6
 70
     1
102
RTVSPropertyOp7
 70
     1
102
RTVSPropertyOp8
 70
     1
102
RTVSPropertyOp9
 70
     1
102
RTVSPropertyOp10
 70
     1
102
RTVSPropertyOp11
 70
     1
102
RTVSPropertyOp12
 70
     1
102
RTVSPropertyOp13
 70
     1
102
RTVSPropertyOp14
 70
     1
102
RTVSPropertyOp15
 70
     1
102
RTVSPropertyOp16
 70
     1
102
RTVSPropertyOp17
 70
     1
102
RTVSPropertyOp18
 70
     1
102
RTVSPropertyOp19
 70
     1
102
RTVSPropertyOp20
 70
     1
102
RTVSPropertyOp21
 70
     1
102
RTVSPropertyOp22
 70
     1
102
RTVSPropertyOp23
 70
     1
102
RTVSPropertyOp24
 70
     1
102
RTVSPropertyOp25
 70
     1
102
RTVSPropertyOp26
 70
     1
102
RTVSPropertyOp27
 70
     1
102
RTVSPropertyOp28
 70
     1
102
RTVSPropertyOp29
 70
     1
102
RTVSPropertyOp30
 70
     1
102
RTVSPropertyOp31
 70
     1
102
RTVSPropertyOp32
 70
     1
102
RTVSPropertyOp33
 70
     1
102
RTVSPropertyOp34
 70
     1
102
RTVSPropertyOp35
 70
     1
102
RTVSPropertyOp36
 70
     1
102
RTVSPropertyOp37
 70
     1
102
RTVSPropertyOp38
 70
     1
102
RTVSPropertyOp39
 70
     1
102
RTVSPropertyOp40
 70
     1
102
RTVSPropertyOp41
 70
     1
102
RTVSPropertyOp42
 70
     1
102
RTVSPropertyOp43
 70
     1
102
RTVSPropertyOp44
 70
     1
102
RTVSPropertyOp45
 70
     1
102
RTVSPropertyOp46
 70
     1
102
RTVSPropertyOp47
 70
     1
102
RTVSPropertyOp48
 70
     1
102
RTVSPropertyOp49
 70
     1
102
RTVSPropertyOp50
 70
     1
102
RTVSPropertyOp51
 70
     0
102
RTVSPropertyOp52
 70
     0
102
RTVSPropertyOp53
 70
     1
102
RTVSPropertyOp54
 70
     1
102
RTVSPropertyOp55
 70
     1
102
RTVSPropertyOp56
 70
     1
102
RTVSPropertyOp57
 70
     1
102
RTVSPropertyOp58
 70
     1
102
RTVSPropertyOp59
 70
     1
102
RTVSPropertyOp60
 70
     1
102
RTVSPropertyOp61
 70
     1
102
RTVSPropertyOp62
 70
     1
  0
XRECORD
  5
DF50
102
{ACAD_REACTORS
330
DF4F
102
}
330
DF4F
100
AcDbXrecord
280
     1
102
RTVSPost2010Prop28
280
     0
102
RTVSPost2010PropOp28
 70
     1
102
RTVSPost2010Prop29
280
     1
102
RTVSPost2010PropOp29
 70
     1
102
RTVSPost2010Prop30
280
     1
102
RTVSPost2010PropOp30
 70
     1
102
RTVSPost2010Prop31
280
     0
102
RTVSPost2010PropOp31
 70
     1
102
RTVSPost2010Prop32
280
     0
102
RTVSPost2010PropOp32
 70
     1
102
RTVSPost2010Prop33
280
     0
102
RTVSPost2010PropOp33
 70
     1
102
RTVSPost2010Prop34
280
     0
102
RTVSPost2010PropOp34
 70
     1
102
RTVSPost2010Prop35
280
     0
102
RTVSPost2010PropOp35
 70
     1
102
RTVSPost2010Prop36
280
     0
102
RTVSPost2010PropOp36
 70
     1
102
RTVSPost2010Prop37
 90
       50
102
RTVSPost2010PropOp37
 70
     1
102
RTVSPost2010Prop38
140
0.0
102
RTVSPost2010PropOp38
 70
     1
102
RTVSPost2010Prop39
140
1.0
102
RTVSPost2010PropOp39
 70
     1
102
RTVSPost2010Prop40
 90
        0
102
RTVSPost2010PropOp40
 70
     1
102
RTVSPost2010Prop41ColorIndex
 90
       18
102
RTVSPost2010Prop41ColorRGB
 90
        0
102
RTVSPost2010PropOp41
 70
     1
102
RTVSPost2010Prop42
 90
       50
102
RTVSPost2010PropOp42
 70
     1
102
RTVSPost2010Prop43
 90
        3
102
RTVSPost2010PropOp43
 70
     1
102
RTVSPost2010Prop44ColorIndex
 90
        5
102
RTVSPost2010Prop44ColorRGB
 90
      255
102
RTVSPost2010PropOp44
 70
     1
102
RTVSPost2010Prop45
280
     0
102
RTVSPost2010PropOp45
 70
     1
102
RTVSPost2010Prop46
 90
       50
102
RTVSPost2010PropOp46
 70
     1
102
RTVSPost2010Prop47
 90
       50
102
RTVSPost2010PropOp47
 70
     1
102
RTVSPost2010Prop48
 90
       50
102
RTVSPost2010PropOp48
 70
     1
102
RTVSPost2010Prop49
280
     0
102
RTVSPost2010PropOp49
 70
     1
102
RTVSPost2010Prop50
 90
       50
102
RTVSPost2010PropOp50
 70
     1
102
RTVSPost2010Prop51ColorIndex
 90
      256
102
RTVSPost2010Prop51ColorRGB
 90
-16777216
102
RTVSPost2010PropOp51
 70
     0
102
RTVSPost2010Prop52
140
1.0
102
RTVSPost2010PropOp52
 70
     0
102
RTVSPost2010Prop53
 90
        2
102
RTVSPost2010PropOp53
 70
     1
102
RTVSPost2010Prop54
  1
strokes_ogs.tif
102
RTVSPost2010PropOp54
 70
     1
102
RTVSPost2010Prop55
280
     0
102
RTVSPost2010PropOp55
 70
     1
102
RTVSPost2010Prop56
140
1.0
102
RTVSPost2010PropOp56
 70
     1
102
RTVSPost2010Prop57
140
1.0
102
RTVSPost2010PropOp57
 70
     1
102
RTVSPropertyOp0
 70
     1
102
RTVSPropertyOp1
 70
     1
102
RTVSPropertyOp2
 70
     1
102
RTVSPropertyOp3
 70
     1
102
RTVSPropertyOp4
 70
     1
102
RTVSPropertyOp5
 70
     1
102
RTVSPropertyOp6
 70
     1
102
RTVSPropertyOp7
 70
     1
102
RTVSPropertyOp8
 70
     1
102
RTVSPropertyOp9
 70
     1
102
RTVSPropertyOp10
 70
     1
102
RTVSPropertyOp11
 70
     1
102
RTVSPropertyOp12
 70
     1
102
RTVSPropertyOp13
 70
     1
102
RTVSPropertyOp14
 70
     1
102
RTVSPropertyOp15
 70
     1
102
RTVSPropertyOp16
 70
     1
102
RTVSPropertyOp17
 70
     1
102
RTVSPropertyOp18
 70
     1
102
RTVSPropertyOp19
 70
     1
102
RTVSPropertyOp20
 70
     1
102
RTVSPropertyOp21
 70
     1
102
RTVSPropertyOp22
 70
     1
102
RTVSPropertyOp23
 70
     1
102
RTVSPropertyOp24
 70
     1
102
RTVSPropertyOp25
 70
     1
102
RTVSPropertyOp26
 70
     1
102
RTVSPropertyOp27
 70
     1
102
RTVSPropertyOp28
 70
     1
102
RTVSPropertyOp29
 70
     1
102
RTVSPropertyOp30
 70
     1
102
RTVSPropertyOp31
 70
     1
102
RTVSPropertyOp32
 70
     1
102
RTVSPropertyOp33
 70
     1
102
RTVSPropertyOp34
 70
     1
102
RTVSPropertyOp35
 70
     1
102
RTVSPropertyOp36
 70
     1
102
RTVSPropertyOp37
 70
     1
102
RTVSPropertyOp38
 70
     1
102
RTVSPropertyOp39
 70
     1
102
RTVSPropertyOp40
 70
     1
102
RTVSPropertyOp41
 70
     1
102
RTVSPropertyOp42
 70
     1
102
RTVSPropertyOp43
 70
     1
102
RTVSPropertyOp44
 70
     1
102
RTVSPropertyOp45
 70
     1
102
RTVSPropertyOp46
 70
     1
102
RTVSPropertyOp47
 70
     1
102
RTVSPropertyOp48
 70
     1
102
RTVSPropertyOp49
 70
     1
102
RTVSPropertyOp50
 70
     1
102
RTVSPropertyOp51
 70
     0
102
RTVSPropertyOp52
 70
     0
102
RTVSPropertyOp53
 70
     1
102
RTVSPropertyOp54
 70
     1
102
RTVSPropertyOp55
 70
     1
102
RTVSPropertyOp56
 70
     1
102
RTVSPropertyOp57
 70
     1
102
RTVSPropertyOp58
 70
     1
102
RTVSPropertyOp59
 70
     1
102
RTVSPropertyOp60
 70
     1
102
RTVSPropertyOp61
 70
     1
102
RTVSPropertyOp62
 70
     1
  0
XRECORD
  5
DF5E
102
{ACAD_REACTORS
330
DF5D
102
}
330
DF5D
100
AcDbXrecord
280
     1
102
RTVSPost2010Prop28
280
     0
102
RTVSPost2010PropOp28
 70
     1
102
RTVSPost2010Prop29
280
     1
102
RTVSPost2010PropOp29
 70
     1
102
RTVSPost2010Prop30
280
     1
102
RTVSPost2010PropOp30
 70
     1
102
RTVSPost2010Prop31
280
     0
102
RTVSPost2010PropOp31
 70
     1
102
RTVSPost2010Prop32
280
     0
102
RTVSPost2010PropOp32
 70
     1
102
RTVSPost2010Prop33
280
     0
102
RTVSPost2010PropOp33
 70
     1
102
RTVSPost2010Prop34
280
     0
102
RTVSPost2010PropOp34
 70
     1
102
RTVSPost2010Prop35
280
     0
102
RTVSPost2010PropOp35
 70
     1
102
RTVSPost2010Prop36
280
     0
102
RTVSPost2010PropOp36
 70
     1
102
RTVSPost2010Prop37
 90
       50
102
RTVSPost2010PropOp37
 70
     1
102
RTVSPost2010Prop38
140
0.0
102
RTVSPost2010PropOp38
 70
     1
102
RTVSPost2010Prop39
140
1.0
102
RTVSPost2010PropOp39
 70
     1
102
RTVSPost2010Prop40
 90
        0
102
RTVSPost2010PropOp40
 70
     1
102
RTVSPost2010Prop41ColorIndex
 90
       18
102
RTVSPost2010Prop41ColorRGB
 90
        0
102
RTVSPost2010PropOp41
 70
     1
102
RTVSPost2010Prop42
 90
       50
102
RTVSPost2010PropOp42
 70
     1
102
RTVSPost2010Prop43
 90
        3
102
RTVSPost2010PropOp43
 70
     1
102
RTVSPost2010Prop44ColorIndex
 90
        5
102
RTVSPost2010Prop44ColorRGB
 90
      255
102
RTVSPost2010PropOp44
 70
     1
102
RTVSPost2010Prop45
280
     0
102
RTVSPost2010PropOp45
 70
     1
102
RTVSPost2010Prop46
 90
       50
102
RTVSPost2010PropOp46
 70
     1
102
RTVSPost2010Prop47
 90
       50
102
RTVSPost2010PropOp47
 70
     1
102
RTVSPost2010Prop48
 90
       50
102
RTVSPost2010PropOp48
 70
     1
102
RTVSPost2010Prop49
280
     0
102
RTVSPost2010PropOp49
 70
     1
102
RTVSPost2010Prop50
 90
       50
102
RTVSPost2010PropOp50
 70
     1
102
RTVSPost2010Prop51ColorIndex
 90
      256
102
RTVSPost2010Prop51ColorRGB
 90
-16777216
102
RTVSPost2010PropOp51
 70
     0
102
RTVSPost2010Prop52
140
1.0
102
RTVSPost2010PropOp52
 70
     0
102
RTVSPost2010Prop53
 90
        2
102
RTVSPost2010PropOp53
 70
     1
102
RTVSPost2010Prop54
  1
strokes_ogs.tif
102
RTVSPost2010PropOp54
 70
     1
102
RTVSPost2010Prop55
280
     0
102
RTVSPost2010PropOp55
 70
     1
102
RTVSPost2010Prop56
140
1.0
102
RTVSPost2010PropOp56
 70
     1
102
RTVSPost2010Prop57
140
1.0
102
RTVSPost2010PropOp57
 70
     1
102
RTVSPropertyOp0
 70
     1
102
RTVSPropertyOp1
 70
     1
102
RTVSPropertyOp2
 70
     1
102
RTVSPropertyOp3
 70
     1
102
RTVSPropertyOp4
 70
     1
102
RTVSPropertyOp5
 70
     1
102
RTVSPropertyOp6
 70
     1
102
RTVSPropertyOp7
 70
     1
102
RTVSPropertyOp8
 70
     1
102
RTVSPropertyOp9
 70
     1
102
RTVSPropertyOp10
 70
     1
102
RTVSPropertyOp11
 70
     1
102
RTVSPropertyOp12
 70
     1
102
RTVSPropertyOp13
 70
     1
102
RTVSPropertyOp14
 70
     1
102
RTVSPropertyOp15
 70
     1
102
RTVSPropertyOp16
 70
     1
102
RTVSPropertyOp17
 70
     1
102
RTVSPropertyOp18
 70
     1
102
RTVSPropertyOp19
 70
     1
102
RTVSPropertyOp20
 70
     1
102
RTVSPropertyOp21
 70
     1
102
RTVSPropertyOp22
 70
     1
102
RTVSPropertyOp23
 70
     1
102
RTVSPropertyOp24
 70
     1
102
RTVSPropertyOp25
 70
     1
102
RTVSPropertyOp26
 70
     1
102
RTVSPropertyOp27
 70
     1
102
RTVSPropertyOp28
 70
     1
102
RTVSPropertyOp29
 70
     1
102
RTVSPropertyOp30
 70
     1
102
RTVSPropertyOp31
 70
     1
102
RTVSPropertyOp32
 70
     1
102
RTVSPropertyOp33
 70
     1
102
RTVSPropertyOp34
 70
     1
102
RTVSPropertyOp35
 70
     1
102
RTVSPropertyOp36
 70
     1
102
RTVSPropertyOp37
 70
     1
102
RTVSPropertyOp38
 70
     1
102
RTVSPropertyOp39
 70
     1
102
RTVSPropertyOp40
 70
     1
102
RTVSPropertyOp41
 70
     1
102
RTVSPropertyOp42
 70
     1
102
RTVSPropertyOp43
 70
     1
102
RTVSPropertyOp44
 70
     1
102
RTVSPropertyOp45
 70
     1
102
RTVSPropertyOp46
 70
     1
102
RTVSPropertyOp47
 70
     1
102
RTVSPropertyOp48
 70
     1
102
RTVSPropertyOp49
 70
     1
102
RTVSPropertyOp50
 70
     1
102
RTVSPropertyOp51
 70
     0
102
RTVSPropertyOp52
 70
     0
102
RTVSPropertyOp53
 70
     1
102
RTVSPropertyOp54
 70
     1
102
RTVSPropertyOp55
 70
     1
102
RTVSPropertyOp56
 70
     1
102
RTVSPropertyOp57
 70
     1
102
RTVSPropertyOp58
 70
     1
102
RTVSPropertyOp59
 70
     1
102
RTVSPropertyOp60
 70
     1
102
RTVSPropertyOp61
 70
     1
102
RTVSPropertyOp62
 70
     1
  0
XRECORD
  5
DF66
102
{ACAD_REACTORS
330
DF65
102
}
330
DF65
100
AcDbXrecord
280
     1
102
RTVSPost2010Prop28
280
     0
102
RTVSPost2010PropOp28
 70
     1
102
RTVSPost2010Prop29
280
     1
102
RTVSPost2010PropOp29
 70
     1
102
RTVSPost2010Prop30
280
     1
102
RTVSPost2010PropOp30
 70
     1
102
RTVSPost2010Prop31
280
     0
102
RTVSPost2010PropOp31
 70
     1
102
RTVSPost2010Prop32
280
     0
102
RTVSPost2010PropOp32
 70
     1
102
RTVSPost2010Prop33
280
     0
102
RTVSPost2010PropOp33
 70
     1
102
RTVSPost2010Prop34
280
     0
102
RTVSPost2010PropOp34
 70
     1
102
RTVSPost2010Prop35
280
     0
102
RTVSPost2010PropOp35
 70
     1
102
RTVSPost2010Prop36
280
     0
102
RTVSPost2010PropOp36
 70
     1
102
RTVSPost2010Prop37
 90
       50
102
RTVSPost2010PropOp37
 70
     1
102
RTVSPost2010Prop38
140
0.0
102
RTVSPost2010PropOp38
 70
     1
102
RTVSPost2010Prop39
140
1.0
102
RTVSPost2010PropOp39
 70
     1
102
RTVSPost2010Prop40
 90
        0
102
RTVSPost2010PropOp40
 70
     1
102
RTVSPost2010Prop41ColorIndex
 90
       18
102
RTVSPost2010Prop41ColorRGB
 90
        0
102
RTVSPost2010PropOp41
 70
     1
102
RTVSPost2010Prop42
 90
       50
102
RTVSPost2010PropOp42
 70
     1
102
RTVSPost2010Prop43
 90
        3
102
RTVSPost2010PropOp43
 70
     1
102
RTVSPost2010Prop44ColorIndex
 90
        5
102
RTVSPost2010Prop44ColorRGB
 90
      255
102
RTVSPost2010PropOp44
 70
     1
102
RTVSPost2010Prop45
280
     0
102
RTVSPost2010PropOp45
 70
     1
102
RTVSPost2010Prop46
 90
       50
102
RTVSPost2010PropOp46
 70
     1
102
RTVSPost2010Prop47
 90
       50
102
RTVSPost2010PropOp47
 70
     1
102
RTVSPost2010Prop48
 90
       50
102
RTVSPost2010PropOp48
 70
     1
102
RTVSPost2010Prop49
280
     0
102
RTVSPost2010PropOp49
 70
     1
102
RTVSPost2010Prop50
 90
       50
102
RTVSPost2010PropOp50
 70
     1
102
RTVSPost2010Prop51ColorIndex
 90
      256
102
RTVSPost2010Prop51ColorRGB
 90
-16777216
102
RTVSPost2010PropOp51
 70
     0
102
RTVSPost2010Prop52
140
1.0
102
RTVSPost2010PropOp52
 70
     0
102
RTVSPost2010Prop53
 90
        2
102
RTVSPost2010PropOp53
 70
     1
102
RTVSPost2010Prop54
  1
strokes_ogs.tif
102
RTVSPost2010PropOp54
 70
     1
102
RTVSPost2010Prop55
280
     0
102
RTVSPost2010PropOp55
 70
     1
102
RTVSPost2010Prop56
140
1.0
102
RTVSPost2010PropOp56
 70
     1
102
RTVSPost2010Prop57
140
1.0
102
RTVSPost2010PropOp57
 70
     1
102
RTVSPropertyOp0
 70
     1
102
RTVSPropertyOp1
 70
     1
102
RTVSPropertyOp2
 70
     1
102
RTVSPropertyOp3
 70
     1
102
RTVSPropertyOp4
 70
     1
102
RTVSPropertyOp5
 70
     1
102
RTVSPropertyOp6
 70
     1
102
RTVSPropertyOp7
 70
     1
102
RTVSPropertyOp8
 70
     1
102
RTVSPropertyOp9
 70
     1
102
RTVSPropertyOp10
 70
     1
102
RTVSPropertyOp11
 70
     1
102
RTVSPropertyOp12
 70
     1
102
RTVSPropertyOp13
 70
     1
102
RTVSPropertyOp14
 70
     1
102
RTVSPropertyOp15
 70
     1
102
RTVSPropertyOp16
 70
     1
102
RTVSPropertyOp17
 70
     1
102
RTVSPropertyOp18
 70
     1
102
RTVSPropertyOp19
 70
     1
102
RTVSPropertyOp20
 70
     1
102
RTVSPropertyOp21
 70
     1
102
RTVSPropertyOp22
 70
     1
102
RTVSPropertyOp23
 70
     1
102
RTVSPropertyOp24
 70
     1
102
RTVSPropertyOp25
 70
     1
102
RTVSPropertyOp26
 70
     1
102
RTVSPropertyOp27
 70
     1
102
RTVSPropertyOp28
 70
     1
102
RTVSPropertyOp29
 70
     1
102
RTVSPropertyOp30
 70
     1
102
RTVSPropertyOp31
 70
     1
102
RTVSPropertyOp32
 70
     1
102
RTVSPropertyOp33
 70
     1
102
RTVSPropertyOp34
 70
     1
102
RTVSPropertyOp35
 70
     1
102
RTVSPropertyOp36
 70
     1
102
RTVSPropertyOp37
 70
     1
102
RTVSPropertyOp38
 70
     1
102
RTVSPropertyOp39
 70
     1
102
RTVSPropertyOp40
 70
     1
102
RTVSPropertyOp41
 70
     1
102
RTVSPropertyOp42
 70
     1
102
RTVSPropertyOp43
 70
     1
102
RTVSPropertyOp44
 70
     1
102
RTVSPropertyOp45
 70
     1
102
RTVSPropertyOp46
 70
     1
102
RTVSPropertyOp47
 70
     1
102
RTVSPropertyOp48
 70
     1
102
RTVSPropertyOp49
 70
     1
102
RTVSPropertyOp50
 70
     1
102
RTVSPropertyOp51
 70
     0
102
RTVSPropertyOp52
 70
     0
102
RTVSPropertyOp53
 70
     1
102
RTVSPropertyOp54
 70
     1
102
RTVSPropertyOp55
 70
     1
102
RTVSPropertyOp56
 70
     1
102
RTVSPropertyOp57
 70
     1
102
RTVSPropertyOp58
 70
     1
102
RTVSPropertyOp59
 70
     1
102
RTVSPropertyOp60
 70
     1
102
RTVSPropertyOp61
 70
     1
102
RTVSPropertyOp62
 70
     1
  0
XRECORD
  5
DF58
102
{ACAD_REACTORS
330
DF57
102
}
330
DF57
100
AcDbXrecord
280
     1
102
RTVSPost2010Prop28
280
     0
102
RTVSPost2010PropOp28
 70
     1
102
RTVSPost2010Prop29
280
     1
102
RTVSPost2010PropOp29
 70
     1
102
RTVSPost2010Prop30
280
     1
102
RTVSPost2010PropOp30
 70
     1
102
RTVSPost2010Prop31
280
     0
102
RTVSPost2010PropOp31
 70
     1
102
RTVSPost2010Prop32
280
     0
102
RTVSPost2010PropOp32
 70
     1
102
RTVSPost2010Prop33
280
     0
102
RTVSPost2010PropOp33
 70
     1
102
RTVSPost2010Prop34
280
     0
102
RTVSPost2010PropOp34
 70
     1
102
RTVSPost2010Prop35
280
     0
102
RTVSPost2010PropOp35
 70
     1
102
RTVSPost2010Prop36
280
     0
102
RTVSPost2010PropOp36
 70
     1
102
RTVSPost2010Prop37
 90
       50
102
RTVSPost2010PropOp37
 70
     1
102
RTVSPost2010Prop38
140
0.0
102
RTVSPost2010PropOp38
 70
     1
102
RTVSPost2010Prop39
140
1.0
102
RTVSPost2010PropOp39
 70
     1
102
RTVSPost2010Prop40
 90
        0
102
RTVSPost2010PropOp40
 70
     1
102
RTVSPost2010Prop41ColorIndex
 90
       18
102
RTVSPost2010Prop41ColorRGB
 90
        0
102
RTVSPost2010PropOp41
 70
     1
102
RTVSPost2010Prop42
 90
       50
102
RTVSPost2010PropOp42
 70
     1
102
RTVSPost2010Prop43
 90
        3
102
RTVSPost2010PropOp43
 70
     1
102
RTVSPost2010Prop44ColorIndex
 90
        5
102
RTVSPost2010Prop44ColorRGB
 90
      255
102
RTVSPost2010PropOp44
 70
     1
102
RTVSPost2010Prop45
280
     0
102
RTVSPost2010PropOp45
 70
     1
102
RTVSPost2010Prop46
 90
       50
102
RTVSPost2010PropOp46
 70
     1
102
RTVSPost2010Prop47
 90
       50
102
RTVSPost2010PropOp47
 70
     1
102
RTVSPost2010Prop48
 90
       50
102
RTVSPost2010PropOp48
 70
     1
102
RTVSPost2010Prop49
280
     0
102
RTVSPost2010PropOp49
 70
     1
102
RTVSPost2010Prop50
 90
       50
102
RTVSPost2010PropOp50
 70
     1
102
RTVSPost2010Prop51ColorIndex
 90
      256
102
RTVSPost2010Prop51ColorRGB
 90
-16777216
102
RTVSPost2010PropOp51
 70
     0
102
RTVSPost2010Prop52
140
1.0
102
RTVSPost2010PropOp52
 70
     0
102
RTVSPost2010Prop53
 90
        2
102
RTVSPost2010PropOp53
 70
     1
102
RTVSPost2010Prop54
  1
strokes_ogs.tif
102
RTVSPost2010PropOp54
 70
     1
102
RTVSPost2010Prop55
280
     0
102
RTVSPost2010PropOp55
 70
     1
102
RTVSPost2010Prop56
140
1.0
102
RTVSPost2010PropOp56
 70
     1
102
RTVSPost2010Prop57
140
1.0
102
RTVSPost2010PropOp57
 70
     1
102
RTVSPropertyOp0
 70
     1
102
RTVSPropertyOp1
 70
     1
102
RTVSPropertyOp2
 70
     1
102
RTVSPropertyOp3
 70
     1
102
RTVSPropertyOp4
 70
     1
102
RTVSPropertyOp5
 70
     1
102
RTVSPropertyOp6
 70
     1
102
RTVSPropertyOp7
 70
     1
102
RTVSPropertyOp8
 70
     1
102
RTVSPropertyOp9
 70
     1
102
RTVSPropertyOp10
 70
     1
102
RTVSPropertyOp11
 70
     1
102
RTVSPropertyOp12
 70
     1
102
RTVSPropertyOp13
 70
     1
102
RTVSPropertyOp14
 70
     1
102
RTVSPropertyOp15
 70
     1
102
RTVSPropertyOp16
 70
     1
102
RTVSPropertyOp17
 70
     1
102
RTVSPropertyOp18
 70
     1
102
RTVSPropertyOp19
 70
     1
102
RTVSPropertyOp20
 70
     1
102
RTVSPropertyOp21
 70
     1
102
RTVSPropertyOp22
 70
     1
102
RTVSPropertyOp23
 70
     1
102
RTVSPropertyOp24
 70
     1
102
RTVSPropertyOp25
 70
     1
102
RTVSPropertyOp26
 70
     1
102
RTVSPropertyOp27
 70
     1
102
RTVSPropertyOp28
 70
     1
102
RTVSPropertyOp29
 70
     1
102
RTVSPropertyOp30
 70
     1
102
RTVSPropertyOp31
 70
     1
102
RTVSPropertyOp32
 70
     1
102
RTVSPropertyOp33
 70
     1
102
RTVSPropertyOp34
 70
     1
102
RTVSPropertyOp35
 70
     1
102
RTVSPropertyOp36
 70
     1
102
RTVSPropertyOp37
 70
     1
102
RTVSPropertyOp38
 70
     1
102
RTVSPropertyOp39
 70
     1
102
RTVSPropertyOp40
 70
     1
102
RTVSPropertyOp41
 70
     1
102
RTVSPropertyOp42
 70
     1
102
RTVSPropertyOp43
 70
     1
102
RTVSPropertyOp44
 70
     1
102
RTVSPropertyOp45
 70
     1
102
RTVSPropertyOp46
 70
     1
102
RTVSPropertyOp47
 70
     1
102
RTVSPropertyOp48
 70
     1
102
RTVSPropertyOp49
 70
     1
102
RTVSPropertyOp50
 70
     1
102
RTVSPropertyOp51
 70
     0
102
RTVSPropertyOp52
 70
     0
102
RTVSPropertyOp53
 70
     1
102
RTVSPropertyOp54
 70
     1
102
RTVSPropertyOp55
 70
     1
102
RTVSPropertyOp56
 70
     1
102
RTVSPropertyOp57
 70
     1
102
RTVSPropertyOp58
 70
     1
102
RTVSPropertyOp59
 70
     1
102
RTVSPropertyOp60
 70
     1
102
RTVSPropertyOp61
 70
     1
102
RTVSPropertyOp62
 70
     1
  0
XRECORD
  5
DF5C
102
{ACAD_REACTORS
330
DF5B
102
}
330
DF5B
100
AcDbXrecord
280
     1
102
RTVSPost2010Prop28
280
     0
102
RTVSPost2010PropOp28
 70
     1
102
RTVSPost2010Prop29
280
     1
102
RTVSPost2010PropOp29
 70
     1
102
RTVSPost2010Prop30
280
     1
102
RTVSPost2010PropOp30
 70
     1
102
RTVSPost2010Prop31
280
     0
102
RTVSPost2010PropOp31
 70
     1
102
RTVSPost2010Prop32
280
     0
102
RTVSPost2010PropOp32
 70
     1
102
RTVSPost2010Prop33
280
     0
102
RTVSPost2010PropOp33
 70
     1
102
RTVSPost2010Prop34
280
     0
102
RTVSPost2010PropOp34
 70
     1
102
RTVSPost2010Prop35
280
     0
102
RTVSPost2010PropOp35
 70
     1
102
RTVSPost2010Prop36
280
     0
102
RTVSPost2010PropOp36
 70
     1
102
RTVSPost2010Prop37
 90
       50
102
RTVSPost2010PropOp37
 70
     1
102
RTVSPost2010Prop38
140
0.0
102
RTVSPost2010PropOp38
 70
     1
102
RTVSPost2010Prop39
140
1.0
102
RTVSPost2010PropOp39
 70
     1
102
RTVSPost2010Prop40
 90
        0
102
RTVSPost2010PropOp40
 70
     1
102
RTVSPost2010Prop41ColorIndex
 90
       18
102
RTVSPost2010Prop41ColorRGB
 90
        0
102
RTVSPost2010PropOp41
 70
     1
102
RTVSPost2010Prop42
 90
       50
102
RTVSPost2010PropOp42
 70
     1
102
RTVSPost2010Prop43
 90
        3
102
RTVSPost2010PropOp43
 70
     1
102
RTVSPost2010Prop44ColorIndex
 90
        5
102
RTVSPost2010Prop44ColorRGB
 90
      255
102
RTVSPost2010PropOp44
 70
     1
102
RTVSPost2010Prop45
280
     0
102
RTVSPost2010PropOp45
 70
     1
102
RTVSPost2010Prop46
 90
       50
102
RTVSPost2010PropOp46
 70
     1
102
RTVSPost2010Prop47
 90
       50
102
RTVSPost2010PropOp47
 70
     1
102
RTVSPost2010Prop48
 90
       50
102
RTVSPost2010PropOp48
 70
     1
102
RTVSPost2010Prop49
280
     0
102
RTVSPost2010PropOp49
 70
     1
102
RTVSPost2010Prop50
 90
       50
102
RTVSPost2010PropOp50
 70
     1
102
RTVSPost2010Prop51ColorIndex
 90
      256
102
RTVSPost2010Prop51ColorRGB
 90
-16777216
102
RTVSPost2010PropOp51
 70
     0
102
RTVSPost2010Prop52
140
1.0
102
RTVSPost2010PropOp52
 70
     0
102
RTVSPost2010Prop53
 90
        2
102
RTVSPost2010PropOp53
 70
     1
102
RTVSPost2010Prop54
  1
strokes_ogs.tif
102
RTVSPost2010PropOp54
 70
     1
102
RTVSPost2010Prop55
280
     0
102
RTVSPost2010PropOp55
 70
     1
102
RTVSPost2010Prop56
140
1.0
102
RTVSPost2010PropOp56
 70
     1
102
RTVSPost2010Prop57
140
1.0
102
RTVSPost2010PropOp57
 70
     1
102
RTVSPropertyOp0
 70
     1
102
RTVSPropertyOp1
 70
     1
102
RTVSPropertyOp2
 70
     1
102
RTVSPropertyOp3
 70
     1
102
RTVSPropertyOp4
 70
     1
102
RTVSPropertyOp5
 70
     1
102
RTVSPropertyOp6
 70
     1
102
RTVSPropertyOp7
 70
     1
102
RTVSPropertyOp8
 70
     1
102
RTVSPropertyOp9
 70
     1
102
RTVSPropertyOp10
 70
     1
102
RTVSPropertyOp11
 70
     1
102
RTVSPropertyOp12
 70
     1
102
RTVSPropertyOp13
 70
     1
102
RTVSPropertyOp14
 70
     1
102
RTVSPropertyOp15
 70
     1
102
RTVSPropertyOp16
 70
     1
102
RTVSPropertyOp17
 70
     1
102
RTVSPropertyOp18
 70
     1
102
RTVSPropertyOp19
 70
     1
102
RTVSPropertyOp20
 70
     1
102
RTVSPropertyOp21
 70
     1
102
RTVSPropertyOp22
 70
     1
102
RTVSPropertyOp23
 70
     1
102
RTVSPropertyOp24
 70
     1
102
RTVSPropertyOp25
 70
     1
102
RTVSPropertyOp26
 70
     1
102
RTVSPropertyOp27
 70
     1
102
RTVSPropertyOp28
 70
     1
102
RTVSPropertyOp29
 70
     1
102
RTVSPropertyOp30
 70
     1
102
RTVSPropertyOp31
 70
     1
102
RTVSPropertyOp32
 70
     1
102
RTVSPropertyOp33
 70
     1
102
RTVSPropertyOp34
 70
     1
102
RTVSPropertyOp35
 70
     1
102
RTVSPropertyOp36
 70
     1
102
RTVSPropertyOp37
 70
     1
102
RTVSPropertyOp38
 70
     1
102
RTVSPropertyOp39
 70
     1
102
RTVSPropertyOp40
 70
     1
102
RTVSPropertyOp41
 70
     1
102
RTVSPropertyOp42
 70
     1
102
RTVSPropertyOp43
 70
     1
102
RTVSPropertyOp44
 70
     1
102
RTVSPropertyOp45
 70
     1
102
RTVSPropertyOp46
 70
     1
102
RTVSPropertyOp47
 70
     1
102
RTVSPropertyOp48
 70
     1
102
RTVSPropertyOp49
 70
     1
102
RTVSPropertyOp50
 70
     1
102
RTVSPropertyOp51
 70
     0
102
RTVSPropertyOp52
 70
     0
102
RTVSPropertyOp53
 70
     1
102
RTVSPropertyOp54
 70
     1
102
RTVSPropertyOp55
 70
     1
102
RTVSPropertyOp56
 70
     1
102
RTVSPropertyOp57
 70
     1
102
RTVSPropertyOp58
 70
     1
102
RTVSPropertyOp59
 70
     1
102
RTVSPropertyOp60
 70
     1
102
RTVSPropertyOp61
 70
     1
102
RTVSPropertyOp62
 70
     1
  0
XRECORD
  5
DF6C
102
{ACAD_REACTORS
330
DF6B
102
}
330
DF6B
100
AcDbXrecord
280
     1
102
RTVSPost2010Prop28
280
     0
102
RTVSPost2010PropOp28
 70
     1
102
RTVSPost2010Prop29
280
     1
102
RTVSPost2010PropOp29
 70
     1
102
RTVSPost2010Prop30
280
     1
102
RTVSPost2010PropOp30
 70
     1
102
RTVSPost2010Prop31
280
     0
102
RTVSPost2010PropOp31
 70
     1
102
RTVSPost2010Prop32
280
     0
102
RTVSPost2010PropOp32
 70
     1
102
RTVSPost2010Prop33
280
     0
102
RTVSPost2010PropOp33
 70
     1
102
RTVSPost2010Prop34
280
     0
102
RTVSPost2010PropOp34
 70
     1
102
RTVSPost2010Prop35
280
     0
102
RTVSPost2010PropOp35
 70
     1
102
RTVSPost2010Prop36
280
     0
102
RTVSPost2010PropOp36
 70
     1
102
RTVSPost2010Prop37
 90
       50
102
RTVSPost2010PropOp37
 70
     1
102
RTVSPost2010Prop38
140
0.0
102
RTVSPost2010PropOp38
 70
     1
102
RTVSPost2010Prop39
140
1.0
102
RTVSPost2010PropOp39
 70
     1
102
RTVSPost2010Prop40
 90
        0
102
RTVSPost2010PropOp40
 70
     1
102
RTVSPost2010Prop41ColorIndex
 90
       18
102
RTVSPost2010Prop41ColorRGB
 90
        0
102
RTVSPost2010PropOp41
 70
     1
102
RTVSPost2010Prop42
 90
       50
102
RTVSPost2010PropOp42
 70
     1
102
RTVSPost2010Prop43
 90
        3
102
RTVSPost2010PropOp43
 70
     1
102
RTVSPost2010Prop44ColorIndex
 90
        5
102
RTVSPost2010Prop44ColorRGB
 90
      255
102
RTVSPost2010PropOp44
 70
     1
102
RTVSPost2010Prop45
280
     0
102
RTVSPost2010PropOp45
 70
     1
102
RTVSPost2010Prop46
 90
       50
102
RTVSPost2010PropOp46
 70
     1
102
RTVSPost2010Prop47
 90
       50
102
RTVSPost2010PropOp47
 70
     1
102
RTVSPost2010Prop48
 90
       50
102
RTVSPost2010PropOp48
 70
     1
102
RTVSPost2010Prop49
280
     0
102
RTVSPost2010PropOp49
 70
     1
102
RTVSPost2010Prop50
 90
       50
102
RTVSPost2010PropOp50
 70
     1
102
RTVSPost2010Prop51ColorIndex
 90
      256
102
RTVSPost2010Prop51ColorRGB
 90
-16777216
102
RTVSPost2010PropOp51
 70
     0
102
RTVSPost2010Prop52
140
1.0
102
RTVSPost2010PropOp52
 70
     0
102
RTVSPost2010Prop53
 90
        2
102
RTVSPost2010PropOp53
 70
     1
102
RTVSPost2010Prop54
  1
strokes_ogs.tif
102
RTVSPost2010PropOp54
 70
     1
102
RTVSPost2010Prop55
280
     0
102
RTVSPost2010PropOp55
 70
     1
102
RTVSPost2010Prop56
140
1.0
102
RTVSPost2010PropOp56
 70
     1
102
RTVSPost2010Prop57
140
1.0
102
RTVSPost2010PropOp57
 70
     1
102
RTVSPropertyOp0
 70
     0
102
RTVSPropertyOp1
 70
     0
102
RTVSPropertyOp2
 70
     0
102
RTVSPropertyOp3
 70
     0
102
RTVSPropertyOp4
 70
     0
102
RTVSPropertyOp5
 70
     0
102
RTVSPropertyOp6
 70
     0
102
RTVSPropertyOp7
 70
     0
102
RTVSPropertyOp8
 70
     0
102
RTVSPropertyOp9
 70
     0
102
RTVSPropertyOp10
 70
     0
102
RTVSPropertyOp11
 70
     0
102
RTVSPropertyOp12
 70
     0
102
RTVSPropertyOp13
 70
     0
102
RTVSPropertyOp14
 70
     2
102
RTVSPropertyOp15
 70
     0
102
RTVSPropertyOp16
 70
     0
102
RTVSPropertyOp17
 70
     0
102
RTVSPropertyOp18
 70
     0
102
RTVSPropertyOp19
 70
     0
102
RTVSPropertyOp20
 70
     0
102
RTVSPropertyOp21
 70
     0
102
RTVSPropertyOp22
 70
     0
102
RTVSPropertyOp23
 70
     0
102
RTVSPropertyOp24
 70
     0
102
RTVSPropertyOp25
 70
     0
102
RTVSPropertyOp26
 70
     0
102
RTVSPropertyOp27
 70
     0
102
RTVSPropertyOp28
 70
     1
102
RTVSPropertyOp29
 70
     1
102
RTVSPropertyOp30
 70
     1
102
RTVSPropertyOp31
 70
     1
102
RTVSPropertyOp32
 70
     1
102
RTVSPropertyOp33
 70
     1
102
RTVSPropertyOp34
 70
     1
102
RTVSPropertyOp35
 70
     1
102
RTVSPropertyOp36
 70
     1
102
RTVSPropertyOp37
 70
     1
102
RTVSPropertyOp38
 70
     1
102
RTVSPropertyOp39
 70
     1
102
RTVSPropertyOp40
 70
     1
102
RTVSPropertyOp41
 70
     1
102
RTVSPropertyOp42
 70
     1
102
RTVSPropertyOp43
 70
     1
102
RTVSPropertyOp44
 70
     1
102
RTVSPropertyOp45
 70
     1
102
RTVSPropertyOp46
 70
     1
102
RTVSPropertyOp47
 70
     1
102
RTVSPropertyOp48
 70
     1
102
RTVSPropertyOp49
 70
     1
102
RTVSPropertyOp50
 70
     1
102
RTVSPropertyOp51
 70
     0
102
RTVSPropertyOp52
 70
     0
102
RTVSPropertyOp53
 70
     1
102
RTVSPropertyOp54
 70
     1
102
RTVSPropertyOp55
 70
     1
102
RTVSPropertyOp56
 70
     1
102
RTVSPropertyOp57
 70
     1
102
RTVSPropertyOp58
 70
     1
102
RTVSPropertyOp59
 70
     1
102
RTVSPropertyOp60
 70
     1
102
RTVSPropertyOp61
 70
     1
102
RTVSPropertyOp62
 70
     1
  0
XRECORD
  5
DF64
102
{ACAD_REACTORS
330
DF63
102
}
330
DF63
100
AcDbXrecord
280
     1
102
RTVSPost2010Prop28
280
     0
102
RTVSPost2010PropOp28
 70
     1
102
RTVSPost2010Prop29
280
     1
102
RTVSPost2010PropOp29
 70
     1
102
RTVSPost2010Prop30
280
     1
102
RTVSPost2010PropOp30
 70
     1
102
RTVSPost2010Prop31
280
     0
102
RTVSPost2010PropOp31
 70
     1
102
RTVSPost2010Prop32
280
     0
102
RTVSPost2010PropOp32
 70
     1
102
RTVSPost2010Prop33
280
     0
102
RTVSPost2010PropOp33
 70
     1
102
RTVSPost2010Prop34
280
     0
102
RTVSPost2010PropOp34
 70
     1
102
RTVSPost2010Prop35
280
     0
102
RTVSPost2010PropOp35
 70
     1
102
RTVSPost2010Prop36
280
     0
102
RTVSPost2010PropOp36
 70
     1
102
RTVSPost2010Prop37
 90
       50
102
RTVSPost2010PropOp37
 70
     1
102
RTVSPost2010Prop38
140
0.0
102
RTVSPost2010PropOp38
 70
     1
102
RTVSPost2010Prop39
140
1.0
102
RTVSPost2010PropOp39
 70
     1
102
RTVSPost2010Prop40
 90
        0
102
RTVSPost2010PropOp40
 70
     1
102
RTVSPost2010Prop41ColorIndex
 90
       18
102
RTVSPost2010Prop41ColorRGB
 90
        0
102
RTVSPost2010PropOp41
 70
     1
102
RTVSPost2010Prop42
 90
       50
102
RTVSPost2010PropOp42
 70
     1
102
RTVSPost2010Prop43
 90
        3
102
RTVSPost2010PropOp43
 70
     1
102
RTVSPost2010Prop44ColorIndex
 90
        5
102
RTVSPost2010Prop44ColorRGB
 90
      255
102
RTVSPost2010PropOp44
 70
     1
102
RTVSPost2010Prop45
280
     0
102
RTVSPost2010PropOp45
 70
     1
102
RTVSPost2010Prop46
 90
       50
102
RTVSPost2010PropOp46
 70
     1
102
RTVSPost2010Prop47
 90
       50
102
RTVSPost2010PropOp47
 70
     1
102
RTVSPost2010Prop48
 90
       50
102
RTVSPost2010PropOp48
 70
     1
102
RTVSPost2010Prop49
280
     0
102
RTVSPost2010PropOp49
 70
     1
102
RTVSPost2010Prop50
 90
       50
102
RTVSPost2010PropOp50
 70
     1
102
RTVSPost2010Prop51ColorIndex
 90
      256
102
RTVSPost2010Prop51ColorRGB
 90
-16777216
102
RTVSPost2010PropOp51
 70
     0
102
RTVSPost2010Prop52
140
1.0
102
RTVSPost2010PropOp52
 70
     0
102
RTVSPost2010Prop53
 90
        2
102
RTVSPost2010PropOp53
 70
     1
102
RTVSPost2010Prop54
  1
strokes_ogs.tif
102
RTVSPost2010PropOp54
 70
     1
102
RTVSPost2010Prop55
280
     0
102
RTVSPost2010PropOp55
 70
     1
102
RTVSPost2010Prop56
140
1.0
102
RTVSPost2010PropOp56
 70
     1
102
RTVSPost2010Prop57
140
1.0
102
RTVSPost2010PropOp57
 70
     1
102
RTVSPropertyOp0
 70
     1
102
RTVSPropertyOp1
 70
     1
102
RTVSPropertyOp2
 70
     1
102
RTVSPropertyOp3
 70
     1
102
RTVSPropertyOp4
 70
     1
102
RTVSPropertyOp5
 70
     1
102
RTVSPropertyOp6
 70
     1
102
RTVSPropertyOp7
 70
     1
102
RTVSPropertyOp8
 70
     1
102
RTVSPropertyOp9
 70
     1
102
RTVSPropertyOp10
 70
     1
102
RTVSPropertyOp11
 70
     1
102
RTVSPropertyOp12
 70
     1
102
RTVSPropertyOp13
 70
     1
102
RTVSPropertyOp14
 70
     1
102
RTVSPropertyOp15
 70
     1
102
RTVSPropertyOp16
 70
     1
102
RTVSPropertyOp17
 70
     1
102
RTVSPropertyOp18
 70
     1
102
RTVSPropertyOp19
 70
     1
102
RTVSPropertyOp20
 70
     1
102
RTVSPropertyOp21
 70
     1
102
RTVSPropertyOp22
 70
     1
102
RTVSPropertyOp23
 70
     1
102
RTVSPropertyOp24
 70
     1
102
RTVSPropertyOp25
 70
     1
102
RTVSPropertyOp26
 70
     1
102
RTVSPropertyOp27
 70
     1
102
RTVSPropertyOp28
 70
     1
102
RTVSPropertyOp29
 70
     1
102
RTVSPropertyOp30
 70
     1
102
RTVSPropertyOp31
 70
     1
102
RTVSPropertyOp32
 70
     1
102
RTVSPropertyOp33
 70
     1
102
RTVSPropertyOp34
 70
     1
102
RTVSPropertyOp35
 70
     1
102
RTVSPropertyOp36
 70
     1
102
RTVSPropertyOp37
 70
     1
102
RTVSPropertyOp38
 70
     1
102
RTVSPropertyOp39
 70
     1
102
RTVSPropertyOp40
 70
     1
102
RTVSPropertyOp41
 70
     1
102
RTVSPropertyOp42
 70
     1
102
RTVSPropertyOp43
 70
     1
102
RTVSPropertyOp44
 70
     1
102
RTVSPropertyOp45
 70
     1
102
RTVSPropertyOp46
 70
     1
102
RTVSPropertyOp47
 70
     1
102
RTVSPropertyOp48
 70
     1
102
RTVSPropertyOp49
 70
     1
102
RTVSPropertyOp50
 70
     1
102
RTVSPropertyOp51
 70
     0
102
RTVSPropertyOp52
 70
     0
102
RTVSPropertyOp53
 70
     1
102
RTVSPropertyOp54
 70
     1
102
RTVSPropertyOp55
 70
     1
102
RTVSPropertyOp56
 70
     1
102
RTVSPropertyOp57
 70
     1
102
RTVSPropertyOp58
 70
     1
102
RTVSPropertyOp59
 70
     1
102
RTVSPropertyOp60
 70
     1
102
RTVSPropertyOp61
 70
     1
102
RTVSPropertyOp62
 70
     1
  0
XRECORD
  5
DF48
102
{ACAD_REACTORS
330
DF47
102
}
330
DF47
100
AcDbXrecord
280
     1
102
RTVSPost2010Prop28
280
     0
102
RTVSPost2010PropOp28
 70
     1
102
RTVSPost2010Prop29
280
     1
102
RTVSPost2010PropOp29
 70
     1
102
RTVSPost2010Prop30
280
     1
102
RTVSPost2010PropOp30
 70
     1
102
RTVSPost2010Prop31
280
     0
102
RTVSPost2010PropOp31
 70
     1
102
RTVSPost2010Prop32
280
     0
102
RTVSPost2010PropOp32
 70
     1
102
RTVSPost2010Prop33
280
     0
102
RTVSPost2010PropOp33
 70
     1
102
RTVSPost2010Prop34
280
     0
102
RTVSPost2010PropOp34
 70
     1
102
RTVSPost2010Prop35
280
     0
102
RTVSPost2010PropOp35
 70
     1
102
RTVSPost2010Prop36
280
     0
102
RTVSPost2010PropOp36
 70
     1
102
RTVSPost2010Prop37
 90
       50
102
RTVSPost2010PropOp37
 70
     1
102
RTVSPost2010Prop38
140
0.0
102
RTVSPost2010PropOp38
 70
     1
102
RTVSPost2010Prop39
140
1.0
102
RTVSPost2010PropOp39
 70
     1
102
RTVSPost2010Prop40
 90
        0
102
RTVSPost2010PropOp40
 70
     1
102
RTVSPost2010Prop41ColorIndex
 90
       18
102
RTVSPost2010Prop41ColorRGB
 90
        0
102
RTVSPost2010PropOp41
 70
     1
102
RTVSPost2010Prop42
 90
       50
102
RTVSPost2010PropOp42
 70
     1
102
RTVSPost2010Prop43
 90
        3
102
RTVSPost2010PropOp43
 70
     1
102
RTVSPost2010Prop44ColorIndex
 90
        5
102
RTVSPost2010Prop44ColorRGB
 90
      255
102
RTVSPost2010PropOp44
 70
     1
102
RTVSPost2010Prop45
280
     0
102
RTVSPost2010PropOp45
 70
     1
102
RTVSPost2010Prop46
 90
       50
102
RTVSPost2010PropOp46
 70
     1
102
RTVSPost2010Prop47
 90
       50
102
RTVSPost2010PropOp47
 70
     1
102
RTVSPost2010Prop48
 90
       50
102
RTVSPost2010PropOp48
 70
     1
102
RTVSPost2010Prop49
280
     0
102
RTVSPost2010PropOp49
 70
     1
102
RTVSPost2010Prop50
 90
       50
102
RTVSPost2010PropOp50
 70
     1
102
RTVSPost2010Prop51ColorIndex
 90
      256
102
RTVSPost2010Prop51ColorRGB
 90
-16777216
102
RTVSPost2010PropOp51
 70
     0
102
RTVSPost2010Prop52
140
1.0
102
RTVSPost2010PropOp52
 70
     0
102
RTVSPost2010Prop53
 90
        2
102
RTVSPost2010PropOp53
 70
     1
102
RTVSPost2010Prop54
  1
strokes_ogs.tif
102
RTVSPost2010PropOp54
 70
     1
102
RTVSPost2010Prop55
280
     0
102
RTVSPost2010PropOp55
 70
     1
102
RTVSPost2010Prop56
140
1.0
102
RTVSPost2010PropOp56
 70
     1
102
RTVSPost2010Prop57
140
1.0
102
RTVSPost2010PropOp57
 70
     1
102
RTVSPropertyOp0
 70
     1
102
RTVSPropertyOp1
 70
     1
102
RTVSPropertyOp2
 70
     1
102
RTVSPropertyOp3
 70
     1
102
RTVSPropertyOp4
 70
     1
102
RTVSPropertyOp5
 70
     1
102
RTVSPropertyOp6
 70
     1
102
RTVSPropertyOp7
 70
     1
102
RTVSPropertyOp8
 70
     1
102
RTVSPropertyOp9
 70
     1
102
RTVSPropertyOp10
 70
     1
102
RTVSPropertyOp11
 70
     1
102
RTVSPropertyOp12
 70
     1
102
RTVSPropertyOp13
 70
     1
102
RTVSPropertyOp14
 70
     1
102
RTVSPropertyOp15
 70
     1
102
RTVSPropertyOp16
 70
     1
102
RTVSPropertyOp17
 70
     1
102
RTVSPropertyOp18
 70
     1
102
RTVSPropertyOp19
 70
     1
102
RTVSPropertyOp20
 70
     1
102
RTVSPropertyOp21
 70
     1
102
RTVSPropertyOp22
 70
     1
102
RTVSPropertyOp23
 70
     1
102
RTVSPropertyOp24
 70
     1
102
RTVSPropertyOp25
 70
     1
102
RTVSPropertyOp26
 70
     1
102
RTVSPropertyOp27
 70
     1
102
RTVSPropertyOp28
 70
     1
102
RTVSPropertyOp29
 70
     1
102
RTVSPropertyOp30
 70
     1
102
RTVSPropertyOp31
 70
     1
102
RTVSPropertyOp32
 70
     1
102
RTVSPropertyOp33
 70
     1
102
RTVSPropertyOp34
 70
     1
102
RTVSPropertyOp35
 70
     1
102
RTVSPropertyOp36
 70
     1
102
RTVSPropertyOp37
 70
     1
102
RTVSPropertyOp38
 70
     1
102
RTVSPropertyOp39
 70
     1
102
RTVSPropertyOp40
 70
     1
102
RTVSPropertyOp41
 70
     1
102
RTVSPropertyOp42
 70
     1
102
RTVSPropertyOp43
 70
     1
102
RTVSPropertyOp44
 70
     1
102
RTVSPropertyOp45
 70
     1
102
RTVSPropertyOp46
 70
     1
102
RTVSPropertyOp47
 70
     1
102
RTVSPropertyOp48
 70
     1
102
RTVSPropertyOp49
 70
     1
102
RTVSPropertyOp50
 70
     1
102
RTVSPropertyOp51
 70
     0
102
RTVSPropertyOp52
 70
     0
102
RTVSPropertyOp53
 70
     1
102
RTVSPropertyOp54
 70
     1
102
RTVSPropertyOp55
 70
     1
102
RTVSPropertyOp56
 70
     1
102
RTVSPropertyOp57
 70
     1
102
RTVSPropertyOp58
 70
     1
102
RTVSPropertyOp59
 70
     1
102
RTVSPropertyOp60
 70
     1
102
RTVSPropertyOp61
 70
     1
102
RTVSPropertyOp62
 70
     1
  0
XRECORD
  5
DF4A
102
{ACAD_REACTORS
330
DF49
102
}
330
DF49
100
AcDbXrecord
280
     1
102
RTVSPost2010Prop28
280
     0
102
RTVSPost2010PropOp28
 70
     1
102
RTVSPost2010Prop29
280
     1
102
RTVSPost2010PropOp29
 70
     1
102
RTVSPost2010Prop30
280
     1
102
RTVSPost2010PropOp30
 70
     1
102
RTVSPost2010Prop31
280
     0
102
RTVSPost2010PropOp31
 70
     1
102
RTVSPost2010Prop32
280
     0
102
RTVSPost2010PropOp32
 70
     1
102
RTVSPost2010Prop33
280
     0
102
RTVSPost2010PropOp33
 70
     1
102
RTVSPost2010Prop34
280
     0
102
RTVSPost2010PropOp34
 70
     1
102
RTVSPost2010Prop35
280
     0
102
RTVSPost2010PropOp35
 70
     1
102
RTVSPost2010Prop36
280
     0
102
RTVSPost2010PropOp36
 70
     1
102
RTVSPost2010Prop37
 90
       50
102
RTVSPost2010PropOp37
 70
     1
102
RTVSPost2010Prop38
140
0.0
102
RTVSPost2010PropOp38
 70
     1
102
RTVSPost2010Prop39
140
1.0
102
RTVSPost2010PropOp39
 70
     1
102
RTVSPost2010Prop40
 90
        0
102
RTVSPost2010PropOp40
 70
     1
102
RTVSPost2010Prop41ColorIndex
 90
       18
102
RTVSPost2010Prop41ColorRGB
 90
        0
102
RTVSPost2010PropOp41
 70
     1
102
RTVSPost2010Prop42
 90
       50
102
RTVSPost2010PropOp42
 70
     1
102
RTVSPost2010Prop43
 90
        3
102
RTVSPost2010PropOp43
 70
     1
102
RTVSPost2010Prop44ColorIndex
 90
        5
102
RTVSPost2010Prop44ColorRGB
 90
      255
102
RTVSPost2010PropOp44
 70
     1
102
RTVSPost2010Prop45
280
     0
102
RTVSPost2010PropOp45
 70
     1
102
RTVSPost2010Prop46
 90
       50
102
RTVSPost2010PropOp46
 70
     1
102
RTVSPost2010Prop47
 90
       50
102
RTVSPost2010PropOp47
 70
     1
102
RTVSPost2010Prop48
 90
       50
102
RTVSPost2010PropOp48
 70
     1
102
RTVSPost2010Prop49
280
     0
102
RTVSPost2010PropOp49
 70
     1
102
RTVSPost2010Prop50
 90
       50
102
RTVSPost2010PropOp50
 70
     1
102
RTVSPost2010Prop51ColorIndex
 90
      256
102
RTVSPost2010Prop51ColorRGB
 90
-16777216
102
RTVSPost2010PropOp51
 70
     0
102
RTVSPost2010Prop52
140
1.0
102
RTVSPost2010PropOp52
 70
     0
102
RTVSPost2010Prop53
 90
        2
102
RTVSPost2010PropOp53
 70
     1
102
RTVSPost2010Prop54
  1
strokes_ogs.tif
102
RTVSPost2010PropOp54
 70
     1
102
RTVSPost2010Prop55
280
     0
102
RTVSPost2010PropOp55
 70
     1
102
RTVSPost2010Prop56
140
1.0
102
RTVSPost2010PropOp56
 70
     1
102
RTVSPost2010Prop57
140
1.0
102
RTVSPost2010PropOp57
 70
     1
102
RTVSPropertyOp0
 70
     1
102
RTVSPropertyOp1
 70
     1
102
RTVSPropertyOp2
 70
     1
102
RTVSPropertyOp3
 70
     1
102
RTVSPropertyOp4
 70
     1
102
RTVSPropertyOp5
 70
     1
102
RTVSPropertyOp6
 70
     1
102
RTVSPropertyOp7
 70
     1
102
RTVSPropertyOp8
 70
     1
102
RTVSPropertyOp9
 70
     1
102
RTVSPropertyOp10
 70
     1
102
RTVSPropertyOp11
 70
     1
102
RTVSPropertyOp12
 70
     1
102
RTVSPropertyOp13
 70
     1
102
RTVSPropertyOp14
 70
     1
102
RTVSPropertyOp15
 70
     1
102
RTVSPropertyOp16
 70
     1
102
RTVSPropertyOp17
 70
     1
102
RTVSPropertyOp18
 70
     1
102
RTVSPropertyOp19
 70
     1
102
RTVSPropertyOp20
 70
     1
102
RTVSPropertyOp21
 70
     1
102
RTVSPropertyOp22
 70
     1
102
RTVSPropertyOp23
 70
     1
102
RTVSPropertyOp24
 70
     1
102
RTVSPropertyOp25
 70
     1
102
RTVSPropertyOp26
 70
     1
102
RTVSPropertyOp27
 70
     1
102
RTVSPropertyOp28
 70
     1
102
RTVSPropertyOp29
 70
     1
102
RTVSPropertyOp30
 70
     1
102
RTVSPropertyOp31
 70
     1
102
RTVSPropertyOp32
 70
     1
102
RTVSPropertyOp33
 70
     1
102
RTVSPropertyOp34
 70
     1
102
RTVSPropertyOp35
 70
     1
102
RTVSPropertyOp36
 70
     1
102
RTVSPropertyOp37
 70
     1
102
RTVSPropertyOp38
 70
     1
102
RTVSPropertyOp39
 70
     1
102
RTVSPropertyOp40
 70
     1
102
RTVSPropertyOp41
 70
     1
102
RTVSPropertyOp42
 70
     1
102
RTVSPropertyOp43
 70
     1
102
RTVSPropertyOp44
 70
     1
102
RTVSPropertyOp45
 70
     1
102
RTVSPropertyOp46
 70
     1
102
RTVSPropertyOp47
 70
     1
102
RTVSPropertyOp48
 70
     1
102
RTVSPropertyOp49
 70
     1
102
RTVSPropertyOp50
 70
     1
102
RTVSPropertyOp51
 70
     0
102
RTVSPropertyOp52
 70
     0
102
RTVSPropertyOp53
 70
     1
102
RTVSPropertyOp54
 70
     1
102
RTVSPropertyOp55
 70
     1
102
RTVSPropertyOp56
 70
     1
102
RTVSPropertyOp57
 70
     1
102
RTVSPropertyOp58
 70
     1
102
RTVSPropertyOp59
 70
     1
102
RTVSPropertyOp60
 70
     1
102
RTVSPropertyOp61
 70
     1
102
RTVSPropertyOp62
 70
     1
  0
XRECORD
  5
DF4C
102
{ACAD_REACTORS
330
DF4B
102
}
330
DF4B
100
AcDbXrecord
280
     1
102
RTVSPost2010Prop28
280
     0
102
RTVSPost2010PropOp28
 70
     1
102
RTVSPost2010Prop29
280
     1
102
RTVSPost2010PropOp29
 70
     1
102
RTVSPost2010Prop30
280
     1
102
RTVSPost2010PropOp30
 70
     1
102
RTVSPost2010Prop31
280
     0
102
RTVSPost2010PropOp31
 70
     1
102
RTVSPost2010Prop32
280
     0
102
RTVSPost2010PropOp32
 70
     1
102
RTVSPost2010Prop33
280
     0
102
RTVSPost2010PropOp33
 70
     1
102
RTVSPost2010Prop34
280
     0
102
RTVSPost2010PropOp34
 70
     1
102
RTVSPost2010Prop35
280
     0
102
RTVSPost2010PropOp35
 70
     1
102
RTVSPost2010Prop36
280
     0
102
RTVSPost2010PropOp36
 70
     1
102
RTVSPost2010Prop37
 90
       50
102
RTVSPost2010PropOp37
 70
     1
102
RTVSPost2010Prop38
140
0.0
102
RTVSPost2010PropOp38
 70
     1
102
RTVSPost2010Prop39
140
1.0
102
RTVSPost2010PropOp39
 70
     1
102
RTVSPost2010Prop40
 90
        0
102
RTVSPost2010PropOp40
 70
     1
102
RTVSPost2010Prop41ColorIndex
 90
       18
102
RTVSPost2010Prop41ColorRGB
 90
        0
102
RTVSPost2010PropOp41
 70
     1
102
RTVSPost2010Prop42
 90
       50
102
RTVSPost2010PropOp42
 70
     1
102
RTVSPost2010Prop43
 90
        3
102
RTVSPost2010PropOp43
 70
     1
102
RTVSPost2010Prop44ColorIndex
 90
        5
102
RTVSPost2010Prop44ColorRGB
 90
      255
102
RTVSPost2010PropOp44
 70
     1
102
RTVSPost2010Prop45
280
     0
102
RTVSPost2010PropOp45
 70
     1
102
RTVSPost2010Prop46
 90
       50
102
RTVSPost2010PropOp46
 70
     1
102
RTVSPost2010Prop47
 90
       50
102
RTVSPost2010PropOp47
 70
     1
102
RTVSPost2010Prop48
 90
       50
102
RTVSPost2010PropOp48
 70
     1
102
RTVSPost2010Prop49
280
     0
102
RTVSPost2010PropOp49
 70
     1
102
RTVSPost2010Prop50
 90
       50
102
RTVSPost2010PropOp50
 70
     1
102
RTVSPost2010Prop51ColorIndex
 90
      256
102
RTVSPost2010Prop51ColorRGB
 90
-16777216
102
RTVSPost2010PropOp51
 70
     0
102
RTVSPost2010Prop52
140
1.0
102
RTVSPost2010PropOp52
 70
     0
102
RTVSPost2010Prop53
 90
        2
102
RTVSPost2010PropOp53
 70
     1
102
RTVSPost2010Prop54
  1
strokes_ogs.tif
102
RTVSPost2010PropOp54
 70
     1
102
RTVSPost2010Prop55
280
     0
102
RTVSPost2010PropOp55
 70
     1
102
RTVSPost2010Prop56
140
1.0
102
RTVSPost2010PropOp56
 70
     1
102
RTVSPost2010Prop57
140
1.0
102
RTVSPost2010PropOp57
 70
     1
102
RTVSPropertyOp0
 70
     1
102
RTVSPropertyOp1
 70
     1
102
RTVSPropertyOp2
 70
     1
102
RTVSPropertyOp3
 70
     1
102
RTVSPropertyOp4
 70
     1
102
RTVSPropertyOp5
 70
     1
102
RTVSPropertyOp6
 70
     1
102
RTVSPropertyOp7
 70
     1
102
RTVSPropertyOp8
 70
     1
102
RTVSPropertyOp9
 70
     1
102
RTVSPropertyOp10
 70
     1
102
RTVSPropertyOp11
 70
     1
102
RTVSPropertyOp12
 70
     1
102
RTVSPropertyOp13
 70
     1
102
RTVSPropertyOp14
 70
     1
102
RTVSPropertyOp15
 70
     1
102
RTVSPropertyOp16
 70
     1
102
RTVSPropertyOp17
 70
     1
102
RTVSPropertyOp18
 70
     1
102
RTVSPropertyOp19
 70
     1
102
RTVSPropertyOp20
 70
     1
102
RTVSPropertyOp21
 70
     1
102
RTVSPropertyOp22
 70
     1
102
RTVSPropertyOp23
 70
     1
102
RTVSPropertyOp24
 70
     1
102
RTVSPropertyOp25
 70
     1
102
RTVSPropertyOp26
 70
     1
102
RTVSPropertyOp27
 70
     1
102
RTVSPropertyOp28
 70
     1
102
RTVSPropertyOp29
 70
     1
102
RTVSPropertyOp30
 70
     1
102
RTVSPropertyOp31
 70
     1
102
RTVSPropertyOp32
 70
     1
102
RTVSPropertyOp33
 70
     1
102
RTVSPropertyOp34
 70
     1
102
RTVSPropertyOp35
 70
     1
102
RTVSPropertyOp36
 70
     1
102
RTVSPropertyOp37
 70
     1
102
RTVSPropertyOp38
 70
     1
102
RTVSPropertyOp39
 70
     1
102
RTVSPropertyOp40
 70
     1
102
RTVSPropertyOp41
 70
     1
102
RTVSPropertyOp42
 70
     1
102
RTVSPropertyOp43
 70
     1
102
RTVSPropertyOp44
 70
     1
102
RTVSPropertyOp45
 70
     1
102
RTVSPropertyOp46
 70
     1
102
RTVSPropertyOp47
 70
     1
102
RTVSPropertyOp48
 70
     1
102
RTVSPropertyOp49
 70
     1
102
RTVSPropertyOp50
 70
     1
102
RTVSPropertyOp51
 70
     0
102
RTVSPropertyOp52
 70
     0
102
RTVSPropertyOp53
 70
     1
102
RTVSPropertyOp54
 70
     1
102
RTVSPropertyOp55
 70
     1
102
RTVSPropertyOp56
 70
     1
102
RTVSPropertyOp57
 70
     1
102
RTVSPropertyOp58
 70
     1
102
RTVSPropertyOp59
 70
     1
102
RTVSPropertyOp60
 70
     1
102
RTVSPropertyOp61
 70
     1
102
RTVSPropertyOp62
 70
     1
  0
XRECORD
  5
DF4E
102
{ACAD_REACTORS
330
DF4D
102
}
330
DF4D
100
AcDbXrecord
280
     1
102
RTVSPost2010Prop28
280
     0
102
RTVSPost2010PropOp28
 70
     1
102
RTVSPost2010Prop29
280
     1
102
RTVSPost2010PropOp29
 70
     1
102
RTVSPost2010Prop30
280
     1
102
RTVSPost2010PropOp30
 70
     1
102
RTVSPost2010Prop31
280
     0
102
RTVSPost2010PropOp31
 70
     1
102
RTVSPost2010Prop32
280
     0
102
RTVSPost2010PropOp32
 70
     1
102
RTVSPost2010Prop33
280
     0
102
RTVSPost2010PropOp33
 70
     1
102
RTVSPost2010Prop34
280
     0
102
RTVSPost2010PropOp34
 70
     1
102
RTVSPost2010Prop35
280
     0
102
RTVSPost2010PropOp35
 70
     1
102
RTVSPost2010Prop36
280
     0
102
RTVSPost2010PropOp36
 70
     1
102
RTVSPost2010Prop37
 90
       50
102
RTVSPost2010PropOp37
 70
     1
102
RTVSPost2010Prop38
140
0.0
102
RTVSPost2010PropOp38
 70
     1
102
RTVSPost2010Prop39
140
1.0
102
RTVSPost2010PropOp39
 70
     1
102
RTVSPost2010Prop40
 90
        0
102
RTVSPost2010PropOp40
 70
     1
102
RTVSPost2010Prop41ColorIndex
 90
       18
102
RTVSPost2010Prop41ColorRGB
 90
        0
102
RTVSPost2010PropOp41
 70
     1
102
RTVSPost2010Prop42
 90
       50
102
RTVSPost2010PropOp42
 70
     1
102
RTVSPost2010Prop43
 90
        3
102
RTVSPost2010PropOp43
 70
     1
102
RTVSPost2010Prop44ColorIndex
 90
        5
102
RTVSPost2010Prop44ColorRGB
 90
      255
102
RTVSPost2010PropOp44
 70
     1
102
RTVSPost2010Prop45
280
     0
102
RTVSPost2010PropOp45
 70
     1
102
RTVSPost2010Prop46
 90
       50
102
RTVSPost2010PropOp46
 70
     1
102
RTVSPost2010Prop47
 90
       50
102
RTVSPost2010PropOp47
 70
     1
102
RTVSPost2010Prop48
 90
       50
102
RTVSPost2010PropOp48
 70
     1
102
RTVSPost2010Prop49
280
     0
102
RTVSPost2010PropOp49
 70
     1
102
RTVSPost2010Prop50
 90
       50
102
RTVSPost2010PropOp50
 70
     1
102
RTVSPost2010Prop51ColorIndex
 90
      256
102
RTVSPost2010Prop51ColorRGB
 90
-16777216
102
RTVSPost2010PropOp51
 70
     0
102
RTVSPost2010Prop52
140
1.0
102
RTVSPost2010PropOp52
 70
     0
102
RTVSPost2010Prop53
 90
        2
102
RTVSPost2010PropOp53
 70
     1
102
RTVSPost2010Prop54
  1
strokes_ogs.tif
102
RTVSPost2010PropOp54
 70
     1
102
RTVSPost2010Prop55
280
     0
102
RTVSPost2010PropOp55
 70
     1
102
RTVSPost2010Prop56
140
1.0
102
RTVSPost2010PropOp56
 70
     1
102
RTVSPost2010Prop57
140
1.0
102
RTVSPost2010PropOp57
 70
     1
102
RTVSPropertyOp0
 70
     1
102
RTVSPropertyOp1
 70
     1
102
RTVSPropertyOp2
 70
     1
102
RTVSPropertyOp3
 70
     1
102
RTVSPropertyOp4
 70
     1
102
RTVSPropertyOp5
 70
     1
102
RTVSPropertyOp6
 70
     1
102
RTVSPropertyOp7
 70
     1
102
RTVSPropertyOp8
 70
     1
102
RTVSPropertyOp9
 70
     1
102
RTVSPropertyOp10
 70
     1
102
RTVSPropertyOp11
 70
     1
102
RTVSPropertyOp12
 70
     1
102
RTVSPropertyOp13
 70
     1
102
RTVSPropertyOp14
 70
     1
102
RTVSPropertyOp15
 70
     1
102
RTVSPropertyOp16
 70
     1
102
RTVSPropertyOp17
 70
     1
102
RTVSPropertyOp18
 70
     1
102
RTVSPropertyOp19
 70
     1
102
RTVSPropertyOp20
 70
     1
102
RTVSPropertyOp21
 70
     1
102
RTVSPropertyOp22
 70
     1
102
RTVSPropertyOp23
 70
     1
102
RTVSPropertyOp24
 70
     1
102
RTVSPropertyOp25
 70
     1
102
RTVSPropertyOp26
 70
     1
102
RTVSPropertyOp27
 70
     1
102
RTVSPropertyOp28
 70
     1
102
RTVSPropertyOp29
 70
     1
102
RTVSPropertyOp30
 70
     1
102
RTVSPropertyOp31
 70
     1
102
RTVSPropertyOp32
 70
     1
102
RTVSPropertyOp33
 70
     1
102
RTVSPropertyOp34
 70
     1
102
RTVSPropertyOp35
 70
     1
102
RTVSPropertyOp36
 70
     1
102
RTVSPropertyOp37
 70
     1
102
RTVSPropertyOp38
 70
     1
102
RTVSPropertyOp39
 70
     1
102
RTVSPropertyOp40
 70
     1
102
RTVSPropertyOp41
 70
     1
102
RTVSPropertyOp42
 70
     1
102
RTVSPropertyOp43
 70
     1
102
RTVSPropertyOp44
 70
     1
102
RTVSPropertyOp45
 70
     1
102
RTVSPropertyOp46
 70
     1
102
RTVSPropertyOp47
 70
     1
102
RTVSPropertyOp48
 70
     1
102
RTVSPropertyOp49
 70
     1
102
RTVSPropertyOp50
 70
     1
102
RTVSPropertyOp51
 70
     0
102
RTVSPropertyOp52
 70
     0
102
RTVSPropertyOp53
 70
     1
102
RTVSPropertyOp54
 70
     1
102
RTVSPropertyOp55
 70
     1
102
RTVSPropertyOp56
 70
     1
102
RTVSPropertyOp57
 70
     1
102
RTVSPropertyOp58
 70
     1
102
RTVSPropertyOp59
 70
     1
102
RTVSPropertyOp60
 70
     1
102
RTVSPropertyOp61
 70
     1
102
RTVSPropertyOp62
 70
     1
  0
XRECORD
  5
DF71
102
{ACAD_REACTORS
330
DF70
102
}
330
DF70
100
AcDbXrecord
280
     1
102
RTVSPost2010Prop28
280
     0
102
RTVSPost2010PropOp28
 70
     1
102
RTVSPost2010Prop29
280
     1
102
RTVSPost2010PropOp29
 70
     1
102
RTVSPost2010Prop30
280
     1
102
RTVSPost2010PropOp30
 70
     1
102
RTVSPost2010Prop31
280
     0
102
RTVSPost2010PropOp31
 70
     1
102
RTVSPost2010Prop32
280
     0
102
RTVSPost2010PropOp32
 70
     1
102
RTVSPost2010Prop33
280
     0
102
RTVSPost2010PropOp33
 70
     1
102
RTVSPost2010Prop34
280
     0
102
RTVSPost2010PropOp34
 70
     1
102
RTVSPost2010Prop35
280
     0
102
RTVSPost2010PropOp35
 70
     1
102
RTVSPost2010Prop36
280
     0
102
RTVSPost2010PropOp36
 70
     1
102
RTVSPost2010Prop37
 90
       50
102
RTVSPost2010PropOp37
 70
     1
102
RTVSPost2010Prop38
140
0.0
102
RTVSPost2010PropOp38
 70
     1
102
RTVSPost2010Prop39
140
1.0
102
RTVSPost2010PropOp39
 70
     1
102
RTVSPost2010Prop40
 90
        0
102
RTVSPost2010PropOp40
 70
     1
102
RTVSPost2010Prop41ColorIndex
 90
       18
102
RTVSPost2010Prop41ColorRGB
 90
        0
102
RTVSPost2010PropOp41
 70
     1
102
RTVSPost2010Prop42
 90
       50
102
RTVSPost2010PropOp42
 70
     1
102
RTVSPost2010Prop43
 90
        3
102
RTVSPost2010PropOp43
 70
     1
102
RTVSPost2010Prop44ColorIndex
 90
        5
102
RTVSPost2010Prop44ColorRGB
 90
      255
102
RTVSPost2010PropOp44
 70
     1
102
RTVSPost2010Prop45
280
     0
102
RTVSPost2010PropOp45
 70
     1
102
RTVSPost2010Prop46
 90
       50
102
RTVSPost2010PropOp46
 70
     1
102
RTVSPost2010Prop47
 90
       50
102
RTVSPost2010PropOp47
 70
     1
102
RTVSPost2010Prop48
 90
       50
102
RTVSPost2010PropOp48
 70
     1
102
RTVSPost2010Prop49
280
     0
102
RTVSPost2010PropOp49
 70
     1
102
RTVSPost2010Prop50
 90
       50
102
RTVSPost2010PropOp50
 70
     1
102
RTVSPost2010Prop51ColorIndex
 90
      256
102
RTVSPost2010Prop51ColorRGB
 90
-16777216
102
RTVSPost2010PropOp51
 70
     0
102
RTVSPost2010Prop52
140
1.0
102
RTVSPost2010PropOp52
 70
     0
102
RTVSPost2010Prop53
 90
        2
102
RTVSPost2010PropOp53
 70
     1
102
RTVSPost2010Prop54
  1
strokes_ogs.tif
102
RTVSPost2010PropOp54
 70
     1
102
RTVSPost2010Prop55
280
     0
102
RTVSPost2010PropOp55
 70
     1
102
RTVSPost2010Prop56
140
1.0
102
RTVSPost2010PropOp56
 70
     1
102
RTVSPost2010Prop57
140
1.0
102
RTVSPost2010PropOp57
 70
     1
102
RTVSPropertyOp0
 70
     1
102
RTVSPropertyOp1
 70
     1
102
RTVSPropertyOp2
 70
     1
102
RTVSPropertyOp3
 70
     1
102
RTVSPropertyOp4
 70
     1
102
RTVSPropertyOp5
 70
     1
102
RTVSPropertyOp6
 70
     1
102
RTVSPropertyOp7
 70
     1
102
RTVSPropertyOp8
 70
     1
102
RTVSPropertyOp9
 70
     1
102
RTVSPropertyOp10
 70
     1
102
RTVSPropertyOp11
 70
     1
102
RTVSPropertyOp12
 70
     1
102
RTVSPropertyOp13
 70
     1
102
RTVSPropertyOp14
 70
     1
102
RTVSPropertyOp15
 70
     1
102
RTVSPropertyOp16
 70
     1
102
RTVSPropertyOp17
 70
     1
102
RTVSPropertyOp18
 70
     1
102
RTVSPropertyOp19
 70
     1
102
RTVSPropertyOp20
 70
     1
102
RTVSPropertyOp21
 70
     1
102
RTVSPropertyOp22
 70
     1
102
RTVSPropertyOp23
 70
     1
102
RTVSPropertyOp24
 70
     1
102
RTVSPropertyOp25
 70
     1
102
RTVSPropertyOp26
 70
     1
102
RTVSPropertyOp27
 70
     1
102
RTVSPropertyOp28
 70
     1
102
RTVSPropertyOp29
 70
     1
102
RTVSPropertyOp30
 70
     1
102
RTVSPropertyOp31
 70
     1
102
RTVSPropertyOp32
 70
     1
102
RTVSPropertyOp33
 70
     1
102
RTVSPropertyOp34
 70
     1
102
RTVSPropertyOp35
 70
     1
102
RTVSPropertyOp36
 70
     1
102
RTVSPropertyOp37
 70
     1
102
RTVSPropertyOp38
 70
     1
102
RTVSPropertyOp39
 70
     1
102
RTVSPropertyOp40
 70
     1
102
RTVSPropertyOp41
 70
     1
102
RTVSPropertyOp42
 70
     1
102
RTVSPropertyOp43
 70
     1
102
RTVSPropertyOp44
 70
     1
102
RTVSPropertyOp45
 70
     1
102
RTVSPropertyOp46
 70
     1
102
RTVSPropertyOp47
 70
     1
102
RTVSPropertyOp48
 70
     1
102
RTVSPropertyOp49
 70
     1
102
RTVSPropertyOp50
 70
     1
102
RTVSPropertyOp51
 70
     0
102
RTVSPropertyOp52
 70
     0
102
RTVSPropertyOp53
 70
     1
102
RTVSPropertyOp54
 70
     1
102
RTVSPropertyOp55
 70
     1
102
RTVSPropertyOp56
 70
     1
102
RTVSPropertyOp57
 70
     1
102
RTVSPropertyOp58
 70
     1
102
RTVSPropertyOp59
 70
     1
102
RTVSPropertyOp60
 70
     1
102
RTVSPropertyOp61
 70
     1
102
RTVSPropertyOp62
 70
     1
  0
XRECORD
  5
DF68
102
{ACAD_REACTORS
330
DF67
102
}
330
DF67
100
AcDbXrecord
280
     1
102
RTVSPost2010Prop28
280
     0
102
RTVSPost2010PropOp28
 70
     1
102
RTVSPost2010Prop29
280
     1
102
RTVSPost2010PropOp29
 70
     1
102
RTVSPost2010Prop30
280
     1
102
RTVSPost2010PropOp30
 70
     1
102
RTVSPost2010Prop31
280
     0
102
RTVSPost2010PropOp31
 70
     1
102
RTVSPost2010Prop32
280
     0
102
RTVSPost2010PropOp32
 70
     1
102
RTVSPost2010Prop33
280
     0
102
RTVSPost2010PropOp33
 70
     1
102
RTVSPost2010Prop34
280
     0
102
RTVSPost2010PropOp34
 70
     1
102
RTVSPost2010Prop35
280
     0
102
RTVSPost2010PropOp35
 70
     1
102
RTVSPost2010Prop36
280
     0
102
RTVSPost2010PropOp36
 70
     1
102
RTVSPost2010Prop37
 90
       50
102
RTVSPost2010PropOp37
 70
     1
102
RTVSPost2010Prop38
140
0.0
102
RTVSPost2010PropOp38
 70
     1
102
RTVSPost2010Prop39
140
1.0
102
RTVSPost2010PropOp39
 70
     1
102
RTVSPost2010Prop40
 90
        0
102
RTVSPost2010PropOp40
 70
     1
102
RTVSPost2010Prop41ColorIndex
 90
       18
102
RTVSPost2010Prop41ColorRGB
 90
        0
102
RTVSPost2010PropOp41
 70
     1
102
RTVSPost2010Prop42
 90
       50
102
RTVSPost2010PropOp42
 70
     1
102
RTVSPost2010Prop43
 90
        3
102
RTVSPost2010PropOp43
 70
     1
102
RTVSPost2010Prop44ColorIndex
 90
        5
102
RTVSPost2010Prop44ColorRGB
 90
      255
102
RTVSPost2010PropOp44
 70
     1
102
RTVSPost2010Prop45
280
     0
102
RTVSPost2010PropOp45
 70
     1
102
RTVSPost2010Prop46
 90
       50
102
RTVSPost2010PropOp46
 70
     1
102
RTVSPost2010Prop47
 90
       50
102
RTVSPost2010PropOp47
 70
     1
102
RTVSPost2010Prop48
 90
       50
102
RTVSPost2010PropOp48
 70
     1
102
RTVSPost2010Prop49
280
     0
102
RTVSPost2010PropOp49
 70
     1
102
RTVSPost2010Prop50
 90
       50
102
RTVSPost2010PropOp50
 70
     1
102
RTVSPost2010Prop51ColorIndex
 90
      256
102
RTVSPost2010Prop51ColorRGB
 90
-16777216
102
RTVSPost2010PropOp51
 70
     0
102
RTVSPost2010Prop52
140
1.0
102
RTVSPost2010PropOp52
 70
     0
102
RTVSPost2010Prop53
 90
        2
102
RTVSPost2010PropOp53
 70
     1
102
RTVSPost2010Prop54
  1
strokes_ogs.tif
102
RTVSPost2010PropOp54
 70
     1
102
RTVSPost2010Prop55
280
     0
102
RTVSPost2010PropOp55
 70
     1
102
RTVSPost2010Prop56
140
1.0
102
RTVSPost2010PropOp56
 70
     1
102
RTVSPost2010Prop57
140
1.0
102
RTVSPost2010PropOp57
 70
     1
102
RTVSPropertyOp0
 70
     0
102
RTVSPropertyOp1
 70
     0
102
RTVSPropertyOp2
 70
     0
102
RTVSPropertyOp3
 70
     0
102
RTVSPropertyOp4
 70
     0
102
RTVSPropertyOp5
 70
     0
102
RTVSPropertyOp6
 70
     0
102
RTVSPropertyOp7
 70
     0
102
RTVSPropertyOp8
 70
     0
102
RTVSPropertyOp9
 70
     0
102
RTVSPropertyOp10
 70
     0
102
RTVSPropertyOp11
 70
     0
102
RTVSPropertyOp12
 70
     0
102
RTVSPropertyOp13
 70
     0
102
RTVSPropertyOp14
 70
     2
102
RTVSPropertyOp15
 70
     0
102
RTVSPropertyOp16
 70
     0
102
RTVSPropertyOp17
 70
     0
102
RTVSPropertyOp18
 70
     0
102
RTVSPropertyOp19
 70
     0
102
RTVSPropertyOp20
 70
     0
102
RTVSPropertyOp21
 70
     0
102
RTVSPropertyOp22
 70
     0
102
RTVSPropertyOp23
 70
     0
102
RTVSPropertyOp24
 70
     0
102
RTVSPropertyOp25
 70
     0
102
RTVSPropertyOp26
 70
     0
102
RTVSPropertyOp27
 70
     0
102
RTVSPropertyOp28
 70
     1
102
RTVSPropertyOp29
 70
     1
102
RTVSPropertyOp30
 70
     1
102
RTVSPropertyOp31
 70
     1
102
RTVSPropertyOp32
 70
     1
102
RTVSPropertyOp33
 70
     1
102
RTVSPropertyOp34
 70
     1
102
RTVSPropertyOp35
 70
     1
102
RTVSPropertyOp36
 70
     1
102
RTVSPropertyOp37
 70
     1
102
RTVSPropertyOp38
 70
     1
102
RTVSPropertyOp39
 70
     1
102
RTVSPropertyOp40
 70
     1
102
RTVSPropertyOp41
 70
     1
102
RTVSPropertyOp42
 70
     1
102
RTVSPropertyOp43
 70
     1
102
RTVSPropertyOp44
 70
     1
102
RTVSPropertyOp45
 70
     1
102
RTVSPropertyOp46
 70
     1
102
RTVSPropertyOp47
 70
     1
102
RTVSPropertyOp48
 70
     1
102
RTVSPropertyOp49
 70
     1
102
RTVSPropertyOp50
 70
     1
102
RTVSPropertyOp51
 70
     0
102
RTVSPropertyOp52
 70
     0
102
RTVSPropertyOp53
 70
     1
102
RTVSPropertyOp54
 70
     1
102
RTVSPropertyOp55
 70
     1
102
RTVSPropertyOp56
 70
     1
102
RTVSPropertyOp57
 70
     1
102
RTVSPropertyOp58
 70
     1
102
RTVSPropertyOp59
 70
     1
102
RTVSPropertyOp60
 70
     1
102
RTVSPropertyOp61
 70
     1
102
RTVSPropertyOp62
 70
     1
  0
XRECORD
  5
DF62
102
{ACAD_REACTORS
330
DF61
102
}
330
DF61
100
AcDbXrecord
280
     1
102
RTVSPost2010Prop28
280
     0
102
RTVSPost2010PropOp28
 70
     1
102
RTVSPost2010Prop29
280
     1
102
RTVSPost2010PropOp29
 70
     1
102
RTVSPost2010Prop30
280
     1
102
RTVSPost2010PropOp30
 70
     1
102
RTVSPost2010Prop31
280
     0
102
RTVSPost2010PropOp31
 70
     1
102
RTVSPost2010Prop32
280
     0
102
RTVSPost2010PropOp32
 70
     1
102
RTVSPost2010Prop33
280
     0
102
RTVSPost2010PropOp33
 70
     1
102
RTVSPost2010Prop34
280
     0
102
RTVSPost2010PropOp34
 70
     1
102
RTVSPost2010Prop35
280
     0
102
RTVSPost2010PropOp35
 70
     1
102
RTVSPost2010Prop36
280
     0
102
RTVSPost2010PropOp36
 70
     1
102
RTVSPost2010Prop37
 90
       50
102
RTVSPost2010PropOp37
 70
     1
102
RTVSPost2010Prop38
140
0.0
102
RTVSPost2010PropOp38
 70
     1
102
RTVSPost2010Prop39
140
1.0
102
RTVSPost2010PropOp39
 70
     1
102
RTVSPost2010Prop40
 90
        0
102
RTVSPost2010PropOp40
 70
     1
102
RTVSPost2010Prop41ColorIndex
 90
       18
102
RTVSPost2010Prop41ColorRGB
 90
        0
102
RTVSPost2010PropOp41
 70
     1
102
RTVSPost2010Prop42
 90
       50
102
RTVSPost2010PropOp42
 70
     1
102
RTVSPost2010Prop43
 90
        3
102
RTVSPost2010PropOp43
 70
     1
102
RTVSPost2010Prop44ColorIndex
 90
        5
102
RTVSPost2010Prop44ColorRGB
 90
      255
102
RTVSPost2010PropOp44
 70
     1
102
RTVSPost2010Prop45
280
     0
102
RTVSPost2010PropOp45
 70
     1
102
RTVSPost2010Prop46
 90
       50
102
RTVSPost2010PropOp46
 70
     1
102
RTVSPost2010Prop47
 90
       50
102
RTVSPost2010PropOp47
 70
     1
102
RTVSPost2010Prop48
 90
       50
102
RTVSPost2010PropOp48
 70
     1
102
RTVSPost2010Prop49
280
     0
102
RTVSPost2010PropOp49
 70
     1
102
RTVSPost2010Prop50
 90
       50
102
RTVSPost2010PropOp50
 70
     1
102
RTVSPost2010Prop51ColorIndex
 90
      256
102
RTVSPost2010Prop51ColorRGB
 90
-16777216
102
RTVSPost2010PropOp51
 70
     0
102
RTVSPost2010Prop52
140
1.0
102
RTVSPost2010PropOp52
 70
     0
102
RTVSPost2010Prop53
 90
        2
102
RTVSPost2010PropOp53
 70
     1
102
RTVSPost2010Prop54
  1
strokes_ogs.tif
102
RTVSPost2010PropOp54
 70
     1
102
RTVSPost2010Prop55
280
     0
102
RTVSPost2010PropOp55
 70
     1
102
RTVSPost2010Prop56
140
1.0
102
RTVSPost2010PropOp56
 70
     1
102
RTVSPost2010Prop57
140
1.0
102
RTVSPost2010PropOp57
 70
     1
102
RTVSPropertyOp0
 70
     1
102
RTVSPropertyOp1
 70
     1
102
RTVSPropertyOp2
 70
     1
102
RTVSPropertyOp3
 70
     1
102
RTVSPropertyOp4
 70
     1
102
RTVSPropertyOp5
 70
     1
102
RTVSPropertyOp6
 70
     1
102
RTVSPropertyOp7
 70
     1
102
RTVSPropertyOp8
 70
     1
102
RTVSPropertyOp9
 70
     1
102
RTVSPropertyOp10
 70
     1
102
RTVSPropertyOp11
 70
     1
102
RTVSPropertyOp12
 70
     1
102
RTVSPropertyOp13
 70
     1
102
RTVSPropertyOp14
 70
     1
102
RTVSPropertyOp15
 70
     1
102
RTVSPropertyOp16
 70
     1
102
RTVSPropertyOp17
 70
     1
102
RTVSPropertyOp18
 70
     1
102
RTVSPropertyOp19
 70
     1
102
RTVSPropertyOp20
 70
     1
102
RTVSPropertyOp21
 70
     1
102
RTVSPropertyOp22
 70
     1
102
RTVSPropertyOp23
 70
     1
102
RTVSPropertyOp24
 70
     1
102
RTVSPropertyOp25
 70
     1
102
RTVSPropertyOp26
 70
     1
102
RTVSPropertyOp27
 70
     1
102
RTVSPropertyOp28
 70
     1
102
RTVSPropertyOp29
 70
     1
102
RTVSPropertyOp30
 70
     1
102
RTVSPropertyOp31
 70
     1
102
RTVSPropertyOp32
 70
     1
102
RTVSPropertyOp33
 70
     1
102
RTVSPropertyOp34
 70
     1
102
RTVSPropertyOp35
 70
     1
102
RTVSPropertyOp36
 70
     1
102
RTVSPropertyOp37
 70
     1
102
RTVSPropertyOp38
 70
     1
102
RTVSPropertyOp39
 70
     1
102
RTVSPropertyOp40
 70
     1
102
RTVSPropertyOp41
 70
     1
102
RTVSPropertyOp42
 70
     1
102
RTVSPropertyOp43
 70
     1
102
RTVSPropertyOp44
 70
     1
102
RTVSPropertyOp45
 70
     1
102
RTVSPropertyOp46
 70
     1
102
RTVSPropertyOp47
 70
     1
102
RTVSPropertyOp48
 70
     1
102
RTVSPropertyOp49
 70
     1
102
RTVSPropertyOp50
 70
     1
102
RTVSPropertyOp51
 70
     0
102
RTVSPropertyOp52
 70
     0
102
RTVSPropertyOp53
 70
     1
102
RTVSPropertyOp54
 70
     1
102
RTVSPropertyOp55
 70
     1
102
RTVSPropertyOp56
 70
     1
102
RTVSPropertyOp57
 70
     1
102
RTVSPropertyOp58
 70
     1
102
RTVSPropertyOp59
 70
     1
102
RTVSPropertyOp60
 70
     1
102
RTVSPropertyOp61
 70
     1
102
RTVSPropertyOp62
 70
     1
  0
XRECORD
  5
DF6A
102
{ACAD_REACTORS
330
DF69
102
}
330
DF69
100
AcDbXrecord
280
     1
102
RTVSPost2010Prop28
280
     0
102
RTVSPost2010PropOp28
 70
     1
102
RTVSPost2010Prop29
280
     1
102
RTVSPost2010PropOp29
 70
     1
102
RTVSPost2010Prop30
280
     1
102
RTVSPost2010PropOp30
 70
     1
102
RTVSPost2010Prop31
280
     0
102
RTVSPost2010PropOp31
 70
     1
102
RTVSPost2010Prop32
280
     0
102
RTVSPost2010PropOp32
 70
     1
102
RTVSPost2010Prop33
280
     0
102
RTVSPost2010PropOp33
 70
     1
102
RTVSPost2010Prop34
280
     0
102
RTVSPost2010PropOp34
 70
     1
102
RTVSPost2010Prop35
280
     0
102
RTVSPost2010PropOp35
 70
     1
102
RTVSPost2010Prop36
280
     0
102
RTVSPost2010PropOp36
 70
     1
102
RTVSPost2010Prop37
 90
       50
102
RTVSPost2010PropOp37
 70
     1
102
RTVSPost2010Prop38
140
0.0
102
RTVSPost2010PropOp38
 70
     1
102
RTVSPost2010Prop39
140
1.0
102
RTVSPost2010PropOp39
 70
     1
102
RTVSPost2010Prop40
 90
        0
102
RTVSPost2010PropOp40
 70
     1
102
RTVSPost2010Prop41ColorIndex
 90
       18
102
RTVSPost2010Prop41ColorRGB
 90
        0
102
RTVSPost2010PropOp41
 70
     1
102
RTVSPost2010Prop42
 90
       50
102
RTVSPost2010PropOp42
 70
     1
102
RTVSPost2010Prop43
 90
        3
102
RTVSPost2010PropOp43
 70
     1
102
RTVSPost2010Prop44ColorIndex
 90
        5
102
RTVSPost2010Prop44ColorRGB
 90
      255
102
RTVSPost2010PropOp44
 70
     1
102
RTVSPost2010Prop45
280
     0
102
RTVSPost2010PropOp45
 70
     1
102
RTVSPost2010Prop46
 90
       50
102
RTVSPost2010PropOp46
 70
     1
102
RTVSPost2010Prop47
 90
       50
102
RTVSPost2010PropOp47
 70
     1
102
RTVSPost2010Prop48
 90
       50
102
RTVSPost2010PropOp48
 70
     1
102
RTVSPost2010Prop49
280
     0
102
RTVSPost2010PropOp49
 70
     1
102
RTVSPost2010Prop50
 90
       50
102
RTVSPost2010PropOp50
 70
     1
102
RTVSPost2010Prop51ColorIndex
 90
      256
102
RTVSPost2010Prop51ColorRGB
 90
-16777216
102
RTVSPost2010PropOp51
 70
     0
102
RTVSPost2010Prop52
140
1.0
102
RTVSPost2010PropOp52
 70
     0
102
RTVSPost2010Prop53
 90
        2
102
RTVSPost2010PropOp53
 70
     1
102
RTVSPost2010Prop54
  1
strokes_ogs.tif
102
RTVSPost2010PropOp54
 70
     1
102
RTVSPost2010Prop55
280
     0
102
RTVSPost2010PropOp55
 70
     1
102
RTVSPost2010Prop56
140
1.0
102
RTVSPost2010PropOp56
 70
     1
102
RTVSPost2010Prop57
140
1.0
102
RTVSPost2010PropOp57
 70
     1
102
RTVSPropertyOp0
 70
     0
102
RTVSPropertyOp1
 70
     0
102
RTVSPropertyOp2
 70
     0
102
RTVSPropertyOp3
 70
     0
102
RTVSPropertyOp4
 70
     0
102
RTVSPropertyOp5
 70
     0
102
RTVSPropertyOp6
 70
     0
102
RTVSPropertyOp7
 70
     0
102
RTVSPropertyOp8
 70
     0
102
RTVSPropertyOp9
 70
     0
102
RTVSPropertyOp10
 70
     0
102
RTVSPropertyOp11
 70
     0
102
RTVSPropertyOp12
 70
     0
102
RTVSPropertyOp13
 70
     0
102
RTVSPropertyOp14
 70
     2
102
RTVSPropertyOp15
 70
     0
102
RTVSPropertyOp16
 70
     0
102
RTVSPropertyOp17
 70
     0
102
RTVSPropertyOp18
 70
     0
102
RTVSPropertyOp19
 70
     0
102
RTVSPropertyOp20
 70
     0
102
RTVSPropertyOp21
 70
     0
102
RTVSPropertyOp22
 70
     0
102
RTVSPropertyOp23
 70
     0
102
RTVSPropertyOp24
 70
     0
102
RTVSPropertyOp25
 70
     0
102
RTVSPropertyOp26
 70
     0
102
RTVSPropertyOp27
 70
     0
102
RTVSPropertyOp28
 70
     1
102
RTVSPropertyOp29
 70
     1
102
RTVSPropertyOp30
 70
     1
102
RTVSPropertyOp31
 70
     1
102
RTVSPropertyOp32
 70
     1
102
RTVSPropertyOp33
 70
     1
102
RTVSPropertyOp34
 70
     1
102
RTVSPropertyOp35
 70
     1
102
RTVSPropertyOp36
 70
     1
102
RTVSPropertyOp37
 70
     1
102
RTVSPropertyOp38
 70
     1
102
RTVSPropertyOp39
 70
     1
102
RTVSPropertyOp40
 70
     1
102
RTVSPropertyOp41
 70
     1
102
RTVSPropertyOp42
 70
     1
102
RTVSPropertyOp43
 70
     1
102
RTVSPropertyOp44
 70
     1
102
RTVSPropertyOp45
 70
     1
102
RTVSPropertyOp46
 70
     1
102
RTVSPropertyOp47
 70
     1
102
RTVSPropertyOp48
 70
     1
102
RTVSPropertyOp49
 70
     1
102
RTVSPropertyOp50
 70
     1
102
RTVSPropertyOp51
 70
     0
102
RTVSPropertyOp52
 70
     0
102
RTVSPropertyOp53
 70
     1
102
RTVSPropertyOp54
 70
     1
102
RTVSPropertyOp55
 70
     1
102
RTVSPropertyOp56
 70
     1
102
RTVSPropertyOp57
 70
     1
102
RTVSPropertyOp58
 70
     1
102
RTVSPropertyOp59
 70
     1
102
RTVSPropertyOp60
 70
     1
102
RTVSPropertyOp61
 70
     1
102
RTVSPropertyOp62
 70
     1
  0
XRECORD
  5
DF5A
102
{ACAD_REACTORS
330
DF59
102
}
330
DF59
100
AcDbXrecord
280
     1
102
RTVSPost2010Prop28
280
     0
102
RTVSPost2010PropOp28
 70
     1
102
RTVSPost2010Prop29
280
     1
102
RTVSPost2010PropOp29
 70
     1
102
RTVSPost2010Prop30
280
     1
102
RTVSPost2010PropOp30
 70
     1
102
RTVSPost2010Prop31
280
     0
102
RTVSPost2010PropOp31
 70
     1
102
RTVSPost2010Prop32
280
     0
102
RTVSPost2010PropOp32
 70
     1
102
RTVSPost2010Prop33
280
     0
102
RTVSPost2010PropOp33
 70
     1
102
RTVSPost2010Prop34
280
     0
102
RTVSPost2010PropOp34
 70
     1
102
RTVSPost2010Prop35
280
     0
102
RTVSPost2010PropOp35
 70
     1
102
RTVSPost2010Prop36
280
     0
102
RTVSPost2010PropOp36
 70
     1
102
RTVSPost2010Prop37
 90
       50
102
RTVSPost2010PropOp37
 70
     1
102
RTVSPost2010Prop38
140
0.0
102
RTVSPost2010PropOp38
 70
     1
102
RTVSPost2010Prop39
140
1.0
102
RTVSPost2010PropOp39
 70
     1
102
RTVSPost2010Prop40
 90
        0
102
RTVSPost2010PropOp40
 70
     1
102
RTVSPost2010Prop41ColorIndex
 90
       18
102
RTVSPost2010Prop41ColorRGB
 90
        0
102
RTVSPost2010PropOp41
 70
     1
102
RTVSPost2010Prop42
 90
       50
102
RTVSPost2010PropOp42
 70
     1
102
RTVSPost2010Prop43
 90
        3
102
RTVSPost2010PropOp43
 70
     1
102
RTVSPost2010Prop44ColorIndex
 90
        5
102
RTVSPost2010Prop44ColorRGB
 90
      255
102
RTVSPost2010PropOp44
 70
     1
102
RTVSPost2010Prop45
280
     0
102
RTVSPost2010PropOp45
 70
     1
102
RTVSPost2010Prop46
 90
       50
102
RTVSPost2010PropOp46
 70
     1
102
RTVSPost2010Prop47
 90
       50
102
RTVSPost2010PropOp47
 70
     1
102
RTVSPost2010Prop48
 90
       50
102
RTVSPost2010PropOp48
 70
     1
102
RTVSPost2010Prop49
280
     0
102
RTVSPost2010PropOp49
 70
     1
102
RTVSPost2010Prop50
 90
       50
102
RTVSPost2010PropOp50
 70
     1
102
RTVSPost2010Prop51ColorIndex
 90
      256
102
RTVSPost2010Prop51ColorRGB
 90
-16777216
102
RTVSPost2010PropOp51
 70
     0
102
RTVSPost2010Prop52
140
1.0
102
RTVSPost2010PropOp52
 70
     0
102
RTVSPost2010Prop53
 90
        2
102
RTVSPost2010PropOp53
 70
     1
102
RTVSPost2010Prop54
  1
strokes_ogs.tif
102
RTVSPost2010PropOp54
 70
     1
102
RTVSPost2010Prop55
280
     0
102
RTVSPost2010PropOp55
 70
     1
102
RTVSPost2010Prop56
140
1.0
102
RTVSPost2010PropOp56
 70
     1
102
RTVSPost2010Prop57
140
1.0
102
RTVSPost2010PropOp57
 70
     1
102
RTVSPropertyOp0
 70
     1
102
RTVSPropertyOp1
 70
     1
102
RTVSPropertyOp2
 70
     1
102
RTVSPropertyOp3
 70
     1
102
RTVSPropertyOp4
 70
     1
102
RTVSPropertyOp5
 70
     1
102
RTVSPropertyOp6
 70
     1
102
RTVSPropertyOp7
 70
     1
102
RTVSPropertyOp8
 70
     1
102
RTVSPropertyOp9
 70
     1
102
RTVSPropertyOp10
 70
     1
102
RTVSPropertyOp11
 70
     1
102
RTVSPropertyOp12
 70
     1
102
RTVSPropertyOp13
 70
     1
102
RTVSPropertyOp14
 70
     1
102
RTVSPropertyOp15
 70
     1
102
RTVSPropertyOp16
 70
     1
102
RTVSPropertyOp17
 70
     1
102
RTVSPropertyOp18
 70
     1
102
RTVSPropertyOp19
 70
     1
102
RTVSPropertyOp20
 70
     1
102
RTVSPropertyOp21
 70
     1
102
RTVSPropertyOp22
 70
     1
102
RTVSPropertyOp23
 70
     1
102
RTVSPropertyOp24
 70
     1
102
RTVSPropertyOp25
 70
     1
102
RTVSPropertyOp26
 70
     1
102
RTVSPropertyOp27
 70
     1
102
RTVSPropertyOp28
 70
     1
102
RTVSPropertyOp29
 70
     1
102
RTVSPropertyOp30
 70
     1
102
RTVSPropertyOp31
 70
     1
102
RTVSPropertyOp32
 70
     1
102
RTVSPropertyOp33
 70
     1
102
RTVSPropertyOp34
 70
     1
102
RTVSPropertyOp35
 70
     1
102
RTVSPropertyOp36
 70
     1
102
RTVSPropertyOp37
 70
     1
102
RTVSPropertyOp38
 70
     1
102
RTVSPropertyOp39
 70
     1
102
RTVSPropertyOp40
 70
     1
102
RTVSPropertyOp41
 70
     1
102
RTVSPropertyOp42
 70
     1
102
RTVSPropertyOp43
 70
     1
102
RTVSPropertyOp44
 70
     1
102
RTVSPropertyOp45
 70
     1
102
RTVSPropertyOp46
 70
     1
102
RTVSPropertyOp47
 70
     1
102
RTVSPropertyOp48
 70
     1
102
RTVSPropertyOp49
 70
     1
102
RTVSPropertyOp50
 70
     1
102
RTVSPropertyOp51
 70
     0
102
RTVSPropertyOp52
 70
     0
102
RTVSPropertyOp53
 70
     1
102
RTVSPropertyOp54
 70
     1
102
RTVSPropertyOp55
 70
     1
102
RTVSPropertyOp56
 70
     1
102
RTVSPropertyOp57
 70
     1
102
RTVSPropertyOp58
 70
     1
102
RTVSPropertyOp59
 70
     1
102
RTVSPropertyOp60
 70
     1
102
RTVSPropertyOp61
 70
     1
102
RTVSPropertyOp62
 70
     1
  0
XRECORD
  5
DF7B
102
{ACAD_REACTORS
330
DF7A
102
}
330
DF7A
100
AcDbXrecord
280
     1
102
RTVSPost2010Prop28
280
     0
102
RTVSPost2010PropOp28
 70
     1
102
RTVSPost2010Prop29
280
     1
102
RTVSPost2010PropOp29
 70
     1
102
RTVSPost2010Prop30
280
     1
102
RTVSPost2010PropOp30
 70
     1
102
RTVSPost2010Prop31
280
     0
102
RTVSPost2010PropOp31
 70
     1
102
RTVSPost2010Prop32
280
     0
102
RTVSPost2010PropOp32
 70
     1
102
RTVSPost2010Prop33
280
     0
102
RTVSPost2010PropOp33
 70
     1
102
RTVSPost2010Prop34
280
     0
102
RTVSPost2010PropOp34
 70
     1
102
RTVSPost2010Prop35
280
     0
102
RTVSPost2010PropOp35
 70
     1
102
RTVSPost2010Prop36
280
     0
102
RTVSPost2010PropOp36
 70
     1
102
RTVSPost2010Prop37
 90
       50
102
RTVSPost2010PropOp37
 70
     1
102
RTVSPost2010Prop38
140
0.0
102
RTVSPost2010PropOp38
 70
     1
102
RTVSPost2010Prop39
140
1.0
102
RTVSPost2010PropOp39
 70
     1
102
RTVSPost2010Prop40
 90
        0
102
RTVSPost2010PropOp40
 70
     1
102
RTVSPost2010Prop41ColorIndex
 90
       18
102
RTVSPost2010Prop41ColorRGB
 90
        0
102
RTVSPost2010PropOp41
 70
     1
102
RTVSPost2010Prop42
 90
       50
102
RTVSPost2010PropOp42
 70
     1
102
RTVSPost2010Prop43
 90
        3
102
RTVSPost2010PropOp43
 70
     1
102
RTVSPost2010Prop44ColorIndex
 90
        5
102
RTVSPost2010Prop44ColorRGB
 90
      255
102
RTVSPost2010PropOp44
 70
     1
102
RTVSPost2010Prop45
280
     0
102
RTVSPost2010PropOp45
 70
     1
102
RTVSPost2010Prop46
 90
       50
102
RTVSPost2010PropOp46
 70
     1
102
RTVSPost2010Prop47
 90
       50
102
RTVSPost2010PropOp47
 70
     1
102
RTVSPost2010Prop48
 90
       50
102
RTVSPost2010PropOp48
 70
     1
102
RTVSPost2010Prop49
280
     0
102
RTVSPost2010PropOp49
 70
     1
102
RTVSPost2010Prop50
 90
       50
102
RTVSPost2010PropOp50
 70
     1
102
RTVSPost2010Prop51ColorIndex
 90
      256
102
RTVSPost2010Prop51ColorRGB
 90
-16777216
102
RTVSPost2010PropOp51
 70
     0
102
RTVSPost2010Prop52
140
1.0
102
RTVSPost2010PropOp52
 70
     0
102
RTVSPost2010Prop53
 90
        2
102
RTVSPost2010PropOp53
 70
     1
102
RTVSPost2010Prop54
  1
strokes_ogs.tif
102
RTVSPost2010PropOp54
 70
     1
102
RTVSPost2010Prop55
280
     0
102
RTVSPost2010PropOp55
 70
     1
102
RTVSPost2010Prop56
140
1.0
102
RTVSPost2010PropOp56
 70
     1
102
RTVSPost2010Prop57
140
1.0
102
RTVSPost2010PropOp57
 70
     1
102
RTVSPropertyOp0
 70
     1
102
RTVSPropertyOp1
 70
     1
102
RTVSPropertyOp2
 70
     1
102
RTVSPropertyOp3
 70
     1
102
RTVSPropertyOp4
 70
     1
102
RTVSPropertyOp5
 70
     1
102
RTVSPropertyOp6
 70
     1
102
RTVSPropertyOp7
 70
     1
102
RTVSPropertyOp8
 70
     1
102
RTVSPropertyOp9
 70
     1
102
RTVSPropertyOp10
 70
     1
102
RTVSPropertyOp11
 70
     1
102
RTVSPropertyOp12
 70
     1
102
RTVSPropertyOp13
 70
     1
102
RTVSPropertyOp14
 70
     1
102
RTVSPropertyOp15
 70
     1
102
RTVSPropertyOp16
 70
     1
102
RTVSPropertyOp17
 70
     1
102
RTVSPropertyOp18
 70
     1
102
RTVSPropertyOp19
 70
     1
102
RTVSPropertyOp20
 70
     1
102
RTVSPropertyOp21
 70
     1
102
RTVSPropertyOp22
 70
     1
102
RTVSPropertyOp23
 70
     1
102
RTVSPropertyOp24
 70
     1
102
RTVSPropertyOp25
 70
     1
102
RTVSPropertyOp26
 70
     1
102
RTVSPropertyOp27
 70
     1
102
RTVSPropertyOp28
 70
     1
102
RTVSPropertyOp29
 70
     1
102
RTVSPropertyOp30
 70
     1
102
RTVSPropertyOp31
 70
     1
102
RTVSPropertyOp32
 70
     1
102
RTVSPropertyOp33
 70
     1
102
RTVSPropertyOp34
 70
     1
102
RTVSPropertyOp35
 70
     1
102
RTVSPropertyOp36
 70
     1
102
RTVSPropertyOp37
 70
     1
102
RTVSPropertyOp38
 70
     1
102
RTVSPropertyOp39
 70
     1
102
RTVSPropertyOp40
 70
     1
102
RTVSPropertyOp41
 70
     1
102
RTVSPropertyOp42
 70
     1
102
RTVSPropertyOp43
 70
     1
102
RTVSPropertyOp44
 70
     1
102
RTVSPropertyOp45
 70
     1
102
RTVSPropertyOp46
 70
     1
102
RTVSPropertyOp47
 70
     1
102
RTVSPropertyOp48
 70
     1
102
RTVSPropertyOp49
 70
     1
102
RTVSPropertyOp50
 70
     1
102
RTVSPropertyOp51
 70
     0
102
RTVSPropertyOp52
 70
     0
102
RTVSPropertyOp53
 70
     1
102
RTVSPropertyOp54
 70
     1
102
RTVSPropertyOp55
 70
     1
102
RTVSPropertyOp56
 70
     1
102
RTVSPropertyOp57
 70
     1
102
RTVSPropertyOp58
 70
     1
102
RTVSPropertyOp59
 70
     1
102
RTVSPropertyOp60
 70
     1
102
RTVSPropertyOp61
 70
     1
102
RTVSPropertyOp62
 70
     1
  0
XRECORD
  5
DF79
102
{ACAD_REACTORS
330
DF78
102
}
330
DF78
100
AcDbXrecord
280
     1
102
RTVSPost2010Prop28
280
     0
102
RTVSPost2010PropOp28
 70
     1
102
RTVSPost2010Prop29
280
     1
102
RTVSPost2010PropOp29
 70
     1
102
RTVSPost2010Prop30
280
     1
102
RTVSPost2010PropOp30
 70
     1
102
RTVSPost2010Prop31
280
     0
102
RTVSPost2010PropOp31
 70
     1
102
RTVSPost2010Prop32
280
     0
102
RTVSPost2010PropOp32
 70
     1
102
RTVSPost2010Prop33
280
     0
102
RTVSPost2010PropOp33
 70
     1
102
RTVSPost2010Prop34
280
     0
102
RTVSPost2010PropOp34
 70
     1
102
RTVSPost2010Prop35
280
     0
102
RTVSPost2010PropOp35
 70
     1
102
RTVSPost2010Prop36
280
     0
102
RTVSPost2010PropOp36
 70
     1
102
RTVSPost2010Prop37
 90
       50
102
RTVSPost2010PropOp37
 70
     1
102
RTVSPost2010Prop38
140
0.0
102
RTVSPost2010PropOp38
 70
     1
102
RTVSPost2010Prop39
140
1.0
102
RTVSPost2010PropOp39
 70
     1
102
RTVSPost2010Prop40
 90
        0
102
RTVSPost2010PropOp40
 70
     1
102
RTVSPost2010Prop41ColorIndex
 90
       18
102
RTVSPost2010Prop41ColorRGB
 90
        0
102
RTVSPost2010PropOp41
 70
     1
102
RTVSPost2010Prop42
 90
       50
102
RTVSPost2010PropOp42
 70
     1
102
RTVSPost2010Prop43
 90
        3
102
RTVSPost2010PropOp43
 70
     1
102
RTVSPost2010Prop44ColorIndex
 90
        5
102
RTVSPost2010Prop44ColorRGB
 90
      255
102
RTVSPost2010PropOp44
 70
     1
102
RTVSPost2010Prop45
280
     0
102
RTVSPost2010PropOp45
 70
     1
102
RTVSPost2010Prop46
 90
       50
102
RTVSPost2010PropOp46
 70
     1
102
RTVSPost2010Prop47
 90
       50
102
RTVSPost2010PropOp47
 70
     1
102
RTVSPost2010Prop48
 90
       50
102
RTVSPost2010PropOp48
 70
     1
102
RTVSPost2010Prop49
280
     0
102
RTVSPost2010PropOp49
 70
     1
102
RTVSPost2010Prop50
 90
       50
102
RTVSPost2010PropOp50
 70
     1
102
RTVSPost2010Prop51ColorIndex
 90
      256
102
RTVSPost2010Prop51ColorRGB
 90
-16777216
102
RTVSPost2010PropOp51
 70
     0
102
RTVSPost2010Prop52
140
1.0
102
RTVSPost2010PropOp52
 70
     0
102
RTVSPost2010Prop53
 90
        2
102
RTVSPost2010PropOp53
 70
     1
102
RTVSPost2010Prop54
  1
strokes_ogs.tif
102
RTVSPost2010PropOp54
 70
     1
102
RTVSPost2010Prop55
280
     0
102
RTVSPost2010PropOp55
 70
     1
102
RTVSPost2010Prop56
140
1.0
102
RTVSPost2010PropOp56
 70
     1
102
RTVSPost2010Prop57
140
1.0
102
RTVSPost2010PropOp57
 70
     1
102
RTVSPropertyOp0
 70
     1
102
RTVSPropertyOp1
 70
     1
102
RTVSPropertyOp2
 70
     1
102
RTVSPropertyOp3
 70
     1
102
RTVSPropertyOp4
 70
     1
102
RTVSPropertyOp5
 70
     1
102
RTVSPropertyOp6
 70
     1
102
RTVSPropertyOp7
 70
     1
102
RTVSPropertyOp8
 70
     1
102
RTVSPropertyOp9
 70
     1
102
RTVSPropertyOp10
 70
     1
102
RTVSPropertyOp11
 70
     1
102
RTVSPropertyOp12
 70
     1
102
RTVSPropertyOp13
 70
     1
102
RTVSPropertyOp14
 70
     1
102
RTVSPropertyOp15
 70
     1
102
RTVSPropertyOp16
 70
     1
102
RTVSPropertyOp17
 70
     1
102
RTVSPropertyOp18
 70
     1
102
RTVSPropertyOp19
 70
     1
102
RTVSPropertyOp20
 70
     1
102
RTVSPropertyOp21
 70
     1
102
RTVSPropertyOp22
 70
     1
102
RTVSPropertyOp23
 70
     1
102
RTVSPropertyOp24
 70
     1
102
RTVSPropertyOp25
 70
     1
102
RTVSPropertyOp26
 70
     1
102
RTVSPropertyOp27
 70
     1
102
RTVSPropertyOp28
 70
     1
102
RTVSPropertyOp29
 70
     1
102
RTVSPropertyOp30
 70
     1
102
RTVSPropertyOp31
 70
     1
102
RTVSPropertyOp32
 70
     1
102
RTVSPropertyOp33
 70
     1
102
RTVSPropertyOp34
 70
     1
102
RTVSPropertyOp35
 70
     1
102
RTVSPropertyOp36
 70
     1
102
RTVSPropertyOp37
 70
     1
102
RTVSPropertyOp38
 70
     1
102
RTVSPropertyOp39
 70
     1
102
RTVSPropertyOp40
 70
     1
102
RTVSPropertyOp41
 70
     1
102
RTVSPropertyOp42
 70
     1
102
RTVSPropertyOp43
 70
     1
102
RTVSPropertyOp44
 70
     1
102
RTVSPropertyOp45
 70
     1
102
RTVSPropertyOp46
 70
     1
102
RTVSPropertyOp47
 70
     1
102
RTVSPropertyOp48
 70
     1
102
RTVSPropertyOp49
 70
     1
102
RTVSPropertyOp50
 70
     1
102
RTVSPropertyOp51
 70
     0
102
RTVSPropertyOp52
 70
     0
102
RTVSPropertyOp53
 70
     1
102
RTVSPropertyOp54
 70
     1
102
RTVSPropertyOp55
 70
     1
102
RTVSPropertyOp56
 70
     1
102
RTVSPropertyOp57
 70
     1
102
RTVSPropertyOp58
 70
     1
102
RTVSPropertyOp59
 70
     1
102
RTVSPropertyOp60
 70
     1
102
RTVSPropertyOp61
 70
     1
102
RTVSPropertyOp62
 70
     1
  0
XRECORD
  5
DF73
102
{ACAD_REACTORS
330
DF72
102
}
330
DF72
100
AcDbXrecord
280
     1
102
RTVSPost2010Prop28
280
     0
102
RTVSPost2010PropOp28
 70
     1
102
RTVSPost2010Prop29
280
     1
102
RTVSPost2010PropOp29
 70
     1
102
RTVSPost2010Prop30
280
     1
102
RTVSPost2010PropOp30
 70
     1
102
RTVSPost2010Prop31
280
     0
102
RTVSPost2010PropOp31
 70
     1
102
RTVSPost2010Prop32
280
     0
102
RTVSPost2010PropOp32
 70
     1
102
RTVSPost2010Prop33
280
     0
102
RTVSPost2010PropOp33
 70
     1
102
RTVSPost2010Prop34
280
     0
102
RTVSPost2010PropOp34
 70
     1
102
RTVSPost2010Prop35
280
     0
102
RTVSPost2010PropOp35
 70
     1
102
RTVSPost2010Prop36
280
     0
102
RTVSPost2010PropOp36
 70
     1
102
RTVSPost2010Prop37
 90
       50
102
RTVSPost2010PropOp37
 70
     1
102
RTVSPost2010Prop38
140
0.0
102
RTVSPost2010PropOp38
 70
     1
102
RTVSPost2010Prop39
140
1.0
102
RTVSPost2010PropOp39
 70
     1
102
RTVSPost2010Prop40
 90
        0
102
RTVSPost2010PropOp40
 70
     1
102
RTVSPost2010Prop41ColorIndex
 90
       18
102
RTVSPost2010Prop41ColorRGB
 90
        0
102
RTVSPost2010PropOp41
 70
     1
102
RTVSPost2010Prop42
 90
       50
102
RTVSPost2010PropOp42
 70
     1
102
RTVSPost2010Prop43
 90
        3
102
RTVSPost2010PropOp43
 70
     1
102
RTVSPost2010Prop44ColorIndex
 90
        5
102
RTVSPost2010Prop44ColorRGB
 90
      255
102
RTVSPost2010PropOp44
 70
     1
102
RTVSPost2010Prop45
280
     0
102
RTVSPost2010PropOp45
 70
     1
102
RTVSPost2010Prop46
 90
       50
102
RTVSPost2010PropOp46
 70
     1
102
RTVSPost2010Prop47
 90
       50
102
RTVSPost2010PropOp47
 70
     1
102
RTVSPost2010Prop48
 90
       50
102
RTVSPost2010PropOp48
 70
     1
102
RTVSPost2010Prop49
280
     0
102
RTVSPost2010PropOp49
 70
     1
102
RTVSPost2010Prop50
 90
       50
102
RTVSPost2010PropOp50
 70
     1
102
RTVSPost2010Prop51ColorIndex
 90
      256
102
RTVSPost2010Prop51ColorRGB
 90
-16777216
102
RTVSPost2010PropOp51
 70
     0
102
RTVSPost2010Prop52
140
1.0
102
RTVSPost2010PropOp52
 70
     0
102
RTVSPost2010Prop53
 90
        2
102
RTVSPost2010PropOp53
 70
     1
102
RTVSPost2010Prop54
  1
strokes_ogs.tif
102
RTVSPost2010PropOp54
 70
     1
102
RTVSPost2010Prop55
280
     0
102
RTVSPost2010PropOp55
 70
     1
102
RTVSPost2010Prop56
140
1.0
102
RTVSPost2010PropOp56
 70
     1
102
RTVSPost2010Prop57
140
1.0
102
RTVSPost2010PropOp57
 70
     1
102
RTVSPropertyOp0
 70
     1
102
RTVSPropertyOp1
 70
     1
102
RTVSPropertyOp2
 70
     1
102
RTVSPropertyOp3
 70
     1
102
RTVSPropertyOp4
 70
     1
102
RTVSPropertyOp5
 70
     1
102
RTVSPropertyOp6
 70
     1
102
RTVSPropertyOp7
 70
     1
102
RTVSPropertyOp8
 70
     1
102
RTVSPropertyOp9
 70
     1
102
RTVSPropertyOp10
 70
     1
102
RTVSPropertyOp11
 70
     1
102
RTVSPropertyOp12
 70
     1
102
RTVSPropertyOp13
 70
     1
102
RTVSPropertyOp14
 70
     1
102
RTVSPropertyOp15
 70
     1
102
RTVSPropertyOp16
 70
     1
102
RTVSPropertyOp17
 70
     1
102
RTVSPropertyOp18
 70
     1
102
RTVSPropertyOp19
 70
     1
102
RTVSPropertyOp20
 70
     1
102
RTVSPropertyOp21
 70
     1
102
RTVSPropertyOp22
 70
     1
102
RTVSPropertyOp23
 70
     1
102
RTVSPropertyOp24
 70
     1
102
RTVSPropertyOp25
 70
     1
102
RTVSPropertyOp26
 70
     1
102
RTVSPropertyOp27
 70
     1
102
RTVSPropertyOp28
 70
     1
102
RTVSPropertyOp29
 70
     1
102
RTVSPropertyOp30
 70
     1
102
RTVSPropertyOp31
 70
     1
102
RTVSPropertyOp32
 70
     1
102
RTVSPropertyOp33
 70
     1
102
RTVSPropertyOp34
 70
     1
102
RTVSPropertyOp35
 70
     1
102
RTVSPropertyOp36
 70
     1
102
RTVSPropertyOp37
 70
     1
102
RTVSPropertyOp38
 70
     1
102
RTVSPropertyOp39
 70
     1
102
RTVSPropertyOp40
 70
     1
102
RTVSPropertyOp41
 70
     1
102
RTVSPropertyOp42
 70
     1
102
RTVSPropertyOp43
 70
     1
102
RTVSPropertyOp44
 70
     1
102
RTVSPropertyOp45
 70
     1
102
RTVSPropertyOp46
 70
     1
102
RTVSPropertyOp47
 70
     1
102
RTVSPropertyOp48
 70
     1
102
RTVSPropertyOp49
 70
     1
102
RTVSPropertyOp50
 70
     1
102
RTVSPropertyOp51
 70
     0
102
RTVSPropertyOp52
 70
     0
102
RTVSPropertyOp53
 70
     1
102
RTVSPropertyOp54
 70
     1
102
RTVSPropertyOp55
 70
     1
102
RTVSPropertyOp56
 70
     1
102
RTVSPropertyOp57
 70
     1
102
RTVSPropertyOp58
 70
     1
102
RTVSPropertyOp59
 70
     1
102
RTVSPropertyOp60
 70
     1
102
RTVSPropertyOp61
 70
     1
102
RTVSPropertyOp62
 70
     1
  0
XRECORD
  5
DF75
102
{ACAD_REACTORS
330
DF74
102
}
330
DF74
100
AcDbXrecord
280
     1
102
RTVSPost2010Prop28
280
     0
102
RTVSPost2010PropOp28
 70
     1
102
RTVSPost2010Prop29
280
     1
102
RTVSPost2010PropOp29
 70
     1
102
RTVSPost2010Prop30
280
     1
102
RTVSPost2010PropOp30
 70
     1
102
RTVSPost2010Prop31
280
     0
102
RTVSPost2010PropOp31
 70
     1
102
RTVSPost2010Prop32
280
     0
102
RTVSPost2010PropOp32
 70
     1
102
RTVSPost2010Prop33
280
     0
102
RTVSPost2010PropOp33
 70
     1
102
RTVSPost2010Prop34
280
     0
102
RTVSPost2010PropOp34
 70
     1
102
RTVSPost2010Prop35
280
     0
102
RTVSPost2010PropOp35
 70
     1
102
RTVSPost2010Prop36
280
     0
102
RTVSPost2010PropOp36
 70
     1
102
RTVSPost2010Prop37
 90
       50
102
RTVSPost2010PropOp37
 70
     1
102
RTVSPost2010Prop38
140
0.0
102
RTVSPost2010PropOp38
 70
     1
102
RTVSPost2010Prop39
140
1.0
102
RTVSPost2010PropOp39
 70
     1
102
RTVSPost2010Prop40
 90
        0
102
RTVSPost2010PropOp40
 70
     1
102
RTVSPost2010Prop41ColorIndex
 90
       18
102
RTVSPost2010Prop41ColorRGB
 90
        0
102
RTVSPost2010PropOp41
 70
     1
102
RTVSPost2010Prop42
 90
       50
102
RTVSPost2010PropOp42
 70
     1
102
RTVSPost2010Prop43
 90
        3
102
RTVSPost2010PropOp43
 70
     1
102
RTVSPost2010Prop44ColorIndex
 90
        5
102
RTVSPost2010Prop44ColorRGB
 90
      255
102
RTVSPost2010PropOp44
 70
     1
102
RTVSPost2010Prop45
280
     0
102
RTVSPost2010PropOp45
 70
     1
102
RTVSPost2010Prop46
 90
       50
102
RTVSPost2010PropOp46
 70
     1
102
RTVSPost2010Prop47
 90
       50
102
RTVSPost2010PropOp47
 70
     1
102
RTVSPost2010Prop48
 90
       50
102
RTVSPost2010PropOp48
 70
     1
102
RTVSPost2010Prop49
280
     0
102
RTVSPost2010PropOp49
 70
     1
102
RTVSPost2010Prop50
 90
       50
102
RTVSPost2010PropOp50
 70
     1
102
RTVSPost2010Prop51ColorIndex
 90
      256
102
RTVSPost2010Prop51ColorRGB
 90
-16777216
102
RTVSPost2010PropOp51
 70
     0
102
RTVSPost2010Prop52
140
1.0
102
RTVSPost2010PropOp52
 70
     0
102
RTVSPost2010Prop53
 90
        2
102
RTVSPost2010PropOp53
 70
     1
102
RTVSPost2010Prop54
  1
strokes_ogs.tif
102
RTVSPost2010PropOp54
 70
     1
102
RTVSPost2010Prop55
280
     0
102
RTVSPost2010PropOp55
 70
     1
102
RTVSPost2010Prop56
140
1.0
102
RTVSPost2010PropOp56
 70
     1
102
RTVSPost2010Prop57
140
1.0
102
RTVSPost2010PropOp57
 70
     1
102
RTVSPropertyOp0
 70
     1
102
RTVSPropertyOp1
 70
     1
102
RTVSPropertyOp2
 70
     1
102
RTVSPropertyOp3
 70
     1
102
RTVSPropertyOp4
 70
     1
102
RTVSPropertyOp5
 70
     1
102
RTVSPropertyOp6
 70
     1
102
RTVSPropertyOp7
 70
     1
102
RTVSPropertyOp8
 70
     1
102
RTVSPropertyOp9
 70
     1
102
RTVSPropertyOp10
 70
     1
102
RTVSPropertyOp11
 70
     1
102
RTVSPropertyOp12
 70
     1
102
RTVSPropertyOp13
 70
     1
102
RTVSPropertyOp14
 70
     1
102
RTVSPropertyOp15
 70
     1
102
RTVSPropertyOp16
 70
     1
102
RTVSPropertyOp17
 70
     1
102
RTVSPropertyOp18
 70
     1
102
RTVSPropertyOp19
 70
     1
102
RTVSPropertyOp20
 70
     1
102
RTVSPropertyOp21
 70
     1
102
RTVSPropertyOp22
 70
     1
102
RTVSPropertyOp23
 70
     1
102
RTVSPropertyOp24
 70
     1
102
RTVSPropertyOp25
 70
     1
102
RTVSPropertyOp26
 70
     1
102
RTVSPropertyOp27
 70
     1
102
RTVSPropertyOp28
 70
     1
102
RTVSPropertyOp29
 70
     1
102
RTVSPropertyOp30
 70
     1
102
RTVSPropertyOp31
 70
     1
102
RTVSPropertyOp32
 70
     1
102
RTVSPropertyOp33
 70
     1
102
RTVSPropertyOp34
 70
     1
102
RTVSPropertyOp35
 70
     1
102
RTVSPropertyOp36
 70
     1
102
RTVSPropertyOp37
 70
     1
102
RTVSPropertyOp38
 70
     1
102
RTVSPropertyOp39
 70
     1
102
RTVSPropertyOp40
 70
     1
102
RTVSPropertyOp41
 70
     1
102
RTVSPropertyOp42
 70
     1
102
RTVSPropertyOp43
 70
     1
102
RTVSPropertyOp44
 70
     1
102
RTVSPropertyOp45
 70
     1
102
RTVSPropertyOp46
 70
     1
102
RTVSPropertyOp47
 70
     1
102
RTVSPropertyOp48
 70
     1
102
RTVSPropertyOp49
 70
     1
102
RTVSPropertyOp50
 70
     1
102
RTVSPropertyOp51
 70
     0
102
RTVSPropertyOp52
 70
     0
102
RTVSPropertyOp53
 70
     1
102
RTVSPropertyOp54
 70
     1
102
RTVSPropertyOp55
 70
     1
102
RTVSPropertyOp56
 70
     1
102
RTVSPropertyOp57
 70
     1
102
RTVSPropertyOp58
 70
     1
102
RTVSPropertyOp59
 70
     1
102
RTVSPropertyOp60
 70
     1
102
RTVSPropertyOp61
 70
     1
102
RTVSPropertyOp62
 70
     1
  0
XRECORD
  5
DF60
102
{ACAD_REACTORS
330
DF5F
102
}
330
DF5F
100
AcDbXrecord
280
     1
102
RTVSPost2010Prop28
280
     0
102
RTVSPost2010PropOp28
 70
     1
102
RTVSPost2010Prop29
280
     1
102
RTVSPost2010PropOp29
 70
     1
102
RTVSPost2010Prop30
280
     1
102
RTVSPost2010PropOp30
 70
     1
102
RTVSPost2010Prop31
280
     0
102
RTVSPost2010PropOp31
 70
     1
102
RTVSPost2010Prop32
280
     0
102
RTVSPost2010PropOp32
 70
     1
102
RTVSPost2010Prop33
280
     0
102
RTVSPost2010PropOp33
 70
     1
102
RTVSPost2010Prop34
280
     0
102
RTVSPost2010PropOp34
 70
     1
102
RTVSPost2010Prop35
280
     0
102
RTVSPost2010PropOp35
 70
     1
102
RTVSPost2010Prop36
280
     0
102
RTVSPost2010PropOp36
 70
     1
102
RTVSPost2010Prop37
 90
       50
102
RTVSPost2010PropOp37
 70
     1
102
RTVSPost2010Prop38
140
0.0
102
RTVSPost2010PropOp38
 70
     1
102
RTVSPost2010Prop39
140
1.0
102
RTVSPost2010PropOp39
 70
     1
102
RTVSPost2010Prop40
 90
        0
102
RTVSPost2010PropOp40
 70
     1
102
RTVSPost2010Prop41ColorIndex
 90
       18
102
RTVSPost2010Prop41ColorRGB
 90
        0
102
RTVSPost2010PropOp41
 70
     1
102
RTVSPost2010Prop42
 90
       50
102
RTVSPost2010PropOp42
 70
     1
102
RTVSPost2010Prop43
 90
        3
102
RTVSPost2010PropOp43
 70
     1
102
RTVSPost2010Prop44ColorIndex
 90
        5
102
RTVSPost2010Prop44ColorRGB
 90
      255
102
RTVSPost2010PropOp44
 70
     1
102
RTVSPost2010Prop45
280
     0
102
RTVSPost2010PropOp45
 70
     1
102
RTVSPost2010Prop46
 90
       50
102
RTVSPost2010PropOp46
 70
     1
102
RTVSPost2010Prop47
 90
       50
102
RTVSPost2010PropOp47
 70
     1
102
RTVSPost2010Prop48
 90
       50
102
RTVSPost2010PropOp48
 70
     1
102
RTVSPost2010Prop49
280
     0
102
RTVSPost2010PropOp49
 70
     1
102
RTVSPost2010Prop50
 90
       50
102
RTVSPost2010PropOp50
 70
     1
102
RTVSPost2010Prop51ColorIndex
 90
      256
102
RTVSPost2010Prop51ColorRGB
 90
-16777216
102
RTVSPost2010PropOp51
 70
     0
102
RTVSPost2010Prop52
140
1.0
102
RTVSPost2010PropOp52
 70
     0
102
RTVSPost2010Prop53
 90
        2
102
RTVSPost2010PropOp53
 70
     1
102
RTVSPost2010Prop54
  1
strokes_ogs.tif
102
RTVSPost2010PropOp54
 70
     1
102
RTVSPost2010Prop55
280
     0
102
RTVSPost2010PropOp55
 70
     1
102
RTVSPost2010Prop56
140
1.0
102
RTVSPost2010PropOp56
 70
     1
102
RTVSPost2010Prop57
140
1.0
102
RTVSPost2010PropOp57
 70
     1
102
RTVSPropertyOp0
 70
     1
102
RTVSPropertyOp1
 70
     1
102
RTVSPropertyOp2
 70
     1
102
RTVSPropertyOp3
 70
     1
102
RTVSPropertyOp4
 70
     1
102
RTVSPropertyOp5
 70
     1
102
RTVSPropertyOp6
 70
     1
102
RTVSPropertyOp7
 70
     1
102
RTVSPropertyOp8
 70
     1
102
RTVSPropertyOp9
 70
     1
102
RTVSPropertyOp10
 70
     1
102
RTVSPropertyOp11
 70
     1
102
RTVSPropertyOp12
 70
     1
102
RTVSPropertyOp13
 70
     1
102
RTVSPropertyOp14
 70
     1
102
RTVSPropertyOp15
 70
     1
102
RTVSPropertyOp16
 70
     1
102
RTVSPropertyOp17
 70
     1
102
RTVSPropertyOp18
 70
     1
102
RTVSPropertyOp19
 70
     1
102
RTVSPropertyOp20
 70
     1
102
RTVSPropertyOp21
 70
     1
102
RTVSPropertyOp22
 70
     1
102
RTVSPropertyOp23
 70
     1
102
RTVSPropertyOp24
 70
     1
102
RTVSPropertyOp25
 70
     1
102
RTVSPropertyOp26
 70
     1
102
RTVSPropertyOp27
 70
     1
102
RTVSPropertyOp28
 70
     1
102
RTVSPropertyOp29
 70
     1
102
RTVSPropertyOp30
 70
     1
102
RTVSPropertyOp31
 70
     1
102
RTVSPropertyOp32
 70
     1
102
RTVSPropertyOp33
 70
     1
102
RTVSPropertyOp34
 70
     1
102
RTVSPropertyOp35
 70
     1
102
RTVSPropertyOp36
 70
     1
102
RTVSPropertyOp37
 70
     1
102
RTVSPropertyOp38
 70
     1
102
RTVSPropertyOp39
 70
     1
102
RTVSPropertyOp40
 70
     1
102
RTVSPropertyOp41
 70
     1
102
RTVSPropertyOp42
 70
     1
102
RTVSPropertyOp43
 70
     1
102
RTVSPropertyOp44
 70
     1
102
RTVSPropertyOp45
 70
     1
102
RTVSPropertyOp46
 70
     1
102
RTVSPropertyOp47
 70
     1
102
RTVSPropertyOp48
 70
     1
102
RTVSPropertyOp49
 70
     1
102
RTVSPropertyOp50
 70
     1
102
RTVSPropertyOp51
 70
     0
102
RTVSPropertyOp52
 70
     0
102
RTVSPropertyOp53
 70
     1
102
RTVSPropertyOp54
 70
     1
102
RTVSPropertyOp55
 70
     1
102
RTVSPropertyOp56
 70
     1
102
RTVSPropertyOp57
 70
     1
102
RTVSPropertyOp58
 70
     1
102
RTVSPropertyOp59
 70
     1
102
RTVSPropertyOp60
 70
     1
102
RTVSPropertyOp61
 70
     1
102
RTVSPropertyOp62
 70
     1
  0
XRECORD
  5
DF6F
102
{ACAD_REACTORS
330
DF6E
102
}
330
DF6E
100
AcDbXrecord
280
     1
102
RTVSPost2010Prop28
280
     0
102
RTVSPost2010PropOp28
 70
     1
102
RTVSPost2010Prop29
280
     1
102
RTVSPost2010PropOp29
 70
     1
102
RTVSPost2010Prop30
280
     1
102
RTVSPost2010PropOp30
 70
     1
102
RTVSPost2010Prop31
280
     0
102
RTVSPost2010PropOp31
 70
     1
102
RTVSPost2010Prop32
280
     0
102
RTVSPost2010PropOp32
 70
     1
102
RTVSPost2010Prop33
280
     0
102
RTVSPost2010PropOp33
 70
     1
102
RTVSPost2010Prop34
280
     0
102
RTVSPost2010PropOp34
 70
     1
102
RTVSPost2010Prop35
280
     0
102
RTVSPost2010PropOp35
 70
     1
102
RTVSPost2010Prop36
280
     0
102
RTVSPost2010PropOp36
 70
     1
102
RTVSPost2010Prop37
 90
       50
102
RTVSPost2010PropOp37
 70
     1
102
RTVSPost2010Prop38
140
0.0
102
RTVSPost2010PropOp38
 70
     1
102
RTVSPost2010Prop39
140
1.0
102
RTVSPost2010PropOp39
 70
     1
102
RTVSPost2010Prop40
 90
        0
102
RTVSPost2010PropOp40
 70
     1
102
RTVSPost2010Prop41ColorIndex
 90
       18
102
RTVSPost2010Prop41ColorRGB
 90
        0
102
RTVSPost2010PropOp41
 70
     1
102
RTVSPost2010Prop42
 90
       50
102
RTVSPost2010PropOp42
 70
     1
102
RTVSPost2010Prop43
 90
        3
102
RTVSPost2010PropOp43
 70
     1
102
RTVSPost2010Prop44ColorIndex
 90
        5
102
RTVSPost2010Prop44ColorRGB
 90
      255
102
RTVSPost2010PropOp44
 70
     1
102
RTVSPost2010Prop45
280
     0
102
RTVSPost2010PropOp45
 70
     1
102
RTVSPost2010Prop46
 90
       50
102
RTVSPost2010PropOp46
 70
     1
102
RTVSPost2010Prop47
 90
       50
102
RTVSPost2010PropOp47
 70
     1
102
RTVSPost2010Prop48
 90
       50
102
RTVSPost2010PropOp48
 70
     1
102
RTVSPost2010Prop49
280
     0
102
RTVSPost2010PropOp49
 70
     1
102
RTVSPost2010Prop50
 90
       50
102
RTVSPost2010PropOp50
 70
     1
102
RTVSPost2010Prop51ColorIndex
 90
      256
102
RTVSPost2010Prop51ColorRGB
 90
-16777216
102
RTVSPost2010PropOp51
 70
     0
102
RTVSPost2010Prop52
140
1.0
102
RTVSPost2010PropOp52
 70
     0
102
RTVSPost2010Prop53
 90
        2
102
RTVSPost2010PropOp53
 70
     1
102
RTVSPost2010Prop54
  1
strokes_ogs.tif
102
RTVSPost2010PropOp54
 70
     1
102
RTVSPost2010Prop55
280
     0
102
RTVSPost2010PropOp55
 70
     1
102
RTVSPost2010Prop56
140
1.0
102
RTVSPost2010PropOp56
 70
     1
102
RTVSPost2010Prop57
140
1.0
102
RTVSPost2010PropOp57
 70
     1
102
RTVSPropertyOp0
 70
     1
102
RTVSPropertyOp1
 70
     1
102
RTVSPropertyOp2
 70
     1
102
RTVSPropertyOp3
 70
     1
102
RTVSPropertyOp4
 70
     1
102
RTVSPropertyOp5
 70
     1
102
RTVSPropertyOp6
 70
     1
102
RTVSPropertyOp7
 70
     1
102
RTVSPropertyOp8
 70
     1
102
RTVSPropertyOp9
 70
     1
102
RTVSPropertyOp10
 70
     1
102
RTVSPropertyOp11
 70
     1
102
RTVSPropertyOp12
 70
     1
102
RTVSPropertyOp13
 70
     1
102
RTVSPropertyOp14
 70
     1
102
RTVSPropertyOp15
 70
     1
102
RTVSPropertyOp16
 70
     1
102
RTVSPropertyOp17
 70
     1
102
RTVSPropertyOp18
 70
     1
102
RTVSPropertyOp19
 70
     1
102
RTVSPropertyOp20
 70
     1
102
RTVSPropertyOp21
 70
     1
102
RTVSPropertyOp22
 70
     1
102
RTVSPropertyOp23
 70
     1
102
RTVSPropertyOp24
 70
     1
102
RTVSPropertyOp25
 70
     1
102
RTVSPropertyOp26
 70
     1
102
RTVSPropertyOp27
 70
     1
102
RTVSPropertyOp28
 70
     1
102
RTVSPropertyOp29
 70
     1
102
RTVSPropertyOp30
 70
     1
102
RTVSPropertyOp31
 70
     1
102
RTVSPropertyOp32
 70
     1
102
RTVSPropertyOp33
 70
     1
102
RTVSPropertyOp34
 70
     1
102
RTVSPropertyOp35
 70
     1
102
RTVSPropertyOp36
 70
     1
102
RTVSPropertyOp37
 70
     1
102
RTVSPropertyOp38
 70
     1
102
RTVSPropertyOp39
 70
     1
102
RTVSPropertyOp40
 70
     1
102
RTVSPropertyOp41
 70
     1
102
RTVSPropertyOp42
 70
     1
102
RTVSPropertyOp43
 70
     1
102
RTVSPropertyOp44
 70
     1
102
RTVSPropertyOp45
 70
     1
102
RTVSPropertyOp46
 70
     1
102
RTVSPropertyOp47
 70
     1
102
RTVSPropertyOp48
 70
     1
102
RTVSPropertyOp49
 70
     1
102
RTVSPropertyOp50
 70
     1
102
RTVSPropertyOp51
 70
     0
102
RTVSPropertyOp52
 70
     0
102
RTVSPropertyOp53
 70
     1
102
RTVSPropertyOp54
 70
     1
102
RTVSPropertyOp55
 70
     1
102
RTVSPropertyOp56
 70
     1
102
RTVSPropertyOp57
 70
     1
102
RTVSPropertyOp58
 70
     1
102
RTVSPropertyOp59
 70
     1
102
RTVSPropertyOp60
 70
     1
102
RTVSPropertyOp61
 70
     1
102
RTVSPropertyOp62
 70
     1
  0
XRECORD
  5
DF77
102
{ACAD_REACTORS
330
DF76
102
}
330
DF76
100
AcDbXrecord
280
     1
102
RTVSPost2010Prop28
280
     0
102
RTVSPost2010PropOp28
 70
     1
102
RTVSPost2010Prop29
280
     1
102
RTVSPost2010PropOp29
 70
     1
102
RTVSPost2010Prop30
280
     1
102
RTVSPost2010PropOp30
 70
     1
102
RTVSPost2010Prop31
280
     0
102
RTVSPost2010PropOp31
 70
     1
102
RTVSPost2010Prop32
280
     0
102
RTVSPost2010PropOp32
 70
     1
102
RTVSPost2010Prop33
280
     0
102
RTVSPost2010PropOp33
 70
     1
102
RTVSPost2010Prop34
280
     0
102
RTVSPost2010PropOp34
 70
     1
102
RTVSPost2010Prop35
280
     0
102
RTVSPost2010PropOp35
 70
     1
102
RTVSPost2010Prop36
280
     0
102
RTVSPost2010PropOp36
 70
     1
102
RTVSPost2010Prop37
 90
       50
102
RTVSPost2010PropOp37
 70
     1
102
RTVSPost2010Prop38
140
0.0
102
RTVSPost2010PropOp38
 70
     1
102
RTVSPost2010Prop39
140
1.0
102
RTVSPost2010PropOp39
 70
     1
102
RTVSPost2010Prop40
 90
        0
102
RTVSPost2010PropOp40
 70
     1
102
RTVSPost2010Prop41ColorIndex
 90
       18
102
RTVSPost2010Prop41ColorRGB
 90
        0
102
RTVSPost2010PropOp41
 70
     1
102
RTVSPost2010Prop42
 90
       50
102
RTVSPost2010PropOp42
 70
     1
102
RTVSPost2010Prop43
 90
        3
102
RTVSPost2010PropOp43
 70
     1
102
RTVSPost2010Prop44ColorIndex
 90
        5
102
RTVSPost2010Prop44ColorRGB
 90
      255
102
RTVSPost2010PropOp44
 70
     1
102
RTVSPost2010Prop45
280
     0
102
RTVSPost2010PropOp45
 70
     1
102
RTVSPost2010Prop46
 90
       50
102
RTVSPost2010PropOp46
 70
     1
102
RTVSPost2010Prop47
 90
       50
102
RTVSPost2010PropOp47
 70
     1
102
RTVSPost2010Prop48
 90
       50
102
RTVSPost2010PropOp48
 70
     1
102
RTVSPost2010Prop49
280
     0
102
RTVSPost2010PropOp49
 70
     1
102
RTVSPost2010Prop50
 90
       50
102
RTVSPost2010PropOp50
 70
     1
102
RTVSPost2010Prop51ColorIndex
 90
      256
102
RTVSPost2010Prop51ColorRGB
 90
-16777216
102
RTVSPost2010PropOp51
 70
     0
102
RTVSPost2010Prop52
140
1.0
102
RTVSPost2010PropOp52
 70
     0
102
RTVSPost2010Prop53
 90
        2
102
RTVSPost2010PropOp53
 70
     1
102
RTVSPost2010Prop54
  1
strokes_ogs.tif
102
RTVSPost2010PropOp54
 70
     1
102
RTVSPost2010Prop55
280
     0
102
RTVSPost2010PropOp55
 70
     1
102
RTVSPost2010Prop56
140
1.0
102
RTVSPost2010PropOp56
 70
     1
102
RTVSPost2010Prop57
140
1.0
102
RTVSPost2010PropOp57
 70
     1
102
RTVSPropertyOp0
 70
     1
102
RTVSPropertyOp1
 70
     1
102
RTVSPropertyOp2
 70
     1
102
RTVSPropertyOp3
 70
     1
102
RTVSPropertyOp4
 70
     1
102
RTVSPropertyOp5
 70
     1
102
RTVSPropertyOp6
 70
     1
102
RTVSPropertyOp7
 70
     1
102
RTVSPropertyOp8
 70
     1
102
RTVSPropertyOp9
 70
     1
102
RTVSPropertyOp10
 70
     1
102
RTVSPropertyOp11
 70
     1
102
RTVSPropertyOp12
 70
     1
102
RTVSPropertyOp13
 70
     1
102
RTVSPropertyOp14
 70
     1
102
RTVSPropertyOp15
 70
     1
102
RTVSPropertyOp16
 70
     1
102
RTVSPropertyOp17
 70
     1
102
RTVSPropertyOp18
 70
     1
102
RTVSPropertyOp19
 70
     1
102
RTVSPropertyOp20
 70
     1
102
RTVSPropertyOp21
 70
     1
102
RTVSPropertyOp22
 70
     1
102
RTVSPropertyOp23
 70
     1
102
RTVSPropertyOp24
 70
     1
102
RTVSPropertyOp25
 70
     1
102
RTVSPropertyOp26
 70
     1
102
RTVSPropertyOp27
 70
     1
102
RTVSPropertyOp28
 70
     1
102
RTVSPropertyOp29
 70
     1
102
RTVSPropertyOp30
 70
     1
102
RTVSPropertyOp31
 70
     1
102
RTVSPropertyOp32
 70
     1
102
RTVSPropertyOp33
 70
     1
102
RTVSPropertyOp34
 70
     1
102
RTVSPropertyOp35
 70
     1
102
RTVSPropertyOp36
 70
     1
102
RTVSPropertyOp37
 70
     1
102
RTVSPropertyOp38
 70
     1
102
RTVSPropertyOp39
 70
     1
102
RTVSPropertyOp40
 70
     1
102
RTVSPropertyOp41
 70
     1
102
RTVSPropertyOp42
 70
     1
102
RTVSPropertyOp43
 70
     1
102
RTVSPropertyOp44
 70
     1
102
RTVSPropertyOp45
 70
     1
102
RTVSPropertyOp46
 70
     1
102
RTVSPropertyOp47
 70
     1
102
RTVSPropertyOp48
 70
     1
102
RTVSPropertyOp49
 70
     1
102
RTVSPropertyOp50
 70
     1
102
RTVSPropertyOp51
 70
     0
102
RTVSPropertyOp52
 70
     0
102
RTVSPropertyOp53
 70
     1
102
RTVSPropertyOp54
 70
     1
102
RTVSPropertyOp55
 70
     1
102
RTVSPropertyOp56
 70
     1
102
RTVSPropertyOp57
 70
     1
102
RTVSPropertyOp58
 70
     1
102
RTVSPropertyOp59
 70
     1
102
RTVSPropertyOp60
 70
     1
102
RTVSPropertyOp61
 70
     1
102
RTVSPropertyOp62
 70
     1
  0
ENDSEC
  0
EOF
