  0
SECTION
  2
HEADER
  9
$ACADVER
  1
AC1015
  9
$ACADMAINTVER
 70
    20
  9
$DWGCODEPAGE
  3
ANSI_932
  9
$INSBASE
 10
0.0
 20
0.0
 30
0.0
  9
$EXTMIN
 10
-0.043309833582498
 20
-0.0300423845624209
 30
-0.0000000000112498
  9
$EXTMAX
 10
2760.128799155415
 20
1910.087137967395
 30
0.0000000000002956
  9
$LIMMIN
 10
0.0
 20
0.0
  9
$LIMMAX
 10
2840.0
 20
1970.0
  9
$ORTHOMODE
 70
     0
  9
$REGENMODE
 70
     1
  9
$FILLMODE
 70
     1
  9
$QTEXTMODE
 70
     0
  9
$MIRRTEXT
 70
     1
  9
$LTSCALE
 40
1.0
  9
$ATTMODE
 70
     1
  9
$TEXTSIZE
 40
2.5
  9
$TRACEWID
 40
1.0
  9
$TEXTSTYLE
  7
Standard
  9
$CLAYER
  8
KANAMONO
  9
$CELTYPE
  6
ByLayer
  9
$CECOLOR
 62
   256
  9
$CELTSCALE
 40
1.0
  9
$DISPSILH
 70
     0
  9
$DIMSCALE
 40
10.0
  9
$DIMASZ
 40
0.8
  9
$DIMEXO
 40
1.0
  9
$DIMDLI
 40
0.0
  9
$DIMRND
 40
0.0
  9
$DIMDLE
 40
0.0
  9
$DIMEXE
 40
0.0
  9
$DIMTP
 40
0.0
  9
$DIMTM
 40
0.0
  9
$DIMTXT
 40
2.0
  9
$DIMCEN
 40
2.5
  9
$DIMTSZ
 40
0.0
  9
$DIMTOL
 70
     0
  9
$DIMLIM
 70
     0
  9
$DIMTIH
 70
     0
  9
$DIMTOH
 70
     0
  9
$DIMSE1
 70
     0
  9
$DIMSE2
 70
     0
  9
$DIMTAD
 70
     2
  9
$DIMZIN
 70
     8
  9
$DIMBLK
  1

  9
$DIMASO
 70
     1
  9
$DIMSHO
 70
     1
  9
$DIMPOST
  1

  9
$DIMAPOST
  1

  9
$DIMALT
 70
     0
  9
$DIMALTD
 70
     4
  9
$DIMALTF
 40
0.0394
  9
$DIMLFAC
 40
1.0
  9
$DIMTOFL
 70
     1
  9
$DIMTVP
 40
0.0
  9
$DIMTIX
 70
     0
  9
$DIMSOXD
 70
     0
  9
$DIMSAH
 70
     1
  9
$DIMBLK1
  1
DOT
  9
$DIMBLK2
  1
DOT
  9
$DIMSTYLE
  2
STANDARD
  9
$DIMCLRD
 70
     0
  9
$DIMCLRE
 70
     0
  9
$DIMCLRT
 70
     0
  9
$DIMTFAC
 40
1.0
  9
$DIMGAP
 40
0.1
  9
$DIMJUST
 70
     0
  9
$DIMSD1
 70
     0
  9
$DIMSD2
 70
     0
  9
$DIMTOLJ
 70
     1
  9
$DIMTZIN
 70
     0
  9
$DIMALTZ
 70
     0
  9
$DIMALTTZ
 70
     0
  9
$DIMUPT
 70
     0
  9
$DIMDEC
 70
     8
  9
$DIMTDEC
 70
     8
  9
$DIMALTU
 70
     8
  9
$DIMALTTD
 70
     4
  9
$DIMTXSTY
  7
Standard
  9
$DIMAUNIT
 70
     0
  9
$DIMADEC
 70
     0
  9
$DIMALTRND
 40
0.0
  9
$DIMAZIN
 70
     0
  9
$DIMDSEP
 70
    46
  9
$DIMATFIT
 70
     3
  9
$DIMFRAC
 70
     0
  9
$DIMLDRBLK
  1
DOT
  9
$DIMLUNIT
 70
     2
  9
$DIMLWD
 70
    -2
  9
$DIMLWE
 70
    -2
  9
$DIMTMOVE
 70
     1
  9
$LUNITS
 70
     2
  9
$LUPREC
 70
     8
  9
$SKETCHINC
 40
1.0
  9
$FILLETRAD
 40
0.0
  9
$AUNITS
 70
     0
  9
$AUPREC
 70
     8
  9
$MENU
  1
.
  9
$ELEVATION
 40
0.0
  9
$PELEVATION
 40
0.0
  9
$THICKNESS
 40
0.0
  9
$LIMCHECK
 70
     0
  9
$CHAMFERA
 40
20.0
  9
$CHAMFERB
 40
20.0
  9
$CHAMFERC
 40
20.0
  9
$CHAMFERD
 40
0.0
  9
$SKPOLY
 70
     0
  9
$TDCREATE
 40
2453276.413761574
  9
$TDUCREATE
 40
2453276.038766620
  9
$TDUPDATE
 40
2459979.409606482
  9
$TDUUPDATE
 40
2459979.034606482
  9
$TDINDWG
 40
0.4479832523
  9
$TDUSRTIMER
 40
0.4479832523
  9
$USRTIMER
 70
     1
  9
$ANGBASE
 50
0.0
  9
$ANGDIR
 70
     0
  9
$PDMODE
 70
     0
  9
$PDSIZE
 40
0.0
  9
$PLINEWID
 40
0.0
  9
$SPLFRAME
 70
     0
  9
$SPLINETYPE
 70
     6
  9
$SPLINESEGS
 70
     8
  9
$HANDSEED
  5
5A17
  9
$SURFTAB1
 70
     6
  9
$SURFTAB2
 70
     6
  9
$SURFTYPE
 70
     6
  9
$SURFU
 70
     6
  9
$SURFV
 70
     6
  9
$UCSBASE
  2

  9
$UCSNAME
  2

  9
$UCSORG
 10
0.0
 20
0.0
 30
0.0
  9
$UCSXDIR
 10
1.0
 20
0.0
 30
0.0
  9
$UCSYDIR
 10
0.0
 20
1.0
 30
0.0
  9
$UCSORTHOREF
  2

  9
$UCSORTHOVIEW
 70
     0
  9
$UCSORGTOP
 10
0.0
 20
0.0
 30
0.0
  9
$UCSORGBOTTOM
 10
0.0
 20
0.0
 30
0.0
  9
$UCSORGLEFT
 10
0.0
 20
0.0
 30
0.0
  9
$UCSORGRIGHT
 10
0.0
 20
0.0
 30
0.0
  9
$UCSORGFRONT
 10
0.0
 20
0.0
 30
0.0
  9
$UCSORGBACK
 10
0.0
 20
0.0
 30
0.0
  9
$PUCSBASE
  2

  9
$PUCSNAME
  2

  9
$PUCSORG
 10
0.0
 20
0.0
 30
0.0
  9
$PUCSXDIR
 10
1.0
 20
0.0
 30
0.0
  9
$PUCSYDIR
 10
0.0
 20
1.0
 30
0.0
  9
$PUCSORTHOREF
  2

  9
$PUCSORTHOVIEW
 70
     0
  9
$PUCSORGTOP
 10
0.0
 20
0.0
 30
0.0
  9
$PUCSORGBOTTOM
 10
0.0
 20
0.0
 30
0.0
  9
$PUCSORGLEFT
 10
0.0
 20
0.0
 30
0.0
  9
$PUCSORGRIGHT
 10
0.0
 20
0.0
 30
0.0
  9
$PUCSORGFRONT
 10
0.0
 20
0.0
 30
0.0
  9
$PUCSORGBACK
 10
0.0
 20
0.0
 30
0.0
  9
$USERI1
 70
     0
  9
$USERI2
 70
     0
  9
$USERI3
 70
     0
  9
$USERI4
 70
     0
  9
$USERI5
 70
     0
  9
$USERR1
 40
0.0
  9
$USERR2
 40
0.0
  9
$USERR3
 40
0.0
  9
$USERR4
 40
0.0
  9
$USERR5
 40
0.0
  9
$WORLDVIEW
 70
     1
  9
$SHADEDGE
 70
     2
  9
$SHADEDIF
 70
    70
  9
$TILEMODE
 70
     1
  9
$MAXACTVP
 70
    64
  9
$PINSBASE
 10
0.0
 20
0.0
 30
0.0
  9
$PLIMCHECK
 70
     0
  9
$PEXTMIN
 10
0.0
 20
0.0
 30
0.0
  9
$PEXTMAX
 10
0.0
 20
0.0
 30
0.0
  9
$PLIMMIN
 10
0.0
 20
0.0
  9
$PLIMMAX
 10
12.0
 20
9.0
  9
$UNITMODE
 70
     0
  9
$VISRETAIN
 70
     1
  9
$PLINEGEN
 70
     0
  9
$PSLTSCALE
 70
     1
  9
$TREEDEPTH
 70
  3020
  9
$CMLSTYLE
  2
Standard
  9
$CMLJUST
 70
     0
  9
$CMLSCALE
 40
20.0
  9
$PROXYGRAPHICS
 70
     1
  9
$MEASUREMENT
 70
     1
  9
$CELWEIGHT
370
    -1
  9
$ENDCAPS
280
     0
  9
$JOINSTYLE
280
     0
  9
$LWDISPLAY
290
     0
  9
$INSUNITS
 70
     4
  9
$HYPERLINKBASE
  1

  9
$STYLESHEET
  1
monochrome.stb
  9
$XEDIT
290
     1
  9
$CEPSNTYPE
380
     0
  9
$PSTYLEMODE
290
     1
  9
$FINGERPRINTGUID
  2
{B4E61C12-08AD-407D-A83C-7C7812CA1D8B}
  9
$VERSIONGUID
  2
{9A0C9A4E-28DD-3540-B9A2-07EB90BF0A3E}
  9
$EXTNAMES
290
     1
  9
$PSVPSCALE
 40
0.0
  9
$OLESTARTUP
290
     0
  0
ENDSEC
  0
SECTION
  2
CLASSES
  0
CLASS
  1
ACDBDICTIONARYWDFLT
  2
AcDbDictionaryWithDefault
  3
ObjectDBX Classes
 90
        0
280
     0
281
     0
  0
CLASS
  1
ACDBPLACEHOLDER
  2
AcDbPlaceHolder
  3
ObjectDBX Classes
 90
        0
280
     0
281
     0
  0
CLASS
  1
LAYOUT
  2
AcDbLayout
  3
ObjectDBX Classes
 90
        0
280
     0
281
     0
  0
CLASS
  1
DICTIONARYVAR
  2
AcDbDictionaryVar
  3
ObjectDBX Classes
 90
        0
280
     0
281
     0
  0
CLASS
  1
SORTENTSTABLE
  2
AcDbSortentsTable
  3
ObjectDBX Classes
 90
        0
280
     0
281
     0
  0
CLASS
  1
MATERIAL
  2
AcDbMaterial
  3
ObjectDBX Classes
 90
     1153
280
     0
281
     0
  0
CLASS
  1
VISUALSTYLE
  2
AcDbVisualStyle
  3
ObjectDBX Classes
 90
     4095
280
     0
281
     0
  0
CLASS
  1
TABLESTYLE
  2
AcDbTableStyle
  3
ObjectDBX Classes
 90
     4095
280
     0
281
     0
  0
CLASS
  1
SCALE
  2
AcDbScale
  3
ObjectDBX Classes
 90
     1153
280
     0
281
     0
  0
CLASS
  1
MLEADERSTYLE
  2
AcDbMLeaderStyle
  3
ACDB_MLEADERSTYLE_CLASS
 90
     4095
280
     0
281
     0
  0
CLASS
  1
AEC_REFEDIT_STATUS_TRACKER
  2
AecDbRefEditStatusTracker
  3
AecArchBase80|Product Desc: Autodesk Architectural Desktop 2007 |Company: Autodesk,Inc. |WEB Address: www.autodesk.com
 90
    32897
280
     0
281
     0
  0
CLASS
  1
NPOCOLLECTION
  2
AcDbImpNonPersistentObjectsCollection
  3
ObjectDBX Classes
 90
    33921
280
     0
281
     0
  0
CLASS
  1
CELLSTYLEMAP
  2
AcDbCellStyleMap
  3
ObjectDBX Classes
 90
     1152
280
     0
281
     0
  0
CLASS
  1
ACDBSECTIONVIEWSTYLE
  2
AcDbSectionViewStyle
  3
ObjectDBX Classes
 90
     1025
280
     0
281
     0
  0
CLASS
  1
ACDBDETAILVIEWSTYLE
  2
AcDbDetailViewStyle
  3
ObjectDBX Classes
 90
     1025
280
     0
281
     0
  0
ENDSEC
  0
SECTION
  2
TABLES
  0
TABLE
  2
VPORT
  5
8
102
{ACAD_XDICTIONARY
360
4D5E
102
}
330
0
100
AcDbSymbolTable
 70
     1
  0
VPORT
  5
4C1D
330
8
100
AcDbSymbolTableRecord
100
AcDbViewportTableRecord
  2
*Active
 70
     0
 10
0.0
 20
0.0
 11
1.0
 21
1.0
 12
1380.042744660916
 22
955.0285477914165
 13
0.0
 23
0.0
 14
10.0
 24
10.0
 15
10.0
 25
10.0
 16
0.0
 26
0.0
 36
1.0
 17
0.0
 27
0.0
 37
0.0
 40
2437.216567050476
 41
1.148760330578512
 42
50.0
 43
0.0
 44
0.0
 50
0.0
 51
0.0
 71
     0
 72
   100
 73
     1
 74
     3
 75
     0
 76
     0
 77
     0
 78
     0
281
     0
 65
     1
110
0.0
120
0.0
130
0.0
111
1.0
121
0.0
131
0.0
112
0.0
122
1.0
132
0.0
 79
     0
146
0.0
1001
ACAD_NAV_VCDISPLAY
1070
     3
  0
ENDTAB
  0
TABLE
  2
LTYPE
  5
5
330
0
100
AcDbSymbolTable
 70
     3
  0
LTYPE
  5
14
330
5
100
AcDbSymbolTableRecord
100
AcDbLinetypeTableRecord
  2
ByBlock
 70
     0
  3

 72
    65
 73
     0
 40
0.0
  0
LTYPE
  5
15
330
5
100
AcDbSymbolTableRecord
100
AcDbLinetypeTableRecord
  2
ByLayer
 70
     0
  3

 72
    65
 73
     0
 40
0.0
  0
LTYPE
  5
16
330
5
100
AcDbSymbolTableRecord
100
AcDbLinetypeTableRecord
  2
Continuous
 70
     0
  3
Solid line
 72
    65
 73
     0
 40
0.0
  0
LTYPE
  5
255D
330
5
100
AcDbSymbolTableRecord
100
AcDbLinetypeTableRecord
  2
DASHED
 70
     0
  3
Dashed __ __ __ __ __ __ __ __ __ __ __ __ __ _
 72
    65
 73
     2
 40
19.05
 49
12.7
 74
     0
 49
-6.349999999999999
 74
     0
  0
LTYPE
  5
3854
330
5
100
AcDbSymbolTableRecord
100
AcDbLinetypeTableRecord
  2
CENTER
 70
     0
  3
Center ____ _ ____ _ ____ _ ____ _ ____ _ ____
 72
    65
 73
     4
 40
50.8
 49
31.75
 74
     0
 49
-6.349999999999999
 74
     0
 49
6.349999999999999
 74
     0
 49
-6.349999999999999
 74
     0
  0
ENDTAB
  0
TABLE
  2
LAYER
  5
2
102
{ACAD_XDICTIONARY
360
2D
102
}
330
0
100
AcDbSymbolTable
 70
     8
  0
LAYER
  5
10
102
{ACAD_XDICTIONARY
360
4CB0
102
}
330
2
100
AcDbSymbolTableRecord
100
AcDbLayerTableRecord
  2
0
 70
     0
 62
     7
  6
Continuous
290
     0
370
    -3
390
29
  0
LAYER
  5
2301
330
2
100
AcDbSymbolTableRecord
100
AcDbLayerTableRecord
  2
Defpoints
 70
     0
 62
    -7
  6
Continuous
290
     0
370
    -3
390
F
  0
LAYER
  5
2361
102
{ACAD_XDICTIONARY
360
4CB2
102
}
330
2
100
AcDbSymbolTableRecord
100
AcDbLayerTableRecord
  2
MOJI
 70
     0
 62
     7
  6
Continuous
370
    -3
390
29
  0
LAYER
  5
2363
102
{ACAD_XDICTIONARY
360
4CB4
102
}
330
2
100
AcDbSymbolTableRecord
100
AcDbLayerTableRecord
  2
sunpo
 70
     0
 62
     7
  6
Continuous
370
    -3
390
29
  0
LAYER
  5
32AD
102
{ACAD_XDICTIONARY
360
4CB6
102
}
330
2
100
AcDbSymbolTableRecord
100
AcDbLayerTableRecord
  2
KANAMONO
 70
     0
 62
     4
  6
Continuous
370
    -3
390
29
  0
LAYER
  5
32AE
102
{ACAD_XDICTIONARY
360
4CB8
102
}
330
2
100
AcDbSymbolTableRecord
100
AcDbLayerTableRecord
  2
ZATU
 70
     0
 62
     6
  6
Continuous
370
    -3
390
F
  0
LAYER
  5
5085
102
{ACAD_XDICTIONARY
360
5086
102
}
330
2
100
AcDbSymbolTableRecord
100
AcDbLayerTableRecord
  2
WAKU
 70
     0
 62
     7
  6
Continuous
370
    -3
390
29
  0
LAYER
  5
547B
102
{ACAD_XDICTIONARY
360
547C
102
}
330
2
100
AcDbSymbolTableRecord
100
AcDbLayerTableRecord
  2
KANAMONO_SCREW
 70
     0
 62
     4
  6
Continuous
370
    -3
390
29
  0
ENDTAB
  0
TABLE
  2
STYLE
  5
3
330
0
100
AcDbSymbolTable
 70
     2
  0
STYLE
  5
11
330
3
100
AcDbSymbolTableRecord
100
AcDbTextStyleTableRecord
  2
Standard
 70
     0
 40
0.0
 41
1.0
 50
0.0
 71
     0
 42
2.5
  3
txt.shx
  4
bigfont.shx
  0
STYLE
  5
5087
330
3
100
AcDbSymbolTableRecord
100
AcDbTextStyleTableRecord
  2
MSゴシック
 70
     0
 40
0.0
 41
1.0
 50
0.0
 71
     0
 42
2.5
  3

  4

1001
ACAD
1000
MS Gothic
1071
    32817
  0
ENDTAB
  0
TABLE
  2
VIEW
  5
6
330
0
100
AcDbSymbolTable
 70
     0
  0
ENDTAB
  0
TABLE
  2
UCS
  5
7
330
0
100
AcDbSymbolTable
 70
     0
  0
ENDTAB
  0
TABLE
  2
APPID
  5
9
330
0
100
AcDbSymbolTable
 70
     9
  0
APPID
  5
12
330
9
100
AcDbSymbolTableRecord
100
AcDbRegAppTableRecord
  2
ACAD
 70
     0
  0
APPID
  5
4D8E
330
9
100
AcDbSymbolTableRecord
100
AcDbRegAppTableRecord
  2
ACAD_MLEADERVER
 70
     0
  0
APPID
  5
4E91
330
9
100
AcDbSymbolTableRecord
100
AcDbRegAppTableRecord
  2
ACAD_PSEXT
 70
     0
  0
APPID
  5
4E92
330
9
100
AcDbSymbolTableRecord
100
AcDbRegAppTableRecord
  2
ACAD_DSTYLE_DIMJAG
 70
     0
  0
APPID
  5
4E93
330
9
100
AcDbSymbolTableRecord
100
AcDbRegAppTableRecord
  2
ACAD_DSTYLE_DIMBREAK
 70
     0
  0
APPID
  5
4E94
330
9
100
AcDbSymbolTableRecord
100
AcDbRegAppTableRecord
  2
ACAD_DSTYLE_DIMTALN
 70
     0
  0
APPID
  5
4FDA
330
9
100
AcDbSymbolTableRecord
100
AcDbRegAppTableRecord
  2
ACAD_EXEMPT_FROM_CAD_STANDARDS
 70
     0
  0
APPID
  5
5089
330
9
100
AcDbSymbolTableRecord
100
AcDbRegAppTableRecord
  2
ACAD_NAV_VCDISPLAY
 70
     0
  0
APPID
  5
57E5
330
9
100
AcDbSymbolTableRecord
100
AcDbRegAppTableRecord
  2
Acad_TC
 70
     0
  0
ENDTAB
  0
TABLE
  2
DIMSTYLE
  5
A
330
0
100
AcDbSymbolTable
 70
     1
100
AcDbDimStyleTable
 71
     1
340
22E4
  0
DIMSTYLE
105
22E4
330
A
100
AcDbSymbolTableRecord
100
AcDbDimStyleTableRecord
  2
STANDARD
 70
     0
 40
10.0
 41
0.8
 42
1.0
 43
0.0
 44
0.0
 73
     0
 74
     0
 77
     2
 78
     8
140
2.0
141
2.5
143
0.0394
147
0.1
171
     4
172
     1
173
     1
271
     8
272
     8
273
     8
274
     4
279
     1
340
11
341
903
343
903
344
903
  0
ENDTAB
  0
TABLE
  2
BLOCK_RECORD
  5
1
330
0
100
AcDbSymbolTable
 70
    11
  0
BLOCK_RECORD
  5
1F
102
{ACAD_XDICTIONARY
360
1C62
102
}
330
1
100
AcDbSymbolTableRecord
100
AcDbBlockTableRecord
  2
*Model_Space
340
22
  0
BLOCK_RECORD
  5
1CD0
330
1
100
AcDbSymbolTableRecord
100
AcDbBlockTableRecord
  2
*Paper_Space
340
1CD1
  0
BLOCK_RECORD
  5
903
330
1
100
AcDbSymbolTableRecord
100
AcDbBlockTableRecord
  2
_DOT
340
0
102
{BLKREFS
331
583C
331
583D
331
5844
331
5845
331
584D
331
584E
331
5856
331
5857
331
585F
331
5860
331
5868
331
5869
331
5871
331
5872
331
587A
331
587B
331
5883
331
5884
331
597C
331
597D
331
5982
331
5983
331
5988
331
5989
331
58DE
331
58DF
331
58E3
331
58E4
331
58F1
331
58F2
331
58F7
331
58F8
331
5905
331
5906
331
590B
331
590C
102
}
  0
BLOCK_RECORD
  5
4C7A
330
1
100
AcDbSymbolTableRecord
100
AcDbBlockTableRecord
  2
S\U+FF8D\U+FF9E\U+FF70\U+FF8A\U+FF9F\U+FF7D（\U+FF71\U+FF9D\U+FF80\U+FF9E\U+FF70）
340
0
310
2800000020000000200000000100080000000000000400000000000000000000000000000000000000000000000080000080000000808000800000008000800080800000C0C0C000C0DCC000F0CAA6000020400000206000002080000020A0000020C0000020E00000400000004020000040400000406000004080000040A0
310
000040C0000040E00000600000006020000060400000606000006080000060A0000060C0000060E00000800000008020000080400000806000008080000080A0000080C0000080E00000A0000000A0200000A0400000A0600000A0800000A0A00000A0C00000A0E00000C0000000C0200000C0400000C0600000C0800000C0
310
A00000C0C00000C0E00000E0000000E0200000E0400000E0600000E0800000E0A00000E0C00000E0E00040000000400020004000400040006000400080004000A0004000C0004000E00040200000402020004020400040206000402080004020A0004020C0004020E000404000004040200040404000404060004040800040
310
40A0004040C0004040E00040600000406020004060400040606000406080004060A0004060C0004060E00040800000408020004080400040806000408080004080A0004080C0004080E00040A0000040A0200040A0400040A0600040A0800040A0A00040A0C00040A0E00040C0000040C0200040C0400040C0600040C08000
310
40C0A00040C0C00040C0E00040E0000040E0200040E0400040E0600040E0800040E0A00040E0C00040E0E00080000000800020008000400080006000800080008000A0008000C0008000E00080200000802020008020400080206000802080008020A0008020C0008020E00080400000804020008040400080406000804080
310
008040A0008040C0008040E00080600000806020008060400080606000806080008060A0008060C0008060E00080800000808020008080400080806000808080008080A0008080C0008080E00080A0000080A0200080A0400080A0600080A0800080A0A00080A0C00080A0E00080C0000080C0200080C0400080C0600080C0
310
800080C0A00080C0C00080C0E00080E0000080E0200080E0400080E0600080E0800080E0A00080E0C00080E0E000C0000000C0002000C0004000C0006000C0008000C000A000C000C000C000E000C0200000C0202000C0204000C0206000C0208000C020A000C020C000C020E000C0400000C0402000C0404000C0406000C0
310
408000C040A000C040C000C040E000C0600000C0602000C0604000C0606000C0608000C060A000C060C000C060E000C0800000C0802000C0804000C0806000C0808000C080A000C080C000C080E000C0A00000C0A02000C0A04000C0A06000C0A08000C0A0A000C0A0C000C0A0E000C0C00000C0C02000C0C04000C0C06000
310
C0C08000C0C0A000F0FBFF00A4A0A000808080000000FF0000FF000000FFFF00FF000000FF00FF00FFFF0000FFFFFF0000000000000000000000000000000000000000000000000000000000000000000000FEFEFEFEFEFEFEFEFEFEFEFEFEFEFEFEFEFEFEFEFEFEFEFEFEFEFEFE00000000FEFEFEFEFEFEFEFEFEFEFEFEFE
310
FEFEFEFEFEFEFEFEFEFEFEFEFEFEFE00000000000000000000000000000000FE0000FE00000000000000000000000000000000000000000000000000000000FE0000FE00000000000000000000000000000000000000000000000000000000FE0000FE00000000000000000000000000000000000000000000000000000000
310
FE0000FE00000000000000000000000000000000000000000000000000000000FE0000FE00000000000000000000000000000000000000000000000000000000FE0000FE00000000000000000000000000000000000000000000000000000000FE0000FE000000000000000000000000000000000000000000000000000000
310
00FE0000FE00000000000000000000000000000000000000000000000000000000FE0000FE00000000000000000000000000000000000000000000000000000000FE0000FE00000000000000000000000000000000000000000000000000000000FE0000FE0000000000000000000000000000000000000000000000000000
310
0000FE0000FE00000000000000000000000000000000000000000000000000000000FE0000FE00000000000000000000000000000000000000000000000000000000FE0000FE000000000000000000000000000000000000000000000000000000FEFE0000FEFE000000000000000000000000000000000000000000000000
310
000000FE0000FE00000000000000000000000000000000000000000000000000000000FE0000FE00000000000000000000000000000000000000000000000000000000FE0000FE00000000000000000000000000000000000000000000000000000000FE0000FE000000000000000000000000000000000000000000000000
310
00000000FE0000FE00000000000000000000000000000000000000000000000000000000FE0000FE00000000000000000000000000000000000000000000000000000000FE0000FE00000000000000000000000000000000000000000000000000000000FE0000FE0000000000000000000000000000000000000000000000
310
0000000000FE0000FE00000000000000000000000000000000000000000000000000000000FE0000FE000000000000000000000000000000000000000000000000000000FEFE0000FEFE000000000000000000000000000000000000000000000000000000FE0000FE00000000000000000000000000000000000000000000
310
000000000000FEFEFEFE00000000000000000000000000000000000000000000000000000000000000000000000000000000000000000000
  0
BLOCK_RECORD
  5
555F
330
1
100
AcDbSymbolTableRecord
100
AcDbBlockTableRecord
  2
*D2
340
0
  0
BLOCK_RECORD
  5
556B
330
1
100
AcDbSymbolTableRecord
100
AcDbBlockTableRecord
  2
*D3
340
0
  0
BLOCK_RECORD
  5
5577
330
1
100
AcDbSymbolTableRecord
100
AcDbBlockTableRecord
  2
*D4
340
0
  0
BLOCK_RECORD
  5
5583
330
1
100
AcDbSymbolTableRecord
100
AcDbBlockTableRecord
  2
*D5
340
0
  0
BLOCK_RECORD
  5
558F
330
1
100
AcDbSymbolTableRecord
100
AcDbBlockTableRecord
  2
*D6
340
0
  0
BLOCK_RECORD
  5
559B
330
1
100
AcDbSymbolTableRecord
100
AcDbBlockTableRecord
  2
*D7
340
0
  0
BLOCK_RECORD
  5
55A7
330
1
100
AcDbSymbolTableRecord
100
AcDbBlockTableRecord
  2
*D8
340
0
  0
BLOCK_RECORD
  5
55B3
330
1
100
AcDbSymbolTableRecord
100
AcDbBlockTableRecord
  2
*D9
340
0
  0
BLOCK_RECORD
  5
55BF
330
1
100
AcDbSymbolTableRecord
100
AcDbBlockTableRecord
  2
*D10
340
0
  0
ENDTAB
  0
ENDSEC
  0
SECTION
  2
BLOCKS
  0
BLOCK
  5
20
330
1F
100
AcDbEntity
  8
0
100
AcDbBlockBegin
  2
*Model_Space
 70
     0
 10
0.0
 20
0.0
 30
0.0
  3
*Model_Space
  1

  0
ENDBLK
  5
21
330
1F
100
AcDbEntity
  8
0
100
AcDbBlockEnd
  0
BLOCK
  5
1CD2
330
1CD0
100
AcDbEntity
 67
     1
  8
0
100
AcDbBlockBegin
  2
*Paper_Space
 70
     0
 10
0.0
 20
0.0
 30
0.0
  3
*Paper_Space
  1

  0
ENDBLK
  5
1CD3
330
1CD0
100
AcDbEntity
 67
     1
  8
0
100
AcDbBlockEnd
  0
BLOCK
  5
906
330
903
100
AcDbEntity
  8
0
100
AcDbBlockBegin
  2
_DOT
 70
     0
 10
0.0
 20
0.0
 30
0.0
  3
_DOT
  1

  0
LWPOLYLINE
  5
904
330
903
100
AcDbEntity
  8
0
  6
ByBlock
 62
     0
100
AcDbPolyline
 90
        2
 70
     1
 43
0.5
 10
-0.25
 20
0.0
 42
1.0
 10
0.25
 20
0.0
 42
1.0
  0
LINE
  5
905
330
903
100
AcDbEntity
  8
0
  6
ByBlock
 62
     0
100
AcDbLine
 10
-0.5
 20
0.0
 30
0.0
 11
-1.0
 21
0.0
 31
0.0
  0
ENDBLK
  5
907
330
903
100
AcDbEntity
  8
0
100
AcDbBlockEnd
  0
BLOCK
  5
4C7B
330
4C7A
100
AcDbEntity
  8
0
100
AcDbBlockBegin
  2
S\U+FF8D\U+FF9E\U+FF70\U+FF8A\U+FF9F\U+FF7D（\U+FF71\U+FF9D\U+FF80\U+FF9E\U+FF70）
 70
     0
 10
0.0
 20
0.0
 30
0.0
  3
S\U+FF8D\U+FF9E\U+FF70\U+FF8A\U+FF9F\U+FF7D（\U+FF71\U+FF9D\U+FF80\U+FF9E\U+FF70）
  1

  0
LWPOLYLINE
  5
4C7C
330
4C7A
100
AcDbEntity
  8
KANAMONO
100
AcDbPolyline
 90
        4
 70
     1
 43
0.0
 10
12.10000000000036
 20
0.0
 10
13.60000000000036
 20
0.0
 10
13.60000000000036
 20
206.5
 10
12.10000000000036
 20
206.5
  0
LWPOLYLINE
  5
4C7D
330
4C7A
100
AcDbEntity
  8
KANAMONO
100
AcDbPolyline
 90
        4
 70
     1
 43
0.0
 10
-13.59999999999945
 20
0.0
 10
-12.09999999999945
 20
0.0
 10
-12.09999999999945
 20
206.5
 10
-13.59999999999945
 20
206.5
  0
LINE
  5
4C7E
330
4C7A
100
AcDbEntity
  8
KANAMONO
  6
DASHED
 48
0.2
100
AcDbLine
 10
-12.09999999999945
 20
1.5
 30
0.0
 11
12.10000000000036
 21
1.5
 31
0.0
  0
LINE
  5
4C7F
330
4C7A
100
AcDbEntity
  8
KANAMONO
  6
DASHED
 48
0.2
100
AcDbLine
 10
-12.09999999999945
 20
0.0
 30
0.0
 11
12.10000000000036
 21
0.0
 31
0.0
  0
LWPOLYLINE
  5
4C80
330
4C7A
100
AcDbEntity
  8
KANAMONO
100
AcDbPolyline
 90
        4
 70
     0
 43
0.0
 10
13.60000000000036
 20
0.0
 10
100.0
 20
0.0
 10
100.0
 20
1.5
 10
13.60000000000036
 20
1.5
  0
LWPOLYLINE
  5
4C81
330
4C7A
100
AcDbEntity
  8
KANAMONO
100
AcDbPolyline
 90
        6
 70
     1
 43
0.0
 10
13.70000000000073
 20
116.5
 10
18.85000000000036
 20
116.5
 10
18.85000000000036
 20
113.5
 10
18.15000000000054
 20
113.5
 10
18.15000000000054
 20
115.7999999999993
 10
13.70000000000073
 20
115.7999999999993
  0
LWPOLYLINE
  5
4C82
330
4C7A
100
AcDbEntity
  8
KANAMONO
100
AcDbPolyline
 90
        4
 70
     0
 43
0.0
 10
-13.59999999999945
 20
1.5
 10
-100.0
 20
1.5
 10
-100.0
 20
0.0
 10
-13.59999999999945
 20
0.0
  0
LWPOLYLINE
  5
4C83
330
4C7A
100
AcDbEntity
  8
KANAMONO
100
AcDbPolyline
 90
        6
 70
     1
 43
0.0
 10
-13.69999999999982
 20
116.5
 10
-18.84999999999945
 20
116.5
 10
-18.84999999999945
 20
113.5
 10
-18.14999999999963
 20
113.5
 10
-18.14999999999963
 20
115.7999999999993
 10
-13.69999999999982
 20
115.7999999999993
  0
LINE
  5
4C84
330
4C7A
100
AcDbEntity
  8
KANAMONO
370
     5
100
AcDbLine
 10
-12.09999999999945
 20
206.5
 30
0.0
 11
12.10000000000036
 21
206.5
 31
0.0
  0
LWPOLYLINE
  5
4C85
330
4C7A
100
AcDbEntity
  8
KANAMONO
100
AcDbPolyline
 90
        6
 70
     1
 43
0.0
 10
13.70000000000073
 20
196.5
 10
18.85000000000036
 20
196.5
 10
18.85000000000036
 20
193.5
 10
18.15000000000054
 20
193.5
 10
18.15000000000054
 20
195.7999999999993
 10
13.70000000000073
 20
195.7999999999993
  0
LWPOLYLINE
  5
4C86
330
4C7A
100
AcDbEntity
  8
KANAMONO
100
AcDbPolyline
 90
        6
 70
     1
 43
0.0
 10
-13.69999999999982
 20
196.5
 10
-18.84999999999945
 20
196.5
 10
-18.84999999999945
 20
193.5
 10
-18.14999999999963
 20
193.5
 10
-18.14999999999963
 20
195.7999999999993
 10
-13.69999999999982
 20
195.7999999999993
  0
ENDBLK
  5
4C87
330
4C7A
100
AcDbEntity
  8
0
100
AcDbBlockEnd
  0
BLOCK
  5
5560
330
555F
100
AcDbEntity
  8
0
100
AcDbBlockBegin
  2
*D2
 70
     1
 10
0.0
 20
0.0
 30
0.0
  3
*D2
  1

  0
LINE
  5
5838
330
555F
100
AcDbEntity
  8
sunpo
 62
     0
370
    -2
100
AcDbLine
 10
1810.466648580287
 20
1108.954199413652
 30
0.0
 11
1810.466648580287
 21
1126.036964821
 31
0.0
  0
LINE
  5
5839
330
555F
100
AcDbEntity
  8
sunpo
 62
     0
370
    -2
100
AcDbLine
 10
1783.266648580287
 20
1108.954199413652
 30
0.0
 11
1783.266648580287
 21
1126.036964821
 31
0.0
  0
LINE
  5
583A
330
555F
100
AcDbEntity
  8
sunpo
 62
     0
370
    -2
100
AcDbLine
 10
1802.466648580287
 20
1126.036964821
 30
0.0
 11
1791.266648580287
 21
1126.036964821
 31
0.0
  0
MTEXT
  5
583B
330
555F
100
AcDbEntity
  8
sunpo
 62
     0
100
AcDbMText
 10
1796.866648580287
 20
1137.536964821
 30
0.0
 40
20.0
 41
0.0
 71
     5
 72
     1
  1
\A1;27.2
  7
MSゴシック
 73
     1
 44
1.0
1001
ACAD
1000
MTEXTBEGIN
1070
    73
1070
     1
1070
    44
1040
1.0
1070
    74
1070
     0
1000
MTEXTEND
  0
INSERT
  5
583C
330
555F
100
AcDbEntity
  8
sunpo
 62
     0
370
    -2
100
AcDbBlockReference
  2
_DOT
 10
1810.466648580287
 20
1126.036964821
 30
0.0
 41
8.0
 42
8.0
 43
8.0
  0
INSERT
  5
583D
330
555F
100
AcDbEntity
  8
sunpo
 62
     0
370
    -2
100
AcDbBlockReference
  2
_DOT
 10
1783.266648580287
 20
1126.036964821
 30
0.0
 41
8.0
 42
8.0
 43
8.0
 50
180.0
  0
POINT
  5
583E
330
555F
100
AcDbEntity
  8
Defpoints
 62
     0
100
AcDbPoint
 10
1810.466648580287
 20
1098.954199413652
 30
0.0
  0
POINT
  5
583F
330
555F
100
AcDbEntity
  8
Defpoints
 62
     0
100
AcDbPoint
 10
1783.266648580287
 20
1098.954199413652
 30
0.0
  0
POINT
  5
5840
330
555F
100
AcDbEntity
  8
Defpoints
 62
     0
100
AcDbPoint
 10
1783.266648580287
 20
1126.036964821
 30
0.0
  0
ENDBLK
  5
5561
330
555F
100
AcDbEntity
  8
0
100
AcDbBlockEnd
  0
BLOCK
  5
556C
330
556B
100
AcDbEntity
  8
0
100
AcDbBlockBegin
  2
*D3
 70
     1
 10
0.0
 20
0.0
 30
0.0
  3
*D3
  1

  0
LINE
  5
5841
330
556B
100
AcDbEntity
  8
sunpo
 62
     0
370
    -2
100
AcDbLine
 10
1906.866648580288
 20
893.9541994136529
 30
0.0
 11
1921.382823452793
 21
893.9541994136529
 31
0.0
  0
LINE
  5
5842
330
556B
100
AcDbEntity
  8
sunpo
 62
     0
370
    -2
100
AcDbLine
 10
1820.466648580288
 20
1098.954199413653
 30
0.0
 11
1921.382823452793
 21
1098.954199413653
 31
0.0
  0
LINE
  5
5843
330
556B
100
AcDbEntity
  8
sunpo
 62
     0
370
    -2
100
AcDbLine
 10
1921.382823452793
 20
901.9541994136529
 30
0.0
 11
1921.382823452793
 21
1090.954199413653
 31
0.0
  0
INSERT
  5
5844
330
556B
100
AcDbEntity
  8
sunpo
 62
     0
370
    -2
100
AcDbBlockReference
  2
_DOT
 10
1921.382823452793
 20
893.9541994136529
 30
0.0
 41
8.0
 42
8.0
 43
8.0
 50
270.0
  0
INSERT
  5
5845
330
556B
100
AcDbEntity
  8
sunpo
 62
     0
370
    -2
100
AcDbBlockReference
  2
_DOT
 10
1921.382823452793
 20
1098.954199413653
 30
0.0
 41
8.0
 42
8.0
 43
8.0
 50
90.0
  0
MTEXT
  5
5846
330
556B
100
AcDbEntity
  8
sunpo
 62
     0
100
AcDbMText
 10
1932.382823452792
 20
996.4541994136522
 30
0.0
 40
20.0
 41
0.0
 71
     5
 72
     1
  1
\A1;205
  7
MSゴシック
 11
0.0000000000000001
 21
1.0
 31
0.0
 73
     1
 44
1.0
1001
ACAD
1000
MTEXTBEGIN
1070
    73
1070
     1
1070
    44
1040
1.0
1070
    74
1070
     0
1000
MTEXTEND
  0
POINT
  5
5847
330
556B
100
AcDbEntity
  8
Defpoints
 62
     0
100
AcDbPoint
 10
1896.866648580288
 20
893.9541994136529
 30
0.0
  0
POINT
  5
5848
330
556B
100
AcDbEntity
  8
Defpoints
 62
     0
100
AcDbPoint
 10
1810.466648580288
 20
1098.954199413653
 30
0.0
  0
POINT
  5
5849
330
556B
100
AcDbEntity
  8
Defpoints
 62
     0
100
AcDbPoint
 10
1921.382823452793
 20
1098.954199413653
 30
0.0
  0
ENDBLK
  5
556D
330
556B
100
AcDbEntity
  8
0
100
AcDbBlockEnd
  0
BLOCK
  5
5578
330
5577
100
AcDbEntity
  8
0
100
AcDbBlockBegin
  2
*D4
 70
     1
 10
0.0
 20
0.0
 30
0.0
  3
*D4
  1

  0
LINE
  5
584A
330
5577
100
AcDbEntity
  8
sunpo
 62
     0
370
    -2
100
AcDbLine
 10
1896.866648580289
 20
770.454199413653
 30
0.0
 11
1954.034413604743
 21
770.454199413653
 31
0.0
  0
LINE
  5
584B
330
5577
100
AcDbEntity
  8
sunpo
 62
     0
370
    -2
100
AcDbLine
 10
1896.866648580289
 20
570.4541994136527
 30
0.0
 11
1954.034413604743
 21
570.4541994136527
 31
0.0
  0
LINE
  5
584C
330
5577
100
AcDbEntity
  8
sunpo
 62
     0
370
    -2
100
AcDbLine
 10
1954.034413604743
 20
762.4541994136528
 30
0.0
 11
1954.034413604743
 21
578.4541994136527
 31
0.0
  0
INSERT
  5
584D
330
5577
100
AcDbEntity
  8
sunpo
 62
     0
370
    -2
100
AcDbBlockReference
  2
_DOT
 10
1954.034413604743
 20
770.454199413653
 30
0.0
 41
8.0
 42
8.0
 43
8.0
 50
90.0
  0
INSERT
  5
584E
330
5577
100
AcDbEntity
  8
sunpo
 62
     0
370
    -2
100
AcDbBlockReference
  2
_DOT
 10
1954.034413604743
 20
570.4541994136527
 30
0.0
 41
8.0
 42
8.0
 43
8.0
 50
270.0
  0
MTEXT
  5
584F
330
5577
100
AcDbEntity
  8
sunpo
 62
     0
100
AcDbMText
 10
1965.034413604743
 20
670.4541994136522
 30
0.0
 40
20.0
 41
0.0
 71
     5
 72
     1
  1
\A1;200
  7
MSゴシック
 11
0.0000000000000001
 21
1.0
 31
0.0
 73
     1
 44
1.0
1001
ACAD
1000
MTEXTBEGIN
1070
    73
1070
     1
1070
    44
1040
1.0
1070
    74
1070
     0
1000
MTEXTEND
  0
POINT
  5
5850
330
5577
100
AcDbEntity
  8
Defpoints
 62
     0
100
AcDbPoint
 10
1886.866648580289
 20
770.454199413653
 30
0.0
  0
POINT
  5
5851
330
5577
100
AcDbEntity
  8
Defpoints
 62
     0
100
AcDbPoint
 10
1886.866648580289
 20
570.4541994136527
 30
0.0
  0
POINT
  5
5852
330
5577
100
AcDbEntity
  8
Defpoints
 62
     0
100
AcDbPoint
 10
1954.034413604743
 20
570.4541994136527
 30
0.0
  0
ENDBLK
  5
5579
330
5577
100
AcDbEntity
  8
0
100
AcDbBlockEnd
  0
BLOCK
  5
5584
330
5583
100
AcDbEntity
  8
0
100
AcDbBlockBegin
  2
*D5
 70
     1
 10
0.0
 20
0.0
 30
0.0
  3
*D5
  1

  0
LINE
  5
5853
330
5583
100
AcDbEntity
  8
sunpo
 62
     0
370
    -2
100
AcDbLine
 10
1128.145450479574
 20
820.454199413653
 30
0.0
 11
1231.290872626118
 21
820.454199413653
 31
0.0
  0
LINE
  5
5854
330
5583
100
AcDbEntity
  8
sunpo
 62
     0
370
    -2
100
AcDbLine
 10
1128.145450479574
 20
520.4541994136527
 30
0.0
 11
1231.290872626118
 21
520.4541994136527
 31
0.0
  0
LINE
  5
5855
330
5583
100
AcDbEntity
  8
sunpo
 62
     0
370
    -2
100
AcDbLine
 10
1231.290872626118
 20
812.454199413653
 30
0.0
 11
1231.290872626118
 21
528.4541994136527
 31
0.0
  0
INSERT
  5
5856
330
5583
100
AcDbEntity
  8
sunpo
 62
     0
370
    -2
100
AcDbBlockReference
  2
_DOT
 10
1231.290872626118
 20
820.454199413653
 30
0.0
 41
8.0
 42
8.0
 43
8.0
 50
90.0
  0
INSERT
  5
5857
330
5583
100
AcDbEntity
  8
sunpo
 62
     0
370
    -2
100
AcDbBlockReference
  2
_DOT
 10
1231.290872626118
 20
520.4541994136527
 30
0.0
 41
8.0
 42
8.0
 43
8.0
 50
270.0
  0
MTEXT
  5
5858
330
5583
100
AcDbEntity
  8
sunpo
 62
     0
100
AcDbMText
 10
1242.290872626118
 20
670.4541994136524
 30
0.0
 40
20.0
 41
0.0
 71
     5
 72
     1
  1
\A1;300
  7
MSゴシック
 11
0.0000000000000001
 21
1.0
 31
0.0
 73
     1
 44
1.0
1001
ACAD
1000
MTEXTBEGIN
1070
    73
1070
     1
1070
    44
1040
1.0
1070
    74
1070
     0
1000
MTEXTEND
  0
POINT
  5
5859
330
5583
100
AcDbEntity
  8
Defpoints
 62
     0
100
AcDbPoint
 10
1118.145450479574
 20
820.454199413653
 30
0.0
  0
POINT
  5
585A
330
5583
100
AcDbEntity
  8
Defpoints
 62
     0
100
AcDbPoint
 10
1118.145450479574
 20
520.4541994136527
 30
0.0
  0
POINT
  5
585B
330
5583
100
AcDbEntity
  8
Defpoints
 62
     0
100
AcDbPoint
 10
1231.290872626118
 20
520.4541994136527
 30
0.0
  0
ENDBLK
  5
5585
330
5583
100
AcDbEntity
  8
0
100
AcDbBlockEnd
  0
BLOCK
  5
5590
330
558F
100
AcDbEntity
  8
0
100
AcDbBlockBegin
  2
*D6
 70
     1
 10
0.0
 20
0.0
 30
0.0
  3
*D6
  1

  0
LINE
  5
585C
330
558F
100
AcDbEntity
  8
sunpo
 62
     0
370
    -2
100
AcDbLine
 10
828.1454504795737
 20
520.4541994136525
 30
0.0
 11
828.1454504795737
 21
446.9260895060333
 31
0.0
  0
LINE
  5
585D
330
558F
100
AcDbEntity
  8
sunpo
 62
     0
370
    -2
100
AcDbLine
 10
1128.145450479574
 20
520.4541994136525
 30
0.0
 11
1128.145450479574
 21
446.9260895060333
 31
0.0
  0
LINE
  5
585E
330
558F
100
AcDbEntity
  8
sunpo
 62
     0
370
    -2
100
AcDbLine
 10
836.1454504795737
 20
446.9260895060333
 30
0.0
 11
1120.145450479574
 21
446.9260895060333
 31
0.0
  0
INSERT
  5
585F
330
558F
100
AcDbEntity
  8
sunpo
 62
     0
370
    -2
100
AcDbBlockReference
  2
_DOT
 10
828.1454504795737
 20
446.9260895060333
 30
0.0
 41
8.0
 42
8.0
 43
8.0
 50
180.0
  0
INSERT
  5
5860
330
558F
100
AcDbEntity
  8
sunpo
 62
     0
370
    -2
100
AcDbBlockReference
  2
_DOT
 10
1128.145450479574
 20
446.9260895060333
 30
0.0
 41
8.0
 42
8.0
 43
8.0
  0
MTEXT
  5
5861
330
558F
100
AcDbEntity
  8
sunpo
 62
     0
100
AcDbMText
 10
978.1454504795737
 20
435.9260895060333
 30
0.0
 40
20.0
 41
0.0
 71
     5
 72
     1
  1
\A1;300
  7
MSゴシック
 73
     1
 44
1.0
1001
ACAD
1000
MTEXTBEGIN
1070
    73
1070
     1
1070
    44
1040
1.0
1070
    74
1070
     0
1000
MTEXTEND
  0
POINT
  5
5862
330
558F
100
AcDbEntity
  8
Defpoints
 62
     0
100
AcDbPoint
 10
828.1454504795737
 20
530.4541994136525
 30
0.0
  0
POINT
  5
5863
330
558F
100
AcDbEntity
  8
Defpoints
 62
     0
100
AcDbPoint
 10
1128.145450479574
 20
530.4541994136525
 30
0.0
  0
POINT
  5
5864
330
558F
100
AcDbEntity
  8
Defpoints
 62
     0
100
AcDbPoint
 10
1128.145450479574
 20
446.9260895060333
 30
0.0
  0
ENDBLK
  5
5591
330
558F
100
AcDbEntity
  8
0
100
AcDbBlockEnd
  0
BLOCK
  5
559C
330
559B
100
AcDbEntity
  8
0
100
AcDbBlockBegin
  2
*D7
 70
     1
 10
0.0
 20
0.0
 30
0.0
  3
*D7
  1

  0
LINE
  5
5865
330
559B
100
AcDbEntity
  8
sunpo
 62
     0
370
    -2
100
AcDbLine
 10
1696.866648580287
 20
570.4541994136525
 30
0.0
 11
1696.866648580287
 21
491.9260895060329
 31
0.0
  0
LINE
  5
5866
330
559B
100
AcDbEntity
  8
sunpo
 62
     0
370
    -2
100
AcDbLine
 10
1896.866648580288
 20
570.4541994136525
 30
0.0
 11
1896.866648580288
 21
491.9260895060329
 31
0.0
  0
LINE
  5
5867
330
559B
100
AcDbEntity
  8
sunpo
 62
     0
370
    -2
100
AcDbLine
 10
1704.866648580287
 20
491.9260895060329
 30
0.0
 11
1888.866648580288
 21
491.9260895060329
 31
0.0
  0
INSERT
  5
5868
330
559B
100
AcDbEntity
  8
sunpo
 62
     0
370
    -2
100
AcDbBlockReference
  2
_DOT
 10
1696.866648580287
 20
491.9260895060329
 30
0.0
 41
8.0
 42
8.0
 43
8.0
 50
180.0
  0
INSERT
  5
5869
330
559B
100
AcDbEntity
  8
sunpo
 62
     0
370
    -2
100
AcDbBlockReference
  2
_DOT
 10
1896.866648580288
 20
491.9260895060329
 30
0.0
 41
8.0
 42
8.0
 43
8.0
  0
MTEXT
  5
586A
330
559B
100
AcDbEntity
  8
sunpo
 62
     0
100
AcDbMText
 10
1796.866648580287
 20
480.9260895060329
 30
0.0
 40
20.0
 41
0.0
 71
     5
 72
     1
  1
\A1;200
  7
MSゴシック
 73
     1
 44
1.0
1001
ACAD
1000
MTEXTBEGIN
1070
    73
1070
     1
1070
    44
1040
1.0
1070
    74
1070
     0
1000
MTEXTEND
  0
POINT
  5
586B
330
559B
100
AcDbEntity
  8
Defpoints
 62
     0
100
AcDbPoint
 10
1696.866648580287
 20
580.4541994136525
 30
0.0
  0
POINT
  5
586C
330
559B
100
AcDbEntity
  8
Defpoints
 62
     0
100
AcDbPoint
 10
1896.866648580288
 20
580.4541994136525
 30
0.0
  0
POINT
  5
586D
330
559B
100
AcDbEntity
  8
Defpoints
 62
     0
100
AcDbPoint
 10
1896.866648580288
 20
491.9260895060329
 30
0.0
  0
ENDBLK
  5
559D
330
559B
100
AcDbEntity
  8
0
100
AcDbBlockEnd
  0
BLOCK
  5
55A8
330
55A7
100
AcDbEntity
  8
0
100
AcDbBlockBegin
  2
*D8
 70
     1
 10
0.0
 20
0.0
 30
0.0
  3
*D8
  1

  0
LINE
  5
586E
330
55A7
100
AcDbEntity
  8
sunpo
 62
     0
370
    -2
100
AcDbLine
 10
988.1454504795769
 20
1125.454199413653
 30
0.0
 11
1201.005050635554
 21
1125.454199413653
 31
0.0
  0
LINE
  5
586F
330
55A7
100
AcDbEntity
  8
sunpo
 62
     0
370
    -2
100
AcDbLine
 10
1138.145450479577
 20
920.4541994136524
 30
0.0
 11
1201.005050635554
 21
920.4541994136524
 31
0.0
  0
LINE
  5
5870
330
55A7
100
AcDbEntity
  8
sunpo
 62
     0
370
    -2
100
AcDbLine
 10
1201.005050635554
 20
1117.454199413653
 30
0.0
 11
1201.005050635554
 21
928.4541994136525
 31
0.0
  0
INSERT
  5
5871
330
55A7
100
AcDbEntity
  8
sunpo
 62
     0
370
    -2
100
AcDbBlockReference
  2
_DOT
 10
1201.005050635554
 20
1125.454199413653
 30
0.0
 41
8.0
 42
8.0
 43
8.0
 50
90.0
  0
INSERT
  5
5872
330
55A7
100
AcDbEntity
  8
sunpo
 62
     0
370
    -2
100
AcDbBlockReference
  2
_DOT
 10
1201.005050635554
 20
920.4541994136524
 30
0.0
 41
8.0
 42
8.0
 43
8.0
 50
270.0
  0
MTEXT
  5
5873
330
55A7
100
AcDbEntity
  8
sunpo
 62
     0
100
AcDbMText
 10
1212.005050635555
 20
1022.954199413652
 30
0.0
 40
20.0
 41
0.0
 71
     5
 72
     1
  1
\A1;205
  7
MSゴシック
 11
0.0000000000000001
 21
1.0
 31
0.0
 73
     1
 44
1.0
1001
ACAD
1000
MTEXTBEGIN
1070
    73
1070
     1
1070
    44
1040
1.0
1070
    74
1070
     0
1000
MTEXTEND
  0
POINT
  5
5874
330
55A7
100
AcDbEntity
  8
Defpoints
 62
     0
100
AcDbPoint
 10
978.1454504795769
 20
1125.454199413653
 30
0.0
  0
POINT
  5
5875
330
55A7
100
AcDbEntity
  8
Defpoints
 62
     0
100
AcDbPoint
 10
1128.145450479577
 20
920.4541994136524
 30
0.0
  0
POINT
  5
5876
330
55A7
100
AcDbEntity
  8
Defpoints
 62
     0
100
AcDbPoint
 10
1201.005050635554
 20
920.4541994136524
 30
0.0
  0
ENDBLK
  5
55A9
330
55A7
100
AcDbEntity
  8
0
100
AcDbBlockEnd
  0
BLOCK
  5
55B4
330
55B3
100
AcDbEntity
  8
0
100
AcDbBlockBegin
  2
*D9
 70
     1
 10
0.0
 20
0.0
 30
0.0
  3
*D9
  1

  0
LINE
  5
5877
330
55B3
100
AcDbEntity
  8
sunpo
 62
     0
370
    -2
100
AcDbLine
 10
1138.145450479577
 20
920.4541994136524
 30
0.0
 11
1167.696921902532
 21
920.4541994136524
 31
0.0
  0
LINE
  5
5878
330
55B3
100
AcDbEntity
  8
sunpo
 62
     0
370
    -2
100
AcDbLine
 10
1013.145450479577
 20
1104.954199413652
 30
0.0
 11
1167.696921902532
 21
1104.954199413652
 31
0.0
  0
LINE
  5
5879
330
55B3
100
AcDbEntity
  8
sunpo
 62
     0
370
    -2
100
AcDbLine
 10
1167.696921902532
 20
928.4541994136525
 30
0.0
 11
1167.696921902532
 21
1096.954199413652
 31
0.0
  0
INSERT
  5
587A
330
55B3
100
AcDbEntity
  8
sunpo
 62
     0
370
    -2
100
AcDbBlockReference
  2
_DOT
 10
1167.696921902532
 20
920.4541994136524
 30
0.0
 41
8.0
 42
8.0
 43
8.0
 50
270.0
  0
INSERT
  5
587B
330
55B3
100
AcDbEntity
  8
sunpo
 62
     0
370
    -2
100
AcDbBlockReference
  2
_DOT
 10
1167.696921902532
 20
1104.954199413652
 30
0.0
 41
8.0
 42
8.0
 43
8.0
 50
90.0
  0
MTEXT
  5
587C
330
55B3
100
AcDbEntity
  8
sunpo
 62
     0
100
AcDbMText
 10
1178.696921902532
 20
1012.704199413652
 30
0.0
 40
20.0
 41
0.0
 71
     5
 72
     1
  1
\A1;184.5
  7
MSゴシック
 11
0.0000000000000001
 21
1.0
 31
0.0
 73
     1
 44
1.0
1001
ACAD
1000
MTEXTBEGIN
1070
    73
1070
     1
1070
    44
1040
1.0
1070
    74
1070
     0
1000
MTEXTEND
  0
POINT
  5
587D
330
55B3
100
AcDbEntity
  8
Defpoints
 62
     0
100
AcDbPoint
 10
1128.145450479577
 20
920.4541994136524
 30
0.0
  0
POINT
  5
587E
330
55B3
100
AcDbEntity
  8
Defpoints
 62
     0
100
AcDbPoint
 10
1003.145450479577
 20
1104.954199413652
 30
0.0
  0
POINT
  5
587F
330
55B3
100
AcDbEntity
  8
Defpoints
 62
     0
100
AcDbPoint
 10
1167.696921902532
 20
1104.954199413652
 30
0.0
  0
ENDBLK
  5
55B5
330
55B3
100
AcDbEntity
  8
0
100
AcDbBlockEnd
  0
BLOCK
  5
55C0
330
55BF
100
AcDbEntity
  8
0
100
AcDbBlockBegin
  2
*D10
 70
     1
 10
0.0
 20
0.0
 30
0.0
  3
*D10
  1

  0
LINE
  5
5880
330
55BF
100
AcDbEntity
  8
sunpo
 62
     0
370
    -2
100
AcDbLine
 10
943.1454504795764
 20
1113.469864492563
 30
0.0
 11
943.1454504795764
 21
1190.471823824678
 31
0.0
  0
LINE
  5
5881
330
55BF
100
AcDbEntity
  8
sunpo
 62
     0
370
    -2
100
AcDbLine
 10
1013.145450479576
 20
1112.81487918865
 30
0.0
 11
1013.145450479576
 21
1190.471823824678
 31
0.0
  0
LINE
  5
5882
330
55BF
100
AcDbEntity
  8
sunpo
 62
     0
370
    -2
100
AcDbLine
 10
951.1454504795764
 20
1190.471823824678
 30
0.0
 11
1005.145450479576
 21
1190.471823824678
 31
0.0
  0
INSERT
  5
5883
330
55BF
100
AcDbEntity
  8
sunpo
 62
     0
370
    -2
100
AcDbBlockReference
  2
_DOT
 10
943.1454504795764
 20
1190.471823824678
 30
0.0
 41
8.0
 42
8.0
 43
8.0
 50
180.0
  0
INSERT
  5
5884
330
55BF
100
AcDbEntity
  8
sunpo
 62
     0
370
    -2
100
AcDbBlockReference
  2
_DOT
 10
1013.145450479576
 20
1190.471823824678
 30
0.0
 41
8.0
 42
8.0
 43
8.0
  0
MTEXT
  5
5885
330
55BF
100
AcDbEntity
  8
sunpo
 62
     0
100
AcDbMText
 10
978.1454504795766
 20
1201.471823824678
 30
0.0
 40
20.0
 41
0.0
 71
     5
 72
     1
  1
\A1;70
  7
MSゴシック
 73
     1
 44
1.0
1001
ACAD
1000
MTEXTBEGIN
1070
    73
1070
     1
1070
    44
1040
1.0
1070
    74
1070
     0
1000
MTEXTEND
  0
POINT
  5
5886
330
55BF
100
AcDbEntity
  8
Defpoints
 62
     0
100
AcDbPoint
 10
943.1454504795764
 20
1103.469864492563
 30
0.0
  0
POINT
  5
5887
330
55BF
100
AcDbEntity
  8
Defpoints
 62
     0
100
AcDbPoint
 10
1013.145450479576
 20
1102.81487918865
 30
0.0
  0
POINT
  5
5888
330
55BF
100
AcDbEntity
  8
Defpoints
 62
     0
100
AcDbPoint
 10
1013.145450479576
 20
1190.471823824678
 30
0.0
  0
ENDBLK
  5
55C1
330
55BF
100
AcDbEntity
  8
0
100
AcDbBlockEnd
  0
ENDSEC
  0
SECTION
  2
ENTITIES
  0
LINE
  5
509B
330
1F
100
AcDbEntity
  8
0
100
AcDbLine
 10
0.0
 20
1849.999999999998
 30
0.0
 11
2760.0
 21
1849.999999999995
 31
0.0
  0
TEXT
  5
509C
330
1F
100
AcDbEntity
  8
WAKU
100
AcDbText
 10
2647.53807106599
 20
1860.0
 30
0.0
 40
30.0
  1
f-d-2
  7
MSゴシック
 72
     2
 11
2745.0
 21
1860.0
 31
0.0
100
AcDbText
  0
TEXT
  5
509E
330
1F
100
AcDbEntity
  8
WAKU
100
AcDbText
 10
15.0
 20
1860.0
 30
0.0
 40
40.0
  1
脱気部材／防水補助金物
  7
MSゴシック
100
AcDbText
  0
TEXT
  5
509F
330
1F
100
AcDbEntity
  8
WAKU
100
AcDbText
 10
15.0
 20
1800.000000000004
 30
0.0
 40
30.0
  1
ステンレスベーパスＧ／脱気筒(逆止弁付)(アスファルト系防水・ウレタン塗膜防水用)
  7
MSゴシック
100
AcDbText
  0
TEXT
  5
50A0
330
1F
100
AcDbEntity
  8
WAKU
100
AcDbText
 10
2589.060913705584
 20
1800.000000000005
 30
0.0
 40
30.0
  1
1/10(A4)
  7
MSゴシック
 72
     2
 11
2745.0
 21
1800.000000000005
 31
0.0
100
AcDbText
  0
LINE
  5
54F2
330
1F
100
AcDbEntity
  8
ZATU
  6
CENTER
 48
0.5
100
AcDbLine
 10
1102.596243968405
 20
546.00340592482
 30
0.0
 11
853.6946569907414
 21
794.904992902485
 31
0.0
  0
LINE
  5
54F3
330
1F
100
AcDbEntity
  8
ZATU
  6
CENTER
 48
0.5
100
AcDbLine
 10
853.6946569907414
 20
546.00340592482
 30
0.0
 11
1102.596243968406
 21
794.904992902485
 31
0.0
  0
LINE
  5
54F4
330
1F
100
AcDbEntity
  8
ZATU
  6
CENTER
 48
0.5
100
AcDbLine
 10
828.1454504795728
 20
670.4541994136525
 30
0.0
 11
1128.145450479574
 21
670.4541994136525
 31
0.0
  0
LINE
  5
54F5
330
1F
100
AcDbEntity
  8
ZATU
  6
CENTER
 48
0.5
100
AcDbLine
 10
978.1454504795728
 20
520.4541994136525
 30
0.0
 11
978.1454504795737
 21
820.4541994136524
 31
0.0
  0
TEXT
  5
54F6
330
1F
100
AcDbEntity
  8
MOJI
100
AcDbText
 10
849.1345827822952
 20
1327.376013496325
 30
0.0
 40
20.0
  1
（逆流防止弁付タイプ）
  7
MSゴシック
100
AcDbText
  0
TEXT
  5
54F7
330
1F
100
AcDbEntity
  8
MOJI
100
AcDbText
 10
864.6983076259866
 20
1351.695024342149
 30
0.0
 40
20.0
  1
ステンレスベーパスＧ
  7
MSゴシック
100
AcDbText
  0
LINE
  5
54F8
330
1F
100
AcDbEntity
  8
MOJI
100
AcDbLine
 10
1559.501262836469
 20
798.7810634208336
 30
0.0
 11
1484.530206503336
 21
891.5794360877912
 31
0.0
  0
LINE
  5
54F9
330
1F
100
AcDbEntity
  8
ZATU
  6
CENTER
 48
0.5
100
AcDbLine
 10
1696.866648580288
 20
670.4541994136525
 30
0.0
 11
1896.866648580288
 21
670.4541994136525
 31
0.0
  0
TEXT
  5
54FA
330
1F
100
AcDbEntity
  8
MOJI
100
AcDbText
 10
1285.911488363393
 20
790.762224422971
 30
0.0
 40
20.0
  1
（アンダーベーパス）
  7
MSゴシック
100
AcDbText
  0
LINE
  5
54FB
330
1F
100
AcDbEntity
  8
MOJI
100
AcDbLine
 10
1502.380456749309
 20
798.7810634208336
 30
0.0
 11
1559.501262836469
 21
798.7810634208336
 31
0.0
  0
LINE
  5
54FC
330
1F
100
AcDbEntity
  8
ZATU
  6
CENTER
 48
0.5
100
AcDbLine
 10
1726.155970461634
 20
599.7435212949977
 30
0.0
 11
1867.577326698943
 21
741.1648775323073
 31
0.0
  0
LINE
  5
54FD
330
1F
100
AcDbEntity
  8
ZATU
  6
CENTER
 48
0.5
100
AcDbLine
 10
1867.577326698943
 20
599.7435212949977
 30
0.0
 11
1726.155970461634
 21
741.1648775323073
 31
0.0
  0
LINE
  5
54FE
330
1F
100
AcDbEntity
  8
ZATU
  6
CENTER
 48
0.5
100
AcDbLine
 10
1796.866648580287
 20
570.4541994136525
 30
0.0
 11
1796.866648580287
 21
770.4541994136525
 31
0.0
  0
TEXT
  5
54FF
330
1F
100
AcDbEntity
  8
MOJI
100
AcDbText
 10
1699.534179895089
 20
1177.383762605895
 30
0.0
 40
20.0
  1
（アンダーベーパス）
  7
MSゴシック
100
AcDbText
  0
TEXT
  5
5500
330
1F
100
AcDbEntity
  8
MOJI
100
AcDbText
 10
1586.060221551821
 20
948.7325863908314
 30
0.0
 40
20.0
  1
t=1.5
  7
MSゴシック
100
AcDbText
  0
TEXT
  5
5501
330
1F
100
AcDbEntity
  8
MOJI
100
AcDbText
 10
1317.05097980056
 20
1351.695024342149
 30
0.0
 40
20.0
  1
ステンレスベーパスＧＷ
  7
MSゴシック
100
AcDbText
  0
TEXT
  5
5502
330
1F
100
AcDbEntity
  8
MOJI
100
AcDbText
 10
1356.487254956869
 20
1327.376013496325
 30
0.0
 40
20.0
  1
（同断熱タイプ）
  7
MSゴシック
100
AcDbText
  0
TEXT
  5
5504
330
1F
100
AcDbEntity
  8
MOJI
100
AcDbText
 10
1924.624830000271
 20
1108.631142167141
 30
0.0
 40
20.0
  1
t=1.5
  7
MSゴシック
100
AcDbText
  0
LINE
  5
5505
330
1F
100
AcDbEntity
  8
ZATU
  6
CENTER
 48
0.5
100
AcDbLine
 10
1796.866648580287
 20
859.9737907318344
 30
0.0
 11
1796.866648580287
 21
1136.344268988914
 31
0.0
  0
LINE
  5
5507
330
1F
100
AcDbEntity
  8
ZATU
  6
CENTER
 48
0.5
100
AcDbLine
 10
1736.76257217943
 20
872.5782077996955
 30
0.0
 11
1736.76257217943
 21
919.6738278957258
 31
0.0
  0
LINE
  5
5508
330
1F
100
AcDbEntity
  8
ZATU
  6
CENTER
 48
0.5
100
AcDbLine
 10
1856.970724981144
 20
872.5782077996955
 30
0.0
 11
1856.970724981144
 21
919.6738278957258
 31
0.0
  0
TEXT
  5
5509
330
1F
100
AcDbEntity
  8
MOJI
100
AcDbText
 10
1878.523965661418
 20
818.7480808136147
 30
0.0
 40
20.0
  1
Φ6.5
  7
MSゴシック
100
AcDbText
  0
CIRCLE
  5
550E
102
{ACAD_REACTORS
330
550F
102
}
330
1F
100
AcDbEntity
  8
MOJI
100
AcDbCircle
 10
1763.549291825325
 20
893.5205367982849
 30
0.0
 40
4.000000000000032
  0
HATCH
  5
550F
330
1F
100
AcDbEntity
  8
MOJI
100
AcDbHatch
 10
0.0
 20
0.0
 30
0.0
210
0.0
220
0.0
230
1.0
  2
SOLID
 70
     1
 71
     1
 91
        1
 92
        1
 93
        1
 72
     2
 10
1763.549291825325
 20
893.5205367982849
 40
4.000000000000032
 50
0.0
 51
360.0
 73
     1
 97
        1
330
550E
 75
     0
 76
     1
 98
        1
 10
-11.36280794762115
 20
-102.3687830566173
  0
CIRCLE
  5
5510
102
{ACAD_REACTORS
330
5511
102
}
330
1F
100
AcDbEntity
  8
MOJI
100
AcDbCircle
 10
1484.530206503336
 20
891.5794360877912
 30
0.0
 40
4.000000000000032
  0
HATCH
  5
5511
330
1F
100
AcDbEntity
  8
MOJI
100
AcDbHatch
 10
0.0
 20
0.0
 30
0.0
210
0.0
220
0.0
230
1.0
  2
SOLID
 70
     1
 71
     1
 91
        1
 92
        1
 93
        1
 72
     2
 10
1484.530206503336
 20
891.5794360877912
 40
4.000000000000032
 50
0.0
 51
360.0
 73
     1
 97
        1
330
5510
 75
     0
 76
     1
 98
        1
 10
-290.3818932696095
 20
-104.3098837671109
  0
CIRCLE
  5
5516
330
1F
100
AcDbEntity
  8
KANAMONO
100
AcDbCircle
 10
978.1454504795737
 20
670.4541994136525
 30
0.0
 40
19.85
  0
CIRCLE
  5
5517
330
1F
100
AcDbEntity
  8
KANAMONO
100
AcDbCircle
 10
889.0499960500683
 20
581.3587449841475
 30
0.0
 40
3.25
  0
CIRCLE
  5
5518
330
1F
100
AcDbEntity
  8
KANAMONO
100
AcDbCircle
 10
1067.240904909078
 20
581.3587449841475
 30
0.0
 40
3.25
  0
CIRCLE
  5
5519
330
1F
100
AcDbEntity
  8
KANAMONO
100
AcDbCircle
 10
889.0499960500683
 20
759.5496538431575
 30
0.0
 40
3.25
  0
CIRCLE
  5
551A
330
1F
100
AcDbEntity
  8
KANAMONO
100
AcDbCircle
 10
1067.240904909078
 20
759.5496538431575
 30
0.0
 40
3.25
  0
TEXT
  5
551C
330
1F
100
AcDbEntity
  8
MOJI
100
AcDbText
 10
1207.4516926186
 20
852.3667619539368
 30
0.0
 40
20.0
  1
Φ6.5
  7
MSゴシック
100
AcDbText
  0
CIRCLE
  5
5521
330
1F
100
AcDbEntity
  8
KANAMONO
100
AcDbCircle
 10
1856.970724981144
 20
730.558275814509
 30
0.0
 40
3.25
  0
CIRCLE
  5
5522
330
1F
100
AcDbEntity
  8
KANAMONO
100
AcDbCircle
 10
1796.866648580287
 20
670.4541994136525
 30
0.0
 40
12.1
  0
CIRCLE
  5
5523
330
1F
100
AcDbEntity
  8
KANAMONO
100
AcDbCircle
 10
1796.866648580287
 20
670.4541994136525
 30
0.0
 40
13.6
  0
CIRCLE
  5
5524
330
1F
100
AcDbEntity
  8
KANAMONO
100
AcDbCircle
 10
1736.762572179429
 20
610.3501230127956
 30
0.0
 40
3.25
  0
CIRCLE
  5
5525
330
1F
100
AcDbEntity
  8
KANAMONO
100
AcDbCircle
 10
1856.970724981144
 20
610.3501230127949
 30
0.0
 40
3.25
  0
ARC
  5
5526
330
1F
100
AcDbEntity
  8
KANAMONO
100
AcDbCircle
 10
1836.866648580288
 20
710.454199413652
 30
0.0
 40
60.0
100
AcDbArc
 50
0.0
 51
90.0
  0
CIRCLE
  5
5527
330
1F
100
AcDbEntity
  8
KANAMONO
100
AcDbCircle
 10
1736.76257217943
 20
730.558275814509
 30
0.0
 40
3.25
  0
LINE
  5
552B
330
1F
100
AcDbEntity
  8
KANAMONO_SCREW
100
AcDbLine
 10
981.3954504795729
 20
1122.754199413652
 30
0.0
 11
981.3954504795729
 21
1113.823242920962
 31
0.0
  0
LINE
  5
552C
330
1F
100
AcDbEntity
  8
KANAMONO_SCREW
100
AcDbLine
 10
974.895450479573
 20
1122.754199413652
 30
0.0
 11
974.895450479573
 21
1113.823242920962
 31
0.0
  0
LINE
  5
552D
330
1F
100
AcDbEntity
  8
KANAMONO_SCREW
100
AcDbLine
 10
982.1454504795729
 20
1124.573242920963
 30
0.0
 11
982.1454504795729
 21
1114.573242920962
 31
0.0
  0
LINE
  5
552E
330
1F
100
AcDbEntity
  8
KANAMONO_SCREW
100
AcDbLine
 10
974.1454504795729
 20
1124.573242920962
 30
0.0
 11
974.1454504795729
 21
1114.573242920962
 31
0.0
  0
LINE
  5
552F
330
1F
100
AcDbEntity
  8
KANAMONO_SCREW
100
AcDbLine
 10
982.1454504795729
 20
1114.573242920962
 30
0.0
 11
980.9454504795757
 21
1113.373242920961
 31
0.0
  0
LINE
  5
5530
330
1F
100
AcDbEntity
  8
KANAMONO_SCREW
100
AcDbLine
 10
974.1454504795729
 20
1114.573242920962
 30
0.0
 11
975.3454504795772
 21
1113.373242920961
 31
0.0
  0
LINE
  5
5531
330
1F
100
AcDbEntity
  8
KANAMONO_SCREW
100
AcDbLine
 10
982.1454504795729
 20
1114.573242920962
 30
0.0
 11
974.1454504795729
 21
1114.573242920962
 31
0.0
  0
LINE
  5
5532
330
1F
100
AcDbEntity
  8
KANAMONO_SCREW
100
AcDbLine
 10
980.9454504795757
 20
1113.373242920961
 30
0.0
 11
975.3454504795772
 21
1113.373242920961
 31
0.0
  0
LINE
  5
5533
330
1F
100
AcDbEntity
  8
KANAMONO_SCREW
100
AcDbLine
 10
982.1454504795729
 20
1121.389486189332
 30
0.0
 11
982.1454504795729
 21
1114.954199413652
 31
0.0
  0
LINE
  5
5535
330
1F
100
AcDbEntity
  8
KANAMONO
100
AcDbLine
 10
982.1454504795729
 20
1122.754199413652
 30
0.0
 11
974.1454504795729
 21
1122.754199413652
 31
0.0
  0
LINE
  5
5537
330
1F
100
AcDbEntity
  8
KANAMONO_SCREW
100
AcDbLine
 10
974.1454504795729
 20
1121.389486189332
 30
0.0
 11
974.1454504795729
 21
1114.954199413652
 31
0.0
  0
LINE
  5
5539
330
1F
100
AcDbEntity
  8
KANAMONO
  6
DASHED
 62
     6
100
AcDbLine
 10
954.6454504795702
 20
920.4541994136521
 30
0.0
 11
1001.645450479576
 21
920.4541994136521
 31
0.0
  0
LINE
  5
553A
330
1F
100
AcDbEntity
  8
KANAMONO
  6
DASHED
 62
     6
100
AcDbLine
 10
953.1454504795702
 20
921.954199413652
 30
0.0
 11
1003.145450479576
 21
921.954199413652
 31
0.0
  0
TEXT
  5
553B
330
1F
100
AcDbEntity
  8
MOJI
100
AcDbText
 10
700.5329288847342
 20
977.2964318045419
 30
0.0
 40
20.0
  1
t=1.5
  7
MSゴシック
100
AcDbText
  0
LINE
  5
553C
330
1F
100
AcDbEntity
  8
ZATU
  6
CENTER
 48
0.5
100
AcDbLine
 10
889.0499960500646
 20
900.5782077996951
 30
0.0
 11
889.0499960500646
 21
947.6738278957254
 31
0.0
  0
LINE
  5
553D
330
1F
100
AcDbEntity
  8
ZATU
  6
CENTER
 48
0.5
100
AcDbLine
 10
1067.240904909075
 20
900.5782077996951
 30
0.0
 11
1067.240904909075
 21
947.6738278957254
 31
0.0
  0
CIRCLE
  5
553F
102
{ACAD_REACTORS
330
5540
102
}
330
1F
100
AcDbEntity
  8
MOJI
100
AcDbCircle
 10
878.0219991582384
 20
922.0843822119954
 30
0.0
 40
4.000000000000032
  0
HATCH
  5
5540
330
1F
100
AcDbEntity
  8
MOJI
100
AcDbHatch
 10
0.0
 20
0.0
 30
0.0
210
0.0
220
0.0
230
1.0
  2
SOLID
 70
     1
 71
     1
 91
        1
 92
        1
 93
        1
 72
     2
 10
878.0219991582384
 20
922.0843822119954
 40
4.000000000000032
 50
0.0
 51
360.0
 73
     1
 97
        1
330
553F
 75
     0
 76
     1
 98
        1
 10
-896.8901006147078
 20
-73.80493764290668
  0
TEXT
  5
5541
330
1F
100
AcDbEntity
  8
MOJI
100
AcDbText
 10
1133.309991281469
 20
1139.593898329908
 30
0.0
 40
20.0
  1
t=0.8
  7
MSゴシック
100
AcDbText
  0
CIRCLE
  5
5543
102
{ACAD_REACTORS
330
5544
102
}
330
1F
100
AcDbEntity
  8
MOJI
100
AcDbCircle
 10
1016.256399501875
 20
1084.6711408252
 30
0.0
 40
4.000000000000032
  0
HATCH
  5
5544
330
1F
100
AcDbEntity
  8
MOJI
100
AcDbHatch
 10
0.0
 20
0.0
 30
0.0
210
0.0
220
0.0
230
1.0
  2
SOLID
 70
     1
 71
     1
 91
        1
 92
        1
 93
        1
 72
     2
 10
1016.256399501875
 20
1084.6711408252
 40
4.000000000000032
 50
0.0
 51
360.0
 73
     1
 97
        1
330
5543
 75
     0
 76
     1
 98
        1
 10
-758.6557002710712
 20
88.78182097029776
  0
LINE
  5
5547
330
1F
100
AcDbEntity
  8
ZATU
  6
CENTER
 48
0.5
100
AcDbLine
 10
978.1454504795737
 20
988.954199413652
 30
0.0
 11
978.1454504795737
 21
1171.493045897053
 31
0.0
  0
LINE
  5
5548
330
1F
100
AcDbEntity
  8
ZATU
  6
CENTER
 48
0.5
100
AcDbLine
 10
978.1454504795737
 20
887.973790731834
 30
0.0
 11
978.1454504795737
 21
1164.344268988914
 31
0.0
  0
CIRCLE
  5
5549
102
{ACAD_REACTORS
330
554A
102
}
330
1F
100
AcDbEntity
  8
MOJI
100
AcDbCircle
 10
1003.145450479576
 20
1061.962310983134
 30
0.0
 40
4.000000000000032
  0
HATCH
  5
554A
330
1F
100
AcDbEntity
  8
MOJI
100
AcDbHatch
 10
0.0
 20
0.0
 30
0.0
210
0.0
220
0.0
230
1.0
  2
SOLID
 70
     1
 71
     1
 91
        1
 92
        1
 93
        1
 72
     2
 10
1003.145450479576
 20
1061.962310983134
 40
4.000000000000032
 50
0.0
 51
360.0
 73
     1
 97
        1
330
5549
 75
     0
 76
     1
 98
        1
 10
-771.7666492933692
 20
66.07299112823193
  0
LINE
  5
554F
330
1F
100
AcDbEntity
  8
KANAMONO_SCREW
100
AcDbLine
 10
1437.081214577666
 20
1122.754199413652
 30
0.0
 11
1437.081214577666
 21
1113.823242920962
 31
0.0
  0
LINE
  5
5550
330
1F
100
AcDbEntity
  8
KANAMONO_SCREW
100
AcDbLine
 10
1430.581214577666
 20
1122.754199413652
 30
0.0
 11
1430.581214577666
 21
1113.823242920962
 31
0.0
  0
LINE
  5
5551
330
1F
100
AcDbEntity
  8
KANAMONO_SCREW
100
AcDbLine
 10
1437.831214577666
 20
1124.573242920963
 30
0.0
 11
1437.831214577666
 21
1114.573242920962
 31
0.0
  0
LINE
  5
5552
330
1F
100
AcDbEntity
  8
KANAMONO_SCREW
100
AcDbLine
 10
1429.831214577666
 20
1124.573242920962
 30
0.0
 11
1429.831214577666
 21
1114.573242920962
 31
0.0
  0
LINE
  5
5553
330
1F
100
AcDbEntity
  8
KANAMONO_SCREW
100
AcDbLine
 10
1437.831214577666
 20
1114.573242920962
 30
0.0
 11
1436.631214577669
 21
1113.373242920961
 31
0.0
  0
LINE
  5
5554
330
1F
100
AcDbEntity
  8
KANAMONO_SCREW
100
AcDbLine
 10
1429.831214577666
 20
1114.573242920962
 30
0.0
 11
1431.03121457767
 21
1113.373242920961
 31
0.0
  0
LINE
  5
5555
330
1F
100
AcDbEntity
  8
KANAMONO_SCREW
100
AcDbLine
 10
1437.831214577666
 20
1114.573242920962
 30
0.0
 11
1429.831214577666
 21
1114.573242920962
 31
0.0
  0
LINE
  5
5556
330
1F
100
AcDbEntity
  8
KANAMONO_SCREW
100
AcDbLine
 10
1436.631214577669
 20
1113.373242920961
 30
0.0
 11
1431.03121457767
 21
1113.373242920961
 31
0.0
  0
LINE
  5
5557
330
1F
100
AcDbEntity
  8
KANAMONO_SCREW
100
AcDbLine
 10
1437.831214577666
 20
1121.389486189332
 30
0.0
 11
1437.831214577666
 21
1114.954199413652
 31
0.0
  0
LINE
  5
5559
330
1F
100
AcDbEntity
  8
KANAMONO
100
AcDbLine
 10
1437.831214577666
 20
1122.754199413652
 30
0.0
 11
1429.831214577666
 21
1122.754199413652
 31
0.0
  0
LINE
  5
555B
330
1F
100
AcDbEntity
  8
KANAMONO_SCREW
100
AcDbLine
 10
1429.831214577666
 20
1121.389486189332
 30
0.0
 11
1429.831214577666
 21
1114.954199413652
 31
0.0
  0
LINE
  5
555D
330
1F
100
AcDbEntity
  8
KANAMONO
  6
DASHED
 62
     6
100
AcDbLine
 10
1410.331214577663
 20
920.4541994136521
 30
0.0
 11
1457.33121457767
 21
920.4541994136521
 31
0.0
  0
LINE
  5
555E
330
1F
100
AcDbEntity
  8
KANAMONO
  6
DASHED
 62
     6
100
AcDbLine
 10
1408.831214577663
 20
921.954199413652
 30
0.0
 11
1458.83121457767
 21
921.954199413652
 31
0.0
  0
LINE
  5
58CE
330
1F
100
AcDbEntity
  8
0
100
AcDbLine
 10
479.9999999999998
 20
295.0
 30
0.0
 11
2280.0
 21
295.0
 31
0.0
  0
LINE
  5
58CF
330
1F
100
AcDbEntity
  8
0
100
AcDbLine
 10
2280.0
 20
295.0
 30
0.0
 11
2280.0
 21
1495.0
 31
0.0
  0
LINE
  5
58D0
330
1F
100
AcDbEntity
  8
0
100
AcDbLine
 10
2280.0
 20
1495.0
 30
0.0
 11
479.9999999999998
 21
1495.0
 31
0.0
  0
LINE
  5
58D1
330
1F
100
AcDbEntity
  8
0
100
AcDbLine
 10
479.9999999999998
 20
1495.0
 30
0.0
 11
479.9999999999998
 21
295.0
 31
0.0
  0
LINE
  5
58D2
330
1F
100
AcDbEntity
  8
WAKU
100
AcDbLine
 10
2760.0
 20
1790.0
 30
0.0
 11
0.0
 21
1790.0
 31
0.0
  0
LINE
  5
58D3
330
1F
100
AcDbEntity
  8
WAKU
100
AcDbLine
 10
0.0
 20
1790.0
 30
0.0
 11
0.0
 21
1910.0
 31
0.0
  0
LINE
  5
58D4
330
1F
100
AcDbEntity
  8
WAKU
100
AcDbLine
 10
0.0
 20
1910.0
 30
0.0
 11
2760.0
 21
1910.0
 31
0.0
  0
LINE
  5
58D5
330
1F
100
AcDbEntity
  8
WAKU
100
AcDbLine
 10
2760.0
 20
1910.0
 30
0.0
 11
2760.0
 21
1790.0
 31
0.0
  0
LINE
  5
58D6
330
1F
100
AcDbEntity
  8
WAKU
100
AcDbLine
 10
0.0
 20
0.0
 30
0.0
 11
2760.0
 21
0.0
 31
0.0
  0
LINE
  5
58D7
330
1F
100
AcDbEntity
  8
WAKU
100
AcDbLine
 10
2760.0
 20
0.0
 30
0.0
 11
2760.0
 21
1910.0
 31
0.0
  0
LINE
  5
58D8
330
1F
100
AcDbEntity
  8
WAKU
100
AcDbLine
 10
2760.0
 20
1910.0
 30
0.0
 11
0.0
 21
1910.0
 31
0.0
  0
LINE
  5
58D9
330
1F
100
AcDbEntity
  8
WAKU
100
AcDbLine
 10
0.0
 20
1910.0
 30
0.0
 11
0.0
 21
0.0
 31
0.0
  0
LINE
  5
58DA
330
1F
100
AcDbEntity
  8
sunpo
100
AcDbLine
 10
1810.466648580287
 20
1108.954199413652
 30
0.0
 11
1810.466648580287
 21
1126.036964821
 31
0.0
  0
LINE
  5
58DB
330
1F
100
AcDbEntity
  8
sunpo
100
AcDbLine
 10
1783.266648580287
 20
1108.954199413652
 30
0.0
 11
1783.266648580287
 21
1126.036964821
 31
0.0
  0
LINE
  5
58DC
330
1F
100
AcDbEntity
  8
sunpo
100
AcDbLine
 10
1802.466648580287
 20
1126.036964821
 30
0.0
 11
1791.266648580287
 21
1126.036964821
 31
0.0
  0
MTEXT
  5
58DD
330
1F
100
AcDbEntity
  8
sunpo
100
AcDbMText
 10
1796.866648580287
 20
1137.536964821
 30
0.0
 40
20.0
 41
0.0
 71
     5
 72
     1
  1
\A1;27.2
  7
MSゴシック
 73
     1
 44
1.0
1001
ACAD
1000
MTEXTBEGIN
1070
    73
1070
     1
1070
    44
1040
1.0
1070
    74
1070
     0
1000
MTEXTEND
  0
INSERT
  5
58DE
330
1F
100
AcDbEntity
  8
sunpo
100
AcDbBlockReference
  2
_DOT
 10
1810.466648580287
 20
1126.036964821
 30
0.0
 41
8.0
 42
8.0
 43
8.0
  0
INSERT
  5
58DF
330
1F
100
AcDbEntity
  8
sunpo
100
AcDbBlockReference
  2
_DOT
 10
1783.266648580287
 20
1126.036964821
 30
0.0
 41
8.0
 42
8.0
 43
8.0
 50
180.0
  0
LINE
  5
58E0
330
1F
100
AcDbEntity
  8
sunpo
100
AcDbLine
 10
1906.866648580288
 20
893.9541994136529
 30
0.0
 11
1921.382823452793
 21
893.9541994136529
 31
0.0
  0
LINE
  5
58E1
330
1F
100
AcDbEntity
  8
sunpo
100
AcDbLine
 10
1820.466648580288
 20
1098.954199413653
 30
0.0
 11
1921.382823452793
 21
1098.954199413653
 31
0.0
  0
LINE
  5
58E2
330
1F
100
AcDbEntity
  8
sunpo
100
AcDbLine
 10
1921.382823452793
 20
901.9541994136529
 30
0.0
 11
1921.382823452793
 21
1090.954199413653
 31
0.0
  0
INSERT
  5
58E3
330
1F
100
AcDbEntity
  8
sunpo
100
AcDbBlockReference
  2
_DOT
 10
1921.382823452793
 20
893.9541994136529
 30
0.0
 41
8.0
 42
8.0
 43
8.0
 50
270.0
  0
INSERT
  5
58E4
330
1F
100
AcDbEntity
  8
sunpo
100
AcDbBlockReference
  2
_DOT
 10
1921.382823452793
 20
1098.954199413653
 30
0.0
 41
8.0
 42
8.0
 43
8.0
 50
90.0
  0
MTEXT
  5
58E5
330
1F
100
AcDbEntity
  8
sunpo
100
AcDbMText
 10
1932.382823452792
 20
996.4541994136522
 30
0.0
 40
20.0
 41
0.0
 71
     5
 72
     1
  1
\A1;205
  7
MSゴシック
 11
0.0000000000000001
 21
1.0
 31
0.0
 73
     1
 44
1.0
1001
ACAD
1000
MTEXTBEGIN
1070
    73
1070
     1
1070
    44
1040
1.0
1070
    74
1070
     0
1000
MTEXTEND
  0
LINE
  5
58E6
330
1F
100
AcDbEntity
  8
MOJI
100
AcDbLine
 10
1738.374293125866
 20
729.2684967013656
 30
0.0
 11
1798.883386931141
 21
833.3588636545005
 31
0.0
1001
ACAD
1000
DSTYLE
1002
{
1070
   341
1005
0
1070
   147
1040
1.0
1070
    77
1070
     0
1070
    42
1040
0.5
1070
   140
1040
2.0
1070
   279
1070
     2
1002
}
  0
LINE
  5
58E7
330
1F
100
AcDbEntity
  8
MOJI
100
AcDbLine
 10
1798.883386931141
 20
833.3588636545005
 30
0.0
 11
1863.271708669859
 21
833.3588636545005
 31
0.0
1001
ACAD
1000
DSTYLE
1002
{
1070
   341
1005
0
1070
   147
1040
1.0
1070
    77
1070
     0
1070
    42
1040
0.5
1070
   140
1040
2.0
1070
   279
1070
     2
1002
}
  0
LINE
  5
58E8
330
1F
100
AcDbEntity
  8
MOJI
100
AcDbLine
 10
1763.549291825325
 20
893.5205367982849
 30
0.0
 11
1726.656037581047
 21
957.4215276059295
 31
0.0
210
0.0
220
0.0
230
-1.0
1001
ACAD
1000
DSTYLE
1002
{
1070
   147
1040
1.0
1070
    77
1070
     0
1070
    42
1040
0.5
1070
   140
1040
2.0
1070
   279
1070
     2
1002
}
  0
LINE
  5
58E9
330
1F
100
AcDbEntity
  8
MOJI
100
AcDbLine
 10
1726.656037581047
 20
957.4215276059295
 30
0.0
 11
1662.26771584233
 21
957.4215276059295
 31
0.0
210
0.0
220
0.0
230
-1.0
1001
ACAD
1000
DSTYLE
1002
{
1070
   147
1040
1.0
1070
    77
1070
     0
1070
    42
1040
0.5
1070
   140
1040
2.0
1070
   279
1070
     2
1002
}
  0
LWPOLYLINE
  5
58EA
330
1F
100
AcDbEntity
  8
0
  6
ByBlock
 62
     0
100
AcDbPolyline
 90
        2
 70
     1
 43
3.999999999999931
 10
1808.571238220675
 20
1055.440435470001
 42
1.0
 10
1806.571238220676
 20
1051.976333854863
 42
1.0
  0
LINE
  5
58EB
330
1F
100
AcDbEntity
  8
0
  6
ByBlock
 62
     0
100
AcDbLine
 10
1809.571238220675
 20
1057.17248627757
 30
0.0
 11
1811.571238220676
 21
1060.636587892707
 31
0.0
  0
LINE
  5
58EC
330
1F
100
AcDbEntity
  8
MOJI
100
AcDbLine
 10
1811.571238220676
 20
1060.636587892708
 30
0.0
 11
1844.464492464953
 21
1117.609375470077
 31
0.0
1001
ACAD
1000
DSTYLE
1002
{
1070
   147
1040
1.0
1070
    77
1070
     0
1070
    42
1040
0.5
1070
   140
1040
2.0
1070
   279
1070
     2
1002
}
  0
LINE
  5
58ED
330
1F
100
AcDbEntity
  8
MOJI
100
AcDbLine
 10
1844.464492464953
 20
1117.609375470077
 30
0.0
 11
1908.85281420367
 21
1117.609375470077
 31
0.0
1001
ACAD
1000
DSTYLE
1002
{
1070
   147
1040
1.0
1070
    77
1070
     0
1070
    42
1040
0.5
1070
   140
1040
2.0
1070
   279
1070
     2
1002
}
  0
LINE
  5
58EE
330
1F
100
AcDbEntity
  8
sunpo
100
AcDbLine
 10
1896.866648580289
 20
770.454199413653
 30
0.0
 11
1954.034413604743
 21
770.454199413653
 31
0.0
  0
LINE
  5
58EF
330
1F
100
AcDbEntity
  8
sunpo
100
AcDbLine
 10
1896.866648580289
 20
570.4541994136527
 30
0.0
 11
1954.034413604743
 21
570.4541994136527
 31
0.0
  0
LINE
  5
58F0
330
1F
100
AcDbEntity
  8
sunpo
100
AcDbLine
 10
1954.034413604743
 20
762.4541994136528
 30
0.0
 11
1954.034413604743
 21
578.4541994136527
 31
0.0
  0
INSERT
  5
58F1
330
1F
100
AcDbEntity
  8
sunpo
100
AcDbBlockReference
  2
_DOT
 10
1954.034413604743
 20
770.454199413653
 30
0.0
 41
8.0
 42
8.0
 43
8.0
 50
90.0
  0
INSERT
  5
58F2
330
1F
100
AcDbEntity
  8
sunpo
100
AcDbBlockReference
  2
_DOT
 10
1954.034413604743
 20
570.4541994136527
 30
0.0
 41
8.0
 42
8.0
 43
8.0
 50
270.0
  0
MTEXT
  5
58F3
330
1F
100
AcDbEntity
  8
sunpo
100
AcDbMText
 10
1965.034413604743
 20
670.4541994136522
 30
0.0
 40
20.0
 41
0.0
 71
     5
 72
     1
  1
\A1;200
  7
MSゴシック
 11
0.0000000000000001
 21
1.0
 31
0.0
 73
     1
 44
1.0
1001
ACAD
1000
MTEXTBEGIN
1070
    73
1070
     1
1070
    44
1040
1.0
1070
    74
1070
     0
1000
MTEXTEND
  0
LINE
  5
58F4
330
1F
100
AcDbEntity
  8
sunpo
100
AcDbLine
 10
1128.145450479574
 20
820.454199413653
 30
0.0
 11
1231.290872626118
 21
820.454199413653
 31
0.0
  0
LINE
  5
58F5
330
1F
100
AcDbEntity
  8
sunpo
100
AcDbLine
 10
1128.145450479574
 20
520.4541994136527
 30
0.0
 11
1231.290872626118
 21
520.4541994136527
 31
0.0
  0
LINE
  5
58F6
330
1F
100
AcDbEntity
  8
sunpo
100
AcDbLine
 10
1231.290872626118
 20
812.454199413653
 30
0.0
 11
1231.290872626118
 21
528.4541994136527
 31
0.0
  0
INSERT
  5
58F7
330
1F
100
AcDbEntity
  8
sunpo
100
AcDbBlockReference
  2
_DOT
 10
1231.290872626118
 20
820.454199413653
 30
0.0
 41
8.0
 42
8.0
 43
8.0
 50
90.0
  0
INSERT
  5
58F8
330
1F
100
AcDbEntity
  8
sunpo
100
AcDbBlockReference
  2
_DOT
 10
1231.290872626118
 20
520.4541994136527
 30
0.0
 41
8.0
 42
8.0
 43
8.0
 50
270.0
  0
MTEXT
  5
58F9
330
1F
100
AcDbEntity
  8
sunpo
100
AcDbMText
 10
1242.290872626118
 20
670.4541994136524
 30
0.0
 40
20.0
 41
0.0
 71
     5
 72
     1
  1
\A1;300
  7
MSゴシック
 11
0.0000000000000001
 21
1.0
 31
0.0
 73
     1
 44
1.0
1001
ACAD
1000
MTEXTBEGIN
1070
    73
1070
     1
1070
    44
1040
1.0
1070
    74
1070
     0
1000
MTEXTEND
  0
LINE
  5
58FA
330
1F
100
AcDbEntity
  8
KANAMONO
100
AcDbLine
 10
838.1454504795737
 20
520.454199413652
 30
0.0
 11
1118.145450479574
 21
520.454199413652
 31
0.0
  0
ARC
  5
58FB
330
1F
100
AcDbEntity
  8
KANAMONO
100
AcDbCircle
 10
1118.145450479574
 20
530.4541994136521
 30
0.0
 40
10.0
100
AcDbArc
 50
270.0
 51
0.0
  0
LINE
  5
58FC
330
1F
100
AcDbEntity
  8
KANAMONO
100
AcDbLine
 10
1128.145450479574
 20
530.4541994136521
 30
0.0
 11
1128.145450479573
 21
810.4541994136521
 31
0.0
  0
ARC
  5
58FD
330
1F
100
AcDbEntity
  8
KANAMONO
100
AcDbCircle
 10
1118.145450479573
 20
810.4541994136521
 30
0.0
 40
10.0
100
AcDbArc
 50
0.0
 51
90.0
  0
LINE
  5
58FE
330
1F
100
AcDbEntity
  8
KANAMONO
100
AcDbLine
 10
1118.145450479573
 20
820.4541994136521
 30
0.0
 11
838.1454504795728
 21
820.4541994136521
 31
0.0
  0
ARC
  5
58FF
330
1F
100
AcDbEntity
  8
KANAMONO
100
AcDbCircle
 10
838.1454504795728
 20
810.4541994136521
 30
0.0
 40
10.0
100
AcDbArc
 50
90.0
 51
180.0
  0
LINE
  5
5900
330
1F
100
AcDbEntity
  8
KANAMONO
100
AcDbLine
 10
828.1454504795728
 20
810.4541994136521
 30
0.0
 11
828.1454504795737
 21
530.4541994136521
 31
0.0
  0
ARC
  5
5901
330
1F
100
AcDbEntity
  8
KANAMONO
100
AcDbCircle
 10
838.1454504795737
 20
530.4541994136521
 30
0.0
 40
10.0
100
AcDbArc
 50
180.0
 51
270.0
  0
LINE
  5
5902
330
1F
100
AcDbEntity
  8
sunpo
100
AcDbLine
 10
828.1454504795737
 20
520.4541994136525
 30
0.0
 11
828.1454504795737
 21
446.9260895060333
 31
0.0
  0
LINE
  5
5903
330
1F
100
AcDbEntity
  8
sunpo
100
AcDbLine
 10
1128.145450479574
 20
520.4541994136525
 30
0.0
 11
1128.145450479574
 21
446.9260895060333
 31
0.0
  0
LINE
  5
5904
330
1F
100
AcDbEntity
  8
sunpo
100
AcDbLine
 10
836.1454504795737
 20
446.9260895060333
 30
0.0
 11
1120.145450479574
 21
446.9260895060333
 31
0.0
  0
INSERT
  5
5905
330
1F
100
AcDbEntity
  8
sunpo
100
AcDbBlockReference
  2
_DOT
 10
828.1454504795737
 20
446.9260895060333
 30
0.0
 41
8.0
 42
8.0
 43
8.0
 50
180.0
  0
INSERT
  5
5906
330
1F
100
AcDbEntity
  8
sunpo
100
AcDbBlockReference
  2
_DOT
 10
1128.145450479574
 20
446.9260895060333
 30
0.0
 41
8.0
 42
8.0
 43
8.0
  0
MTEXT
  5
5907
330
1F
100
AcDbEntity
  8
sunpo
100
AcDbMText
 10
978.1454504795737
 20
435.9260895060333
 30
0.0
 40
20.0
 41
0.0
 71
     5
 72
     1
  1
\A1;300
  7
MSゴシック
 73
     1
 44
1.0
1001
ACAD
1000
MTEXTBEGIN
1070
    73
1070
     1
1070
    44
1040
1.0
1070
    74
1070
     0
1000
MTEXTEND
  0
LINE
  5
5908
330
1F
100
AcDbEntity
  8
sunpo
100
AcDbLine
 10
1696.866648580287
 20
570.4541994136525
 30
0.0
 11
1696.866648580287
 21
491.9260895060329
 31
0.0
  0
LINE
  5
5909
330
1F
100
AcDbEntity
  8
sunpo
100
AcDbLine
 10
1896.866648580288
 20
570.4541994136525
 30
0.0
 11
1896.866648580288
 21
491.9260895060329
 31
0.0
  0
LINE
  5
590A
330
1F
100
AcDbEntity
  8
sunpo
100
AcDbLine
 10
1704.866648580287
 20
491.9260895060329
 30
0.0
 11
1888.866648580288
 21
491.9260895060329
 31
0.0
  0
INSERT
  5
590B
330
1F
100
AcDbEntity
  8
sunpo
100
AcDbBlockReference
  2
_DOT
 10
1696.866648580287
 20
491.9260895060329
 30
0.0
 41
8.0
 42
8.0
 43
8.0
 50
180.0
  0
INSERT
  5
590C
330
1F
100
AcDbEntity
  8
sunpo
100
AcDbBlockReference
  2
_DOT
 10
1896.866648580288
 20
491.9260895060329
 30
0.0
 41
8.0
 42
8.0
 43
8.0
  0
MTEXT
  5
590D
330
1F
100
AcDbEntity
  8
sunpo
100
AcDbMText
 10
1796.866648580287
 20
480.9260895060329
 30
0.0
 40
20.0
 41
0.0
 71
     5
 72
     1
  1
\A1;200
  7
MSゴシック
 73
     1
 44
1.0
1001
ACAD
1000
MTEXTBEGIN
1070
    73
1070
     1
1070
    44
1040
1.0
1070
    74
1070
     0
1000
MTEXTEND
  0
LINE
  5
590E
330
1F
100
AcDbEntity
  8
MOJI
100
AcDbLine
 10
1067.366348528455
 20
762.9511256876298
 30
0.0
 11
1127.811113888324
 21
866.9775447948232
 31
0.0
1001
ACAD
1000
DSTYLE
1002
{
1070
   341
1005
0
1070
   147
1040
1.0
1070
    77
1070
     0
1070
    42
1040
0.5
1070
   140
1040
2.0
1070
   279
1070
     2
1002
}
  0
LINE
  5
590F
330
1F
100
AcDbEntity
  8
MOJI
100
AcDbLine
 10
1127.811113888324
 20
866.9775447948232
 30
0.0
 11
1192.199435627041
 21
866.9775447948232
 31
0.0
1001
ACAD
1000
DSTYLE
1002
{
1070
   341
1005
0
1070
   147
1040
1.0
1070
    77
1070
     0
1070
    42
1040
0.5
1070
   140
1040
2.0
1070
   279
1070
     2
1002
}
  0
LWPOLYLINE
  5
5910
330
1F
100
AcDbEntity
  8
KANAMONO
100
AcDbPolyline
 90
        4
 70
     1
 43
0.0
 10
1445.931214577666
 20
890.4541994136526
 10
1447.431214577666
 20
890.4541994136526
 10
1447.431214577666
 20
1096.954199413652
 10
1445.931214577666
 20
1096.954199413652
  0
LWPOLYLINE
  5
5911
330
1F
100
AcDbEntity
  8
KANAMONO
100
AcDbPolyline
 90
        4
 70
     1
 43
0.0
 10
1420.231214577667
 20
890.4541994136526
 10
1421.731214577667
 20
890.4541994136526
 10
1421.731214577667
 20
1096.954199413652
 10
1420.231214577667
 20
1096.954199413652
  0
LINE
  5
5912
330
1F
100
AcDbEntity
  8
KANAMONO
  6
DASHED
 48
0.2
100
AcDbLine
 10
1421.731214577667
 20
891.9541994136524
 30
0.0
 11
1445.931214577666
 21
891.9541994136524
 31
0.0
  0
LINE
  5
5913
330
1F
100
AcDbEntity
  8
KANAMONO
  6
DASHED
 48
0.2
100
AcDbLine
 10
1421.731214577667
 20
890.4541994136526
 30
0.0
 11
1445.931214577666
 21
890.4541994136526
 31
0.0
  0
LWPOLYLINE
  5
5914
330
1F
100
AcDbEntity
  8
KANAMONO
100
AcDbPolyline
 90
        4
 70
     0
 43
0.0
 10
1447.431214577666
 20
890.4541994136526
 10
1533.831214577666
 20
890.4541994136526
 10
1533.831214577666
 20
891.9541994136524
 10
1447.431214577666
 20
891.9541994136524
  0
LWPOLYLINE
  5
5915
330
1F
100
AcDbEntity
  8
KANAMONO
100
AcDbPolyline
 90
        6
 70
     1
 43
0.0
 10
1447.531214577667
 20
1006.954199413652
 10
1452.681214577667
 20
1006.954199413652
 10
1452.681214577667
 20
1003.954199413652
 10
1451.981214577667
 20
1003.954199413652
 10
1451.981214577667
 20
1006.254199413652
 10
1447.531214577667
 20
1006.254199413652
  0
LWPOLYLINE
  5
5916
330
1F
100
AcDbEntity
  8
KANAMONO
100
AcDbPolyline
 90
        4
 70
     0
 43
0.0
 10
1420.231214577667
 20
891.9541994136524
 10
1333.831214577666
 20
891.9541994136524
 10
1333.831214577666
 20
890.4541994136526
 10
1420.231214577667
 20
890.4541994136526
  0
LWPOLYLINE
  5
5917
330
1F
100
AcDbEntity
  8
KANAMONO
100
AcDbPolyline
 90
        6
 70
     1
 43
0.0
 10
1420.131214577666
 20
1006.954199413652
 10
1414.981214577666
 20
1006.954199413652
 10
1414.981214577666
 20
1003.954199413652
 10
1415.681214577667
 20
1003.954199413652
 10
1415.681214577667
 20
1006.254199413652
 10
1420.131214577666
 20
1006.254199413652
  0
LINE
  5
5918
330
1F
100
AcDbEntity
  8
KANAMONO
370
     5
100
AcDbLine
 10
1421.731214577667
 20
1096.954199413652
 30
0.0
 11
1445.931214577666
 21
1096.954199413652
 31
0.0
  0
LWPOLYLINE
  5
5919
330
1F
100
AcDbEntity
  8
KANAMONO
100
AcDbPolyline
 90
        6
 70
     1
 43
0.0
 10
1447.531214577667
 20
1086.954199413652
 10
1452.681214577667
 20
1086.954199413652
 10
1452.681214577667
 20
1083.954199413652
 10
1451.981214577667
 20
1083.954199413652
 10
1451.981214577667
 20
1086.254199413652
 10
1447.531214577667
 20
1086.254199413652
  0
LWPOLYLINE
  5
591A
330
1F
100
AcDbEntity
  8
KANAMONO
100
AcDbPolyline
 90
        6
 70
     1
 43
0.0
 10
1420.131214577666
 20
1086.954199413652
 10
1414.981214577666
 20
1086.954199413652
 10
1414.981214577666
 20
1083.954199413652
 10
1415.681214577667
 20
1083.954199413652
 10
1415.681214577667
 20
1086.254199413652
 10
1420.131214577666
 20
1086.254199413652
  0
LWPOLYLINE
  5
591B
330
1F
100
AcDbEntity
  8
KANAMONO
100
AcDbPolyline
 90
        4
 70
     1
 43
0.0
 10
1808.966648580288
 20
892.4541994136525
 10
1810.466648580288
 20
892.4541994136525
 10
1810.466648580288
 20
1098.954199413652
 10
1808.966648580288
 20
1098.954199413652
  0
LWPOLYLINE
  5
591C
330
1F
100
AcDbEntity
  8
KANAMONO
100
AcDbPolyline
 90
        4
 70
     1
 43
0.0
 10
1783.266648580288
 20
892.4541994136525
 10
1784.766648580288
 20
892.4541994136525
 10
1784.766648580288
 20
1098.954199413652
 10
1783.266648580288
 20
1098.954199413652
  0
LINE
  5
591D
330
1F
100
AcDbEntity
  8
KANAMONO
  6
DASHED
 48
0.2
100
AcDbLine
 10
1784.766648580288
 20
893.9541994136526
 30
0.0
 11
1808.966648580288
 21
893.9541994136526
 31
0.0
  0
LINE
  5
591E
330
1F
100
AcDbEntity
  8
KANAMONO
  6
DASHED
 48
0.2
100
AcDbLine
 10
1784.766648580288
 20
892.4541994136525
 30
0.0
 11
1808.966648580288
 21
892.4541994136525
 31
0.0
  0
LWPOLYLINE
  5
591F
330
1F
100
AcDbEntity
  8
KANAMONO
100
AcDbPolyline
 90
        4
 70
     0
 43
0.0
 10
1810.466648580288
 20
892.4541994136525
 10
1896.866648580288
 20
892.4541994136525
 10
1896.866648580288
 20
893.9541994136526
 10
1810.466648580288
 20
893.9541994136526
  0
LWPOLYLINE
  5
5920
330
1F
100
AcDbEntity
  8
KANAMONO
100
AcDbPolyline
 90
        6
 70
     1
 43
0.0
 10
1810.566648580288
 20
1008.954199413652
 10
1815.716648580288
 20
1008.954199413652
 10
1815.716648580288
 20
1005.954199413652
 10
1815.016648580288
 20
1005.954199413652
 10
1815.016648580288
 20
1008.254199413652
 10
1810.566648580288
 20
1008.254199413652
  0
LWPOLYLINE
  5
5921
330
1F
100
AcDbEntity
  8
KANAMONO
100
AcDbPolyline
 90
        4
 70
     0
 43
0.0
 10
1783.266648580288
 20
893.9541994136526
 10
1696.866648580288
 20
893.9541994136526
 10
1696.866648580288
 20
892.4541994136525
 10
1783.266648580288
 20
892.4541994136525
  0
LWPOLYLINE
  5
5922
330
1F
100
AcDbEntity
  8
KANAMONO
100
AcDbPolyline
 90
        6
 70
     1
 43
0.0
 10
1783.166648580288
 20
1008.954199413652
 10
1778.016648580288
 20
1008.954199413652
 10
1778.016648580288
 20
1005.954199413652
 10
1778.716648580288
 20
1005.954199413652
 10
1778.716648580288
 20
1008.254199413652
 10
1783.166648580288
 20
1008.254199413652
  0
LINE
  5
5923
330
1F
100
AcDbEntity
  8
KANAMONO
370
     5
100
AcDbLine
 10
1784.766648580288
 20
1098.954199413652
 30
0.0
 11
1808.966648580288
 21
1098.954199413652
 31
0.0
  0
LWPOLYLINE
  5
5924
330
1F
100
AcDbEntity
  8
KANAMONO
100
AcDbPolyline
 90
        6
 70
     1
 43
0.0
 10
1810.566648580288
 20
1088.954199413652
 10
1815.716648580288
 20
1088.954199413652
 10
1815.716648580288
 20
1085.954199413652
 10
1815.016648580288
 20
1085.954199413652
 10
1815.016648580288
 20
1088.254199413652
 10
1810.566648580288
 20
1088.254199413652
  0
LWPOLYLINE
  5
5925
330
1F
100
AcDbEntity
  8
KANAMONO
100
AcDbPolyline
 90
        6
 70
     1
 43
0.0
 10
1783.166648580288
 20
1088.954199413652
 10
1778.016648580288
 20
1088.954199413652
 10
1778.016648580288
 20
1085.954199413652
 10
1778.716648580288
 20
1085.954199413652
 10
1778.716648580288
 20
1088.254199413652
 10
1783.166648580288
 20
1088.254199413652
  0
LINE
  5
5926
330
1F
100
AcDbEntity
  8
KANAMONO
100
AcDbLine
 10
1837.908279140631
 20
770.4541994136525
 30
0.0
 11
1756.866648580288
 21
770.4541994136511
 31
0.0
  0
ARC
  5
5927
330
1F
100
AcDbEntity
  8
KANAMONO
100
AcDbCircle
 10
1756.866648580288
 20
710.4541994136507
 30
0.0
 40
60.00000000000046
100
AcDbArc
 50
89.99999999999957
 51
179.9999999999996
  0
LINE
  5
5928
330
1F
100
AcDbEntity
  8
KANAMONO
100
AcDbLine
 10
1696.866648580288
 20
710.4541994136511
 30
0.0
 11
1696.86664858029
 21
630.4541994136529
 31
0.0
  0
ARC
  5
5929
330
1F
100
AcDbEntity
  8
KANAMONO
100
AcDbCircle
 10
1756.866648580291
 20
630.4541994136528
 30
0.0
 40
60.00000000000023
100
AcDbArc
 50
179.9999999999998
 51
269.9999999999998
  0
LINE
  5
592A
330
1F
100
AcDbEntity
  8
KANAMONO
100
AcDbLine
 10
1756.86664858029
 20
570.4541994136525
 30
0.0
 11
1836.866648580288
 21
570.4541994136525
 31
0.0
  0
ARC
  5
592B
330
1F
100
AcDbEntity
  8
KANAMONO
100
AcDbCircle
 10
1836.866648580288
 20
630.4541994136532
 30
0.0
 40
60.00000000000068
100
AcDbArc
 50
270.0000000000007
 51
0.0000000000006514
  0
LINE
  5
592C
330
1F
100
AcDbEntity
  8
KANAMONO
100
AcDbLine
 10
1896.866648580289
 20
630.4541994136538
 30
0.0
 11
1896.866648580288
 21
711.4958299739964
 31
0.0
  0
ARC
  5
592D
330
1F
100
AcDbEntity
  8
KANAMONO
100
AcDbCircle
 10
989.8954504795771
 20
1107.342430187872
 30
0.0
 40
0.7500000000002646
100
AcDbArc
 50
235.5098144582781
 51
127.0119641217902
  0
ARC
  5
592E
330
1F
100
AcDbEntity
  8
KANAMONO
100
AcDbCircle
 10
978.1454504795769
 20
1090.239798811385
 30
0.0
 40
21.0
100
AcDbArc
 50
57.45074369785811
 51
122.5492563021419
  0
ARC
  5
592F
330
1F
100
AcDbEntity
  8
KANAMONO
100
AcDbCircle
 10
966.3954504795768
 20
1107.342430187872
 30
0.0
 40
0.7500000000001969
100
AcDbArc
 50
52.98803587820977
 51
304.4901855417219
  0
ARC
  5
5930
330
1F
100
AcDbEntity
  8
KANAMONO
100
AcDbCircle
 10
978.1454504795769
 20
1090.239798811385
 30
0.0
 40
20.00000000000022
100
AcDbArc
 50
55.50981445826096
 51
124.490185541739
  0
LINE
  5
5931
330
1F
100
AcDbEntity
  8
KANAMONO
100
AcDbLine
 10
1001.645450479576
 20
926.954199413652
 30
0.0
 11
1001.645450479576
 21
920.4541994136521
 31
0.0
  0
LINE
  5
5932
330
1F
100
AcDbEntity
  8
KANAMONO
100
AcDbLine
 10
1001.645450479576
 20
920.4541994136521
 30
0.0
 11
1128.145450479576
 21
920.4541994136521
 31
0.0
  0
LINE
  5
5933
330
1F
100
AcDbEntity
  8
KANAMONO
100
AcDbLine
 10
1128.145450479576
 20
920.4541994136521
 30
0.0
 11
1128.145450479576
 21
921.954199413652
 31
0.0
  0
LINE
  5
5934
330
1F
100
AcDbEntity
  8
KANAMONO
100
AcDbLine
 10
1128.145450479576
 20
921.954199413652
 30
0.0
 11
1003.145450479576
 21
921.954199413652
 31
0.0
  0
LINE
  5
5935
330
1F
100
AcDbEntity
  8
KANAMONO
100
AcDbLine
 10
1003.145450479576
 20
921.954199413652
 30
0.0
 11
1003.145450479576
 21
926.954199413652
 31
0.0
  0
LINE
  5
5936
330
1F
100
AcDbEntity
  8
KANAMONO
100
AcDbLine
 10
1003.145450479576
 20
926.954199413652
 30
0.0
 11
1003.145450479576
 21
1104.954199413652
 31
0.0
  0
LINE
  5
5937
330
1F
100
AcDbEntity
  8
KANAMONO
100
AcDbLine
 10
1003.145450479576
 20
1104.954199413652
 30
0.0
 11
991.1454504795774
 21
1106.004063375963
 31
0.0
  0
ARC
  5
5938
330
1F
100
AcDbEntity
  8
KANAMONO
100
AcDbCircle
 10
978.1454504795776
 20
1078.082029066118
 30
0.0
 40
30.80000000000232
100
AcDbArc
 50
65.0341549329501
 51
75.90641069333414
  0
LINE
  5
5939
330
1F
100
AcDbEntity
  8
KANAMONO
100
AcDbLine
 10
985.6454504795765
 20
1107.954926481671
 30
0.0
 11
985.6454504795765
 21
1107.129404162676
 31
0.0
  0
ARC
  5
593A
330
1F
100
AcDbEntity
  8
KANAMONO
100
AcDbCircle
 10
978.1454504795775
 20
1078.082029066116
 30
0.0
 40
30.00000000000424
100
AcDbArc
 50
64.76693100570931
 51
75.52248781407397
  0
LINE
  5
593B
330
1F
100
AcDbEntity
  8
KANAMONO
100
AcDbLine
 10
990.934494074434
 20
1105.219463799877
 30
0.0
 11
1002.345450479576
 21
1104.221134474438
 31
0.0
  0
LINE
  5
593C
330
1F
100
AcDbEntity
  8
KANAMONO
100
AcDbLine
 10
1002.345450479576
 20
1104.221134474438
 30
0.0
 11
1002.345450479576
 21
929.5666349789508
 31
0.0
  0
LINE
  5
593D
330
1F
100
AcDbEntity
  8
KANAMONO
100
AcDbLine
 10
1002.345450479576
 20
929.5666349789508
 30
0.0
 11
1001.645450479576
 21
926.954199413652
 31
0.0
  0
LINE
  5
593E
330
1F
100
AcDbEntity
  8
KANAMONO
100
AcDbLine
 10
1003.075725885378
 20
1104.960299525213
 30
0.0
 11
992.576668964355
 21
1105.878847983515
 31
0.0
  0
ARC
  5
593F
330
1F
100
AcDbEntity
  8
KANAMONO
100
AcDbCircle
 10
992.7509804498507
 20
1107.871237379699
 30
0.0
 40
1.999999999999473
100
AcDbArc
 50
185.2159075245734
 51
264.9999999999924
  0
LINE
  5
5940
330
1F
100
AcDbEntity
  8
KANAMONO
100
AcDbLine
 10
990.7592620556043
 20
1107.689419234237
 30
0.0
 11
989.5190332833035
 21
1121.275447474669
 31
0.0
  0
ARC
  5
5941
330
1F
100
AcDbEntity
  8
KANAMONO
100
AcDbCircle
 10
988.3242781865584
 20
1121.163374914234
 30
0.0
 40
1.200000000000338
100
AcDbArc
 50
5.358880317677241
 51
106.7770979082692
  0
LINE
  5
5942
330
1F
100
AcDbEntity
  8
KANAMONO
100
AcDbLine
 10
987.9778992460661
 20
1122.312296856571
 30
0.0
 11
982.945450479573
 21
1120.795105646632
 31
0.0
  0
LINE
  5
5943
330
1F
100
AcDbEntity
  8
KANAMONO
100
AcDbLine
 10
982.945450479573
 20
1120.795105646632
 30
0.0
 11
982.945450479573
 21
1114.954199413652
 31
0.0
  0
LINE
  5
5944
330
1F
100
AcDbEntity
  8
KANAMONO
100
AcDbLine
 10
982.945450479573
 20
1114.954199413652
 30
0.0
 11
982.1454504795729
 21
1114.954199413652
 31
0.0
  0
LINE
  5
5945
330
1F
100
AcDbEntity
  8
KANAMONO
100
AcDbLine
 10
982.1454504795729
 20
1114.954199413652
 30
0.0
 11
981.3954504795729
 21
1115.704199413654
 31
0.0
  0
LINE
  5
5946
330
1F
100
AcDbEntity
  8
KANAMONO
100
AcDbLine
 10
981.3954504795729
 20
1115.704199413654
 30
0.0
 11
981.3954504795738
 21
1121.163374914234
 31
0.0
  0
LINE
  5
5947
330
1F
100
AcDbEntity
  8
KANAMONO
100
AcDbLine
 10
981.3954504795738
 20
1121.163374914234
 30
0.0
 11
987.7469799524043
 21
1123.078244818129
 31
0.0
  0
ARC
  5
5948
330
1F
100
AcDbEntity
  8
KANAMONO
100
AcDbCircle
 10
988.3242781865584
 20
1121.163374914234
 30
0.0
 40
2.000000000000444
100
AcDbArc
 50
5.358880317690821
 51
106.7770979082754
  0
LINE
  5
5949
330
1F
100
AcDbEntity
  8
KANAMONO
100
AcDbLine
 10
990.3155366811333
 20
1121.350162514959
 30
0.0
 11
991.5543650644021
 21
1107.76241981939
 31
0.0
  0
ARC
  5
594A
330
1F
100
AcDbEntity
  8
KANAMONO
100
AcDbCircle
 10
992.7494084897983
 20
1107.871374908383
 30
0.0
 40
1.199999999999992
100
AcDbArc
 50
185.2093967077694
 51
264.9999999999979
  0
LINE
  5
594B
330
1F
100
AcDbEntity
  8
KANAMONO
100
AcDbLine
 10
992.644821598501
 20
1106.675941270673
 30
0.0
 11
1003.145450479576
 21
1105.757255283687
 31
0.0
  0
LINE
  5
594C
330
1F
100
AcDbEntity
  8
KANAMONO
100
AcDbLine
 10
1003.145450479576
 20
1105.757255283687
 30
0.0
 11
1003.145450479576
 21
1104.954199413652
 31
0.0
  0
LINE
  5
594D
330
1F
100
AcDbEntity
  8
KANAMONO
100
AcDbLine
 10
1012.445450479577
 20
980.4541994136521
 30
0.0
 11
1012.445450479577
 21
1102.81487918865
 31
0.0
  0
ARC
  5
594E
330
1F
100
AcDbEntity
  8
KANAMONO
100
AcDbCircle
 10
998.1454504795774
 20
1102.81487918865
 30
0.0
 40
14.29999999999927
100
AcDbArc
 50
0.0
 51
48.18968510422147
  0
ARC
  5
594F
330
1F
100
AcDbEntity
  8
KANAMONO
100
AcDbCircle
 10
978.1454504795767
 20
1080.454199413652
 30
0.0
 40
44.30000000000003
100
AcDbArc
 50
48.1896851042211
 51
131.8103148957781
  0
ARC
  5
5950
330
1F
100
AcDbEntity
  8
KANAMONO
100
AcDbCircle
 10
958.1454504795765
 20
1102.814879188649
 30
0.0
 40
14.30000000000006
100
AcDbArc
 50
131.8103148957751
 51
179.9999999999972
  0
LINE
  5
5951
330
1F
100
AcDbEntity
  8
KANAMONO
100
AcDbLine
 10
943.8454504795764
 20
1102.81487918865
 30
0.0
 11
943.8454504795764
 21
980.4541994136521
 31
0.0
  0
LINE
  5
5952
330
1F
100
AcDbEntity
  8
KANAMONO
100
AcDbLine
 10
943.8454504795764
 20
980.4541994136521
 30
0.0
 11
943.1454504795764
 21
980.4541994136521
 31
0.0
  0
LINE
  5
5953
330
1F
100
AcDbEntity
  8
KANAMONO
100
AcDbLine
 10
943.1454504795764
 20
980.4541994136521
 30
0.0
 11
943.1454504795764
 21
1102.81487918865
 31
0.0
  0
ARC
  5
5954
330
1F
100
AcDbEntity
  8
KANAMONO
100
AcDbCircle
 10
958.1454504795765
 20
1102.81487918865
 30
0.0
 40
15.0
100
AcDbArc
 50
131.8103148957784
 51
180.0
  0
ARC
  5
5955
330
1F
100
AcDbEntity
  8
KANAMONO
100
AcDbCircle
 10
978.1454504795766
 20
1080.454199413652
 30
0.0
 40
45.00000000000001
100
AcDbArc
 50
48.18968510422141
 51
131.8103148957786
  0
ARC
  5
5956
330
1F
100
AcDbEntity
  8
KANAMONO
100
AcDbCircle
 10
998.1454504795765
 20
1102.81487918865
 30
0.0
 40
15.00000000000006
100
AcDbArc
 50
0.0
 51
48.18968510422161
  0
LINE
  5
5957
330
1F
100
AcDbEntity
  8
KANAMONO
100
AcDbLine
 10
1013.145450479576
 20
1102.81487918865
 30
0.0
 11
1013.145450479576
 21
980.4541994136521
 31
0.0
  0
LINE
  5
5958
330
1F
100
AcDbEntity
  8
KANAMONO
100
AcDbLine
 10
1013.145450479576
 20
980.4541994136521
 30
0.0
 11
1012.445450479577
 21
980.4541994136521
 31
0.0
  0
LINE
  5
5959
330
1F
100
AcDbEntity
  8
KANAMONO
100
AcDbLine
 10
953.2151750737675
 20
1104.960299525213
 30
0.0
 11
963.7142319947907
 21
1105.878847983515
 31
0.0
  0
ARC
  5
595A
330
1F
100
AcDbEntity
  8
KANAMONO
100
AcDbCircle
 10
963.5399205092955
 20
1107.871237379699
 30
0.0
 40
2.000000000000113
100
AcDbArc
 50
274.9999999999929
 51
354.7840924754083
  0
LINE
  5
595B
330
1F
100
AcDbEntity
  8
KANAMONO
100
AcDbLine
 10
965.5316389035425
 20
1107.689419234237
 30
0.0
 11
966.7718676758422
 21
1121.275447474669
 31
0.0
  0
ARC
  5
595C
330
1F
100
AcDbEntity
  8
KANAMONO
100
AcDbCircle
 10
967.9666227725878
 20
1121.163374914234
 30
0.0
 40
1.200000000000833
100
AcDbArc
 50
73.22290209171626
 51
174.6411196823031
  0
LINE
  5
595D
330
1F
100
AcDbEntity
  8
KANAMONO
100
AcDbLine
 10
968.3130017130807
 20
1122.312296856571
 30
0.0
 11
973.3454504795735
 21
1120.795105646632
 31
0.0
  0
LINE
  5
595E
330
1F
100
AcDbEntity
  8
KANAMONO
100
AcDbLine
 10
973.3454504795735
 20
1120.795105646632
 30
0.0
 11
973.3454504795727
 21
1114.954199413652
 31
0.0
  0
LINE
  5
595F
330
1F
100
AcDbEntity
  8
KANAMONO
100
AcDbLine
 10
973.3454504795727
 20
1114.954199413652
 30
0.0
 11
974.1454504795729
 21
1114.954199413652
 31
0.0
  0
LINE
  5
5960
330
1F
100
AcDbEntity
  8
KANAMONO
100
AcDbLine
 10
974.1454504795729
 20
1114.954199413652
 30
0.0
 11
974.895450479573
 21
1115.704199413654
 31
0.0
  0
LINE
  5
5961
330
1F
100
AcDbEntity
  8
KANAMONO
100
AcDbLine
 10
974.895450479573
 20
1115.704199413654
 30
0.0
 11
974.895450479573
 21
1121.163374914234
 31
0.0
  0
LINE
  5
5962
330
1F
100
AcDbEntity
  8
KANAMONO
100
AcDbLine
 10
974.895450479573
 20
1121.163374914234
 30
0.0
 11
968.5439210067416
 21
1123.078244818129
 31
0.0
  0
ARC
  5
5963
330
1F
100
AcDbEntity
  8
KANAMONO
100
AcDbCircle
 10
967.9666227725872
 20
1121.163374914234
 30
0.0
 40
2.000000000000444
100
AcDbArc
 50
73.22290209172455
 51
174.6411196823092
  0
LINE
  5
5964
330
1F
100
AcDbEntity
  8
KANAMONO
100
AcDbLine
 10
965.9753642780124
 20
1121.350162514959
 30
0.0
 11
964.7365358947435
 21
1107.76241981939
 31
0.0
  0
ARC
  5
5965
330
1F
100
AcDbEntity
  8
KANAMONO
100
AcDbCircle
 10
963.5414924693476
 20
1107.871374908383
 30
0.0
 40
1.199999999999992
100
AcDbArc
 50
275.0000000000022
 51
354.7906032922306
  0
LINE
  5
5966
330
1F
100
AcDbEntity
  8
KANAMONO
100
AcDbLine
 10
963.6460793606447
 20
1106.675941270673
 30
0.0
 11
953.1454504795693
 21
1105.757255283687
 31
0.0
  0
LINE
  5
5967
330
1F
100
AcDbEntity
  8
KANAMONO
100
AcDbLine
 10
953.1454504795693
 20
1105.757255283687
 30
0.0
 11
953.1454504795693
 21
1104.954199413652
 31
0.0
  0
LINE
  5
5968
330
1F
100
AcDbEntity
  8
KANAMONO
100
AcDbLine
 10
954.6454504795702
 20
926.954199413652
 30
0.0
 11
954.6454504795702
 21
920.4541994136521
 31
0.0
  0
LINE
  5
5969
330
1F
100
AcDbEntity
  8
KANAMONO
100
AcDbLine
 10
954.6454504795702
 20
920.4541994136521
 30
0.0
 11
828.1454504795702
 21
920.4541994136521
 31
0.0
  0
LINE
  5
596A
330
1F
100
AcDbEntity
  8
KANAMONO
100
AcDbLine
 10
828.1454504795702
 20
920.4541994136521
 30
0.0
 11
828.1454504795702
 21
921.954199413652
 31
0.0
  0
LINE
  5
596B
330
1F
100
AcDbEntity
  8
KANAMONO
100
AcDbLine
 10
828.1454504795702
 20
921.954199413652
 30
0.0
 11
953.1454504795702
 21
921.954199413652
 31
0.0
  0
LINE
  5
596C
330
1F
100
AcDbEntity
  8
KANAMONO
100
AcDbLine
 10
953.1454504795702
 20
921.954199413652
 30
0.0
 11
953.1454504795702
 21
926.954199413652
 31
0.0
  0
LINE
  5
596D
330
1F
100
AcDbEntity
  8
KANAMONO
100
AcDbLine
 10
953.1454504795702
 20
926.954199413652
 30
0.0
 11
953.1454504795702
 21
1104.954199413652
 31
0.0
  0
LINE
  5
596E
330
1F
100
AcDbEntity
  8
KANAMONO
100
AcDbLine
 10
953.1454504795702
 20
1104.954199413652
 30
0.0
 11
965.1454504795701
 21
1106.004063375963
 31
0.0
  0
ARC
  5
596F
330
1F
100
AcDbEntity
  8
KANAMONO
100
AcDbCircle
 10
978.1454504795695
 20
1078.082029066123
 30
0.0
 40
30.7999999999978
100
AcDbArc
 50
104.0935893066688
 51
114.9658450670529
  0
LINE
  5
5970
330
1F
100
AcDbEntity
  8
KANAMONO
100
AcDbLine
 10
970.6454504795701
 20
1107.954926481671
 30
0.0
 11
970.6454504795701
 21
1107.129404162676
 31
0.0
  0
ARC
  5
5971
330
1F
100
AcDbEntity
  8
KANAMONO
100
AcDbCircle
 10
978.1454504795696
 20
1078.082029066121
 30
0.0
 40
29.99999999999952
100
AcDbArc
 50
104.4775121859292
 51
115.233068994294
  0
LINE
  5
5972
330
1F
100
AcDbEntity
  8
KANAMONO
100
AcDbLine
 10
965.3564068847135
 20
1105.219463799877
 30
0.0
 11
953.9454504795703
 21
1104.221134474438
 31
0.0
  0
LINE
  5
5973
330
1F
100
AcDbEntity
  8
KANAMONO
100
AcDbLine
 10
953.9454504795703
 20
1104.221134474438
 30
0.0
 11
953.9454504795703
 21
929.5666349789508
 31
0.0
  0
LINE
  5
5974
330
1F
100
AcDbEntity
  8
KANAMONO
100
AcDbLine
 10
953.9454504795703
 20
929.5666349789508
 30
0.0
 11
954.6454504795702
 21
926.954199413652
 31
0.0
  0
LINE
  5
5975
330
1F
100
AcDbEntity
  8
MOJI
100
AcDbLine
 10
878.0219991582384
 20
922.0843822119954
 30
0.0
 11
841.1287449139608
 21
985.9853730196405
 31
0.0
210
0.0
220
0.0
230
-1.0
1001
ACAD
1000
DSTYLE
1002
{
1070
   147
1040
1.0
1070
    77
1070
     0
1070
    42
1040
0.5
1070
   140
1040
2.0
1070
   279
1070
     2
1002
}
  0
LINE
  5
5976
330
1F
100
AcDbEntity
  8
MOJI
100
AcDbLine
 10
841.1287449139608
 20
985.9853730196405
 30
0.0
 11
776.7404231752434
 21
985.98537301964
 31
0.0
210
0.0
220
0.0
230
-1.0
1001
ACAD
1000
DSTYLE
1002
{
1070
   147
1040
1.0
1070
    77
1070
     0
1070
    42
1040
0.5
1070
   140
1040
2.0
1070
   279
1070
     2
1002
}
  0
LINE
  5
5977
330
1F
100
AcDbEntity
  8
MOJI
100
AcDbLine
 10
1003.145450479576
 20
1061.962310983134
 30
0.0
 11
1053.149653746152
 21
1148.572131632844
 31
0.0
1001
ACAD
1000
DSTYLE
1002
{
1070
   147
1040
1.0
1070
    77
1070
     0
1070
    42
1040
0.5
1070
   140
1040
2.0
1070
   279
1070
     2
1002
}
  0
LINE
  5
5978
330
1F
100
AcDbEntity
  8
MOJI
100
AcDbLine
 10
1053.149653746152
 20
1148.572131632844
 30
0.0
 11
1117.537975484869
 21
1148.572131632844
 31
0.0
1001
ACAD
1000
DSTYLE
1002
{
1070
   147
1040
1.0
1070
    77
1070
     0
1070
    42
1040
0.5
1070
   140
1040
2.0
1070
   279
1070
     2
1002
}
  0
LINE
  5
5979
330
1F
100
AcDbEntity
  8
sunpo
100
AcDbLine
 10
988.1454504795769
 20
1125.454199413653
 30
0.0
 11
1201.005050635554
 21
1125.454199413653
 31
0.0
  0
LINE
  5
597A
330
1F
100
AcDbEntity
  8
sunpo
100
AcDbLine
 10
1138.145450479577
 20
920.4541994136524
 30
0.0
 11
1201.005050635554
 21
920.4541994136524
 31
0.0
  0
LINE
  5
597B
330
1F
100
AcDbEntity
  8
sunpo
100
AcDbLine
 10
1201.005050635554
 20
1117.454199413653
 30
0.0
 11
1201.005050635554
 21
928.4541994136525
 31
0.0
  0
INSERT
  5
597C
330
1F
100
AcDbEntity
  8
sunpo
100
AcDbBlockReference
  2
_DOT
 10
1201.005050635554
 20
1125.454199413653
 30
0.0
 41
8.0
 42
8.0
 43
8.0
 50
90.0
  0
INSERT
  5
597D
330
1F
100
AcDbEntity
  8
sunpo
100
AcDbBlockReference
  2
_DOT
 10
1201.005050635554
 20
920.4541994136524
 30
0.0
 41
8.0
 42
8.0
 43
8.0
 50
270.0
  0
MTEXT
  5
597E
330
1F
100
AcDbEntity
  8
sunpo
100
AcDbMText
 10
1212.005050635555
 20
1022.954199413652
 30
0.0
 40
20.0
 41
0.0
 71
     5
 72
     1
  1
\A1;205
  7
MSゴシック
 11
0.0000000000000001
 21
1.0
 31
0.0
 73
     1
 44
1.0
1001
ACAD
1000
MTEXTBEGIN
1070
    73
1070
     1
1070
    44
1040
1.0
1070
    74
1070
     0
1000
MTEXTEND
  0
LINE
  5
597F
330
1F
100
AcDbEntity
  8
sunpo
100
AcDbLine
 10
1138.145450479577
 20
920.4541994136524
 30
0.0
 11
1167.696921902532
 21
920.4541994136524
 31
0.0
  0
LINE
  5
5980
330
1F
100
AcDbEntity
  8
sunpo
100
AcDbLine
 10
1013.145450479577
 20
1104.954199413652
 30
0.0
 11
1167.696921902532
 21
1104.954199413652
 31
0.0
  0
LINE
  5
5981
330
1F
100
AcDbEntity
  8
sunpo
100
AcDbLine
 10
1167.696921902532
 20
928.4541994136525
 30
0.0
 11
1167.696921902532
 21
1096.954199413652
 31
0.0
  0
INSERT
  5
5982
330
1F
100
AcDbEntity
  8
sunpo
100
AcDbBlockReference
  2
_DOT
 10
1167.696921902532
 20
920.4541994136524
 30
0.0
 41
8.0
 42
8.0
 43
8.0
 50
270.0
  0
INSERT
  5
5983
330
1F
100
AcDbEntity
  8
sunpo
100
AcDbBlockReference
  2
_DOT
 10
1167.696921902532
 20
1104.954199413652
 30
0.0
 41
8.0
 42
8.0
 43
8.0
 50
90.0
  0
MTEXT
  5
5984
330
1F
100
AcDbEntity
  8
sunpo
100
AcDbMText
 10
1178.696921902532
 20
1012.704199413652
 30
0.0
 40
20.0
 41
0.0
 71
     5
 72
     1
  1
\A1;184.5
  7
MSゴシック
 11
0.0000000000000001
 21
1.0
 31
0.0
 73
     1
 44
1.0
1001
ACAD
1000
MTEXTBEGIN
1070
    73
1070
     1
1070
    44
1040
1.0
1070
    74
1070
     0
1000
MTEXTEND
  0
LINE
  5
5985
330
1F
100
AcDbEntity
  8
sunpo
100
AcDbLine
 10
943.1454504795764
 20
1113.469864492563
 30
0.0
 11
943.1454504795764
 21
1190.471823824678
 31
0.0
  0
LINE
  5
5986
330
1F
100
AcDbEntity
  8
sunpo
100
AcDbLine
 10
1013.145450479576
 20
1112.81487918865
 30
0.0
 11
1013.145450479576
 21
1190.471823824678
 31
0.0
  0
LINE
  5
5987
330
1F
100
AcDbEntity
  8
sunpo
100
AcDbLine
 10
951.1454504795764
 20
1190.471823824678
 30
0.0
 11
1005.145450479576
 21
1190.471823824678
 31
0.0
  0
INSERT
  5
5988
330
1F
100
AcDbEntity
  8
sunpo
100
AcDbBlockReference
  2
_DOT
 10
943.1454504795764
 20
1190.471823824678
 30
0.0
 41
8.0
 42
8.0
 43
8.0
 50
180.0
  0
INSERT
  5
5989
330
1F
100
AcDbEntity
  8
sunpo
100
AcDbBlockReference
  2
_DOT
 10
1013.145450479576
 20
1190.471823824678
 30
0.0
 41
8.0
 42
8.0
 43
8.0
  0
MTEXT
  5
598A
330
1F
100
AcDbEntity
  8
sunpo
100
AcDbMText
 10
978.1454504795766
 20
1201.471823824678
 30
0.0
 40
20.0
 41
0.0
 71
     5
 72
     1
  1
\A1;70
  7
MSゴシック
 73
     1
 44
1.0
1001
ACAD
1000
MTEXTBEGIN
1070
    73
1070
     1
1070
    44
1040
1.0
1070
    74
1070
     0
1000
MTEXTEND
  0
ARC
  5
598B
330
1F
100
AcDbEntity
  8
KANAMONO
100
AcDbCircle
 10
1445.58121457767
 20
1107.342430187873
 30
0.0
 40
0.7500000000002589
100
AcDbArc
 50
235.5098144583094
 51
127.0119641218353
  0
ARC
  5
598C
330
1F
100
AcDbEntity
  8
KANAMONO
100
AcDbCircle
 10
1433.83121457767
 20
1090.239798811386
 30
0.0
 40
20.99999999999918
100
AcDbArc
 50
57.45074369785815
 51
122.5492563021418
  0
ARC
  5
598D
330
1F
100
AcDbEntity
  8
KANAMONO
100
AcDbCircle
 10
1422.081214577669
 20
1107.342430187873
 30
0.0
 40
0.7500000000003575
100
AcDbArc
 50
52.98803587816465
 51
304.4901855416906
  0
ARC
  5
598E
330
1F
100
AcDbEntity
  8
KANAMONO
100
AcDbCircle
 10
1433.83121457767
 20
1090.239798811384
 30
0.0
 40
20.00000000000104
100
AcDbArc
 50
55.509814458261
 51
124.490185541739
  0
LINE
  5
598F
330
1F
100
AcDbEntity
  8
KANAMONO
100
AcDbLine
 10
1457.33121457767
 20
926.954199413652
 30
0.0
 11
1457.33121457767
 21
920.4541994136521
 31
0.0
  0
LINE
  5
5990
330
1F
100
AcDbEntity
  8
KANAMONO
100
AcDbLine
 10
1457.33121457767
 20
920.4541994136521
 30
0.0
 11
1583.83121457767
 21
920.4541994136521
 31
0.0
  0
LINE
  5
5991
330
1F
100
AcDbEntity
  8
KANAMONO
100
AcDbLine
 10
1583.83121457767
 20
920.4541994136521
 30
0.0
 11
1583.83121457767
 21
921.954199413652
 31
0.0
  0
LINE
  5
5992
330
1F
100
AcDbEntity
  8
KANAMONO
100
AcDbLine
 10
1583.83121457767
 20
921.954199413652
 30
0.0
 11
1458.83121457767
 21
921.954199413652
 31
0.0
  0
LINE
  5
5993
330
1F
100
AcDbEntity
  8
KANAMONO
100
AcDbLine
 10
1458.83121457767
 20
921.954199413652
 30
0.0
 11
1458.83121457767
 21
926.954199413652
 31
0.0
  0
LINE
  5
5994
330
1F
100
AcDbEntity
  8
KANAMONO
100
AcDbLine
 10
1458.83121457767
 20
926.954199413652
 30
0.0
 11
1458.83121457767
 21
1104.954199413652
 31
0.0
  0
LINE
  5
5995
330
1F
100
AcDbEntity
  8
KANAMONO
100
AcDbLine
 10
1458.83121457767
 20
1104.954199413652
 30
0.0
 11
1446.831214577671
 21
1106.004063375963
 31
0.0
  0
ARC
  5
5996
330
1F
100
AcDbEntity
  8
KANAMONO
100
AcDbCircle
 10
1433.831214577671
 20
1078.082029066118
 30
0.0
 40
30.80000000000232
100
AcDbArc
 50
65.0341549329501
 51
75.90641069333414
  0
LINE
  5
5997
330
1F
100
AcDbEntity
  8
KANAMONO
100
AcDbLine
 10
1441.33121457767
 20
1107.954926481671
 30
0.0
 11
1441.33121457767
 21
1107.129404162676
 31
0.0
  0
ARC
  5
5998
330
1F
100
AcDbEntity
  8
KANAMONO
100
AcDbCircle
 10
1433.83121457767
 20
1078.082029066121
 30
0.0
 40
29.99999999999952
100
AcDbArc
 50
64.76693100570603
 51
75.52248781407074
  0
LINE
  5
5999
330
1F
100
AcDbEntity
  8
KANAMONO
100
AcDbLine
 10
1446.620258172526
 20
1105.219463799877
 30
0.0
 11
1458.03121457767
 21
1104.221134474438
 31
0.0
  0
LINE
  5
599A
330
1F
100
AcDbEntity
  8
KANAMONO
100
AcDbLine
 10
1458.03121457767
 20
1104.221134474438
 30
0.0
 11
1458.03121457767
 21
929.5666349789508
 31
0.0
  0
LINE
  5
599B
330
1F
100
AcDbEntity
  8
KANAMONO
100
AcDbLine
 10
1458.03121457767
 20
929.5666349789508
 30
0.0
 11
1457.33121457767
 21
926.954199413652
 31
0.0
  0
LINE
  5
599C
330
1F
100
AcDbEntity
  8
KANAMONO
100
AcDbLine
 10
1458.761489983471
 20
1104.960299525213
 30
0.0
 11
1448.262433062448
 21
1105.878847983515
 31
0.0
  0
ARC
  5
599D
330
1F
100
AcDbEntity
  8
KANAMONO
100
AcDbCircle
 10
1448.436744547943
 20
1107.871237379699
 30
0.0
 40
2.000000000000113
100
AcDbArc
 50
185.2159075245916
 51
265.000000000007
  0
LINE
  5
599E
330
1F
100
AcDbEntity
  8
KANAMONO
100
AcDbLine
 10
1446.445026153696
 20
1107.689419234237
 30
0.0
 11
1445.204797381397
 21
1121.275447474669
 31
0.0
  0
ARC
  5
599F
330
1F
100
AcDbEntity
  8
KANAMONO
100
AcDbCircle
 10
1444.010042284652
 20
1121.163374914234
 30
0.0
 40
1.200000000000225
100
AcDbArc
 50
5.358880317677749
 51
106.7770979082744
  0
LINE
  5
59A0
330
1F
100
AcDbEntity
  8
KANAMONO
100
AcDbLine
 10
1443.663663344159
 20
1122.312296856571
 30
0.0
 11
1438.631214577666
 21
1120.795105646632
 31
0.0
  0
LINE
  5
59A1
330
1F
100
AcDbEntity
  8
KANAMONO
100
AcDbLine
 10
1438.631214577666
 20
1120.795105646632
 30
0.0
 11
1438.631214577666
 21
1114.954199413652
 31
0.0
  0
LINE
  5
59A2
330
1F
100
AcDbEntity
  8
KANAMONO
100
AcDbLine
 10
1438.631214577666
 20
1114.954199413652
 30
0.0
 11
1437.831214577666
 21
1114.954199413652
 31
0.0
  0
LINE
  5
59A3
330
1F
100
AcDbEntity
  8
KANAMONO
100
AcDbLine
 10
1437.831214577666
 20
1114.954199413652
 30
0.0
 11
1437.081214577666
 21
1115.704199413654
 31
0.0
  0
LINE
  5
59A4
330
1F
100
AcDbEntity
  8
KANAMONO
100
AcDbLine
 10
1437.081214577666
 20
1115.704199413654
 30
0.0
 11
1437.081214577667
 21
1121.163374914234
 31
0.0
  0
LINE
  5
59A5
330
1F
100
AcDbEntity
  8
KANAMONO
100
AcDbLine
 10
1437.081214577667
 20
1121.163374914234
 30
0.0
 11
1443.432744050497
 21
1123.078244818129
 31
0.0
  0
ARC
  5
59A6
330
1F
100
AcDbEntity
  8
KANAMONO
100
AcDbCircle
 10
1444.010042284652
 20
1121.163374914234
 30
0.0
 40
2.000000000000477
100
AcDbArc
 50
5.358880317691125
 51
106.7770979082786
  0
LINE
  5
59A7
330
1F
100
AcDbEntity
  8
KANAMONO
100
AcDbLine
 10
1446.001300779227
 20
1121.350162514959
 30
0.0
 11
1447.240129162495
 21
1107.76241981939
 31
0.0
  0
ARC
  5
59A8
330
1F
100
AcDbEntity
  8
KANAMONO
100
AcDbCircle
 10
1448.435172587891
 20
1107.871374908383
 30
0.0
 40
1.199999999999992
100
AcDbArc
 50
185.2093967077694
 51
264.9999999999979
  0
LINE
  5
59A9
330
1F
100
AcDbEntity
  8
KANAMONO
100
AcDbLine
 10
1448.330585696594
 20
1106.675941270673
 30
0.0
 11
1458.83121457767
 21
1105.757255283687
 31
0.0
  0
LINE
  5
59AA
330
1F
100
AcDbEntity
  8
KANAMONO
100
AcDbLine
 10
1458.83121457767
 20
1105.757255283687
 30
0.0
 11
1458.83121457767
 21
1104.954199413652
 31
0.0
  0
LINE
  5
59AB
330
1F
100
AcDbEntity
  8
KANAMONO
100
AcDbLine
 10
1468.13121457767
 20
980.4541994136521
 30
0.0
 11
1468.13121457767
 21
1102.81487918865
 31
0.0
  0
ARC
  5
59AC
330
1F
100
AcDbEntity
  8
KANAMONO
100
AcDbCircle
 10
1453.831214577671
 20
1102.81487918865
 30
0.0
 40
14.29999999999927
100
AcDbArc
 50
0.0
 51
48.18968510422147
  0
ARC
  5
59AD
330
1F
100
AcDbEntity
  8
KANAMONO
100
AcDbCircle
 10
1433.83121457767
 20
1080.454199413651
 30
0.0
 40
44.30000000000068
100
AcDbArc
 50
48.18968510422106
 51
131.8103148957781
  0
ARC
  5
59AE
330
1F
100
AcDbEntity
  8
KANAMONO
100
AcDbCircle
 10
1413.831214577669
 20
1102.81487918865
 30
0.0
 40
14.29999999999961
100
AcDbArc
 50
131.8103148957786
 51
180.0000000000009
  0
LINE
  5
59AF
330
1F
100
AcDbEntity
  8
KANAMONO
100
AcDbLine
 10
1399.53121457767
 20
1102.81487918865
 30
0.0
 11
1399.53121457767
 21
980.4541994136521
 31
0.0
  0
LINE
  5
59B0
330
1F
100
AcDbEntity
  8
KANAMONO
100
AcDbLine
 10
1399.53121457767
 20
980.4541994136521
 30
0.0
 11
1398.83121457767
 21
980.4541994136521
 31
0.0
  0
LINE
  5
59B1
330
1F
100
AcDbEntity
  8
KANAMONO
100
AcDbLine
 10
1398.83121457767
 20
980.4541994136521
 30
0.0
 11
1398.83121457767
 21
1102.81487918865
 31
0.0
  0
ARC
  5
59B2
330
1F
100
AcDbEntity
  8
KANAMONO
100
AcDbCircle
 10
1413.83121457767
 20
1102.81487918865
 30
0.0
 40
15.0
100
AcDbArc
 50
131.8103148957784
 51
180.0
  0
ARC
  5
59B3
330
1F
100
AcDbEntity
  8
KANAMONO
100
AcDbCircle
 10
1433.83121457767
 20
1080.454199413652
 30
0.0
 40
45.00000000000001
100
AcDbArc
 50
48.18968510422141
 51
131.8103148957786
  0
ARC
  5
59B4
330
1F
100
AcDbEntity
  8
KANAMONO
100
AcDbCircle
 10
1453.83121457767
 20
1102.81487918865
 30
0.0
 40
15.00000000000006
100
AcDbArc
 50
0.0
 51
48.18968510422161
  0
LINE
  5
59B5
330
1F
100
AcDbEntity
  8
KANAMONO
100
AcDbLine
 10
1468.83121457767
 20
1102.81487918865
 30
0.0
 11
1468.83121457767
 21
980.4541994136521
 31
0.0
  0
LINE
  5
59B6
330
1F
100
AcDbEntity
  8
KANAMONO
100
AcDbLine
 10
1468.83121457767
 20
980.4541994136521
 30
0.0
 11
1468.13121457767
 21
980.4541994136521
 31
0.0
  0
LINE
  5
59B7
330
1F
100
AcDbEntity
  8
KANAMONO
100
AcDbLine
 10
1408.900939171861
 20
1104.960299525213
 30
0.0
 11
1419.399996092884
 21
1105.878847983515
 31
0.0
  0
ARC
  5
59B8
330
1F
100
AcDbEntity
  8
KANAMONO
100
AcDbCircle
 10
1419.225684607389
 20
1107.871237379699
 30
0.0
 40
2.000000000000113
100
AcDbArc
 50
274.9999999999929
 51
354.7840924754083
  0
LINE
  5
59B9
330
1F
100
AcDbEntity
  8
KANAMONO
100
AcDbLine
 10
1421.217403001636
 20
1107.689419234237
 30
0.0
 11
1422.457631773936
 21
1121.275447474669
 31
0.0
  0
ARC
  5
59BA
330
1F
100
AcDbEntity
  8
KANAMONO
100
AcDbCircle
 10
1423.65238687068
 20
1121.163374914234
 30
0.0
 40
1.200000000000225
100
AcDbArc
 50
73.22290209172559
 51
174.6411196823222
  0
LINE
  5
59BB
330
1F
100
AcDbEntity
  8
KANAMONO
100
AcDbLine
 10
1423.998765811173
 20
1122.312296856571
 30
0.0
 11
1429.031214577666
 21
1120.795105646632
 31
0.0
  0
LINE
  5
59BC
330
1F
100
AcDbEntity
  8
KANAMONO
100
AcDbLine
 10
1429.031214577666
 20
1120.795105646632
 30
0.0
 11
1429.031214577666
 21
1114.954199413652
 31
0.0
  0
LINE
  5
59BD
330
1F
100
AcDbEntity
  8
KANAMONO
100
AcDbLine
 10
1429.031214577666
 20
1114.954199413652
 30
0.0
 11
1429.831214577666
 21
1114.954199413652
 31
0.0
  0
LINE
  5
59BE
330
1F
100
AcDbEntity
  8
KANAMONO
100
AcDbLine
 10
1429.831214577666
 20
1114.954199413652
 30
0.0
 11
1430.581214577666
 21
1115.704199413654
 31
0.0
  0
LINE
  5
59BF
330
1F
100
AcDbEntity
  8
KANAMONO
100
AcDbLine
 10
1430.581214577666
 20
1115.704199413654
 30
0.0
 11
1430.581214577665
 21
1121.163374914234
 31
0.0
  0
LINE
  5
59C0
330
1F
100
AcDbEntity
  8
KANAMONO
100
AcDbLine
 10
1430.581214577665
 20
1121.163374914234
 30
0.0
 11
1424.229685104835
 21
1123.078244818129
 31
0.0
  0
ARC
  5
59C1
330
1F
100
AcDbEntity
  8
KANAMONO
100
AcDbCircle
 10
1423.65238687068
 20
1121.163374914234
 30
0.0
 40
2.000000000000477
100
AcDbArc
 50
73.22290209172144
 51
174.6411196823088
  0
LINE
  5
59C2
330
1F
100
AcDbEntity
  8
KANAMONO
100
AcDbLine
 10
1421.661128376106
 20
1121.350162514959
 30
0.0
 11
1420.422299992837
 21
1107.76241981939
 31
0.0
  0
ARC
  5
59C3
330
1F
100
AcDbEntity
  8
KANAMONO
100
AcDbCircle
 10
1419.227256567441
 20
1107.871374908383
 30
0.0
 40
1.199999999999992
100
AcDbArc
 50
275.0000000000022
 51
354.7906032922306
  0
LINE
  5
59C4
330
1F
100
AcDbEntity
  8
KANAMONO
100
AcDbLine
 10
1419.331843458738
 20
1106.675941270673
 30
0.0
 11
1408.831214577662
 21
1105.757255283687
 31
0.0
  0
LINE
  5
59C5
330
1F
100
AcDbEntity
  8
KANAMONO
100
AcDbLine
 10
1408.831214577662
 20
1105.757255283687
 30
0.0
 11
1408.831214577662
 21
1104.954199413652
 31
0.0
  0
LINE
  5
59C6
330
1F
100
AcDbEntity
  8
KANAMONO
100
AcDbLine
 10
1410.331214577663
 20
926.954199413652
 30
0.0
 11
1410.331214577663
 21
920.4541994136521
 31
0.0
  0
LINE
  5
59C7
330
1F
100
AcDbEntity
  8
KANAMONO
100
AcDbLine
 10
1410.331214577663
 20
920.4541994136521
 30
0.0
 11
1283.831214577663
 21
920.4541994136521
 31
0.0
  0
LINE
  5
59C8
330
1F
100
AcDbEntity
  8
KANAMONO
100
AcDbLine
 10
1283.831214577663
 20
920.4541994136521
 30
0.0
 11
1283.831214577663
 21
921.954199413652
 31
0.0
  0
LINE
  5
59C9
330
1F
100
AcDbEntity
  8
KANAMONO
100
AcDbLine
 10
1283.831214577663
 20
921.954199413652
 30
0.0
 11
1408.831214577663
 21
921.954199413652
 31
0.0
  0
LINE
  5
59CA
330
1F
100
AcDbEntity
  8
KANAMONO
100
AcDbLine
 10
1408.831214577663
 20
921.954199413652
 30
0.0
 11
1408.831214577663
 21
926.954199413652
 31
0.0
  0
LINE
  5
59CB
330
1F
100
AcDbEntity
  8
KANAMONO
100
AcDbLine
 10
1408.831214577663
 20
926.954199413652
 30
0.0
 11
1408.831214577663
 21
1104.954199413652
 31
0.0
  0
LINE
  5
59CC
330
1F
100
AcDbEntity
  8
KANAMONO
100
AcDbLine
 10
1408.831214577663
 20
1104.954199413652
 30
0.0
 11
1420.831214577663
 21
1106.004063375963
 31
0.0
  0
ARC
  5
59CD
330
1F
100
AcDbEntity
  8
KANAMONO
100
AcDbCircle
 10
1433.831214577663
 20
1078.082029066123
 30
0.0
 40
30.7999999999978
100
AcDbArc
 50
104.0935893066688
 51
114.9658450670529
  0
LINE
  5
59CE
330
1F
100
AcDbEntity
  8
KANAMONO
100
AcDbLine
 10
1426.331214577663
 20
1107.954926481671
 30
0.0
 11
1426.331214577663
 21
1107.129404162676
 31
0.0
  0
ARC
  5
59CF
330
1F
100
AcDbEntity
  8
KANAMONO
100
AcDbCircle
 10
1433.831214577663
 20
1078.082029066116
 30
0.0
 40
30.00000000000424
100
AcDbArc
 50
104.477512185926
 51
115.2330689942907
  0
LINE
  5
59D0
330
1F
100
AcDbEntity
  8
KANAMONO
100
AcDbLine
 10
1421.042170982806
 20
1105.219463799877
 30
0.0
 11
1409.631214577664
 21
1104.221134474438
 31
0.0
  0
LINE
  5
59D1
330
1F
100
AcDbEntity
  8
KANAMONO
100
AcDbLine
 10
1409.631214577664
 20
1104.221134474438
 30
0.0
 11
1409.631214577664
 21
929.5666349789508
 31
0.0
  0
LINE
  5
59D2
330
1F
100
AcDbEntity
  8
KANAMONO
100
AcDbLine
 10
1409.631214577664
 20
929.5666349789508
 30
0.0
 11
1410.331214577663
 21
926.954199413652
 31
0.0
  0
ENDSEC
  0
SECTION
  2
OBJECTS
  0
DICTIONARY
  5
C
330
0
100
AcDbDictionary
281
     1
  3
ACAD_CIP_PREVIOUS_PRODUCT_INFO
350
5066
  3
ACAD_COLOR
350
4C4C
  3
ACAD_DETAILVIEWSTYLE
350
5061
  3
ACAD_GROUP
350
D
  3
ACAD_LAYOUT
350
1A
  3
ACAD_MATERIAL
350
4C1F
  3
ACAD_MLEADERSTYLE
350
4C61
  3
ACAD_MLINESTYLE
350
17
  3
ACAD_PLOTSETTINGS
350
19
  3
ACAD_PLOTSTYLENAME
350
E
  3
ACAD_SCALELIST
350
4C4F
  3
ACAD_SECTIONVIEWSTYLE
350
505F
  3
ACAD_TABLESTYLE
350
4C4D
  3
ACAD_VISUALSTYLE
350
4C38
  3
ACDB_RECOMPOSE_DATA
350
59D5
  3
AcDbVariableDictionary
350
1835
  3
AEC_PROPERTY_SET_DEFS
350
4CAA
  3
DWGPROPS
350
59D6
  0
DICTIONARY
  5
4D5E
330
8
100
AcDbDictionary
280
     1
281
     1
  0
DICTIONARY
  5
2D
330
2
100
AcDbDictionary
280
     1
281
     1
  3
ACAD_LAYERFILTERS
360
2E
  3
ACAD_LAYERSTATES
360
918
  0
DICTIONARY
  5
4CB0
330
10
100
AcDbDictionary
280
     1
281
     1
  3
ADSK_XREC_LAYER_RECONCILED
360
4CB1
  0
DICTIONARY
  5
4CB2
330
2361
100
AcDbDictionary
280
     1
281
     1
  3
ADSK_XREC_LAYER_RECONCILED
360
4CB3
  0
DICTIONARY
  5
4CB4
330
2363
100
AcDbDictionary
280
     1
281
     1
  3
ADSK_XREC_LAYER_RECONCILED
360
4CB5
  0
DICTIONARY
  5
4CB6
330
32AD
100
AcDbDictionary
280
     1
281
     1
  3
ADSK_XREC_LAYER_RECONCILED
360
4CB7
  0
DICTIONARY
  5
4CB8
330
32AE
100
AcDbDictionary
280
     1
281
     1
  3
ADSK_XREC_LAYER_RECONCILED
360
4CB9
  0
DICTIONARY
  5
5086
330
5085
100
AcDbDictionary
280
     1
281
     1
  0
DICTIONARY
  5
547C
330
547B
100
AcDbDictionary
280
     1
281
     1
  0
DICTIONARY
  5
1C62
330
1F
100
AcDbDictionary
280
     1
281
     1
  3
ACAD_SORTENTS
360
1C63
  0
XRECORD
  5
5066
102
{ACAD_REACTORS
330
C
102
}
330
C
100
AcDbXrecord
280
     1
300
ACD
300
2022
300

  0
DICTIONARY
  5
4C4C
102
{ACAD_REACTORS
330
C
102
}
330
C
100
AcDbDictionary
281
     1
  0
DICTIONARY
  5
5061
102
{ACAD_REACTORS
330
C
102
}
330
C
100
AcDbDictionary
281
     1
  3
Metric50
350
5062
  0
DICTIONARY
  5
D
102
{ACAD_REACTORS
330
C
102
}
330
C
100
AcDbDictionary
281
     1
  0
DICTIONARY
  5
1A
102
{ACAD_REACTORS
330
C
102
}
330
C
100
AcDbDictionary
281
     1
  3
Model
350
22
  3
\U+FF9A\U+FF72\U+FF71\U+FF73\U+FF841
350
1CD1
  0
DICTIONARY
  5
4C1F
102
{ACAD_REACTORS
330
C
102
}
330
C
100
AcDbDictionary
281
     1
  3
ByBlock
350
4C28
  3
ByLayer
350
4C20
  3
Global
350
4C30
  0
DICTIONARY
  5
4C61
102
{ACAD_REACTORS
330
C
102
}
330
C
100
AcDbDictionary
281
     1
  3
Standard
350
4C62
  0
DICTIONARY
  5
17
102
{ACAD_REACTORS
330
C
102
}
330
C
100
AcDbDictionary
281
     1
  3
Standard
350
18
  0
DICTIONARY
  5
19
102
{ACAD_REACTORS
330
C
102
}
330
C
100
AcDbDictionary
281
     1
  0
ACDBDICTIONARYWDFLT
  5
E
102
{ACAD_REACTORS
330
C
102
}
330
C
100
AcDbDictionary
281
     1
  3
Normal
350
F
  3
通常
350
29
100
AcDbDictionaryWithDefault
340
F
  0
DICTIONARY
  5
4C4F
102
{ACAD_REACTORS
330
C
102
}
330
C
100
AcDbDictionary
281
     1
  3
A0
350
4C50
  3
A1
350
4C51
  3
A2
350
4C52
  3
A3
350
4C53
  3
A4
350
4C54
  3
A5
350
4C55
  3
A6
350
4C56
  3
A7
350
4C57
  3
A8
350
4C58
  3
A9
350
4C59
  3
B0
350
4C5A
  3
B1
350
4C5B
  3
B2
350
4C5C
  3
B3
350
4C5D
  3
B4
350
4C5E
  3
B5
350
4C5F
  3
B6
350
4C60
  0
DICTIONARY
  5
505F
102
{ACAD_REACTORS
330
C
102
}
330
C
100
AcDbDictionary
281
     1
  3
Metric50
350
5060
  0
DICTIONARY
  5
4C4D
102
{ACAD_REACTORS
330
C
102
}
330
C
100
AcDbDictionary
281
     1
  3
Standard
350
4C4E
  0
DICTIONARY
  5
4C38
102
{ACAD_REACTORS
330
C
102
}
330
C
100
AcDbDictionary
281
     1
  3
2dWireframe
350
4C3E
  3
3D Hidden
350
4C40
  3
3dWireframe
350
4C3F
  3
Basic
350
4C3D
  3
Brighten
350
4C44
  3
ColorChange
350
4C48
  3
Conceptual
350
4C41
  3
Dim
350
4C43
  3
EdgeColorOff
350
4C4B
  3
Facepattern
350
4C47
  3
Flat
350
4C39
  3
FlatWithEdges
350
4C3A
  3
Gouraud
350
4C3B
  3
GouraudWithEdges
350
4C3C
  3
Hidden
350
5059
  3
JitterOff
350
4C49
  3
Linepattern
350
4C46
  3
OverhangOff
350
4C4A
  3
Realistic
350
4C42
  3
Shaded
350
505E
  3
Shaded with edges
350
505D
  3
Shades of Gray
350
505A
  3
Sketchy
350
505B
  3
Thicken
350
4C45
  3
Wireframe
350
5058
  3
X-Ray
350
505C
  0
XRECORD
  5
59D5
102
{ACAD_REACTORS
330
C
102
}
330
C
100
AcDbXrecord
280
     1
 90
        1
330
4C4E
  0
DICTIONARY
  5
1835
102
{ACAD_REACTORS
330
C
102
}
330
C
100
AcDbDictionary
281
     1
  3
CANNOSCALE
350
4D91
  3
CMLEADERSTYLE
350
4D90
  3
CTABLESTYLE
350
4D8F
  3
CVIEWDETAILSTYLE
350
517F
  3
CVIEWSECTIONSTYLE
350
5180
  3
DIMASSOC
350
4D93
  3
INDEXCTL
350
4D92
  3
SORTENTS
350
1836
  3
XCLIPFRAME
350
59D3
  0
DICTIONARY
  5
4CAA
102
{ACAD_REACTORS
330
C
102
}
330
C
100
AcDbDictionary
281
     1
  0
XRECORD
  5
59D6
102
{ACAD_REACTORS
330
C
102
}
330
C
100
AcDbXrecord
280
     1
  1
DWGPROPS COOKIE
  2

  3

  4

  6

  7

  8
2020009
  9

300
=
301
=
302
=
303
=
304
=
305
=
306
=
307
=
308
=
309
=
 40
0.4479832523148149
 41
2453276.413761574
 42
2459979.409606482
  1

 90
        0
  0
DICTIONARY
  5
2E
102
{ACAD_REACTORS
330
2D
102
}
330
2D
100
AcDbDictionary
280
     1
281
     1
  0
DICTIONARY
  5
918
102
{ACAD_REACTORS
330
2D
102
}
330
2D
100
AcDbDictionary
281
     1
  0
XRECORD
  5
4CB1
102
{ACAD_REACTORS
330
4CB0
102
}
330
4CB0
100
AcDbXrecord
280
     1
290
     1
  0
XRECORD
  5
4CB3
102
{ACAD_REACTORS
330
4CB2
102
}
330
4CB2
100
AcDbXrecord
280
     1
290
     1
  0
XRECORD
  5
4CB5
102
{ACAD_REACTORS
330
4CB4
102
}
330
4CB4
100
AcDbXrecord
280
     1
290
     1
  0
XRECORD
  5
4CB7
102
{ACAD_REACTORS
330
4CB6
102
}
330
4CB6
100
AcDbXrecord
280
     1
290
     1
  0
XRECORD
  5
4CB9
102
{ACAD_REACTORS
330
4CB8
102
}
330
4CB8
100
AcDbXrecord
280
     1
290
     1
  0
SORTENTSTABLE
  5
1C63
102
{ACAD_REACTORS
330
1C62
102
}
330
1C62
100
AcDbSortentsTable
330
1F
331
509B
  5
54F5
331
509C
  5
54F6
331
509E
  5
54FB
331
509F
  5
54FC
331
50A0
  5
54FD
331
54F2
  5
54FE
331
54F3
  5
54FF
331
54F4
  5
5500
331
54F5
  5
5501
331
54F6
  5
5502
331
54F7
  5
5504
331
54F8
  5
5505
331
54F9
  5
5507
331
54FA
  5
5508
331
54FB
  5
5509
331
54FC
  5
550E
331
54FD
  5
5510
331
54FE
  5
5516
331
54FF
  5
5517
331
5500
  5
5518
331
5501
  5
5519
331
5502
  5
551A
331
5504
  5
5526
331
5505
  5
5527
331
5507
  5
5531
331
5508
  5
5532
331
5509
  5
5533
331
550E
  5
5541
331
5510
  5
5543
331
5516
  5
58D8
331
5517
  5
58D9
331
5518
  5
58DA
331
5519
  5
58DB
331
551A
  5
58DC
331
551C
  5
58E3
331
5521
  5
5903
331
5522
  5
5904
331
5523
  5
5905
331
5524
  5
5906
331
5525
  5
5907
331
5526
  5
5908
331
5527
  5
5909
331
552B
  5
592A
331
552C
  5
592B
331
552D
  5
592C
331
552E
  5
592D
331
552F
  5
592E
331
5530
  5
592F
331
5531
  5
5930
331
5532
  5
5931
331
5533
  5
5932
331
5535
  5
593F
331
5537
  5
594F
331
5539
  5
595D
331
553A
  5
595E
331
553B
  5
595F
331
553C
  5
5960
331
553D
  5
5961
331
553F
  5
5964
331
5541
  5
5965
331
5543
  5
5968
331
5547
  5
5975
331
5548
  5
5976
331
5549
  5
5977
331
554F
  5
599E
331
5550
  5
599F
331
5551
  5
59A0
331
5552
  5
59A1
331
5553
  5
59A2
331
5554
  5
59A3
331
5555
  5
59A4
331
5556
  5
59A5
331
5557
  5
59A6
331
5559
  5
59B3
331
555B
  5
59C3
331
555D
  5
59D1
331
555E
  5
59D2
331
58CE
  5
509B
331
58CF
  5
509C
331
58D0
  5
509E
331
58D1
  5
509F
331
58D2
  5
50A0
331
58D3
  5
54F2
331
58D4
  5
54F3
331
58D5
  5
54F4
331
58D6
  5
54F7
331
58D7
  5
54F8
331
58D8
  5
54F9
331
58D9
  5
54FA
331
58DA
  5
551C
331
58DB
  5
5521
331
58DC
  5
5522
331
58DD
  5
5523
331
58DE
  5
5524
331
58DF
  5
5525
331
58E0
  5
552B
331
58E1
  5
552C
331
58E2
  5
552D
331
58E3
  5
552E
331
58E4
  5
552F
331
58E5
  5
5530
331
58E6
  5
5535
331
58E7
  5
5537
331
58E8
  5
5539
331
58E9
  5
553A
331
58EA
  5
553B
331
58EB
  5
553C
331
58EC
  5
553D
331
58ED
  5
553F
331
58EE
  5
5547
331
58EF
  5
5548
331
58F0
  5
5549
331
58F1
  5
554F
331
58F2
  5
5550
331
58F3
  5
5551
331
58F4
  5
5552
331
58F5
  5
5553
331
58F6
  5
5554
331
58F7
  5
5555
331
58F8
  5
5556
331
58F9
  5
5557
331
58FA
  5
5559
331
58FB
  5
555B
331
58FC
  5
555D
331
58FD
  5
555E
331
58FE
  5
58CE
331
58FF
  5
58CF
331
5900
  5
58D0
331
5901
  5
58D1
331
5902
  5
58D2
331
5903
  5
58D3
331
5904
  5
58D4
331
5905
  5
58D5
331
5906
  5
58D6
331
5907
  5
58D7
331
5908
  5
58DD
331
5909
  5
58DE
331
590A
  5
58DF
331
590B
  5
58E0
331
590C
  5
58E1
331
590D
  5
58E2
331
590E
  5
58E4
331
590F
  5
58E5
331
5910
  5
58E6
331
5911
  5
58E7
331
5912
  5
58E8
331
5913
  5
58E9
331
5914
  5
58EA
331
5915
  5
58EB
331
5916
  5
58EC
331
5917
  5
58ED
331
5918
  5
58EE
331
5919
  5
58EF
331
591A
  5
58F0
331
591B
  5
58F1
331
591C
  5
58F2
331
591D
  5
58F3
331
591E
  5
58F4
331
591F
  5
58F5
331
5920
  5
58F6
331
5921
  5
58F7
331
5922
  5
58F8
331
5923
  5
58F9
331
5924
  5
58FA
331
5925
  5
58FB
331
5926
  5
58FC
331
5927
  5
58FD
331
5928
  5
58FE
331
5929
  5
58FF
331
592A
  5
5900
331
592B
  5
5901
331
592C
  5
5902
331
592D
  5
590A
331
592E
  5
590B
331
592F
  5
590C
331
5930
  5
590D
331
5931
  5
590E
331
5932
  5
590F
331
5933
  5
5910
331
5934
  5
5911
331
5935
  5
5912
331
5936
  5
5913
331
5937
  5
5914
331
5938
  5
5915
331
5939
  5
5916
331
593A
  5
5917
331
593B
  5
5918
331
593C
  5
5919
331
593D
  5
591A
331
593E
  5
591B
331
593F
  5
591C
331
5940
  5
591D
331
5941
  5
591E
331
5942
  5
591F
331
5943
  5
5920
331
5944
  5
5921
331
5945
  5
5922
331
5946
  5
5923
331
5947
  5
5924
331
5948
  5
5925
331
5949
  5
5926
331
594A
  5
5927
331
594B
  5
5928
331
594C
  5
5929
331
594D
  5
5933
331
594E
  5
5934
331
594F
  5
5935
331
5950
  5
5936
331
5951
  5
5937
331
5952
  5
5938
331
5953
  5
5939
331
5954
  5
593A
331
5955
  5
593B
331
5956
  5
593C
331
5957
  5
593D
331
5958
  5
593E
331
5959
  5
5940
331
595A
  5
5941
331
595B
  5
5942
331
595C
  5
5943
331
595D
  5
5944
331
595E
  5
5945
331
595F
  5
5946
331
5960
  5
5947
331
5961
  5
5948
331
5962
  5
5949
331
5963
  5
594A
331
5964
  5
594B
331
5965
  5
594C
331
5966
  5
594D
331
5967
  5
594E
331
5968
  5
5950
331
5969
  5
5951
331
596A
  5
5952
331
596B
  5
5953
331
596C
  5
5954
331
596D
  5
5955
331
596E
  5
5956
331
596F
  5
5957
331
5970
  5
5958
331
5971
  5
5959
331
5972
  5
595A
331
5973
  5
595B
331
5974
  5
595C
331
5975
  5
5962
331
5976
  5
5963
331
5977
  5
5966
331
5978
  5
5967
331
5979
  5
5969
331
597A
  5
596A
331
597B
  5
596B
331
597C
  5
596C
331
597D
  5
596D
331
597E
  5
596E
331
597F
  5
596F
331
5980
  5
5970
331
5981
  5
5971
331
5982
  5
5972
331
5983
  5
5973
331
5984
  5
5974
331
5985
  5
5978
331
5986
  5
5979
331
5987
  5
597A
331
5988
  5
597B
331
5989
  5
597C
331
598A
  5
597D
331
598B
  5
597E
331
598C
  5
597F
331
598D
  5
5980
331
598E
  5
5981
331
598F
  5
5982
331
5990
  5
5983
331
5991
  5
5984
331
5992
  5
5985
331
5993
  5
5986
331
5994
  5
5987
331
5995
  5
5988
331
5996
  5
5989
331
5997
  5
598A
331
5998
  5
598B
331
5999
  5
598C
331
599A
  5
598D
331
599B
  5
598E
331
599C
  5
598F
331
599D
  5
5990
331
599E
  5
5991
331
599F
  5
5992
331
59A0
  5
5993
331
59A1
  5
5994
331
59A2
  5
5995
331
59A3
  5
5996
331
59A4
  5
5997
331
59A5
  5
5998
331
59A6
  5
5999
331
59A7
  5
599A
331
59A8
  5
599B
331
59A9
  5
599C
331
59AA
  5
599D
331
59AB
  5
59A7
331
59AC
  5
59A8
331
59AD
  5
59A9
331
59AE
  5
59AA
331
59AF
  5
59AB
331
59B0
  5
59AC
331
59B1
  5
59AD
331
59B2
  5
59AE
331
59B3
  5
59AF
331
59B4
  5
59B0
331
59B5
  5
59B1
331
59B6
  5
59B2
331
59B7
  5
59B4
331
59B8
  5
59B5
331
59B9
  5
59B6
331
59BA
  5
59B7
331
59BB
  5
59B8
331
59BC
  5
59B9
331
59BD
  5
59BA
331
59BE
  5
59BB
331
59BF
  5
59BC
331
59C0
  5
59BD
331
59C1
  5
59BE
331
59C2
  5
59BF
331
59C3
  5
59C0
331
59C4
  5
59C1
331
59C5
  5
59C2
331
59C6
  5
59C4
331
59C7
  5
59C5
331
59C8
  5
59C6
331
59C9
  5
59C7
331
59CA
  5
59C8
331
59CB
  5
59C9
331
59CC
  5
59CA
331
59CD
  5
59CB
331
59CE
  5
59CC
331
59CF
  5
59CD
331
59D0
  5
59CE
331
59D1
  5
59CF
331
59D2
  5
59D0
  0
ACDBDETAILVIEWSTYLE
  5
5062
102
{ACAD_XDICTIONARY
360
5A15
102
}
102
{ACAD_REACTORS
330
5061
102
}
330
5061
100
AcDbModelDocViewStyle
 70
     0
  3
Metric50
290
     0
100
AcDbDetailViewStyle
 70
     0
 71
     0
 90
        3
 71
     1
340
11
 40
5.0
340
0
 40
5.0
300

 40
0.0
280
     1
 71
     2
340
16
 90
       25
 71
     3
340
11
 40
5.0
 90
        0
 40
15.0
 90
        1
300
%<\AcVar ViewDetailId>% (%<\AcVar ViewScale \f "%sn">%)
 71
     4
340
16
 90
       25
340
16
 90
       25
280
     0
1001
ACAD
1000
AcRTDxfName
1000
ACDBDETAILVIEWSTYLE
1000
AcRTDxfName
1000
ACDBDETAILVIEWSTYLE
  0
LAYOUT
  5
22
102
{ACAD_XDICTIONARY
360
59D7
102
}
102
{ACAD_REACTORS
330
1A
102
}
330
1A
100
AcDbPlotSettings
  1

  2
Canon LBP3800 LIPSLX
  4
A4
  6

 40
5.873749732971191
 41
5.873747825622558
 42
5.873748779296875
 43
5.873748779296875
 44
209.9733276367187
 45
296.9259948730469
 46
0.61
 47
0.59
 48
444.9983463649091
 49
-1090.000000918417
140
2395.001653364909
141
1659.999999081583
142
1.0
143
10.0
 70
 11940
 72
     1
 73
     1
 74
     2
  7
monochrome.ctb
 75
     0
147
0.1
148
0.0
149
0.0
100
AcDbLayout
  1
Model
 70
     1
 71
     0
 10
0.0
 20
0.0
 11
12.0
 21
9.0
 12
0.0
 22
0.0
 32
0.0
 14
0.0
 24
0.0
 34
0.0
 15
0.0
 25
0.0
 35
0.0
146
0.0
 13
0.0
 23
0.0
 33
0.0
 16
1.0
 26
0.0
 36
0.0
 17
0.0
 27
1.0
 37
0.0
 76
     0
330
1F
331
4C1D
  0
LAYOUT
  5
1CD1
102
{ACAD_XDICTIONARY
360
59D9
102
}
102
{ACAD_REACTORS
330
1A
102
}
330
1A
100
AcDbPlotSettings
  1

  2
\\ek_srv\Canon LBP-880 LIPS4
  4

  6

 40
0.0
 41
0.0
 42
0.0
 43
0.0
 44
0.0
 45
0.0
 46
0.0
 47
0.0
 48
0.0
 49
0.0
140
0.0
141
0.0
142
1.0
143
1.0
 70
   688
 72
     0
 73
     0
 74
     5
  7
monochrome.ctb
 75
    16
147
1.0
148
0.0
149
0.0
100
AcDbLayout
  1
\U+FF9A\U+FF72\U+FF71\U+FF73\U+FF841
 70
     1
 71
     1
 10
0.0
 20
0.0
 11
12.0
 21
9.0
 12
0.0
 22
0.0
 32
0.0
 14
0.0
 24
0.0
 34
0.0
 15
0.0
 25
0.0
 35
0.0
146
0.0
 13
0.0
 23
0.0
 33
0.0
 16
1.0
 26
0.0
 36
0.0
 17
0.0
 27
1.0
 37
0.0
 76
     0
330
1CD0
  0
MATERIAL
  5
4C28
102
{ACAD_XDICTIONARY
360
4C29
102
}
102
{ACAD_REACTORS
330
4C1F
102
}
330
4C1F
100
AcDbMaterial
  1
ByBlock
 72
     0
 43
0.0008202099737533
 43
0.0
 43
0.0
 43
0.0
 43
0.0
 43
0.0008202099737533
 43
0.0
 43
0.0
 43
0.0
 43
0.0
 43
1.0
 43
0.0
 43
0.0
 43
0.0
 43
0.0
 43
1.0
 77
     0
 47
0.0008202099737533
 47
0.0
 47
0.0
 47
0.0
 47
0.0
 47
0.0008202099737533
 47
0.0
 47
0.0
 47
0.0
 47
0.0
 47
1.0
 47
0.0
 47
0.0
 47
0.0
 47
0.0
 47
1.0
171
     0
 49
0.0008202099737533
 49
0.0
 49
0.0
 49
0.0
 49
0.0
 49
0.0008202099737533
 49
0.0
 49
0.0
 49
0.0
 49
0.0
 49
1.0
 49
0.0
 49
0.0
 49
0.0
 49
0.0
 49
1.0
175
     0
142
0.0008202099737533
142
0.0
142
0.0
142
0.0
142
0.0
142
0.0008202099737533
142
0.0
142
0.0
142
0.0
142
0.0
142
1.0
142
0.0
142
0.0
142
0.0
142
0.0
142
1.0
179
     0
144
0.0008202099737533
144
0.0
144
0.0
144
0.0
144
0.0
144
0.0008202099737533
144
0.0
144
0.0
144
0.0
144
0.0
144
1.0
144
0.0
144
0.0
144
0.0
144
0.0
144
1.0
147
0.0008202099737533
147
0.0
147
0.0
147
0.0
147
0.0
147
0.0008202099737533
147
0.0
147
0.0
147
0.0
147
0.0
147
1.0
147
0.0
147
0.0
147
0.0
147
0.0
147
1.0
  0
MATERIAL
  5
4C20
102
{ACAD_XDICTIONARY
360
4C21
102
}
102
{ACAD_REACTORS
330
4C1F
102
}
330
4C1F
100
AcDbMaterial
  1
ByLayer
 72
     0
 43
0.0008202099737533
 43
0.0
 43
0.0
 43
0.0
 43
0.0
 43
0.0008202099737533
 43
0.0
 43
0.0
 43
0.0
 43
0.0
 43
1.0
 43
0.0
 43
0.0
 43
0.0
 43
0.0
 43
1.0
 77
     0
 47
0.0008202099737533
 47
0.0
 47
0.0
 47
0.0
 47
0.0
 47
0.0008202099737533
 47
0.0
 47
0.0
 47
0.0
 47
0.0
 47
1.0
 47
0.0
 47
0.0
 47
0.0
 47
0.0
 47
1.0
171
     0
 49
0.0008202099737533
 49
0.0
 49
0.0
 49
0.0
 49
0.0
 49
0.0008202099737533
 49
0.0
 49
0.0
 49
0.0
 49
0.0
 49
1.0
 49
0.0
 49
0.0
 49
0.0
 49
0.0
 49
1.0
175
     0
142
0.0008202099737533
142
0.0
142
0.0
142
0.0
142
0.0
142
0.0008202099737533
142
0.0
142
0.0
142
0.0
142
0.0
142
1.0
142
0.0
142
0.0
142
0.0
142
0.0
142
1.0
179
     0
144
0.0008202099737533
144
0.0
144
0.0
144
0.0
144
0.0
144
0.0008202099737533
144
0.0
144
0.0
144
0.0
144
0.0
144
1.0
144
0.0
144
0.0
144
0.0
144
0.0
144
1.0
147
0.0008202099737533
147
0.0
147
0.0
147
0.0
147
0.0
147
0.0008202099737533
147
0.0
147
0.0
147
0.0
147
0.0
147
1.0
147
0.0
147
0.0
147
0.0
147
0.0
147
1.0
  0
MATERIAL
  5
4C30
102
{ACAD_XDICTIONARY
360
4C31
102
}
102
{ACAD_REACTORS
330
4C1F
102
}
330
4C1F
100
AcDbMaterial
  1
Global
 72
     0
 43
0.0008202099737533
 43
0.0
 43
0.0
 43
0.0
 43
0.0
 43
0.0008202099737533
 43
0.0
 43
0.0
 43
0.0
 43
0.0
 43
1.0
 43
0.0
 43
0.0
 43
0.0
 43
0.0
 43
1.0
 77
     0
 47
0.0008202099737533
 47
0.0
 47
0.0
 47
0.0
 47
0.0
 47
0.0008202099737533
 47
0.0
 47
0.0
 47
0.0
 47
0.0
 47
1.0
 47
0.0
 47
0.0
 47
0.0
 47
0.0
 47
1.0
171
     0
 49
0.0008202099737533
 49
0.0
 49
0.0
 49
0.0
 49
0.0
 49
0.0008202099737533
 49
0.0
 49
0.0
 49
0.0
 49
0.0
 49
1.0
 49
0.0
 49
0.0
 49
0.0
 49
0.0
 49
1.0
175
     0
142
0.0008202099737533
142
0.0
142
0.0
142
0.0
142
0.0
142
0.0008202099737533
142
0.0
142
0.0
142
0.0
142
0.0
142
1.0
142
0.0
142
0.0
142
0.0
142
0.0
142
1.0
179
     0
144
0.0008202099737533
144
0.0
144
0.0
144
0.0
144
0.0
144
0.0008202099737533
144
0.0
144
0.0
144
0.0
144
0.0
144
1.0
144
0.0
144
0.0
144
0.0
144
0.0
144
1.0
147
0.0008202099737533
147
0.0
147
0.0
147
0.0
147
0.0
147
0.0008202099737533
147
0.0
147
0.0
147
0.0
147
0.0
147
1.0
147
0.0
147
0.0
147
0.0
147
0.0
147
1.0
  0
MLEADERSTYLE
  5
4C62
102
{ACAD_REACTORS
330
4C61
102
}
330
4C61
100
AcDbMLeaderStyle
170
     2
171
     1
172
     0
 90
        2
 40
0.0
 41
0.0
173
     1
 91
-1056964608
340
14
 92
       -2
290
     1
 42
2.0
291
     1
 43
0.36
  3
Standard
 44
4.0
300

342
11
174
     1
178
     6
175
     1
176
     0
 93
-1056964608
 45
4.0
292
     0
297
     0
 46
4.0
 94
-1056964608
 47
1.0
 49
1.0
140
1.0
293
     1
141
0.0
294
     1
177
     0
142
1.0
295
     0
296
     0
143
0.125
1001
ACAD_MLEADERVER
1070
     2
  0
MLINESTYLE
  5
18
102
{ACAD_REACTORS
330
17
102
}
330
17
100
AcDbMlineStyle
  2
STANDARD
 70
     0
  3

 62
   256
 51
90.0
 52
90.0
 71
     2
 49
0.5
 62
   256
  6
BYLAYER
 49
-0.5
 62
   256
  6
BYLAYER
  0
ACDBPLACEHOLDER
  5
F
102
{ACAD_REACTORS
330
E
102
}
330
E
  0
ACDBPLACEHOLDER
  5
29
102
{ACAD_REACTORS
330
E
102
}
330
E
  0
SCALE
  5
4C50
102
{ACAD_REACTORS
330
4C4F
102
}
330
4C4F
100
AcDbScale
 70
     0
300
1:1
140
1.0
141
1.0
290
     1
  0
SCALE
  5
4C51
102
{ACAD_REACTORS
330
4C4F
102
}
330
4C4F
100
AcDbScale
 70
     0
300
1:2
140
1.0
141
2.0
290
     0
  0
SCALE
  5
4C52
102
{ACAD_REACTORS
330
4C4F
102
}
330
4C4F
100
AcDbScale
 70
     0
300
1:4
140
1.0
141
4.0
290
     0
  0
SCALE
  5
4C53
102
{ACAD_REACTORS
330
4C4F
102
}
330
4C4F
100
AcDbScale
 70
     0
300
1:5
140
1.0
141
5.0
290
     0
  0
SCALE
  5
4C54
102
{ACAD_REACTORS
330
4C4F
102
}
330
4C4F
100
AcDbScale
 70
     0
300
1:8
140
1.0
141
8.0
290
     0
  0
SCALE
  5
4C55
102
{ACAD_REACTORS
330
4C4F
102
}
330
4C4F
100
AcDbScale
 70
     0
300
1:10
140
1.0
141
10.0
290
     0
  0
SCALE
  5
4C56
102
{ACAD_REACTORS
330
4C4F
102
}
330
4C4F
100
AcDbScale
 70
     0
300
1:16
140
1.0
141
16.0
290
     0
  0
SCALE
  5
4C57
102
{ACAD_REACTORS
330
4C4F
102
}
330
4C4F
100
AcDbScale
 70
     0
300
1:20
140
1.0
141
20.0
290
     0
  0
SCALE
  5
4C58
102
{ACAD_REACTORS
330
4C4F
102
}
330
4C4F
100
AcDbScale
 70
     0
300
1:30
140
1.0
141
30.0
290
     0
  0
SCALE
  5
4C59
102
{ACAD_REACTORS
330
4C4F
102
}
330
4C4F
100
AcDbScale
 70
     0
300
1:40
140
1.0
141
40.0
290
     0
  0
SCALE
  5
4C5A
102
{ACAD_REACTORS
330
4C4F
102
}
330
4C4F
100
AcDbScale
 70
     0
300
1:50
140
1.0
141
50.0
290
     0
  0
SCALE
  5
4C5B
102
{ACAD_REACTORS
330
4C4F
102
}
330
4C4F
100
AcDbScale
 70
     0
300
1:100
140
1.0
141
100.0
290
     0
  0
SCALE
  5
4C5C
102
{ACAD_REACTORS
330
4C4F
102
}
330
4C4F
100
AcDbScale
 70
     0
300
2:1
140
2.0
141
1.0
290
     0
  0
SCALE
  5
4C5D
102
{ACAD_REACTORS
330
4C4F
102
}
330
4C4F
100
AcDbScale
 70
     0
300
4:1
140
4.0
141
1.0
290
     0
  0
SCALE
  5
4C5E
102
{ACAD_REACTORS
330
4C4F
102
}
330
4C4F
100
AcDbScale
 70
     0
300
8:1
140
8.0
141
1.0
290
     0
  0
SCALE
  5
4C5F
102
{ACAD_REACTORS
330
4C4F
102
}
330
4C4F
100
AcDbScale
 70
     0
300
10:1
140
10.0
141
1.0
290
     0
  0
SCALE
  5
4C60
102
{ACAD_REACTORS
330
4C4F
102
}
330
4C4F
100
AcDbScale
 70
     0
300
100:1
140
100.0
141
1.0
290
     0
  0
ACDBSECTIONVIEWSTYLE
  5
5060
102
{ACAD_XDICTIONARY
360
5A13
102
}
102
{ACAD_REACTORS
330
505F
102
}
330
505F
100
AcDbModelDocViewStyle
 70
     0
  3
Metric50
290
     0
100
AcDbSectionViewStyle
 70
     0
 71
     0
 90
      102
 71
     1
340
11
 40
5.0
340
0
340
0
 40
5.0
300
I, O, Q, S, X, Z
 40
10.0
 90
        0
 40
2.5
 90
        0
 71
     2
340
16
 90
       25
340
16
 90
       50
 40
5.0
 40
2.5
 40
5.0
 71
     3
340
11
 40
5.0
 90
        0
 40
15.0
 90
        1
300
%<\AcVar ViewSectionStartId>%-%<\AcVar ViewSectionEndId>% (%<\AcVar ViewScale \f "%sn">%)
 71
     4
300
ANSI31
 40
1.0
 90
        0
290
     0
290
     0
 90
        6
 40
0.0
 40
1.570796326794896
 40
0.2617993877991494
 40
1.308996938995747
 40
-0.2617993877991494
 40
1.832595714594046
1001
ACAD
1000
AcRTDxfName
1000
ACDBSECTIONVIEWSTYLE
1000
AcRTDxfName
1000
ACDBSECTIONVIEWSTYLE
  0
TABLESTYLE
  5
4C4E
102
{ACAD_XDICTIONARY
360
4D5A
102
}
102
{ACAD_REACTORS
330
4C4D
102
}
330
4C4D
100
AcDbTableStyle
  3
Standard
 70
     0
 71
     0
 40
1.5
 41
1.5
280
     0
281
     0
  7
Standard
140
4.5
170
     2
 62
     0
 63
     7
283
     0
274
    -2
284
     1
 64
     0
275
    -2
285
     1
 65
     0
276
    -2
286
     1
 66
     0
277
    -2
287
     1
 67
     0
278
    -2
288
     1
 68
     0
279
    -2
289
     1
 69
     0
  7
Standard
140
6.0
170
     5
 62
     0
 63
     7
283
     0
274
    -2
284
     1
 64
     0
275
    -2
285
     1
 65
     0
276
    -2
286
     1
 66
     0
277
    -2
287
     1
 67
     0
278
    -2
288
     1
 68
     0
279
    -2
289
     1
 69
     0
  7
Standard
140
4.5
170
     5
 62
     0
 63
     7
283
     0
274
    -2
284
     1
 64
     0
275
    -2
285
     1
 65
     0
276
    -2
286
     1
 66
     0
277
    -2
287
     1
 67
     0
278
    -2
288
     1
 68
     0
279
    -2
289
     1
 69
     0
  0
VISUALSTYLE
  5
4C3E
102
{ACAD_XDICTIONARY
360
59E8
102
}
102
{ACAD_REACTORS
330
4C38
102
}
330
4C38
100
AcDbVisualStyle
  2
2dWireframe
 70
     4
 71
     0
 72
     2
 73
     0
 90
        0
 40
-0.6
 41
-30.0
 62
     5
 63
     7
 74
     1
 91
        4
 64
     7
 65
   257
 75
     1
175
     1
 42
1.0
 92
        0
 66
   257
 43
1.0
 76
     1
 77
     6
 78
     2
 67
     7
 79
     5
170
     0
171
     0
290
     0
174
     0
 93
        1
 44
0.0
173
     0
291
     0
 45
0.0
1001
ACAD
1000
AcDbSavedByObjectVersion
1070
     0
  0
VISUALSTYLE
  5
4C40
102
{ACAD_XDICTIONARY
360
59EC
102
}
102
{ACAD_REACTORS
330
4C38
102
}
330
4C38
100
AcDbVisualStyle
  2
3D Hidden
 70
     6
 71
     1
 72
     2
 73
     2
 90
        0
 40
-0.6
 41
-30.0
 62
     5
 63
     7
 74
     2
 91
        2
 64
     7
 65
   257
 75
     2
175
     1
 42
179.0
 92
        0
 66
   257
 43
1.0
 76
     1
 77
     6
 78
     2
 67
     7
 79
     3
170
     0
171
     0
290
     0
174
     0
 93
        1
 44
0.0
173
     0
291
     0
 45
0.0
1001
ACAD
1000
AcDbSavedByObjectVersion
1070
     0
  0
VISUALSTYLE
  5
4C3F
102
{ACAD_XDICTIONARY
360
59EA
102
}
102
{ACAD_REACTORS
330
4C38
102
}
330
4C38
100
AcDbVisualStyle
  2
3dWireframe
 70
     5
 71
     0
 72
     2
 73
     0
 90
        0
 40
-0.6
 41
-30.0
 62
     5
 63
     7
 74
     1
 91
        4
 64
     7
 65
   257
 75
     1
175
     1
 42
1.0
 92
        0
 66
   257
 43
1.0
 76
     1
 77
     6
 78
     2
 67
     7
 79
     5
170
     0
171
     0
290
     0
174
     0
 93
        1
 44
0.0
173
     0
291
     0
 45
0.0
1001
ACAD
1000
AcDbSavedByObjectVersion
1070
     0
  0
VISUALSTYLE
  5
4C3D
102
{ACAD_XDICTIONARY
360
59E6
102
}
102
{ACAD_REACTORS
330
4C38
102
}
330
4C38
100
AcDbVisualStyle
  2
Basic
 70
     7
 71
     1
 72
     0
 73
     1
 90
        0
 40
-0.6
 41
-30.0
 62
     5
 63
     7
 74
     0
 91
        4
 64
     7
 65
   257
 75
     1
175
     1
 42
1.0
 92
        8
 66
     7
 43
1.0
 76
     1
 77
     6
 78
     2
 67
     7
 79
     5
170
     0
171
     0
290
     0
174
     0
 93
        1
 44
0.0
173
     0
291
     1
 45
0.0
1001
ACAD
1000
AcDbSavedByObjectVersion
1070
     0
  0
VISUALSTYLE
  5
4C44
102
{ACAD_XDICTIONARY
360
59F4
102
}
102
{ACAD_REACTORS
330
4C38
102
}
330
4C38
100
AcDbVisualStyle
  2
Brighten
 70
    12
 71
     2
 72
     2
 73
     0
 90
        0
 40
-0.6
 41
-30.0
 62
     5
 63
     7
 74
     1
 91
        4
 64
     7
 65
   257
 75
     1
175
     1
 42
1.0
 92
        8
 66
     7
 43
1.0
 76
     1
 77
     6
 78
     2
 67
     7
 79
     5
170
     0
171
     0
290
     0
174
     0
 93
        1
 44
50.0
173
     0
291
     1
 45
0.0
1001
ACAD
1000
AcDbSavedByObjectVersion
1070
     0
  0
VISUALSTYLE
  5
4C48
102
{ACAD_XDICTIONARY
360
59FC
102
}
102
{ACAD_REACTORS
330
4C38
102
}
330
4C38
100
AcDbVisualStyle
  2
ColorChange
 70
    16
 71
     2
 72
     2
 73
     3
 90
        0
 40
-0.6
 41
-30.0
 62
     5
 63
     8
 74
     1
 91
        4
 64
     7
 65
   257
 75
     1
175
     1
 42
1.0
 92
        8
 66
     8
 43
1.0
 76
     1
 77
     6
 78
     2
 67
     7
 79
     5
170
     0
171
     0
290
     0
174
     0
 93
        1
 44
0.0
173
     0
291
     1
 45
0.0
1001
ACAD
1000
AcDbSavedByObjectVersion
1070
     0
  0
VISUALSTYLE
  5
4C41
102
{ACAD_XDICTIONARY
360
59EE
102
}
102
{ACAD_REACTORS
330
4C38
102
}
330
4C38
100
AcDbVisualStyle
  2
Conceptual
 70
     9
 71
     3
 72
     2
 73
     0
 90
        0
 40
-0.6
 41
-30.0
 62
     5
 63
     7
 74
     2
 91
        2
 64
     7
 65
   257
 75
     1
175
     1
 42
179.0
 92
        8
 66
     7
 43
1.0
 76
     1
 77
     6
 78
     2
 67
     7
 79
     3
170
     0
171
     0
290
     0
174
     0
 93
        1
 44
0.0
173
     0
291
     0
 45
0.0
1001
ACAD
1000
AcDbSavedByObjectVersion
1070
     0
  0
VISUALSTYLE
  5
4C43
102
{ACAD_XDICTIONARY
360
59F2
102
}
102
{ACAD_REACTORS
330
4C38
102
}
330
4C38
100
AcDbVisualStyle
  2
Dim
 70
    11
 71
     2
 72
     2
 73
     0
 90
        0
 40
-0.6
 41
-30.0
 62
     5
 63
     7
 74
     1
 91
        4
 64
     7
 65
   257
 75
     1
175
     1
 42
1.0
 92
        8
 66
     7
 43
1.0
 76
     1
 77
     6
 78
     2
 67
     7
 79
     5
170
     0
171
     0
290
     0
174
     0
 93
        1
 44
-50.0
173
     0
291
     1
 45
0.0
1001
ACAD
1000
AcDbSavedByObjectVersion
1070
     0
  0
VISUALSTYLE
  5
4C4B
102
{ACAD_XDICTIONARY
360
5A02
102
}
102
{ACAD_REACTORS
330
4C38
102
}
330
4C38
100
AcDbVisualStyle
  2
EdgeColorOff
 70
    22
 71
     2
 72
     2
 73
     0
 90
        0
 40
-0.6
 41
-30.0
 62
     5
 63
     7
 74
     1
 91
        4
 64
     7
 65
   257
 75
     1
175
     1
 42
1.0
 92
        8
 66
     7
 43
1.0
 76
     1
 77
     6
 78
     2
 67
     7
 79
     5
170
     0
171
     0
290
     0
174
     0
 93
        1
 44
0.0
173
     0
291
     1
 45
0.0
1001
ACAD
1000
AcDbSavedByObjectVersion
1070
     0
  0
VISUALSTYLE
  5
4C47
102
{ACAD_XDICTIONARY
360
59FA
102
}
102
{ACAD_REACTORS
330
4C38
102
}
330
4C38
100
AcDbVisualStyle
  2
Facepattern
 70
    15
 71
     2
 72
     2
 73
     0
 90
        0
 40
-0.6
 41
-30.0
 62
     5
 63
     7
 74
     1
 91
        4
 64
     7
 65
   257
 75
     1
175
     1
 42
1.0
 92
        8
 66
     7
 43
1.0
 76
     1
 77
     6
 78
     2
 67
     7
 79
     5
170
     0
171
     0
290
     0
174
     0
 93
        1
 44
0.0
173
     0
291
     1
 45
0.0
1001
ACAD
1000
AcDbSavedByObjectVersion
1070
     0
  0
VISUALSTYLE
  5
4C39
102
{ACAD_XDICTIONARY
360
59DE
102
}
102
{ACAD_REACTORS
330
4C38
102
}
330
4C38
100
AcDbVisualStyle
  2
Flat
 70
     0
 71
     2
 72
     1
 73
     1
 90
        2
 40
-0.6
 41
30.0
 62
     5
 63
     7
 74
     0
 91
        4
 64
     7
 65
   257
 75
     1
175
     1
 42
1.0
 92
        8
 66
     7
 43
1.0
 76
     1
 77
     6
 78
     2
 67
     7
 79
     5
170
     0
171
     0
290
     0
174
     0
 93
       13
 44
0.0
173
     0
291
     1
 45
0.0
1001
ACAD
1000
AcDbSavedByObjectVersion
1070
     0
  0
VISUALSTYLE
  5
4C3A
102
{ACAD_XDICTIONARY
360
59E0
102
}
102
{ACAD_REACTORS
330
4C38
102
}
330
4C38
100
AcDbVisualStyle
  2
FlatWithEdges
 70
     1
 71
     2
 72
     1
 73
     1
 90
        2
 40
-0.6
 41
30.0
 62
     5
 63
     7
 74
     1
 91
        4
 64
     7
 65
   257
 75
     1
175
     1
 42
1.0
 92
        0
 66
   257
 43
1.0
 76
     1
 77
     6
 78
     2
 67
     7
 79
     5
170
     0
171
     0
290
     0
174
     0
 93
       13
 44
0.0
173
     0
291
     1
 45
0.0
1001
ACAD
1000
AcDbSavedByObjectVersion
1070
     0
  0
VISUALSTYLE
  5
4C3B
102
{ACAD_XDICTIONARY
360
59E2
102
}
102
{ACAD_REACTORS
330
4C38
102
}
330
4C38
100
AcDbVisualStyle
  2
Gouraud
 70
     2
 71
     2
 72
     2
 73
     1
 90
        2
 40
-0.6
 41
30.0
 62
     5
 63
     7
 74
     0
 91
        4
 64
     7
 65
   257
 75
     1
175
     1
 42
1.0
 92
        0
 66
     7
 43
1.0
 76
     1
 77
     6
 78
     2
 67
     7
 79
     5
170
     0
171
     0
290
     0
174
     0
 93
       13
 44
0.0
173
     0
291
     1
 45
0.0
1001
ACAD
1000
AcDbSavedByObjectVersion
1070
     0
  0
VISUALSTYLE
  5
4C3C
102
{ACAD_XDICTIONARY
360
59E4
102
}
102
{ACAD_REACTORS
330
4C38
102
}
330
4C38
100
AcDbVisualStyle
  2
GouraudWithEdges
 70
     3
 71
     2
 72
     2
 73
     1
 90
        2
 40
-0.6
 41
30.0
 62
     5
 63
     7
 74
     1
 91
        4
 64
     7
 65
   257
 75
     1
175
     1
 42
1.0
 92
        0
 66
   257
 43
1.0
 76
     1
 77
     6
 78
     2
 67
     7
 79
     5
170
     0
171
     0
290
     0
174
     0
 93
       13
 44
0.0
173
     0
291
     1
 45
0.0
1001
ACAD
1000
AcDbSavedByObjectVersion
1070
     0
  0
VISUALSTYLE
  5
5059
102
{ACAD_XDICTIONARY
360
5A07
102
}
102
{ACAD_REACTORS
330
4C38
102
}
330
4C38
100
AcDbVisualStyle
  2
Hidden
 70
     6
 71
     1
 72
     2
 73
     2
 90
        0
 40
-0.6
 41
-30.0
 62
     5
 63
     7
 74
     2
 91
        2
 64
     7
 65
   257
 75
     2
175
     1
 42
40.0
 92
        0
 66
   257
 43
1.0
 76
     1
 77
     6
 78
     2
 67
     7
 79
     3
170
     0
171
     0
290
     0
174
     0
 93
        1
 44
0.0
173
     0
291
     0
 45
0.0
1001
ACAD
1000
AcDbSavedByObjectVersion
1070
     0
  0
VISUALSTYLE
  5
4C49
102
{ACAD_XDICTIONARY
360
59FE
102
}
102
{ACAD_REACTORS
330
4C38
102
}
330
4C38
100
AcDbVisualStyle
  2
JitterOff
 70
    20
 71
     2
 72
     2
 73
     0
 90
        0
 40
-0.6
 41
-30.0
 62
     5
 63
     7
 74
     1
 91
        4
 64
     7
 65
   257
 75
     1
175
     1
 42
1.0
 92
       10
 66
     7
 43
1.0
 76
     1
 77
     6
 78
     2
 67
     7
 79
     5
170
     0
171
     0
290
     0
174
     0
 93
        1
 44
0.0
173
     0
291
     1
 45
0.0
1001
ACAD
1000
AcDbSavedByObjectVersion
1070
     0
  0
VISUALSTYLE
  5
4C46
102
{ACAD_XDICTIONARY
360
59F8
102
}
102
{ACAD_REACTORS
330
4C38
102
}
330
4C38
100
AcDbVisualStyle
  2
Linepattern
 70
    14
 71
     2
 72
     2
 73
     0
 90
        0
 40
-0.6
 41
-30.0
 62
     5
 63
     7
 74
     1
 91
        4
 64
     7
 65
   257
 75
     7
175
     7
 42
1.0
 92
        8
 66
     7
 43
1.0
 76
     1
 77
     6
 78
     2
 67
     7
 79
     5
170
     0
171
     0
290
     0
174
     0
 93
        1
 44
0.0
173
     0
291
     1
 45
0.0
1001
ACAD
1000
AcDbSavedByObjectVersion
1070
     0
  0
VISUALSTYLE
  5
4C4A
102
{ACAD_XDICTIONARY
360
5A00
102
}
102
{ACAD_REACTORS
330
4C38
102
}
330
4C38
100
AcDbVisualStyle
  2
OverhangOff
 70
    21
 71
     2
 72
     2
 73
     0
 90
        0
 40
-0.6
 41
-30.0
 62
     5
 63
     7
 74
     1
 91
        4
 64
     7
 65
   257
 75
     1
175
     1
 42
1.0
 92
        9
 66
     7
 43
1.0
 76
     1
 77
     6
 78
     2
 67
     7
 79
     5
170
     0
171
     0
290
     0
174
     0
 93
        1
 44
0.0
173
     0
291
     1
 45
0.0
1001
ACAD
1000
AcDbSavedByObjectVersion
1070
     0
  0
VISUALSTYLE
  5
4C42
102
{ACAD_XDICTIONARY
360
59F0
102
}
102
{ACAD_REACTORS
330
4C38
102
}
330
4C38
100
AcDbVisualStyle
  2
Realistic
 70
     8
 71
     2
 72
     2
 73
     0
 90
        0
 40
-0.6
 41
-30.0
 62
     5
 63
     7
 74
     1
 91
        0
 64
     7
 65
   257
 75
     1
175
     1
 42
1.0
 92
        8
 66
     8
 43
1.0
 76
     1
 77
     6
 78
     2
 67
     7
 79
     5
170
     0
171
     0
290
     0
174
     0
 93
       13
 44
0.0
173
     0
291
     0
 45
0.0
1001
ACAD
1000
AcDbSavedByObjectVersion
1070
     0
  0
VISUALSTYLE
  5
505E
102
{ACAD_XDICTIONARY
360
5A11
102
}
102
{ACAD_REACTORS
330
4C38
102
}
330
4C38
100
AcDbVisualStyle
  2
Shaded
 70
    27
 71
     2
 72
     2
 73
     1
 90
        2
 40
-0.6
 41
30.0
 62
     5
 63
     7
 74
     0
 91
        4
 64
     7
 65
   257
 75
     1
175
     1
 42
1.0
 92
        8
 66
   257
 43
1.0
 76
     1
 77
     6
 78
     2
 67
     8
 79
     3
170
     0
171
     0
290
     0
174
     0
 93
        5
 44
0.0
173
     0
291
     0
 45
0.0
1001
ACAD
1000
AcDbSavedByObjectVersion
1070
     0
  0
VISUALSTYLE
  5
505D
102
{ACAD_XDICTIONARY
360
5A0F
102
}
102
{ACAD_REACTORS
330
4C38
102
}
330
4C38
100
AcDbVisualStyle
  2
Shaded with edges
 70
    26
 71
     2
 72
     2
 73
     1
 90
        2
 40
-0.6
 41
30.0
 62
     5
 63
     7
 74
     1
 91
        2
 64
     7
 65
   257
 75
     2
175
     1
 42
1.0
 92
        8
 66
   257
 43
1.0
 76
     1
 77
     6
 78
     2
 67
     7
 79
     3
170
     0
171
     0
290
     0
174
     0
 93
        5
 44
0.0
173
     0
291
     0
 45
0.0
1001
ACAD
1000
AcDbSavedByObjectVersion
1070
     0
  0
VISUALSTYLE
  5
505A
102
{ACAD_XDICTIONARY
360
5A09
102
}
102
{ACAD_REACTORS
330
4C38
102
}
330
4C38
100
AcDbVisualStyle
  2
Shades of Gray
 70
    23
 71
     2
 72
     2
 73
     3
 90
        0
 40
-0.6
 41
-30.0
 62
     5
 63
     7
 74
     2
 91
        2
 64
     7
 65
     7
 75
     1
175
     1
 42
40.0
 92
        8
 66
     7
 43
1.0
 76
     1
 77
     6
 78
     2
 67
     7
 79
     3
170
     0
171
     0
290
     0
174
     0
 93
        1
 44
0.0
173
     0
291
     0
 45
0.0
1001
ACAD
1000
AcDbSavedByObjectVersion
1070
     0
  0
VISUALSTYLE
  5
505B
102
{ACAD_XDICTIONARY
360
5A0B
102
}
102
{ACAD_REACTORS
330
4C38
102
}
330
4C38
100
AcDbVisualStyle
  2
Sketchy
 70
    24
 71
     1
 72
     2
 73
     2
 90
        0
 40
-0.6
 41
-30.0
 62
     5
 63
     7
 74
     2
 91
        2
 64
     7
 65
     7
 75
     1
175
     1
 42
40.0
 92
       11
 66
     7
 43
1.0
 76
     1
 77
     6
 78
     2
 67
     7
 79
     6
170
     0
171
     0
290
     0
174
     0
 93
        1
 44
0.0
173
     0
291
     0
 45
0.0
1001
ACAD
1000
AcDbSavedByObjectVersion
1070
     0
  0
VISUALSTYLE
  5
4C45
102
{ACAD_XDICTIONARY
360
59F6
102
}
102
{ACAD_REACTORS
330
4C38
102
}
330
4C38
100
AcDbVisualStyle
  2
Thicken
 70
    13
 71
     2
 72
     2
 73
     0
 90
        0
 40
-0.6
 41
-30.0
 62
     5
 63
     7
 74
     1
 91
        4
 64
     7
 65
   257
 75
     1
175
     1
 42
1.0
 92
       12
 66
     7
 43
1.0
 76
     1
 77
     6
 78
     2
 67
     7
 79
     5
170
     0
171
     0
290
     0
174
     0
 93
        1
 44
0.0
173
     0
291
     1
 45
0.0
1001
ACAD
1000
AcDbSavedByObjectVersion
1070
     0
  0
VISUALSTYLE
  5
5058
102
{ACAD_XDICTIONARY
360
5A05
102
}
102
{ACAD_REACTORS
330
4C38
102
}
330
4C38
100
AcDbVisualStyle
  2
Wireframe
 70
     5
 71
     0
 72
     2
 73
     0
 90
        0
 40
-0.6
 41
-30.0
 62
     5
 63
     7
 74
     1
 91
        4
 64
     7
 65
   257
 75
     1
175
     1
 42
1.0
 92
        0
 66
   257
 43
1.0
 76
     1
 77
     6
 78
     2
 67
     7
 79
     3
170
     0
171
     0
290
     0
174
     0
 93
        1
 44
0.0
173
     0
291
     0
 45
0.0
1001
ACAD
1000
AcDbSavedByObjectVersion
1070
     0
  0
VISUALSTYLE
  5
505C
102
{ACAD_XDICTIONARY
360
5A0D
102
}
102
{ACAD_REACTORS
330
4C38
102
}
330
4C38
100
AcDbVisualStyle
  2
X-Ray
 70
    25
 71
     2
 72
     2
 73
     1
 90
        1
 40
0.5
 41
-30.0
 62
     5
 63
     7
 74
     1
 91
        0
 64
     7
 65
   257
 75
     1
175
     1
 42
1.0
 92
        8
 66
     7
 43
1.0
 76
     1
 77
     6
 78
     2
 67
     7
 79
     3
170
     0
171
     0
290
     0
174
     0
 93
       13
 44
0.0
173
     0
291
     0
 45
0.0
1001
ACAD
1000
AcDbSavedByObjectVersion
1070
     0
  0
DICTIONARYVAR
  5
4D91
102
{ACAD_REACTORS
330
1835
102
}
330
1835
100
DictionaryVariables
280
     0
  1
1:1
  0
DICTIONARYVAR
  5
4D90
102
{ACAD_REACTORS
330
1835
102
}
330
1835
100
DictionaryVariables
280
     0
  1
STANDARD
  0
DICTIONARYVAR
  5
4D8F
102
{ACAD_REACTORS
330
1835
102
}
330
1835
100
DictionaryVariables
280
     0
  1
STANDARD
  0
DICTIONARYVAR
  5
517F
102
{ACAD_REACTORS
330
1835
102
}
330
1835
100
DictionaryVariables
280
     0
  1
Metric50
  0
DICTIONARYVAR
  5
5180
102
{ACAD_REACTORS
330
1835
102
}
330
1835
100
DictionaryVariables
280
     0
  1
Metric50
  0
DICTIONARYVAR
  5
4D93
102
{ACAD_REACTORS
330
1835
102
}
330
1835
100
DictionaryVariables
280
     0
  1
1
  0
DICTIONARYVAR
  5
4D92
102
{ACAD_REACTORS
330
1835
102
}
330
1835
100
DictionaryVariables
280
     0
  1
0
  0
DICTIONARYVAR
  5
1836
102
{ACAD_REACTORS
330
1835
102
}
330
1835
100
DictionaryVariables
280
     0
  1
127
  0
DICTIONARYVAR
  5
59D3
102
{ACAD_REACTORS
330
1835
102
}
330
1835
100
DictionaryVariables
280
     0
  1
2
  0
DICTIONARY
  5
5A15
330
5062
100
AcDbDictionary
280
     1
281
     1
  3
ACAD_XREC_ROUNDTRIP
360
5A16
  0
DICTIONARY
  5
59D7
330
22
100
AcDbDictionary
280
     1
281
     1
  3
ACAD_XREC_ROUNDTRIP
360
59D8
  0
DICTIONARY
  5
59D9
330
1CD1
100
AcDbDictionary
280
     1
281
     1
  3
ACAD_XREC_ROUNDTRIP
360
59DA
  0
DICTIONARY
  5
4C29
330
4C28
100
AcDbDictionary
280
     1
281
     1
  3
ACAD_XREC_ROUNDTRIP
360
59DC
  3
BUMPTILE
360
4C2B
  3
DIFFUSETILE
360
4C2A
  3
OPACITYTILE
360
4C2E
  3
REFLECTIONTILE
360
4C2D
  3
REFRACTIONTILE
360
4C2F
  3
SPECULARTILE
360
4C2C
  0
DICTIONARY
  5
4C21
330
4C20
100
AcDbDictionary
280
     1
281
     1
  3
ACAD_XREC_ROUNDTRIP
360
59DB
  3
BUMPTILE
360
4C23
  3
DIFFUSETILE
360
4C22
  3
OPACITYTILE
360
4C26
  3
REFLECTIONTILE
360
4C25
  3
REFRACTIONTILE
360
4C27
  3
SPECULARTILE
360
4C24
  0
DICTIONARY
  5
4C31
330
4C30
100
AcDbDictionary
280
     1
281
     1
  3
ACAD_XREC_ROUNDTRIP
360
59DD
  3
BUMPTILE
360
4C33
  3
DIFFUSETILE
360
4C32
  3
OPACITYTILE
360
4C36
  3
REFLECTIONTILE
360
4C35
  3
REFRACTIONTILE
360
4C37
  3
SPECULARTILE
360
4C34
  0
DICTIONARY
  5
5A13
330
5060
100
AcDbDictionary
280
     1
281
     1
  3
ACAD_XREC_ROUNDTRIP
360
5A14
  0
DICTIONARY
  5
4D5A
330
4C4E
100
AcDbDictionary
280
     1
281
     1
  3
ACAD_ROUNDTRIP_2008_TABLESTYLE_CELLSTYLEMAP
360
59D4
  3
ACAD_XREC_ROUNDTRIP
360
5A04
  0
DICTIONARY
  5
59E8
330
4C3E
100
AcDbDictionary
280
     1
281
     1
  3
ACAD_XREC_ROUNDTRIP
360
59E9
  0
DICTIONARY
  5
59EC
330
4C40
100
AcDbDictionary
280
     1
281
     1
  3
ACAD_XREC_ROUNDTRIP
360
59ED
  0
DICTIONARY
  5
59EA
330
4C3F
100
AcDbDictionary
280
     1
281
     1
  3
ACAD_XREC_ROUNDTRIP
360
59EB
  0
DICTIONARY
  5
59E6
330
4C3D
100
AcDbDictionary
280
     1
281
     1
  3
ACAD_XREC_ROUNDTRIP
360
59E7
  0
DICTIONARY
  5
59F4
330
4C44
100
AcDbDictionary
280
     1
281
     1
  3
ACAD_XREC_ROUNDTRIP
360
59F5
  0
DICTIONARY
  5
59FC
330
4C48
100
AcDbDictionary
280
     1
281
     1
  3
ACAD_XREC_ROUNDTRIP
360
59FD
  0
DICTIONARY
  5
59EE
330
4C41
100
AcDbDictionary
280
     1
281
     1
  3
ACAD_XREC_ROUNDTRIP
360
59EF
  0
DICTIONARY
  5
59F2
330
4C43
100
AcDbDictionary
280
     1
281
     1
  3
ACAD_XREC_ROUNDTRIP
360
59F3
  0
DICTIONARY
  5
5A02
330
4C4B
100
AcDbDictionary
280
     1
281
     1
  3
ACAD_XREC_ROUNDTRIP
360
5A03
  0
DICTIONARY
  5
59FA
330
4C47
100
AcDbDictionary
280
     1
281
     1
  3
ACAD_XREC_ROUNDTRIP
360
59FB
  0
DICTIONARY
  5
59DE
330
4C39
100
AcDbDictionary
280
     1
281
     1
  3
ACAD_XREC_ROUNDTRIP
360
59DF
  0
DICTIONARY
  5
59E0
330
4C3A
100
AcDbDictionary
280
     1
281
     1
  3
ACAD_XREC_ROUNDTRIP
360
59E1
  0
DICTIONARY
  5
59E2
330
4C3B
100
AcDbDictionary
280
     1
281
     1
  3
ACAD_XREC_ROUNDTRIP
360
59E3
  0
DICTIONARY
  5
59E4
330
4C3C
100
AcDbDictionary
280
     1
281
     1
  3
ACAD_XREC_ROUNDTRIP
360
59E5
  0
DICTIONARY
  5
5A07
330
5059
100
AcDbDictionary
280
     1
281
     1
  3
ACAD_XREC_ROUNDTRIP
360
5A08
  0
DICTIONARY
  5
59FE
330
4C49
100
AcDbDictionary
280
     1
281
     1
  3
ACAD_XREC_ROUNDTRIP
360
59FF
  0
DICTIONARY
  5
59F8
330
4C46
100
AcDbDictionary
280
     1
281
     1
  3
ACAD_XREC_ROUNDTRIP
360
59F9
  0
DICTIONARY
  5
5A00
330
4C4A
100
AcDbDictionary
280
     1
281
     1
  3
ACAD_XREC_ROUNDTRIP
360
5A01
  0
DICTIONARY
  5
59F0
330
4C42
100
AcDbDictionary
280
     1
281
     1
  3
ACAD_XREC_ROUNDTRIP
360
59F1
  0
DICTIONARY
  5
5A11
330
505E
100
AcDbDictionary
280
     1
281
     1
  3
ACAD_XREC_ROUNDTRIP
360
5A12
  0
DICTIONARY
  5
5A0F
330
505D
100
AcDbDictionary
280
     1
281
     1
  3
ACAD_XREC_ROUNDTRIP
360
5A10
  0
DICTIONARY
  5
5A09
330
505A
100
AcDbDictionary
280
     1
281
     1
  3
ACAD_XREC_ROUNDTRIP
360
5A0A
  0
DICTIONARY
  5
5A0B
330
505B
100
AcDbDictionary
280
     1
281
     1
  3
ACAD_XREC_ROUNDTRIP
360
5A0C
  0
DICTIONARY
  5
59F6
330
4C45
100
AcDbDictionary
280
     1
281
     1
  3
ACAD_XREC_ROUNDTRIP
360
59F7
  0
DICTIONARY
  5
5A05
330
5058
100
AcDbDictionary
280
     1
281
     1
  3
ACAD_XREC_ROUNDTRIP
360
5A06
  0
DICTIONARY
  5
5A0D
330
505C
100
AcDbDictionary
280
     1
281
     1
  3
ACAD_XREC_ROUNDTRIP
360
5A0E
  0
XRECORD
  5
5A16
102
{ACAD_REACTORS
330
5A15
102
}
330
5A15
100
AcDbXrecord
280
     1
102
DISPLAYNAME
  1
Metric50
102
FLAGS
 90
        0
  0
XRECORD
  5
59D8
102
{ACAD_REACTORS
330
59D7
102
}
330
59D7
100
AcDbXrecord
280
     1
102
SHADEPLOT
 70
     0
102
SHADEPLOTRESLEVEL
 70
     2
102
SHADEPLOTCUSTOMDPI
 70
   300
  0
XRECORD
  5
59DA
102
{ACAD_REACTORS
330
59D9
102
}
330
59D9
100
AcDbXrecord
280
     1
102
SHADEPLOT
 70
     0
102
SHADEPLOTRESLEVEL
 70
     2
102
SHADEPLOTCUSTOMDPI
 70
   300
  0
XRECORD
  5
59DC
102
{ACAD_REACTORS
330
4C29
102
}
330
4C29
100
AcDbXrecord
280
     1
102
MATERIAL
148
0.0
149
0.0
149
0.0
 93
        0
 94
      127
282
     0
 72
     0
 77
     0
171
     0
175
     0
179
     0
273
     0
  0
XRECORD
  5
4C2B
102
{ACAD_REACTORS
330
4C29
102
}
330
4C29
100
AcDbXrecord
280
     1
270
     1
271
     1
  0
XRECORD
  5
4C2A
102
{ACAD_REACTORS
330
4C29
102
}
330
4C29
100
AcDbXrecord
280
     1
270
     1
271
     1
  0
XRECORD
  5
4C2E
102
{ACAD_REACTORS
330
4C29
102
}
330
4C29
100
AcDbXrecord
280
     1
270
     1
271
     1
  0
XRECORD
  5
4C2D
102
{ACAD_REACTORS
330
4C29
102
}
330
4C29
100
AcDbXrecord
280
     1
270
     1
271
     1
  0
XRECORD
  5
4C2F
102
{ACAD_REACTORS
330
4C29
102
}
330
4C29
100
AcDbXrecord
280
     1
270
     1
271
     1
  0
XRECORD
  5
4C2C
102
{ACAD_REACTORS
330
4C29
102
}
330
4C29
100
AcDbXrecord
280
     1
270
     1
271
     1
  0
XRECORD
  5
59DB
102
{ACAD_REACTORS
330
4C21
102
}
330
4C21
100
AcDbXrecord
280
     1
102
MATERIAL
148
0.0
149
0.0
149
0.0
 93
        0
 94
      127
282
     0
 72
     0
 77
     0
171
     0
175
     0
179
     0
273
     0
  0
XRECORD
  5
4C23
102
{ACAD_REACTORS
330
4C21
102
}
330
4C21
100
AcDbXrecord
280
     1
270
     1
271
     1
  0
XRECORD
  5
4C22
102
{ACAD_REACTORS
330
4C21
102
}
330
4C21
100
AcDbXrecord
280
     1
270
     1
271
     1
  0
XRECORD
  5
4C26
102
{ACAD_REACTORS
330
4C21
102
}
330
4C21
100
AcDbXrecord
280
     1
270
     1
271
     1
  0
XRECORD
  5
4C25
102
{ACAD_REACTORS
330
4C21
102
}
330
4C21
100
AcDbXrecord
280
     1
270
     1
271
     1
  0
XRECORD
  5
4C27
102
{ACAD_REACTORS
330
4C21
102
}
330
4C21
100
AcDbXrecord
280
     1
270
     1
271
     1
  0
XRECORD
  5
4C24
102
{ACAD_REACTORS
330
4C21
102
}
330
4C21
100
AcDbXrecord
280
     1
270
     1
271
     1
  0
XRECORD
  5
59DD
102
{ACAD_REACTORS
330
4C31
102
}
330
4C31
100
AcDbXrecord
280
     1
102
MATERIAL
148
0.0
149
0.0
149
0.0
 93
        0
 94
      127
282
     0
 72
     0
 77
     0
171
     0
175
     0
179
     0
273
     0
  0
XRECORD
  5
4C33
102
{ACAD_REACTORS
330
4C31
102
}
330
4C31
100
AcDbXrecord
280
     1
270
     1
271
     1
  0
XRECORD
  5
4C32
102
{ACAD_REACTORS
330
4C31
102
}
330
4C31
100
AcDbXrecord
280
     1
270
     1
271
     1
  0
XRECORD
  5
4C36
102
{ACAD_REACTORS
330
4C31
102
}
330
4C31
100
AcDbXrecord
280
     1
270
     1
271
     1
  0
XRECORD
  5
4C35
102
{ACAD_REACTORS
330
4C31
102
}
330
4C31
100
AcDbXrecord
280
     1
270
     1
271
     1
  0
XRECORD
  5
4C37
102
{ACAD_REACTORS
330
4C31
102
}
330
4C31
100
AcDbXrecord
280
     1
270
     1
271
     1
  0
XRECORD
  5
4C34
102
{ACAD_REACTORS
330
4C31
102
}
330
4C31
100
AcDbXrecord
280
     1
270
     1
271
     1
  0
XRECORD
  5
5A14
102
{ACAD_REACTORS
330
5A13
102
}
330
5A13
100
AcDbXrecord
280
     1
102
DISPLAYNAME
  1
Metric50
102
FLAGS
 90
        0
  0
CELLSTYLEMAP
  5
59D4
102
{ACAD_REACTORS
330
4D5A
102
}
330
4D5A
100
AcDbCellStyleMap
 90
        3
300
CELLSTYLE
  1
TABLEFORMAT_BEGIN
 90
        5
170
     1
 91
        0
 92
    32768
 62
   257
 93
        1
300
CONTENTFORMAT
  1
CONTENTFORMAT_BEGIN
 90
        0
 91
        0
 92
      512
 93
        0
300

 40
0.0
140
1.0
 94
        5
 62
     0
340
11
144
6.0
309
CONTENTFORMAT_END
171
     1
301
MARGIN
  1
CELLMARGIN_BEGIN
 40
1.5
 40
1.5
 40
1.5
 40
1.5
 40
4.5
 40
4.5
309
CELLMARGIN_END
 94
        6
 95
        1
302
GRIDFORMAT
  1
GRIDFORMAT_BEGIN
 90
        0
 91
        1
 62
     0
 92
       -2
340
0
 93
        0
 40
1.125
309
GRIDFORMAT_END
 95
        2
302
GRIDFORMAT
  1
GRIDFORMAT_BEGIN
 90
        0
 91
        1
 62
     0
 92
       -2
340
0
 93
        0
 40
1.125
309
GRIDFORMAT_END
 95
        4
302
GRIDFORMAT
  1
GRIDFORMAT_BEGIN
 90
        0
 91
        1
 62
     0
 92
       -2
340
0
 93
        0
 40
1.125
309
GRIDFORMAT_END
 95
        8
302
GRIDFORMAT
  1
GRIDFORMAT_BEGIN
 90
        0
 91
        1
 62
     0
 92
       -2
340
0
 93
        0
 40
1.125
309
GRIDFORMAT_END
 95
       16
302
GRIDFORMAT
  1
GRIDFORMAT_BEGIN
 90
        0
 91
        1
 62
     0
 92
       -2
340
0
 93
        0
 40
1.125
309
GRIDFORMAT_END
 95
       32
302
GRIDFORMAT
  1
GRIDFORMAT_BEGIN
 90
        0
 91
        1
 62
     0
 92
       -2
340
0
 93
        0
 40
1.125
309
GRIDFORMAT_END
309
TABLEFORMAT_END
  1
CELLSTYLE_BEGIN
 90
        1
 91
        1
300
_TITLE
309
CELLSTYLE_END
300
CELLSTYLE
  1
TABLEFORMAT_BEGIN
 90
        5
170
     1
 91
        0
 92
        0
 62
   257
 93
        1
300
CONTENTFORMAT
  1
CONTENTFORMAT_BEGIN
 90
        0
 91
        0
 92
      512
 93
        0
300

 40
0.0
140
1.0
 94
        5
 62
     0
340
11
144
4.5
309
CONTENTFORMAT_END
171
     1
301
MARGIN
  1
CELLMARGIN_BEGIN
 40
1.5
 40
1.5
 40
1.5
 40
1.5
 40
4.5
 40
4.5
309
CELLMARGIN_END
 94
        6
 95
        1
302
GRIDFORMAT
  1
GRIDFORMAT_BEGIN
 90
        0
 91
        1
 62
     0
 92
       -2
340
0
 93
        0
 40
1.125
309
GRIDFORMAT_END
 95
        2
302
GRIDFORMAT
  1
GRIDFORMAT_BEGIN
 90
        0
 91
        1
 62
     0
 92
       -2
340
0
 93
        0
 40
1.125
309
GRIDFORMAT_END
 95
        4
302
GRIDFORMAT
  1
GRIDFORMAT_BEGIN
 90
        0
 91
        1
 62
     0
 92
       -2
340
0
 93
        0
 40
1.125
309
GRIDFORMAT_END
 95
        8
302
GRIDFORMAT
  1
GRIDFORMAT_BEGIN
 90
        0
 91
        1
 62
     0
 92
       -2
340
0
 93
        0
 40
1.125
309
GRIDFORMAT_END
 95
       16
302
GRIDFORMAT
  1
GRIDFORMAT_BEGIN
 90
        0
 91
        1
 62
     0
 92
       -2
340
0
 93
        0
 40
1.125
309
GRIDFORMAT_END
 95
       32
302
GRIDFORMAT
  1
GRIDFORMAT_BEGIN
 90
        0
 91
        1
 62
     0
 92
       -2
340
0
 93
        0
 40
1.125
309
GRIDFORMAT_END
309
TABLEFORMAT_END
  1
CELLSTYLE_BEGIN
 90
        2
 91
        1
300
_HEADER
309
CELLSTYLE_END
300
CELLSTYLE
  1
TABLEFORMAT_BEGIN
 90
        5
170
     1
 91
        0
 92
        0
 62
   257
 93
        1
300
CONTENTFORMAT
  1
CONTENTFORMAT_BEGIN
 90
        0
 91
        0
 92
      512
 93
        0
300

 40
0.0
140
1.0
 94
        2
 62
     0
340
11
144
4.5
309
CONTENTFORMAT_END
171
     1
301
MARGIN
  1
CELLMARGIN_BEGIN
 40
1.5
 40
1.5
 40
1.5
 40
1.5
 40
4.5
 40
4.5
309
CELLMARGIN_END
 94
        6
 95
        1
302
GRIDFORMAT
  1
GRIDFORMAT_BEGIN
 90
        0
 91
        1
 62
     0
 92
       -2
340
0
 93
        0
 40
1.125
309
GRIDFORMAT_END
 95
        2
302
GRIDFORMAT
  1
GRIDFORMAT_BEGIN
 90
        0
 91
        1
 62
     0
 92
       -2
340
0
 93
        0
 40
1.125
309
GRIDFORMAT_END
 95
        4
302
GRIDFORMAT
  1
GRIDFORMAT_BEGIN
 90
        0
 91
        1
 62
     0
 92
       -2
340
0
 93
        0
 40
1.125
309
GRIDFORMAT_END
 95
        8
302
GRIDFORMAT
  1
GRIDFORMAT_BEGIN
 90
        0
 91
        1
 62
     0
 92
       -2
340
0
 93
        0
 40
1.125
309
GRIDFORMAT_END
 95
       16
302
GRIDFORMAT
  1
GRIDFORMAT_BEGIN
 90
        0
 91
        1
 62
     0
 92
       -2
340
0
 93
        0
 40
1.125
309
GRIDFORMAT_END
 95
       32
302
GRIDFORMAT
  1
GRIDFORMAT_BEGIN
 90
        0
 91
        1
 62
     0
 92
       -2
340
0
 93
        0
 40
1.125
309
GRIDFORMAT_END
309
TABLEFORMAT_END
  1
CELLSTYLE_BEGIN
 90
        3
 91
        2
300
_DATA
309
CELLSTYLE_END
  0
XRECORD
  5
5A04
102
{ACAD_REACTORS
330
4D5A
102
}
330
4D5A
100
AcDbXrecord
280
     1
102
ACAD_ROUNDTRIP_PRE2007_TABLESTYLE
 90
      512
 91
        0
  1

 92
      512
 93
        0
  2

 94
      512
 95
        0
  3

  0
XRECORD
  5
59E9
102
{ACAD_REACTORS
330
59E8
102
}
330
59E8
100
AcDbXrecord
280
     1
102
RTVSPost2010Prop28
280
     1
102
RTVSPost2010PropOp28
 70
     1
102
RTVSPost2010Prop29
280
     1
102
RTVSPost2010PropOp29
 70
     1
102
RTVSPost2010Prop30
280
     0
102
RTVSPost2010PropOp30
 70
     1
102
RTVSPost2010Prop31
280
     0
102
RTVSPost2010PropOp31
 70
     1
102
RTVSPost2010Prop32
280
     0
102
RTVSPost2010PropOp32
 70
     1
102
RTVSPost2010Prop33
280
     0
102
RTVSPost2010PropOp33
 70
     1
102
RTVSPost2010Prop34
280
     0
102
RTVSPost2010PropOp34
 70
     1
102
RTVSPost2010Prop35
280
     0
102
RTVSPost2010PropOp35
 70
     1
102
RTVSPost2010Prop36
280
     0
102
RTVSPost2010PropOp36
 70
     1
102
RTVSPost2010Prop37
 90
       50
102
RTVSPost2010PropOp37
 70
     1
102
RTVSPost2010Prop38
140
0.0
102
RTVSPost2010PropOp38
 70
     1
102
RTVSPost2010Prop39
140
1.0
102
RTVSPost2010PropOp39
 70
     1
102
RTVSPost2010Prop40
 90
        0
102
RTVSPost2010PropOp40
 70
     1
102
RTVSPost2010Prop41ColorIndex
 90
       18
102
RTVSPost2010Prop41ColorRGB
 90
        0
102
RTVSPost2010PropOp41
 70
     1
102
RTVSPost2010Prop42
 90
       50
102
RTVSPost2010PropOp42
 70
     1
102
RTVSPost2010Prop43
 90
        3
102
RTVSPost2010PropOp43
 70
     1
102
RTVSPost2010Prop44ColorIndex
 90
        5
102
RTVSPost2010Prop44ColorRGB
 90
      255
102
RTVSPost2010PropOp44
 70
     1
102
RTVSPost2010Prop45
280
     0
102
RTVSPost2010PropOp45
 70
     1
102
RTVSPost2010Prop46
 90
       50
102
RTVSPost2010PropOp46
 70
     1
102
RTVSPost2010Prop47
 90
       50
102
RTVSPost2010PropOp47
 70
     1
102
RTVSPost2010Prop48
 90
       50
102
RTVSPost2010PropOp48
 70
     1
102
RTVSPost2010Prop49
280
     0
102
RTVSPost2010PropOp49
 70
     1
102
RTVSPost2010Prop50
 90
       50
102
RTVSPost2010PropOp50
 70
     1
102
RTVSPost2010Prop51ColorIndex
 90
      256
102
RTVSPost2010Prop51ColorRGB
 90
-16777216
102
RTVSPost2010PropOp51
 70
     0
102
RTVSPost2010Prop52
140
1.0
102
RTVSPost2010PropOp52
 70
     0
102
RTVSPost2010Prop53
 90
        2
102
RTVSPost2010PropOp53
 70
     1
102
RTVSPost2010Prop54
  1
strokes_ogs.tif
102
RTVSPost2010PropOp54
 70
     1
102
RTVSPost2010Prop55
280
     0
102
RTVSPost2010PropOp55
 70
     1
102
RTVSPost2010Prop56
140
1.0
102
RTVSPost2010PropOp56
 70
     1
102
RTVSPost2010Prop57
140
1.0
102
RTVSPost2010PropOp57
 70
     1
102
RTVSPropertyOp0
 70
     1
102
RTVSPropertyOp1
 70
     1
102
RTVSPropertyOp2
 70
     1
102
RTVSPropertyOp3
 70
     1
102
RTVSPropertyOp4
 70
     1
102
RTVSPropertyOp5
 70
     1
102
RTVSPropertyOp6
 70
     1
102
RTVSPropertyOp7
 70
     1
102
RTVSPropertyOp8
 70
     1
102
RTVSPropertyOp9
 70
     1
102
RTVSPropertyOp10
 70
     1
102
RTVSPropertyOp11
 70
     1
102
RTVSPropertyOp12
 70
     1
102
RTVSPropertyOp13
 70
     1
102
RTVSPropertyOp14
 70
     1
102
RTVSPropertyOp15
 70
     1
102
RTVSPropertyOp16
 70
     1
102
RTVSPropertyOp17
 70
     1
102
RTVSPropertyOp18
 70
     1
102
RTVSPropertyOp19
 70
     1
102
RTVSPropertyOp20
 70
     1
102
RTVSPropertyOp21
 70
     1
102
RTVSPropertyOp22
 70
     1
102
RTVSPropertyOp23
 70
     1
102
RTVSPropertyOp24
 70
     1
102
RTVSPropertyOp25
 70
     1
102
RTVSPropertyOp26
 70
     1
102
RTVSPropertyOp27
 70
     1
102
RTVSPropertyOp28
 70
     1
102
RTVSPropertyOp29
 70
     1
102
RTVSPropertyOp30
 70
     1
102
RTVSPropertyOp31
 70
     1
102
RTVSPropertyOp32
 70
     1
102
RTVSPropertyOp33
 70
     1
102
RTVSPropertyOp34
 70
     1
102
RTVSPropertyOp35
 70
     1
102
RTVSPropertyOp36
 70
     1
102
RTVSPropertyOp37
 70
     1
102
RTVSPropertyOp38
 70
     1
102
RTVSPropertyOp39
 70
     1
102
RTVSPropertyOp40
 70
     1
102
RTVSPropertyOp41
 70
     1
102
RTVSPropertyOp42
 70
     1
102
RTVSPropertyOp43
 70
     1
102
RTVSPropertyOp44
 70
     1
102
RTVSPropertyOp45
 70
     1
102
RTVSPropertyOp46
 70
     1
102
RTVSPropertyOp47
 70
     1
102
RTVSPropertyOp48
 70
     1
102
RTVSPropertyOp49
 70
     1
102
RTVSPropertyOp50
 70
     1
102
RTVSPropertyOp51
 70
     0
102
RTVSPropertyOp52
 70
     0
102
RTVSPropertyOp53
 70
     1
102
RTVSPropertyOp54
 70
     1
102
RTVSPropertyOp55
 70
     1
102
RTVSPropertyOp56
 70
     1
102
RTVSPropertyOp57
 70
     1
102
RTVSPropertyOp58
 70
     1
102
RTVSPropertyOp59
 70
     1
102
RTVSPropertyOp60
 70
     1
102
RTVSPropertyOp61
 70
     1
102
RTVSPropertyOp62
 70
     1
  0
XRECORD
  5
59ED
102
{ACAD_REACTORS
330
59EC
102
}
330
59EC
100
AcDbXrecord
280
     1
102
RTVSPost2010Prop28
280
     0
102
RTVSPost2010PropOp28
 70
     1
102
RTVSPost2010Prop29
280
     1
102
RTVSPost2010PropOp29
 70
     1
102
RTVSPost2010Prop30
280
     1
102
RTVSPost2010PropOp30
 70
     1
102
RTVSPost2010Prop31
280
     0
102
RTVSPost2010PropOp31
 70
     1
102
RTVSPost2010Prop32
280
     0
102
RTVSPost2010PropOp32
 70
     1
102
RTVSPost2010Prop33
280
     0
102
RTVSPost2010PropOp33
 70
     1
102
RTVSPost2010Prop34
280
     0
102
RTVSPost2010PropOp34
 70
     1
102
RTVSPost2010Prop35
280
     0
102
RTVSPost2010PropOp35
 70
     1
102
RTVSPost2010Prop36
280
     0
102
RTVSPost2010PropOp36
 70
     1
102
RTVSPost2010Prop37
 90
       50
102
RTVSPost2010PropOp37
 70
     1
102
RTVSPost2010Prop38
140
0.0
102
RTVSPost2010PropOp38
 70
     1
102
RTVSPost2010Prop39
140
1.0
102
RTVSPost2010PropOp39
 70
     1
102
RTVSPost2010Prop40
 90
        0
102
RTVSPost2010PropOp40
 70
     1
102
RTVSPost2010Prop41ColorIndex
 90
       18
102
RTVSPost2010Prop41ColorRGB
 90
        0
102
RTVSPost2010PropOp41
 70
     1
102
RTVSPost2010Prop42
 90
       50
102
RTVSPost2010PropOp42
 70
     1
102
RTVSPost2010Prop43
 90
        3
102
RTVSPost2010PropOp43
 70
     1
102
RTVSPost2010Prop44ColorIndex
 90
        5
102
RTVSPost2010Prop44ColorRGB
 90
      255
102
RTVSPost2010PropOp44
 70
     1
102
RTVSPost2010Prop45
280
     0
102
RTVSPost2010PropOp45
 70
     1
102
RTVSPost2010Prop46
 90
       50
102
RTVSPost2010PropOp46
 70
     1
102
RTVSPost2010Prop47
 90
       50
102
RTVSPost2010PropOp47
 70
     1
102
RTVSPost2010Prop48
 90
       50
102
RTVSPost2010PropOp48
 70
     1
102
RTVSPost2010Prop49
280
     0
102
RTVSPost2010PropOp49
 70
     1
102
RTVSPost2010Prop50
 90
       50
102
RTVSPost2010PropOp50
 70
     1
102
RTVSPost2010Prop51ColorIndex
 90
      256
102
RTVSPost2010Prop51ColorRGB
 90
-16777216
102
RTVSPost2010PropOp51
 70
     0
102
RTVSPost2010Prop52
140
1.0
102
RTVSPost2010PropOp52
 70
     0
102
RTVSPost2010Prop53
 90
        2
102
RTVSPost2010PropOp53
 70
     1
102
RTVSPost2010Prop54
  1
strokes_ogs.tif
102
RTVSPost2010PropOp54
 70
     1
102
RTVSPost2010Prop55
280
     0
102
RTVSPost2010PropOp55
 70
     1
102
RTVSPost2010Prop56
140
1.0
102
RTVSPost2010PropOp56
 70
     1
102
RTVSPost2010Prop57
140
1.0
102
RTVSPost2010PropOp57
 70
     1
102
RTVSPropertyOp0
 70
     1
102
RTVSPropertyOp1
 70
     1
102
RTVSPropertyOp2
 70
     1
102
RTVSPropertyOp3
 70
     1
102
RTVSPropertyOp4
 70
     1
102
RTVSPropertyOp5
 70
     1
102
RTVSPropertyOp6
 70
     1
102
RTVSPropertyOp7
 70
     1
102
RTVSPropertyOp8
 70
     1
102
RTVSPropertyOp9
 70
     1
102
RTVSPropertyOp10
 70
     1
102
RTVSPropertyOp11
 70
     1
102
RTVSPropertyOp12
 70
     1
102
RTVSPropertyOp13
 70
     1
102
RTVSPropertyOp14
 70
     1
102
RTVSPropertyOp15
 70
     1
102
RTVSPropertyOp16
 70
     1
102
RTVSPropertyOp17
 70
     1
102
RTVSPropertyOp18
 70
     1
102
RTVSPropertyOp19
 70
     1
102
RTVSPropertyOp20
 70
     1
102
RTVSPropertyOp21
 70
     1
102
RTVSPropertyOp22
 70
     1
102
RTVSPropertyOp23
 70
     1
102
RTVSPropertyOp24
 70
     1
102
RTVSPropertyOp25
 70
     1
102
RTVSPropertyOp26
 70
     1
102
RTVSPropertyOp27
 70
     1
102
RTVSPropertyOp28
 70
     1
102
RTVSPropertyOp29
 70
     1
102
RTVSPropertyOp30
 70
     1
102
RTVSPropertyOp31
 70
     1
102
RTVSPropertyOp32
 70
     1
102
RTVSPropertyOp33
 70
     1
102
RTVSPropertyOp34
 70
     1
102
RTVSPropertyOp35
 70
     1
102
RTVSPropertyOp36
 70
     1
102
RTVSPropertyOp37
 70
     1
102
RTVSPropertyOp38
 70
     1
102
RTVSPropertyOp39
 70
     1
102
RTVSPropertyOp40
 70
     1
102
RTVSPropertyOp41
 70
     1
102
RTVSPropertyOp42
 70
     1
102
RTVSPropertyOp43
 70
     1
102
RTVSPropertyOp44
 70
     1
102
RTVSPropertyOp45
 70
     1
102
RTVSPropertyOp46
 70
     1
102
RTVSPropertyOp47
 70
     1
102
RTVSPropertyOp48
 70
     1
102
RTVSPropertyOp49
 70
     1
102
RTVSPropertyOp50
 70
     1
102
RTVSPropertyOp51
 70
     0
102
RTVSPropertyOp52
 70
     0
102
RTVSPropertyOp53
 70
     1
102
RTVSPropertyOp54
 70
     1
102
RTVSPropertyOp55
 70
     1
102
RTVSPropertyOp56
 70
     1
102
RTVSPropertyOp57
 70
     1
102
RTVSPropertyOp58
 70
     1
102
RTVSPropertyOp59
 70
     1
102
RTVSPropertyOp60
 70
     1
102
RTVSPropertyOp61
 70
     1
102
RTVSPropertyOp62
 70
     1
  0
XRECORD
  5
59EB
102
{ACAD_REACTORS
330
59EA
102
}
330
59EA
100
AcDbXrecord
280
     1
102
RTVSPost2010Prop28
280
     0
102
RTVSPost2010PropOp28
 70
     1
102
RTVSPost2010Prop29
280
     1
102
RTVSPost2010PropOp29
 70
     1
102
RTVSPost2010Prop30
280
     1
102
RTVSPost2010PropOp30
 70
     1
102
RTVSPost2010Prop31
280
     0
102
RTVSPost2010PropOp31
 70
     1
102
RTVSPost2010Prop32
280
     0
102
RTVSPost2010PropOp32
 70
     1
102
RTVSPost2010Prop33
280
     0
102
RTVSPost2010PropOp33
 70
     1
102
RTVSPost2010Prop34
280
     0
102
RTVSPost2010PropOp34
 70
     1
102
RTVSPost2010Prop35
280
     0
102
RTVSPost2010PropOp35
 70
     1
102
RTVSPost2010Prop36
280
     0
102
RTVSPost2010PropOp36
 70
     1
102
RTVSPost2010Prop37
 90
       50
102
RTVSPost2010PropOp37
 70
     1
102
RTVSPost2010Prop38
140
0.0
102
RTVSPost2010PropOp38
 70
     1
102
RTVSPost2010Prop39
140
1.0
102
RTVSPost2010PropOp39
 70
     1
102
RTVSPost2010Prop40
 90
        0
102
RTVSPost2010PropOp40
 70
     1
102
RTVSPost2010Prop41ColorIndex
 90
       18
102
RTVSPost2010Prop41ColorRGB
 90
        0
102
RTVSPost2010PropOp41
 70
     1
102
RTVSPost2010Prop42
 90
       50
102
RTVSPost2010PropOp42
 70
     1
102
RTVSPost2010Prop43
 90
        3
102
RTVSPost2010PropOp43
 70
     1
102
RTVSPost2010Prop44ColorIndex
 90
        5
102
RTVSPost2010Prop44ColorRGB
 90
      255
102
RTVSPost2010PropOp44
 70
     1
102
RTVSPost2010Prop45
280
     0
102
RTVSPost2010PropOp45
 70
     1
102
RTVSPost2010Prop46
 90
       50
102
RTVSPost2010PropOp46
 70
     1
102
RTVSPost2010Prop47
 90
       50
102
RTVSPost2010PropOp47
 70
     1
102
RTVSPost2010Prop48
 90
       50
102
RTVSPost2010PropOp48
 70
     1
102
RTVSPost2010Prop49
280
     0
102
RTVSPost2010PropOp49
 70
     1
102
RTVSPost2010Prop50
 90
       50
102
RTVSPost2010PropOp50
 70
     1
102
RTVSPost2010Prop51ColorIndex
 90
      256
102
RTVSPost2010Prop51ColorRGB
 90
-16777216
102
RTVSPost2010PropOp51
 70
     0
102
RTVSPost2010Prop52
140
1.0
102
RTVSPost2010PropOp52
 70
     0
102
RTVSPost2010Prop53
 90
        2
102
RTVSPost2010PropOp53
 70
     1
102
RTVSPost2010Prop54
  1
strokes_ogs.tif
102
RTVSPost2010PropOp54
 70
     1
102
RTVSPost2010Prop55
280
     0
102
RTVSPost2010PropOp55
 70
     1
102
RTVSPost2010Prop56
140
1.0
102
RTVSPost2010PropOp56
 70
     1
102
RTVSPost2010Prop57
140
1.0
102
RTVSPost2010PropOp57
 70
     1
102
RTVSPropertyOp0
 70
     1
102
RTVSPropertyOp1
 70
     1
102
RTVSPropertyOp2
 70
     1
102
RTVSPropertyOp3
 70
     1
102
RTVSPropertyOp4
 70
     1
102
RTVSPropertyOp5
 70
     1
102
RTVSPropertyOp6
 70
     1
102
RTVSPropertyOp7
 70
     1
102
RTVSPropertyOp8
 70
     1
102
RTVSPropertyOp9
 70
     1
102
RTVSPropertyOp10
 70
     1
102
RTVSPropertyOp11
 70
     1
102
RTVSPropertyOp12
 70
     1
102
RTVSPropertyOp13
 70
     1
102
RTVSPropertyOp14
 70
     1
102
RTVSPropertyOp15
 70
     1
102
RTVSPropertyOp16
 70
     1
102
RTVSPropertyOp17
 70
     1
102
RTVSPropertyOp18
 70
     1
102
RTVSPropertyOp19
 70
     1
102
RTVSPropertyOp20
 70
     1
102
RTVSPropertyOp21
 70
     1
102
RTVSPropertyOp22
 70
     1
102
RTVSPropertyOp23
 70
     1
102
RTVSPropertyOp24
 70
     1
102
RTVSPropertyOp25
 70
     1
102
RTVSPropertyOp26
 70
     1
102
RTVSPropertyOp27
 70
     1
102
RTVSPropertyOp28
 70
     1
102
RTVSPropertyOp29
 70
     1
102
RTVSPropertyOp30
 70
     1
102
RTVSPropertyOp31
 70
     1
102
RTVSPropertyOp32
 70
     1
102
RTVSPropertyOp33
 70
     1
102
RTVSPropertyOp34
 70
     1
102
RTVSPropertyOp35
 70
     1
102
RTVSPropertyOp36
 70
     1
102
RTVSPropertyOp37
 70
     1
102
RTVSPropertyOp38
 70
     1
102
RTVSPropertyOp39
 70
     1
102
RTVSPropertyOp40
 70
     1
102
RTVSPropertyOp41
 70
     1
102
RTVSPropertyOp42
 70
     1
102
RTVSPropertyOp43
 70
     1
102
RTVSPropertyOp44
 70
     1
102
RTVSPropertyOp45
 70
     1
102
RTVSPropertyOp46
 70
     1
102
RTVSPropertyOp47
 70
     1
102
RTVSPropertyOp48
 70
     1
102
RTVSPropertyOp49
 70
     1
102
RTVSPropertyOp50
 70
     1
102
RTVSPropertyOp51
 70
     0
102
RTVSPropertyOp52
 70
     0
102
RTVSPropertyOp53
 70
     1
102
RTVSPropertyOp54
 70
     1
102
RTVSPropertyOp55
 70
     1
102
RTVSPropertyOp56
 70
     1
102
RTVSPropertyOp57
 70
     1
102
RTVSPropertyOp58
 70
     1
102
RTVSPropertyOp59
 70
     1
102
RTVSPropertyOp60
 70
     1
102
RTVSPropertyOp61
 70
     1
102
RTVSPropertyOp62
 70
     1
  0
XRECORD
  5
59E7
102
{ACAD_REACTORS
330
59E6
102
}
330
59E6
100
AcDbXrecord
280
     1
102
RTVSPost2010Prop28
280
     0
102
RTVSPost2010PropOp28
 70
     1
102
RTVSPost2010Prop29
280
     1
102
RTVSPost2010PropOp29
 70
     1
102
RTVSPost2010Prop30
280
     1
102
RTVSPost2010PropOp30
 70
     1
102
RTVSPost2010Prop31
280
     0
102
RTVSPost2010PropOp31
 70
     1
102
RTVSPost2010Prop32
280
     0
102
RTVSPost2010PropOp32
 70
     1
102
RTVSPost2010Prop33
280
     0
102
RTVSPost2010PropOp33
 70
     1
102
RTVSPost2010Prop34
280
     0
102
RTVSPost2010PropOp34
 70
     1
102
RTVSPost2010Prop35
280
     0
102
RTVSPost2010PropOp35
 70
     1
102
RTVSPost2010Prop36
280
     0
102
RTVSPost2010PropOp36
 70
     1
102
RTVSPost2010Prop37
 90
       50
102
RTVSPost2010PropOp37
 70
     1
102
RTVSPost2010Prop38
140
0.0
102
RTVSPost2010PropOp38
 70
     1
102
RTVSPost2010Prop39
140
1.0
102
RTVSPost2010PropOp39
 70
     1
102
RTVSPost2010Prop40
 90
        0
102
RTVSPost2010PropOp40
 70
     1
102
RTVSPost2010Prop41ColorIndex
 90
       18
102
RTVSPost2010Prop41ColorRGB
 90
        0
102
RTVSPost2010PropOp41
 70
     1
102
RTVSPost2010Prop42
 90
       50
102
RTVSPost2010PropOp42
 70
     1
102
RTVSPost2010Prop43
 90
        3
102
RTVSPost2010PropOp43
 70
     1
102
RTVSPost2010Prop44ColorIndex
 90
        5
102
RTVSPost2010Prop44ColorRGB
 90
      255
102
RTVSPost2010PropOp44
 70
     1
102
RTVSPost2010Prop45
280
     0
102
RTVSPost2010PropOp45
 70
     1
102
RTVSPost2010Prop46
 90
       50
102
RTVSPost2010PropOp46
 70
     1
102
RTVSPost2010Prop47
 90
       50
102
RTVSPost2010PropOp47
 70
     1
102
RTVSPost2010Prop48
 90
       50
102
RTVSPost2010PropOp48
 70
     1
102
RTVSPost2010Prop49
280
     0
102
RTVSPost2010PropOp49
 70
     1
102
RTVSPost2010Prop50
 90
       50
102
RTVSPost2010PropOp50
 70
     1
102
RTVSPost2010Prop51ColorIndex
 90
      256
102
RTVSPost2010Prop51ColorRGB
 90
-16777216
102
RTVSPost2010PropOp51
 70
     0
102
RTVSPost2010Prop52
140
1.0
102
RTVSPost2010PropOp52
 70
     0
102
RTVSPost2010Prop53
 90
        2
102
RTVSPost2010PropOp53
 70
     1
102
RTVSPost2010Prop54
  1
strokes_ogs.tif
102
RTVSPost2010PropOp54
 70
     1
102
RTVSPost2010Prop55
280
     0
102
RTVSPost2010PropOp55
 70
     1
102
RTVSPost2010Prop56
140
1.0
102
RTVSPost2010PropOp56
 70
     1
102
RTVSPost2010Prop57
140
1.0
102
RTVSPost2010PropOp57
 70
     1
102
RTVSPropertyOp0
 70
     1
102
RTVSPropertyOp1
 70
     1
102
RTVSPropertyOp2
 70
     1
102
RTVSPropertyOp3
 70
     1
102
RTVSPropertyOp4
 70
     1
102
RTVSPropertyOp5
 70
     1
102
RTVSPropertyOp6
 70
     1
102
RTVSPropertyOp7
 70
     1
102
RTVSPropertyOp8
 70
     1
102
RTVSPropertyOp9
 70
     1
102
RTVSPropertyOp10
 70
     1
102
RTVSPropertyOp11
 70
     1
102
RTVSPropertyOp12
 70
     1
102
RTVSPropertyOp13
 70
     1
102
RTVSPropertyOp14
 70
     1
102
RTVSPropertyOp15
 70
     1
102
RTVSPropertyOp16
 70
     1
102
RTVSPropertyOp17
 70
     1
102
RTVSPropertyOp18
 70
     1
102
RTVSPropertyOp19
 70
     1
102
RTVSPropertyOp20
 70
     1
102
RTVSPropertyOp21
 70
     1
102
RTVSPropertyOp22
 70
     1
102
RTVSPropertyOp23
 70
     1
102
RTVSPropertyOp24
 70
     1
102
RTVSPropertyOp25
 70
     1
102
RTVSPropertyOp26
 70
     1
102
RTVSPropertyOp27
 70
     1
102
RTVSPropertyOp28
 70
     1
102
RTVSPropertyOp29
 70
     1
102
RTVSPropertyOp30
 70
     1
102
RTVSPropertyOp31
 70
     1
102
RTVSPropertyOp32
 70
     1
102
RTVSPropertyOp33
 70
     1
102
RTVSPropertyOp34
 70
     1
102
RTVSPropertyOp35
 70
     1
102
RTVSPropertyOp36
 70
     1
102
RTVSPropertyOp37
 70
     1
102
RTVSPropertyOp38
 70
     1
102
RTVSPropertyOp39
 70
     1
102
RTVSPropertyOp40
 70
     1
102
RTVSPropertyOp41
 70
     1
102
RTVSPropertyOp42
 70
     1
102
RTVSPropertyOp43
 70
     1
102
RTVSPropertyOp44
 70
     1
102
RTVSPropertyOp45
 70
     1
102
RTVSPropertyOp46
 70
     1
102
RTVSPropertyOp47
 70
     1
102
RTVSPropertyOp48
 70
     1
102
RTVSPropertyOp49
 70
     1
102
RTVSPropertyOp50
 70
     1
102
RTVSPropertyOp51
 70
     0
102
RTVSPropertyOp52
 70
     0
102
RTVSPropertyOp53
 70
     1
102
RTVSPropertyOp54
 70
     1
102
RTVSPropertyOp55
 70
     1
102
RTVSPropertyOp56
 70
     1
102
RTVSPropertyOp57
 70
     1
102
RTVSPropertyOp58
 70
     1
102
RTVSPropertyOp59
 70
     1
102
RTVSPropertyOp60
 70
     1
102
RTVSPropertyOp61
 70
     1
102
RTVSPropertyOp62
 70
     1
  0
XRECORD
  5
59F5
102
{ACAD_REACTORS
330
59F4
102
}
330
59F4
100
AcDbXrecord
280
     1
102
RTVSPost2010Prop28
280
     0
102
RTVSPost2010PropOp28
 70
     1
102
RTVSPost2010Prop29
280
     1
102
RTVSPost2010PropOp29
 70
     1
102
RTVSPost2010Prop30
280
     1
102
RTVSPost2010PropOp30
 70
     1
102
RTVSPost2010Prop31
280
     0
102
RTVSPost2010PropOp31
 70
     1
102
RTVSPost2010Prop32
280
     0
102
RTVSPost2010PropOp32
 70
     1
102
RTVSPost2010Prop33
280
     0
102
RTVSPost2010PropOp33
 70
     1
102
RTVSPost2010Prop34
280
     0
102
RTVSPost2010PropOp34
 70
     1
102
RTVSPost2010Prop35
280
     0
102
RTVSPost2010PropOp35
 70
     1
102
RTVSPost2010Prop36
280
     0
102
RTVSPost2010PropOp36
 70
     1
102
RTVSPost2010Prop37
 90
       50
102
RTVSPost2010PropOp37
 70
     1
102
RTVSPost2010Prop38
140
0.0
102
RTVSPost2010PropOp38
 70
     1
102
RTVSPost2010Prop39
140
1.0
102
RTVSPost2010PropOp39
 70
     1
102
RTVSPost2010Prop40
 90
        0
102
RTVSPost2010PropOp40
 70
     1
102
RTVSPost2010Prop41ColorIndex
 90
       18
102
RTVSPost2010Prop41ColorRGB
 90
        0
102
RTVSPost2010PropOp41
 70
     1
102
RTVSPost2010Prop42
 90
       50
102
RTVSPost2010PropOp42
 70
     1
102
RTVSPost2010Prop43
 90
        3
102
RTVSPost2010PropOp43
 70
     1
102
RTVSPost2010Prop44ColorIndex
 90
        5
102
RTVSPost2010Prop44ColorRGB
 90
      255
102
RTVSPost2010PropOp44
 70
     1
102
RTVSPost2010Prop45
280
     0
102
RTVSPost2010PropOp45
 70
     1
102
RTVSPost2010Prop46
 90
       50
102
RTVSPost2010PropOp46
 70
     1
102
RTVSPost2010Prop47
 90
       50
102
RTVSPost2010PropOp47
 70
     1
102
RTVSPost2010Prop48
 90
       50
102
RTVSPost2010PropOp48
 70
     1
102
RTVSPost2010Prop49
280
     0
102
RTVSPost2010PropOp49
 70
     1
102
RTVSPost2010Prop50
 90
       50
102
RTVSPost2010PropOp50
 70
     1
102
RTVSPost2010Prop51ColorIndex
 90
      256
102
RTVSPost2010Prop51ColorRGB
 90
-16777216
102
RTVSPost2010PropOp51
 70
     0
102
RTVSPost2010Prop52
140
1.0
102
RTVSPost2010PropOp52
 70
     0
102
RTVSPost2010Prop53
 90
        2
102
RTVSPost2010PropOp53
 70
     1
102
RTVSPost2010Prop54
  1
strokes_ogs.tif
102
RTVSPost2010PropOp54
 70
     1
102
RTVSPost2010Prop55
280
     0
102
RTVSPost2010PropOp55
 70
     1
102
RTVSPost2010Prop56
140
1.0
102
RTVSPost2010PropOp56
 70
     1
102
RTVSPost2010Prop57
140
1.0
102
RTVSPost2010PropOp57
 70
     1
102
RTVSPropertyOp0
 70
     1
102
RTVSPropertyOp1
 70
     1
102
RTVSPropertyOp2
 70
     1
102
RTVSPropertyOp3
 70
     1
102
RTVSPropertyOp4
 70
     1
102
RTVSPropertyOp5
 70
     1
102
RTVSPropertyOp6
 70
     1
102
RTVSPropertyOp7
 70
     1
102
RTVSPropertyOp8
 70
     1
102
RTVSPropertyOp9
 70
     1
102
RTVSPropertyOp10
 70
     1
102
RTVSPropertyOp11
 70
     1
102
RTVSPropertyOp12
 70
     1
102
RTVSPropertyOp13
 70
     1
102
RTVSPropertyOp14
 70
     1
102
RTVSPropertyOp15
 70
     1
102
RTVSPropertyOp16
 70
     1
102
RTVSPropertyOp17
 70
     1
102
RTVSPropertyOp18
 70
     1
102
RTVSPropertyOp19
 70
     1
102
RTVSPropertyOp20
 70
     1
102
RTVSPropertyOp21
 70
     1
102
RTVSPropertyOp22
 70
     1
102
RTVSPropertyOp23
 70
     1
102
RTVSPropertyOp24
 70
     1
102
RTVSPropertyOp25
 70
     1
102
RTVSPropertyOp26
 70
     1
102
RTVSPropertyOp27
 70
     1
102
RTVSPropertyOp28
 70
     1
102
RTVSPropertyOp29
 70
     1
102
RTVSPropertyOp30
 70
     1
102
RTVSPropertyOp31
 70
     1
102
RTVSPropertyOp32
 70
     1
102
RTVSPropertyOp33
 70
     1
102
RTVSPropertyOp34
 70
     1
102
RTVSPropertyOp35
 70
     1
102
RTVSPropertyOp36
 70
     1
102
RTVSPropertyOp37
 70
     1
102
RTVSPropertyOp38
 70
     1
102
RTVSPropertyOp39
 70
     1
102
RTVSPropertyOp40
 70
     1
102
RTVSPropertyOp41
 70
     1
102
RTVSPropertyOp42
 70
     1
102
RTVSPropertyOp43
 70
     1
102
RTVSPropertyOp44
 70
     1
102
RTVSPropertyOp45
 70
     1
102
RTVSPropertyOp46
 70
     1
102
RTVSPropertyOp47
 70
     1
102
RTVSPropertyOp48
 70
     1
102
RTVSPropertyOp49
 70
     1
102
RTVSPropertyOp50
 70
     1
102
RTVSPropertyOp51
 70
     0
102
RTVSPropertyOp52
 70
     0
102
RTVSPropertyOp53
 70
     1
102
RTVSPropertyOp54
 70
     1
102
RTVSPropertyOp55
 70
     1
102
RTVSPropertyOp56
 70
     1
102
RTVSPropertyOp57
 70
     1
102
RTVSPropertyOp58
 70
     1
102
RTVSPropertyOp59
 70
     1
102
RTVSPropertyOp60
 70
     1
102
RTVSPropertyOp61
 70
     1
102
RTVSPropertyOp62
 70
     1
  0
XRECORD
  5
59FD
102
{ACAD_REACTORS
330
59FC
102
}
330
59FC
100
AcDbXrecord
280
     1
102
RTVSPost2010Prop28
280
     0
102
RTVSPost2010PropOp28
 70
     1
102
RTVSPost2010Prop29
280
     1
102
RTVSPost2010PropOp29
 70
     1
102
RTVSPost2010Prop30
280
     1
102
RTVSPost2010PropOp30
 70
     1
102
RTVSPost2010Prop31
280
     0
102
RTVSPost2010PropOp31
 70
     1
102
RTVSPost2010Prop32
280
     0
102
RTVSPost2010PropOp32
 70
     1
102
RTVSPost2010Prop33
280
     0
102
RTVSPost2010PropOp33
 70
     1
102
RTVSPost2010Prop34
280
     0
102
RTVSPost2010PropOp34
 70
     1
102
RTVSPost2010Prop35
280
     0
102
RTVSPost2010PropOp35
 70
     1
102
RTVSPost2010Prop36
280
     0
102
RTVSPost2010PropOp36
 70
     1
102
RTVSPost2010Prop37
 90
       50
102
RTVSPost2010PropOp37
 70
     1
102
RTVSPost2010Prop38
140
0.0
102
RTVSPost2010PropOp38
 70
     1
102
RTVSPost2010Prop39
140
1.0
102
RTVSPost2010PropOp39
 70
     1
102
RTVSPost2010Prop40
 90
        0
102
RTVSPost2010PropOp40
 70
     1
102
RTVSPost2010Prop41ColorIndex
 90
       18
102
RTVSPost2010Prop41ColorRGB
 90
        0
102
RTVSPost2010PropOp41
 70
     1
102
RTVSPost2010Prop42
 90
       50
102
RTVSPost2010PropOp42
 70
     1
102
RTVSPost2010Prop43
 90
        3
102
RTVSPost2010PropOp43
 70
     1
102
RTVSPost2010Prop44ColorIndex
 90
        5
102
RTVSPost2010Prop44ColorRGB
 90
      255
102
RTVSPost2010PropOp44
 70
     1
102
RTVSPost2010Prop45
280
     0
102
RTVSPost2010PropOp45
 70
     1
102
RTVSPost2010Prop46
 90
       50
102
RTVSPost2010PropOp46
 70
     1
102
RTVSPost2010Prop47
 90
       50
102
RTVSPost2010PropOp47
 70
     1
102
RTVSPost2010Prop48
 90
       50
102
RTVSPost2010PropOp48
 70
     1
102
RTVSPost2010Prop49
280
     0
102
RTVSPost2010PropOp49
 70
     1
102
RTVSPost2010Prop50
 90
       50
102
RTVSPost2010PropOp50
 70
     1
102
RTVSPost2010Prop51ColorIndex
 90
      256
102
RTVSPost2010Prop51ColorRGB
 90
-16777216
102
RTVSPost2010PropOp51
 70
     0
102
RTVSPost2010Prop52
140
1.0
102
RTVSPost2010PropOp52
 70
     0
102
RTVSPost2010Prop53
 90
        2
102
RTVSPost2010PropOp53
 70
     1
102
RTVSPost2010Prop54
  1
strokes_ogs.tif
102
RTVSPost2010PropOp54
 70
     1
102
RTVSPost2010Prop55
280
     0
102
RTVSPost2010PropOp55
 70
     1
102
RTVSPost2010Prop56
140
1.0
102
RTVSPost2010PropOp56
 70
     1
102
RTVSPost2010Prop57
140
1.0
102
RTVSPost2010PropOp57
 70
     1
102
RTVSPropertyOp0
 70
     1
102
RTVSPropertyOp1
 70
     1
102
RTVSPropertyOp2
 70
     1
102
RTVSPropertyOp3
 70
     1
102
RTVSPropertyOp4
 70
     1
102
RTVSPropertyOp5
 70
     1
102
RTVSPropertyOp6
 70
     1
102
RTVSPropertyOp7
 70
     1
102
RTVSPropertyOp8
 70
     1
102
RTVSPropertyOp9
 70
     1
102
RTVSPropertyOp10
 70
     1
102
RTVSPropertyOp11
 70
     1
102
RTVSPropertyOp12
 70
     1
102
RTVSPropertyOp13
 70
     1
102
RTVSPropertyOp14
 70
     1
102
RTVSPropertyOp15
 70
     1
102
RTVSPropertyOp16
 70
     1
102
RTVSPropertyOp17
 70
     1
102
RTVSPropertyOp18
 70
     1
102
RTVSPropertyOp19
 70
     1
102
RTVSPropertyOp20
 70
     1
102
RTVSPropertyOp21
 70
     1
102
RTVSPropertyOp22
 70
     1
102
RTVSPropertyOp23
 70
     1
102
RTVSPropertyOp24
 70
     1
102
RTVSPropertyOp25
 70
     1
102
RTVSPropertyOp26
 70
     1
102
RTVSPropertyOp27
 70
     1
102
RTVSPropertyOp28
 70
     1
102
RTVSPropertyOp29
 70
     1
102
RTVSPropertyOp30
 70
     1
102
RTVSPropertyOp31
 70
     1
102
RTVSPropertyOp32
 70
     1
102
RTVSPropertyOp33
 70
     1
102
RTVSPropertyOp34
 70
     1
102
RTVSPropertyOp35
 70
     1
102
RTVSPropertyOp36
 70
     1
102
RTVSPropertyOp37
 70
     1
102
RTVSPropertyOp38
 70
     1
102
RTVSPropertyOp39
 70
     1
102
RTVSPropertyOp40
 70
     1
102
RTVSPropertyOp41
 70
     1
102
RTVSPropertyOp42
 70
     1
102
RTVSPropertyOp43
 70
     1
102
RTVSPropertyOp44
 70
     1
102
RTVSPropertyOp45
 70
     1
102
RTVSPropertyOp46
 70
     1
102
RTVSPropertyOp47
 70
     1
102
RTVSPropertyOp48
 70
     1
102
RTVSPropertyOp49
 70
     1
102
RTVSPropertyOp50
 70
     1
102
RTVSPropertyOp51
 70
     0
102
RTVSPropertyOp52
 70
     0
102
RTVSPropertyOp53
 70
     1
102
RTVSPropertyOp54
 70
     1
102
RTVSPropertyOp55
 70
     1
102
RTVSPropertyOp56
 70
     1
102
RTVSPropertyOp57
 70
     1
102
RTVSPropertyOp58
 70
     1
102
RTVSPropertyOp59
 70
     1
102
RTVSPropertyOp60
 70
     1
102
RTVSPropertyOp61
 70
     1
102
RTVSPropertyOp62
 70
     1
  0
XRECORD
  5
59EF
102
{ACAD_REACTORS
330
59EE
102
}
330
59EE
100
AcDbXrecord
280
     1
102
RTVSPost2010Prop28
280
     0
102
RTVSPost2010PropOp28
 70
     1
102
RTVSPost2010Prop29
280
     1
102
RTVSPost2010PropOp29
 70
     1
102
RTVSPost2010Prop30
280
     1
102
RTVSPost2010PropOp30
 70
     1
102
RTVSPost2010Prop31
280
     0
102
RTVSPost2010PropOp31
 70
     1
102
RTVSPost2010Prop32
280
     0
102
RTVSPost2010PropOp32
 70
     1
102
RTVSPost2010Prop33
280
     0
102
RTVSPost2010PropOp33
 70
     1
102
RTVSPost2010Prop34
280
     0
102
RTVSPost2010PropOp34
 70
     1
102
RTVSPost2010Prop35
280
     0
102
RTVSPost2010PropOp35
 70
     1
102
RTVSPost2010Prop36
280
     0
102
RTVSPost2010PropOp36
 70
     1
102
RTVSPost2010Prop37
 90
       50
102
RTVSPost2010PropOp37
 70
     1
102
RTVSPost2010Prop38
140
0.0
102
RTVSPost2010PropOp38
 70
     1
102
RTVSPost2010Prop39
140
1.0
102
RTVSPost2010PropOp39
 70
     1
102
RTVSPost2010Prop40
 90
        0
102
RTVSPost2010PropOp40
 70
     1
102
RTVSPost2010Prop41ColorIndex
 90
       18
102
RTVSPost2010Prop41ColorRGB
 90
        0
102
RTVSPost2010PropOp41
 70
     1
102
RTVSPost2010Prop42
 90
       50
102
RTVSPost2010PropOp42
 70
     1
102
RTVSPost2010Prop43
 90
        3
102
RTVSPost2010PropOp43
 70
     1
102
RTVSPost2010Prop44ColorIndex
 90
        5
102
RTVSPost2010Prop44ColorRGB
 90
      255
102
RTVSPost2010PropOp44
 70
     1
102
RTVSPost2010Prop45
280
     0
102
RTVSPost2010PropOp45
 70
     1
102
RTVSPost2010Prop46
 90
       50
102
RTVSPost2010PropOp46
 70
     1
102
RTVSPost2010Prop47
 90
       50
102
RTVSPost2010PropOp47
 70
     1
102
RTVSPost2010Prop48
 90
       50
102
RTVSPost2010PropOp48
 70
     1
102
RTVSPost2010Prop49
280
     0
102
RTVSPost2010PropOp49
 70
     1
102
RTVSPost2010Prop50
 90
       50
102
RTVSPost2010PropOp50
 70
     1
102
RTVSPost2010Prop51ColorIndex
 90
      256
102
RTVSPost2010Prop51ColorRGB
 90
-16777216
102
RTVSPost2010PropOp51
 70
     0
102
RTVSPost2010Prop52
140
1.0
102
RTVSPost2010PropOp52
 70
     0
102
RTVSPost2010Prop53
 90
        2
102
RTVSPost2010PropOp53
 70
     1
102
RTVSPost2010Prop54
  1
strokes_ogs.tif
102
RTVSPost2010PropOp54
 70
     1
102
RTVSPost2010Prop55
280
     0
102
RTVSPost2010PropOp55
 70
     1
102
RTVSPost2010Prop56
140
1.0
102
RTVSPost2010PropOp56
 70
     1
102
RTVSPost2010Prop57
140
1.0
102
RTVSPost2010PropOp57
 70
     1
102
RTVSPropertyOp0
 70
     1
102
RTVSPropertyOp1
 70
     1
102
RTVSPropertyOp2
 70
     1
102
RTVSPropertyOp3
 70
     1
102
RTVSPropertyOp4
 70
     1
102
RTVSPropertyOp5
 70
     1
102
RTVSPropertyOp6
 70
     1
102
RTVSPropertyOp7
 70
     1
102
RTVSPropertyOp8
 70
     1
102
RTVSPropertyOp9
 70
     1
102
RTVSPropertyOp10
 70
     1
102
RTVSPropertyOp11
 70
     1
102
RTVSPropertyOp12
 70
     1
102
RTVSPropertyOp13
 70
     1
102
RTVSPropertyOp14
 70
     1
102
RTVSPropertyOp15
 70
     1
102
RTVSPropertyOp16
 70
     1
102
RTVSPropertyOp17
 70
     1
102
RTVSPropertyOp18
 70
     1
102
RTVSPropertyOp19
 70
     1
102
RTVSPropertyOp20
 70
     1
102
RTVSPropertyOp21
 70
     1
102
RTVSPropertyOp22
 70
     1
102
RTVSPropertyOp23
 70
     1
102
RTVSPropertyOp24
 70
     1
102
RTVSPropertyOp25
 70
     1
102
RTVSPropertyOp26
 70
     1
102
RTVSPropertyOp27
 70
     1
102
RTVSPropertyOp28
 70
     1
102
RTVSPropertyOp29
 70
     1
102
RTVSPropertyOp30
 70
     1
102
RTVSPropertyOp31
 70
     1
102
RTVSPropertyOp32
 70
     1
102
RTVSPropertyOp33
 70
     1
102
RTVSPropertyOp34
 70
     1
102
RTVSPropertyOp35
 70
     1
102
RTVSPropertyOp36
 70
     1
102
RTVSPropertyOp37
 70
     1
102
RTVSPropertyOp38
 70
     1
102
RTVSPropertyOp39
 70
     1
102
RTVSPropertyOp40
 70
     1
102
RTVSPropertyOp41
 70
     1
102
RTVSPropertyOp42
 70
     1
102
RTVSPropertyOp43
 70
     1
102
RTVSPropertyOp44
 70
     1
102
RTVSPropertyOp45
 70
     1
102
RTVSPropertyOp46
 70
     1
102
RTVSPropertyOp47
 70
     1
102
RTVSPropertyOp48
 70
     1
102
RTVSPropertyOp49
 70
     1
102
RTVSPropertyOp50
 70
     1
102
RTVSPropertyOp51
 70
     0
102
RTVSPropertyOp52
 70
     0
102
RTVSPropertyOp53
 70
     1
102
RTVSPropertyOp54
 70
     1
102
RTVSPropertyOp55
 70
     1
102
RTVSPropertyOp56
 70
     1
102
RTVSPropertyOp57
 70
     1
102
RTVSPropertyOp58
 70
     1
102
RTVSPropertyOp59
 70
     1
102
RTVSPropertyOp60
 70
     1
102
RTVSPropertyOp61
 70
     1
102
RTVSPropertyOp62
 70
     1
  0
XRECORD
  5
59F3
102
{ACAD_REACTORS
330
59F2
102
}
330
59F2
100
AcDbXrecord
280
     1
102
RTVSPost2010Prop28
280
     0
102
RTVSPost2010PropOp28
 70
     1
102
RTVSPost2010Prop29
280
     1
102
RTVSPost2010PropOp29
 70
     1
102
RTVSPost2010Prop30
280
     1
102
RTVSPost2010PropOp30
 70
     1
102
RTVSPost2010Prop31
280
     0
102
RTVSPost2010PropOp31
 70
     1
102
RTVSPost2010Prop32
280
     0
102
RTVSPost2010PropOp32
 70
     1
102
RTVSPost2010Prop33
280
     0
102
RTVSPost2010PropOp33
 70
     1
102
RTVSPost2010Prop34
280
     0
102
RTVSPost2010PropOp34
 70
     1
102
RTVSPost2010Prop35
280
     0
102
RTVSPost2010PropOp35
 70
     1
102
RTVSPost2010Prop36
280
     0
102
RTVSPost2010PropOp36
 70
     1
102
RTVSPost2010Prop37
 90
       50
102
RTVSPost2010PropOp37
 70
     1
102
RTVSPost2010Prop38
140
0.0
102
RTVSPost2010PropOp38
 70
     1
102
RTVSPost2010Prop39
140
1.0
102
RTVSPost2010PropOp39
 70
     1
102
RTVSPost2010Prop40
 90
        0
102
RTVSPost2010PropOp40
 70
     1
102
RTVSPost2010Prop41ColorIndex
 90
       18
102
RTVSPost2010Prop41ColorRGB
 90
        0
102
RTVSPost2010PropOp41
 70
     1
102
RTVSPost2010Prop42
 90
       50
102
RTVSPost2010PropOp42
 70
     1
102
RTVSPost2010Prop43
 90
        3
102
RTVSPost2010PropOp43
 70
     1
102
RTVSPost2010Prop44ColorIndex
 90
        5
102
RTVSPost2010Prop44ColorRGB
 90
      255
102
RTVSPost2010PropOp44
 70
     1
102
RTVSPost2010Prop45
280
     0
102
RTVSPost2010PropOp45
 70
     1
102
RTVSPost2010Prop46
 90
       50
102
RTVSPost2010PropOp46
 70
     1
102
RTVSPost2010Prop47
 90
       50
102
RTVSPost2010PropOp47
 70
     1
102
RTVSPost2010Prop48
 90
       50
102
RTVSPost2010PropOp48
 70
     1
102
RTVSPost2010Prop49
280
     0
102
RTVSPost2010PropOp49
 70
     1
102
RTVSPost2010Prop50
 90
       50
102
RTVSPost2010PropOp50
 70
     1
102
RTVSPost2010Prop51ColorIndex
 90
      256
102
RTVSPost2010Prop51ColorRGB
 90
-16777216
102
RTVSPost2010PropOp51
 70
     0
102
RTVSPost2010Prop52
140
1.0
102
RTVSPost2010PropOp52
 70
     0
102
RTVSPost2010Prop53
 90
        2
102
RTVSPost2010PropOp53
 70
     1
102
RTVSPost2010Prop54
  1
strokes_ogs.tif
102
RTVSPost2010PropOp54
 70
     1
102
RTVSPost2010Prop55
280
     0
102
RTVSPost2010PropOp55
 70
     1
102
RTVSPost2010Prop56
140
1.0
102
RTVSPost2010PropOp56
 70
     1
102
RTVSPost2010Prop57
140
1.0
102
RTVSPost2010PropOp57
 70
     1
102
RTVSPropertyOp0
 70
     1
102
RTVSPropertyOp1
 70
     1
102
RTVSPropertyOp2
 70
     1
102
RTVSPropertyOp3
 70
     1
102
RTVSPropertyOp4
 70
     1
102
RTVSPropertyOp5
 70
     1
102
RTVSPropertyOp6
 70
     1
102
RTVSPropertyOp7
 70
     1
102
RTVSPropertyOp8
 70
     1
102
RTVSPropertyOp9
 70
     1
102
RTVSPropertyOp10
 70
     1
102
RTVSPropertyOp11
 70
     1
102
RTVSPropertyOp12
 70
     1
102
RTVSPropertyOp13
 70
     1
102
RTVSPropertyOp14
 70
     1
102
RTVSPropertyOp15
 70
     1
102
RTVSPropertyOp16
 70
     1
102
RTVSPropertyOp17
 70
     1
102
RTVSPropertyOp18
 70
     1
102
RTVSPropertyOp19
 70
     1
102
RTVSPropertyOp20
 70
     1
102
RTVSPropertyOp21
 70
     1
102
RTVSPropertyOp22
 70
     1
102
RTVSPropertyOp23
 70
     1
102
RTVSPropertyOp24
 70
     1
102
RTVSPropertyOp25
 70
     1
102
RTVSPropertyOp26
 70
     1
102
RTVSPropertyOp27
 70
     1
102
RTVSPropertyOp28
 70
     1
102
RTVSPropertyOp29
 70
     1
102
RTVSPropertyOp30
 70
     1
102
RTVSPropertyOp31
 70
     1
102
RTVSPropertyOp32
 70
     1
102
RTVSPropertyOp33
 70
     1
102
RTVSPropertyOp34
 70
     1
102
RTVSPropertyOp35
 70
     1
102
RTVSPropertyOp36
 70
     1
102
RTVSPropertyOp37
 70
     1
102
RTVSPropertyOp38
 70
     1
102
RTVSPropertyOp39
 70
     1
102
RTVSPropertyOp40
 70
     1
102
RTVSPropertyOp41
 70
     1
102
RTVSPropertyOp42
 70
     1
102
RTVSPropertyOp43
 70
     1
102
RTVSPropertyOp44
 70
     1
102
RTVSPropertyOp45
 70
     1
102
RTVSPropertyOp46
 70
     1
102
RTVSPropertyOp47
 70
     1
102
RTVSPropertyOp48
 70
     1
102
RTVSPropertyOp49
 70
     1
102
RTVSPropertyOp50
 70
     1
102
RTVSPropertyOp51
 70
     0
102
RTVSPropertyOp52
 70
     0
102
RTVSPropertyOp53
 70
     1
102
RTVSPropertyOp54
 70
     1
102
RTVSPropertyOp55
 70
     1
102
RTVSPropertyOp56
 70
     1
102
RTVSPropertyOp57
 70
     1
102
RTVSPropertyOp58
 70
     1
102
RTVSPropertyOp59
 70
     1
102
RTVSPropertyOp60
 70
     1
102
RTVSPropertyOp61
 70
     1
102
RTVSPropertyOp62
 70
     1
  0
XRECORD
  5
5A03
102
{ACAD_REACTORS
330
5A02
102
}
330
5A02
100
AcDbXrecord
280
     1
102
RTVSPost2010Prop28
280
     0
102
RTVSPost2010PropOp28
 70
     1
102
RTVSPost2010Prop29
280
     1
102
RTVSPost2010PropOp29
 70
     1
102
RTVSPost2010Prop30
280
     1
102
RTVSPost2010PropOp30
 70
     1
102
RTVSPost2010Prop31
280
     0
102
RTVSPost2010PropOp31
 70
     1
102
RTVSPost2010Prop32
280
     0
102
RTVSPost2010PropOp32
 70
     1
102
RTVSPost2010Prop33
280
     0
102
RTVSPost2010PropOp33
 70
     1
102
RTVSPost2010Prop34
280
     0
102
RTVSPost2010PropOp34
 70
     1
102
RTVSPost2010Prop35
280
     0
102
RTVSPost2010PropOp35
 70
     1
102
RTVSPost2010Prop36
280
     0
102
RTVSPost2010PropOp36
 70
     1
102
RTVSPost2010Prop37
 90
       50
102
RTVSPost2010PropOp37
 70
     1
102
RTVSPost2010Prop38
140
0.0
102
RTVSPost2010PropOp38
 70
     1
102
RTVSPost2010Prop39
140
1.0
102
RTVSPost2010PropOp39
 70
     1
102
RTVSPost2010Prop40
 90
        0
102
RTVSPost2010PropOp40
 70
     1
102
RTVSPost2010Prop41ColorIndex
 90
       18
102
RTVSPost2010Prop41ColorRGB
 90
        0
102
RTVSPost2010PropOp41
 70
     1
102
RTVSPost2010Prop42
 90
       50
102
RTVSPost2010PropOp42
 70
     1
102
RTVSPost2010Prop43
 90
        3
102
RTVSPost2010PropOp43
 70
     1
102
RTVSPost2010Prop44ColorIndex
 90
        5
102
RTVSPost2010Prop44ColorRGB
 90
      255
102
RTVSPost2010PropOp44
 70
     1
102
RTVSPost2010Prop45
280
     0
102
RTVSPost2010PropOp45
 70
     1
102
RTVSPost2010Prop46
 90
       50
102
RTVSPost2010PropOp46
 70
     1
102
RTVSPost2010Prop47
 90
       50
102
RTVSPost2010PropOp47
 70
     1
102
RTVSPost2010Prop48
 90
       50
102
RTVSPost2010PropOp48
 70
     1
102
RTVSPost2010Prop49
280
     0
102
RTVSPost2010PropOp49
 70
     1
102
RTVSPost2010Prop50
 90
       50
102
RTVSPost2010PropOp50
 70
     1
102
RTVSPost2010Prop51ColorIndex
 90
      256
102
RTVSPost2010Prop51ColorRGB
 90
-16777216
102
RTVSPost2010PropOp51
 70
     0
102
RTVSPost2010Prop52
140
1.0
102
RTVSPost2010PropOp52
 70
     0
102
RTVSPost2010Prop53
 90
        2
102
RTVSPost2010PropOp53
 70
     1
102
RTVSPost2010Prop54
  1
strokes_ogs.tif
102
RTVSPost2010PropOp54
 70
     1
102
RTVSPost2010Prop55
280
     0
102
RTVSPost2010PropOp55
 70
     1
102
RTVSPost2010Prop56
140
1.0
102
RTVSPost2010PropOp56
 70
     1
102
RTVSPost2010Prop57
140
1.0
102
RTVSPost2010PropOp57
 70
     1
102
RTVSPropertyOp0
 70
     0
102
RTVSPropertyOp1
 70
     0
102
RTVSPropertyOp2
 70
     0
102
RTVSPropertyOp3
 70
     0
102
RTVSPropertyOp4
 70
     0
102
RTVSPropertyOp5
 70
     0
102
RTVSPropertyOp6
 70
     0
102
RTVSPropertyOp7
 70
     0
102
RTVSPropertyOp8
 70
     0
102
RTVSPropertyOp9
 70
     0
102
RTVSPropertyOp10
 70
     0
102
RTVSPropertyOp11
 70
     0
102
RTVSPropertyOp12
 70
     0
102
RTVSPropertyOp13
 70
     0
102
RTVSPropertyOp14
 70
     2
102
RTVSPropertyOp15
 70
     0
102
RTVSPropertyOp16
 70
     0
102
RTVSPropertyOp17
 70
     0
102
RTVSPropertyOp18
 70
     0
102
RTVSPropertyOp19
 70
     0
102
RTVSPropertyOp20
 70
     0
102
RTVSPropertyOp21
 70
     0
102
RTVSPropertyOp22
 70
     0
102
RTVSPropertyOp23
 70
     0
102
RTVSPropertyOp24
 70
     0
102
RTVSPropertyOp25
 70
     0
102
RTVSPropertyOp26
 70
     0
102
RTVSPropertyOp27
 70
     0
102
RTVSPropertyOp28
 70
     1
102
RTVSPropertyOp29
 70
     1
102
RTVSPropertyOp30
 70
     1
102
RTVSPropertyOp31
 70
     1
102
RTVSPropertyOp32
 70
     1
102
RTVSPropertyOp33
 70
     1
102
RTVSPropertyOp34
 70
     1
102
RTVSPropertyOp35
 70
     1
102
RTVSPropertyOp36
 70
     1
102
RTVSPropertyOp37
 70
     1
102
RTVSPropertyOp38
 70
     1
102
RTVSPropertyOp39
 70
     1
102
RTVSPropertyOp40
 70
     1
102
RTVSPropertyOp41
 70
     1
102
RTVSPropertyOp42
 70
     1
102
RTVSPropertyOp43
 70
     1
102
RTVSPropertyOp44
 70
     1
102
RTVSPropertyOp45
 70
     1
102
RTVSPropertyOp46
 70
     1
102
RTVSPropertyOp47
 70
     1
102
RTVSPropertyOp48
 70
     1
102
RTVSPropertyOp49
 70
     1
102
RTVSPropertyOp50
 70
     1
102
RTVSPropertyOp51
 70
     0
102
RTVSPropertyOp52
 70
     0
102
RTVSPropertyOp53
 70
     1
102
RTVSPropertyOp54
 70
     1
102
RTVSPropertyOp55
 70
     1
102
RTVSPropertyOp56
 70
     1
102
RTVSPropertyOp57
 70
     1
102
RTVSPropertyOp58
 70
     1
102
RTVSPropertyOp59
 70
     1
102
RTVSPropertyOp60
 70
     1
102
RTVSPropertyOp61
 70
     1
102
RTVSPropertyOp62
 70
     1
  0
XRECORD
  5
59FB
102
{ACAD_REACTORS
330
59FA
102
}
330
59FA
100
AcDbXrecord
280
     1
102
RTVSPost2010Prop28
280
     0
102
RTVSPost2010PropOp28
 70
     1
102
RTVSPost2010Prop29
280
     1
102
RTVSPost2010PropOp29
 70
     1
102
RTVSPost2010Prop30
280
     1
102
RTVSPost2010PropOp30
 70
     1
102
RTVSPost2010Prop31
280
     0
102
RTVSPost2010PropOp31
 70
     1
102
RTVSPost2010Prop32
280
     0
102
RTVSPost2010PropOp32
 70
     1
102
RTVSPost2010Prop33
280
     0
102
RTVSPost2010PropOp33
 70
     1
102
RTVSPost2010Prop34
280
     0
102
RTVSPost2010PropOp34
 70
     1
102
RTVSPost2010Prop35
280
     0
102
RTVSPost2010PropOp35
 70
     1
102
RTVSPost2010Prop36
280
     0
102
RTVSPost2010PropOp36
 70
     1
102
RTVSPost2010Prop37
 90
       50
102
RTVSPost2010PropOp37
 70
     1
102
RTVSPost2010Prop38
140
0.0
102
RTVSPost2010PropOp38
 70
     1
102
RTVSPost2010Prop39
140
1.0
102
RTVSPost2010PropOp39
 70
     1
102
RTVSPost2010Prop40
 90
        0
102
RTVSPost2010PropOp40
 70
     1
102
RTVSPost2010Prop41ColorIndex
 90
       18
102
RTVSPost2010Prop41ColorRGB
 90
        0
102
RTVSPost2010PropOp41
 70
     1
102
RTVSPost2010Prop42
 90
       50
102
RTVSPost2010PropOp42
 70
     1
102
RTVSPost2010Prop43
 90
        3
102
RTVSPost2010PropOp43
 70
     1
102
RTVSPost2010Prop44ColorIndex
 90
        5
102
RTVSPost2010Prop44ColorRGB
 90
      255
102
RTVSPost2010PropOp44
 70
     1
102
RTVSPost2010Prop45
280
     0
102
RTVSPost2010PropOp45
 70
     1
102
RTVSPost2010Prop46
 90
       50
102
RTVSPost2010PropOp46
 70
     1
102
RTVSPost2010Prop47
 90
       50
102
RTVSPost2010PropOp47
 70
     1
102
RTVSPost2010Prop48
 90
       50
102
RTVSPost2010PropOp48
 70
     1
102
RTVSPost2010Prop49
280
     0
102
RTVSPost2010PropOp49
 70
     1
102
RTVSPost2010Prop50
 90
       50
102
RTVSPost2010PropOp50
 70
     1
102
RTVSPost2010Prop51ColorIndex
 90
      256
102
RTVSPost2010Prop51ColorRGB
 90
-16777216
102
RTVSPost2010PropOp51
 70
     0
102
RTVSPost2010Prop52
140
1.0
102
RTVSPost2010PropOp52
 70
     0
102
RTVSPost2010Prop53
 90
        2
102
RTVSPost2010PropOp53
 70
     1
102
RTVSPost2010Prop54
  1
strokes_ogs.tif
102
RTVSPost2010PropOp54
 70
     1
102
RTVSPost2010Prop55
280
     0
102
RTVSPost2010PropOp55
 70
     1
102
RTVSPost2010Prop56
140
1.0
102
RTVSPost2010PropOp56
 70
     1
102
RTVSPost2010Prop57
140
1.0
102
RTVSPost2010PropOp57
 70
     1
102
RTVSPropertyOp0
 70
     1
102
RTVSPropertyOp1
 70
     1
102
RTVSPropertyOp2
 70
     1
102
RTVSPropertyOp3
 70
     1
102
RTVSPropertyOp4
 70
     1
102
RTVSPropertyOp5
 70
     1
102
RTVSPropertyOp6
 70
     1
102
RTVSPropertyOp7
 70
     1
102
RTVSPropertyOp8
 70
     1
102
RTVSPropertyOp9
 70
     1
102
RTVSPropertyOp10
 70
     1
102
RTVSPropertyOp11
 70
     1
102
RTVSPropertyOp12
 70
     1
102
RTVSPropertyOp13
 70
     1
102
RTVSPropertyOp14
 70
     1
102
RTVSPropertyOp15
 70
     1
102
RTVSPropertyOp16
 70
     1
102
RTVSPropertyOp17
 70
     1
102
RTVSPropertyOp18
 70
     1
102
RTVSPropertyOp19
 70
     1
102
RTVSPropertyOp20
 70
     1
102
RTVSPropertyOp21
 70
     1
102
RTVSPropertyOp22
 70
     1
102
RTVSPropertyOp23
 70
     1
102
RTVSPropertyOp24
 70
     1
102
RTVSPropertyOp25
 70
     1
102
RTVSPropertyOp26
 70
     1
102
RTVSPropertyOp27
 70
     1
102
RTVSPropertyOp28
 70
     1
102
RTVSPropertyOp29
 70
     1
102
RTVSPropertyOp30
 70
     1
102
RTVSPropertyOp31
 70
     1
102
RTVSPropertyOp32
 70
     1
102
RTVSPropertyOp33
 70
     1
102
RTVSPropertyOp34
 70
     1
102
RTVSPropertyOp35
 70
     1
102
RTVSPropertyOp36
 70
     1
102
RTVSPropertyOp37
 70
     1
102
RTVSPropertyOp38
 70
     1
102
RTVSPropertyOp39
 70
     1
102
RTVSPropertyOp40
 70
     1
102
RTVSPropertyOp41
 70
     1
102
RTVSPropertyOp42
 70
     1
102
RTVSPropertyOp43
 70
     1
102
RTVSPropertyOp44
 70
     1
102
RTVSPropertyOp45
 70
     1
102
RTVSPropertyOp46
 70
     1
102
RTVSPropertyOp47
 70
     1
102
RTVSPropertyOp48
 70
     1
102
RTVSPropertyOp49
 70
     1
102
RTVSPropertyOp50
 70
     1
102
RTVSPropertyOp51
 70
     0
102
RTVSPropertyOp52
 70
     0
102
RTVSPropertyOp53
 70
     1
102
RTVSPropertyOp54
 70
     1
102
RTVSPropertyOp55
 70
     1
102
RTVSPropertyOp56
 70
     1
102
RTVSPropertyOp57
 70
     1
102
RTVSPropertyOp58
 70
     1
102
RTVSPropertyOp59
 70
     1
102
RTVSPropertyOp60
 70
     1
102
RTVSPropertyOp61
 70
     1
102
RTVSPropertyOp62
 70
     1
  0
XRECORD
  5
59DF
102
{ACAD_REACTORS
330
59DE
102
}
330
59DE
100
AcDbXrecord
280
     1
102
RTVSPost2010Prop28
280
     0
102
RTVSPost2010PropOp28
 70
     1
102
RTVSPost2010Prop29
280
     1
102
RTVSPost2010PropOp29
 70
     1
102
RTVSPost2010Prop30
280
     1
102
RTVSPost2010PropOp30
 70
     1
102
RTVSPost2010Prop31
280
     0
102
RTVSPost2010PropOp31
 70
     1
102
RTVSPost2010Prop32
280
     0
102
RTVSPost2010PropOp32
 70
     1
102
RTVSPost2010Prop33
280
     0
102
RTVSPost2010PropOp33
 70
     1
102
RTVSPost2010Prop34
280
     0
102
RTVSPost2010PropOp34
 70
     1
102
RTVSPost2010Prop35
280
     0
102
RTVSPost2010PropOp35
 70
     1
102
RTVSPost2010Prop36
280
     0
102
RTVSPost2010PropOp36
 70
     1
102
RTVSPost2010Prop37
 90
       50
102
RTVSPost2010PropOp37
 70
     1
102
RTVSPost2010Prop38
140
0.0
102
RTVSPost2010PropOp38
 70
     1
102
RTVSPost2010Prop39
140
1.0
102
RTVSPost2010PropOp39
 70
     1
102
RTVSPost2010Prop40
 90
        0
102
RTVSPost2010PropOp40
 70
     1
102
RTVSPost2010Prop41ColorIndex
 90
       18
102
RTVSPost2010Prop41ColorRGB
 90
        0
102
RTVSPost2010PropOp41
 70
     1
102
RTVSPost2010Prop42
 90
       50
102
RTVSPost2010PropOp42
 70
     1
102
RTVSPost2010Prop43
 90
        3
102
RTVSPost2010PropOp43
 70
     1
102
RTVSPost2010Prop44ColorIndex
 90
        5
102
RTVSPost2010Prop44ColorRGB
 90
      255
102
RTVSPost2010PropOp44
 70
     1
102
RTVSPost2010Prop45
280
     0
102
RTVSPost2010PropOp45
 70
     1
102
RTVSPost2010Prop46
 90
       50
102
RTVSPost2010PropOp46
 70
     1
102
RTVSPost2010Prop47
 90
       50
102
RTVSPost2010PropOp47
 70
     1
102
RTVSPost2010Prop48
 90
       50
102
RTVSPost2010PropOp48
 70
     1
102
RTVSPost2010Prop49
280
     0
102
RTVSPost2010PropOp49
 70
     1
102
RTVSPost2010Prop50
 90
       50
102
RTVSPost2010PropOp50
 70
     1
102
RTVSPost2010Prop51ColorIndex
 90
      256
102
RTVSPost2010Prop51ColorRGB
 90
-16777216
102
RTVSPost2010PropOp51
 70
     0
102
RTVSPost2010Prop52
140
1.0
102
RTVSPost2010PropOp52
 70
     0
102
RTVSPost2010Prop53
 90
        2
102
RTVSPost2010PropOp53
 70
     1
102
RTVSPost2010Prop54
  1
strokes_ogs.tif
102
RTVSPost2010PropOp54
 70
     1
102
RTVSPost2010Prop55
280
     0
102
RTVSPost2010PropOp55
 70
     1
102
RTVSPost2010Prop56
140
1.0
102
RTVSPost2010PropOp56
 70
     1
102
RTVSPost2010Prop57
140
1.0
102
RTVSPost2010PropOp57
 70
     1
102
RTVSPropertyOp0
 70
     1
102
RTVSPropertyOp1
 70
     1
102
RTVSPropertyOp2
 70
     1
102
RTVSPropertyOp3
 70
     1
102
RTVSPropertyOp4
 70
     1
102
RTVSPropertyOp5
 70
     1
102
RTVSPropertyOp6
 70
     1
102
RTVSPropertyOp7
 70
     1
102
RTVSPropertyOp8
 70
     1
102
RTVSPropertyOp9
 70
     1
102
RTVSPropertyOp10
 70
     1
102
RTVSPropertyOp11
 70
     1
102
RTVSPropertyOp12
 70
     1
102
RTVSPropertyOp13
 70
     1
102
RTVSPropertyOp14
 70
     1
102
RTVSPropertyOp15
 70
     1
102
RTVSPropertyOp16
 70
     1
102
RTVSPropertyOp17
 70
     1
102
RTVSPropertyOp18
 70
     1
102
RTVSPropertyOp19
 70
     1
102
RTVSPropertyOp20
 70
     1
102
RTVSPropertyOp21
 70
     1
102
RTVSPropertyOp22
 70
     1
102
RTVSPropertyOp23
 70
     1
102
RTVSPropertyOp24
 70
     1
102
RTVSPropertyOp25
 70
     1
102
RTVSPropertyOp26
 70
     1
102
RTVSPropertyOp27
 70
     1
102
RTVSPropertyOp28
 70
     1
102
RTVSPropertyOp29
 70
     1
102
RTVSPropertyOp30
 70
     1
102
RTVSPropertyOp31
 70
     1
102
RTVSPropertyOp32
 70
     1
102
RTVSPropertyOp33
 70
     1
102
RTVSPropertyOp34
 70
     1
102
RTVSPropertyOp35
 70
     1
102
RTVSPropertyOp36
 70
     1
102
RTVSPropertyOp37
 70
     1
102
RTVSPropertyOp38
 70
     1
102
RTVSPropertyOp39
 70
     1
102
RTVSPropertyOp40
 70
     1
102
RTVSPropertyOp41
 70
     1
102
RTVSPropertyOp42
 70
     1
102
RTVSPropertyOp43
 70
     1
102
RTVSPropertyOp44
 70
     1
102
RTVSPropertyOp45
 70
     1
102
RTVSPropertyOp46
 70
     1
102
RTVSPropertyOp47
 70
     1
102
RTVSPropertyOp48
 70
     1
102
RTVSPropertyOp49
 70
     1
102
RTVSPropertyOp50
 70
     1
102
RTVSPropertyOp51
 70
     0
102
RTVSPropertyOp52
 70
     0
102
RTVSPropertyOp53
 70
     1
102
RTVSPropertyOp54
 70
     1
102
RTVSPropertyOp55
 70
     1
102
RTVSPropertyOp56
 70
     1
102
RTVSPropertyOp57
 70
     1
102
RTVSPropertyOp58
 70
     1
102
RTVSPropertyOp59
 70
     1
102
RTVSPropertyOp60
 70
     1
102
RTVSPropertyOp61
 70
     1
102
RTVSPropertyOp62
 70
     1
  0
XRECORD
  5
59E1
102
{ACAD_REACTORS
330
59E0
102
}
330
59E0
100
AcDbXrecord
280
     1
102
RTVSPost2010Prop28
280
     0
102
RTVSPost2010PropOp28
 70
     1
102
RTVSPost2010Prop29
280
     1
102
RTVSPost2010PropOp29
 70
     1
102
RTVSPost2010Prop30
280
     1
102
RTVSPost2010PropOp30
 70
     1
102
RTVSPost2010Prop31
280
     0
102
RTVSPost2010PropOp31
 70
     1
102
RTVSPost2010Prop32
280
     0
102
RTVSPost2010PropOp32
 70
     1
102
RTVSPost2010Prop33
280
     0
102
RTVSPost2010PropOp33
 70
     1
102
RTVSPost2010Prop34
280
     0
102
RTVSPost2010PropOp34
 70
     1
102
RTVSPost2010Prop35
280
     0
102
RTVSPost2010PropOp35
 70
     1
102
RTVSPost2010Prop36
280
     0
102
RTVSPost2010PropOp36
 70
     1
102
RTVSPost2010Prop37
 90
       50
102
RTVSPost2010PropOp37
 70
     1
102
RTVSPost2010Prop38
140
0.0
102
RTVSPost2010PropOp38
 70
     1
102
RTVSPost2010Prop39
140
1.0
102
RTVSPost2010PropOp39
 70
     1
102
RTVSPost2010Prop40
 90
        0
102
RTVSPost2010PropOp40
 70
     1
102
RTVSPost2010Prop41ColorIndex
 90
       18
102
RTVSPost2010Prop41ColorRGB
 90
        0
102
RTVSPost2010PropOp41
 70
     1
102
RTVSPost2010Prop42
 90
       50
102
RTVSPost2010PropOp42
 70
     1
102
RTVSPost2010Prop43
 90
        3
102
RTVSPost2010PropOp43
 70
     1
102
RTVSPost2010Prop44ColorIndex
 90
        5
102
RTVSPost2010Prop44ColorRGB
 90
      255
102
RTVSPost2010PropOp44
 70
     1
102
RTVSPost2010Prop45
280
     0
102
RTVSPost2010PropOp45
 70
     1
102
RTVSPost2010Prop46
 90
       50
102
RTVSPost2010PropOp46
 70
     1
102
RTVSPost2010Prop47
 90
       50
102
RTVSPost2010PropOp47
 70
     1
102
RTVSPost2010Prop48
 90
       50
102
RTVSPost2010PropOp48
 70
     1
102
RTVSPost2010Prop49
280
     0
102
RTVSPost2010PropOp49
 70
     1
102
RTVSPost2010Prop50
 90
       50
102
RTVSPost2010PropOp50
 70
     1
102
RTVSPost2010Prop51ColorIndex
 90
      256
102
RTVSPost2010Prop51ColorRGB
 90
-16777216
102
RTVSPost2010PropOp51
 70
     0
102
RTVSPost2010Prop52
140
1.0
102
RTVSPost2010PropOp52
 70
     0
102
RTVSPost2010Prop53
 90
        2
102
RTVSPost2010PropOp53
 70
     1
102
RTVSPost2010Prop54
  1
strokes_ogs.tif
102
RTVSPost2010PropOp54
 70
     1
102
RTVSPost2010Prop55
280
     0
102
RTVSPost2010PropOp55
 70
     1
102
RTVSPost2010Prop56
140
1.0
102
RTVSPost2010PropOp56
 70
     1
102
RTVSPost2010Prop57
140
1.0
102
RTVSPost2010PropOp57
 70
     1
102
RTVSPropertyOp0
 70
     1
102
RTVSPropertyOp1
 70
     1
102
RTVSPropertyOp2
 70
     1
102
RTVSPropertyOp3
 70
     1
102
RTVSPropertyOp4
 70
     1
102
RTVSPropertyOp5
 70
     1
102
RTVSPropertyOp6
 70
     1
102
RTVSPropertyOp7
 70
     1
102
RTVSPropertyOp8
 70
     1
102
RTVSPropertyOp9
 70
     1
102
RTVSPropertyOp10
 70
     1
102
RTVSPropertyOp11
 70
     1
102
RTVSPropertyOp12
 70
     1
102
RTVSPropertyOp13
 70
     1
102
RTVSPropertyOp14
 70
     1
102
RTVSPropertyOp15
 70
     1
102
RTVSPropertyOp16
 70
     1
102
RTVSPropertyOp17
 70
     1
102
RTVSPropertyOp18
 70
     1
102
RTVSPropertyOp19
 70
     1
102
RTVSPropertyOp20
 70
     1
102
RTVSPropertyOp21
 70
     1
102
RTVSPropertyOp22
 70
     1
102
RTVSPropertyOp23
 70
     1
102
RTVSPropertyOp24
 70
     1
102
RTVSPropertyOp25
 70
     1
102
RTVSPropertyOp26
 70
     1
102
RTVSPropertyOp27
 70
     1
102
RTVSPropertyOp28
 70
     1
102
RTVSPropertyOp29
 70
     1
102
RTVSPropertyOp30
 70
     1
102
RTVSPropertyOp31
 70
     1
102
RTVSPropertyOp32
 70
     1
102
RTVSPropertyOp33
 70
     1
102
RTVSPropertyOp34
 70
     1
102
RTVSPropertyOp35
 70
     1
102
RTVSPropertyOp36
 70
     1
102
RTVSPropertyOp37
 70
     1
102
RTVSPropertyOp38
 70
     1
102
RTVSPropertyOp39
 70
     1
102
RTVSPropertyOp40
 70
     1
102
RTVSPropertyOp41
 70
     1
102
RTVSPropertyOp42
 70
     1
102
RTVSPropertyOp43
 70
     1
102
RTVSPropertyOp44
 70
     1
102
RTVSPropertyOp45
 70
     1
102
RTVSPropertyOp46
 70
     1
102
RTVSPropertyOp47
 70
     1
102
RTVSPropertyOp48
 70
     1
102
RTVSPropertyOp49
 70
     1
102
RTVSPropertyOp50
 70
     1
102
RTVSPropertyOp51
 70
     0
102
RTVSPropertyOp52
 70
     0
102
RTVSPropertyOp53
 70
     1
102
RTVSPropertyOp54
 70
     1
102
RTVSPropertyOp55
 70
     1
102
RTVSPropertyOp56
 70
     1
102
RTVSPropertyOp57
 70
     1
102
RTVSPropertyOp58
 70
     1
102
RTVSPropertyOp59
 70
     1
102
RTVSPropertyOp60
 70
     1
102
RTVSPropertyOp61
 70
     1
102
RTVSPropertyOp62
 70
     1
  0
XRECORD
  5
59E3
102
{ACAD_REACTORS
330
59E2
102
}
330
59E2
100
AcDbXrecord
280
     1
102
RTVSPost2010Prop28
280
     0
102
RTVSPost2010PropOp28
 70
     1
102
RTVSPost2010Prop29
280
     1
102
RTVSPost2010PropOp29
 70
     1
102
RTVSPost2010Prop30
280
     1
102
RTVSPost2010PropOp30
 70
     1
102
RTVSPost2010Prop31
280
     0
102
RTVSPost2010PropOp31
 70
     1
102
RTVSPost2010Prop32
280
     0
102
RTVSPost2010PropOp32
 70
     1
102
RTVSPost2010Prop33
280
     0
102
RTVSPost2010PropOp33
 70
     1
102
RTVSPost2010Prop34
280
     0
102
RTVSPost2010PropOp34
 70
     1
102
RTVSPost2010Prop35
280
     0
102
RTVSPost2010PropOp35
 70
     1
102
RTVSPost2010Prop36
280
     0
102
RTVSPost2010PropOp36
 70
     1
102
RTVSPost2010Prop37
 90
       50
102
RTVSPost2010PropOp37
 70
     1
102
RTVSPost2010Prop38
140
0.0
102
RTVSPost2010PropOp38
 70
     1
102
RTVSPost2010Prop39
140
1.0
102
RTVSPost2010PropOp39
 70
     1
102
RTVSPost2010Prop40
 90
        0
102
RTVSPost2010PropOp40
 70
     1
102
RTVSPost2010Prop41ColorIndex
 90
       18
102
RTVSPost2010Prop41ColorRGB
 90
        0
102
RTVSPost2010PropOp41
 70
     1
102
RTVSPost2010Prop42
 90
       50
102
RTVSPost2010PropOp42
 70
     1
102
RTVSPost2010Prop43
 90
        3
102
RTVSPost2010PropOp43
 70
     1
102
RTVSPost2010Prop44ColorIndex
 90
        5
102
RTVSPost2010Prop44ColorRGB
 90
      255
102
RTVSPost2010PropOp44
 70
     1
102
RTVSPost2010Prop45
280
     0
102
RTVSPost2010PropOp45
 70
     1
102
RTVSPost2010Prop46
 90
       50
102
RTVSPost2010PropOp46
 70
     1
102
RTVSPost2010Prop47
 90
       50
102
RTVSPost2010PropOp47
 70
     1
102
RTVSPost2010Prop48
 90
       50
102
RTVSPost2010PropOp48
 70
     1
102
RTVSPost2010Prop49
280
     0
102
RTVSPost2010PropOp49
 70
     1
102
RTVSPost2010Prop50
 90
       50
102
RTVSPost2010PropOp50
 70
     1
102
RTVSPost2010Prop51ColorIndex
 90
      256
102
RTVSPost2010Prop51ColorRGB
 90
-16777216
102
RTVSPost2010PropOp51
 70
     0
102
RTVSPost2010Prop52
140
1.0
102
RTVSPost2010PropOp52
 70
     0
102
RTVSPost2010Prop53
 90
        2
102
RTVSPost2010PropOp53
 70
     1
102
RTVSPost2010Prop54
  1
strokes_ogs.tif
102
RTVSPost2010PropOp54
 70
     1
102
RTVSPost2010Prop55
280
     0
102
RTVSPost2010PropOp55
 70
     1
102
RTVSPost2010Prop56
140
1.0
102
RTVSPost2010PropOp56
 70
     1
102
RTVSPost2010Prop57
140
1.0
102
RTVSPost2010PropOp57
 70
     1
102
RTVSPropertyOp0
 70
     1
102
RTVSPropertyOp1
 70
     1
102
RTVSPropertyOp2
 70
     1
102
RTVSPropertyOp3
 70
     1
102
RTVSPropertyOp4
 70
     1
102
RTVSPropertyOp5
 70
     1
102
RTVSPropertyOp6
 70
     1
102
RTVSPropertyOp7
 70
     1
102
RTVSPropertyOp8
 70
     1
102
RTVSPropertyOp9
 70
     1
102
RTVSPropertyOp10
 70
     1
102
RTVSPropertyOp11
 70
     1
102
RTVSPropertyOp12
 70
     1
102
RTVSPropertyOp13
 70
     1
102
RTVSPropertyOp14
 70
     1
102
RTVSPropertyOp15
 70
     1
102
RTVSPropertyOp16
 70
     1
102
RTVSPropertyOp17
 70
     1
102
RTVSPropertyOp18
 70
     1
102
RTVSPropertyOp19
 70
     1
102
RTVSPropertyOp20
 70
     1
102
RTVSPropertyOp21
 70
     1
102
RTVSPropertyOp22
 70
     1
102
RTVSPropertyOp23
 70
     1
102
RTVSPropertyOp24
 70
     1
102
RTVSPropertyOp25
 70
     1
102
RTVSPropertyOp26
 70
     1
102
RTVSPropertyOp27
 70
     1
102
RTVSPropertyOp28
 70
     1
102
RTVSPropertyOp29
 70
     1
102
RTVSPropertyOp30
 70
     1
102
RTVSPropertyOp31
 70
     1
102
RTVSPropertyOp32
 70
     1
102
RTVSPropertyOp33
 70
     1
102
RTVSPropertyOp34
 70
     1
102
RTVSPropertyOp35
 70
     1
102
RTVSPropertyOp36
 70
     1
102
RTVSPropertyOp37
 70
     1
102
RTVSPropertyOp38
 70
     1
102
RTVSPropertyOp39
 70
     1
102
RTVSPropertyOp40
 70
     1
102
RTVSPropertyOp41
 70
     1
102
RTVSPropertyOp42
 70
     1
102
RTVSPropertyOp43
 70
     1
102
RTVSPropertyOp44
 70
     1
102
RTVSPropertyOp45
 70
     1
102
RTVSPropertyOp46
 70
     1
102
RTVSPropertyOp47
 70
     1
102
RTVSPropertyOp48
 70
     1
102
RTVSPropertyOp49
 70
     1
102
RTVSPropertyOp50
 70
     1
102
RTVSPropertyOp51
 70
     0
102
RTVSPropertyOp52
 70
     0
102
RTVSPropertyOp53
 70
     1
102
RTVSPropertyOp54
 70
     1
102
RTVSPropertyOp55
 70
     1
102
RTVSPropertyOp56
 70
     1
102
RTVSPropertyOp57
 70
     1
102
RTVSPropertyOp58
 70
     1
102
RTVSPropertyOp59
 70
     1
102
RTVSPropertyOp60
 70
     1
102
RTVSPropertyOp61
 70
     1
102
RTVSPropertyOp62
 70
     1
  0
XRECORD
  5
59E5
102
{ACAD_REACTORS
330
59E4
102
}
330
59E4
100
AcDbXrecord
280
     1
102
RTVSPost2010Prop28
280
     0
102
RTVSPost2010PropOp28
 70
     1
102
RTVSPost2010Prop29
280
     1
102
RTVSPost2010PropOp29
 70
     1
102
RTVSPost2010Prop30
280
     1
102
RTVSPost2010PropOp30
 70
     1
102
RTVSPost2010Prop31
280
     0
102
RTVSPost2010PropOp31
 70
     1
102
RTVSPost2010Prop32
280
     0
102
RTVSPost2010PropOp32
 70
     1
102
RTVSPost2010Prop33
280
     0
102
RTVSPost2010PropOp33
 70
     1
102
RTVSPost2010Prop34
280
     0
102
RTVSPost2010PropOp34
 70
     1
102
RTVSPost2010Prop35
280
     0
102
RTVSPost2010PropOp35
 70
     1
102
RTVSPost2010Prop36
280
     0
102
RTVSPost2010PropOp36
 70
     1
102
RTVSPost2010Prop37
 90
       50
102
RTVSPost2010PropOp37
 70
     1
102
RTVSPost2010Prop38
140
0.0
102
RTVSPost2010PropOp38
 70
     1
102
RTVSPost2010Prop39
140
1.0
102
RTVSPost2010PropOp39
 70
     1
102
RTVSPost2010Prop40
 90
        0
102
RTVSPost2010PropOp40
 70
     1
102
RTVSPost2010Prop41ColorIndex
 90
       18
102
RTVSPost2010Prop41ColorRGB
 90
        0
102
RTVSPost2010PropOp41
 70
     1
102
RTVSPost2010Prop42
 90
       50
102
RTVSPost2010PropOp42
 70
     1
102
RTVSPost2010Prop43
 90
        3
102
RTVSPost2010PropOp43
 70
     1
102
RTVSPost2010Prop44ColorIndex
 90
        5
102
RTVSPost2010Prop44ColorRGB
 90
      255
102
RTVSPost2010PropOp44
 70
     1
102
RTVSPost2010Prop45
280
     0
102
RTVSPost2010PropOp45
 70
     1
102
RTVSPost2010Prop46
 90
       50
102
RTVSPost2010PropOp46
 70
     1
102
RTVSPost2010Prop47
 90
       50
102
RTVSPost2010PropOp47
 70
     1
102
RTVSPost2010Prop48
 90
       50
102
RTVSPost2010PropOp48
 70
     1
102
RTVSPost2010Prop49
280
     0
102
RTVSPost2010PropOp49
 70
     1
102
RTVSPost2010Prop50
 90
       50
102
RTVSPost2010PropOp50
 70
     1
102
RTVSPost2010Prop51ColorIndex
 90
      256
102
RTVSPost2010Prop51ColorRGB
 90
-16777216
102
RTVSPost2010PropOp51
 70
     0
102
RTVSPost2010Prop52
140
1.0
102
RTVSPost2010PropOp52
 70
     0
102
RTVSPost2010Prop53
 90
        2
102
RTVSPost2010PropOp53
 70
     1
102
RTVSPost2010Prop54
  1
strokes_ogs.tif
102
RTVSPost2010PropOp54
 70
     1
102
RTVSPost2010Prop55
280
     0
102
RTVSPost2010PropOp55
 70
     1
102
RTVSPost2010Prop56
140
1.0
102
RTVSPost2010PropOp56
 70
     1
102
RTVSPost2010Prop57
140
1.0
102
RTVSPost2010PropOp57
 70
     1
102
RTVSPropertyOp0
 70
     1
102
RTVSPropertyOp1
 70
     1
102
RTVSPropertyOp2
 70
     1
102
RTVSPropertyOp3
 70
     1
102
RTVSPropertyOp4
 70
     1
102
RTVSPropertyOp5
 70
     1
102
RTVSPropertyOp6
 70
     1
102
RTVSPropertyOp7
 70
     1
102
RTVSPropertyOp8
 70
     1
102
RTVSPropertyOp9
 70
     1
102
RTVSPropertyOp10
 70
     1
102
RTVSPropertyOp11
 70
     1
102
RTVSPropertyOp12
 70
     1
102
RTVSPropertyOp13
 70
     1
102
RTVSPropertyOp14
 70
     1
102
RTVSPropertyOp15
 70
     1
102
RTVSPropertyOp16
 70
     1
102
RTVSPropertyOp17
 70
     1
102
RTVSPropertyOp18
 70
     1
102
RTVSPropertyOp19
 70
     1
102
RTVSPropertyOp20
 70
     1
102
RTVSPropertyOp21
 70
     1
102
RTVSPropertyOp22
 70
     1
102
RTVSPropertyOp23
 70
     1
102
RTVSPropertyOp24
 70
     1
102
RTVSPropertyOp25
 70
     1
102
RTVSPropertyOp26
 70
     1
102
RTVSPropertyOp27
 70
     1
102
RTVSPropertyOp28
 70
     1
102
RTVSPropertyOp29
 70
     1
102
RTVSPropertyOp30
 70
     1
102
RTVSPropertyOp31
 70
     1
102
RTVSPropertyOp32
 70
     1
102
RTVSPropertyOp33
 70
     1
102
RTVSPropertyOp34
 70
     1
102
RTVSPropertyOp35
 70
     1
102
RTVSPropertyOp36
 70
     1
102
RTVSPropertyOp37
 70
     1
102
RTVSPropertyOp38
 70
     1
102
RTVSPropertyOp39
 70
     1
102
RTVSPropertyOp40
 70
     1
102
RTVSPropertyOp41
 70
     1
102
RTVSPropertyOp42
 70
     1
102
RTVSPropertyOp43
 70
     1
102
RTVSPropertyOp44
 70
     1
102
RTVSPropertyOp45
 70
     1
102
RTVSPropertyOp46
 70
     1
102
RTVSPropertyOp47
 70
     1
102
RTVSPropertyOp48
 70
     1
102
RTVSPropertyOp49
 70
     1
102
RTVSPropertyOp50
 70
     1
102
RTVSPropertyOp51
 70
     0
102
RTVSPropertyOp52
 70
     0
102
RTVSPropertyOp53
 70
     1
102
RTVSPropertyOp54
 70
     1
102
RTVSPropertyOp55
 70
     1
102
RTVSPropertyOp56
 70
     1
102
RTVSPropertyOp57
 70
     1
102
RTVSPropertyOp58
 70
     1
102
RTVSPropertyOp59
 70
     1
102
RTVSPropertyOp60
 70
     1
102
RTVSPropertyOp61
 70
     1
102
RTVSPropertyOp62
 70
     1
  0
XRECORD
  5
5A08
102
{ACAD_REACTORS
330
5A07
102
}
330
5A07
100
AcDbXrecord
280
     1
102
RTVSPost2010Prop28
280
     0
102
RTVSPost2010PropOp28
 70
     1
102
RTVSPost2010Prop29
280
     1
102
RTVSPost2010PropOp29
 70
     1
102
RTVSPost2010Prop30
280
     1
102
RTVSPost2010PropOp30
 70
     1
102
RTVSPost2010Prop31
280
     0
102
RTVSPost2010PropOp31
 70
     1
102
RTVSPost2010Prop32
280
     0
102
RTVSPost2010PropOp32
 70
     1
102
RTVSPost2010Prop33
280
     0
102
RTVSPost2010PropOp33
 70
     1
102
RTVSPost2010Prop34
280
     0
102
RTVSPost2010PropOp34
 70
     1
102
RTVSPost2010Prop35
280
     0
102
RTVSPost2010PropOp35
 70
     1
102
RTVSPost2010Prop36
280
     0
102
RTVSPost2010PropOp36
 70
     1
102
RTVSPost2010Prop37
 90
       50
102
RTVSPost2010PropOp37
 70
     1
102
RTVSPost2010Prop38
140
0.0
102
RTVSPost2010PropOp38
 70
     1
102
RTVSPost2010Prop39
140
1.0
102
RTVSPost2010PropOp39
 70
     1
102
RTVSPost2010Prop40
 90
        0
102
RTVSPost2010PropOp40
 70
     1
102
RTVSPost2010Prop41ColorIndex
 90
       18
102
RTVSPost2010Prop41ColorRGB
 90
        0
102
RTVSPost2010PropOp41
 70
     1
102
RTVSPost2010Prop42
 90
       50
102
RTVSPost2010PropOp42
 70
     1
102
RTVSPost2010Prop43
 90
        3
102
RTVSPost2010PropOp43
 70
     1
102
RTVSPost2010Prop44ColorIndex
 90
        5
102
RTVSPost2010Prop44ColorRGB
 90
      255
102
RTVSPost2010PropOp44
 70
     1
102
RTVSPost2010Prop45
280
     0
102
RTVSPost2010PropOp45
 70
     1
102
RTVSPost2010Prop46
 90
       50
102
RTVSPost2010PropOp46
 70
     1
102
RTVSPost2010Prop47
 90
       50
102
RTVSPost2010PropOp47
 70
     1
102
RTVSPost2010Prop48
 90
       50
102
RTVSPost2010PropOp48
 70
     1
102
RTVSPost2010Prop49
280
     0
102
RTVSPost2010PropOp49
 70
     1
102
RTVSPost2010Prop50
 90
       50
102
RTVSPost2010PropOp50
 70
     1
102
RTVSPost2010Prop51ColorIndex
 90
      256
102
RTVSPost2010Prop51ColorRGB
 90
-16777216
102
RTVSPost2010PropOp51
 70
     0
102
RTVSPost2010Prop52
140
1.0
102
RTVSPost2010PropOp52
 70
     0
102
RTVSPost2010Prop53
 90
        2
102
RTVSPost2010PropOp53
 70
     1
102
RTVSPost2010Prop54
  1
strokes_ogs.tif
102
RTVSPost2010PropOp54
 70
     1
102
RTVSPost2010Prop55
280
     0
102
RTVSPost2010PropOp55
 70
     1
102
RTVSPost2010Prop56
140
1.0
102
RTVSPost2010PropOp56
 70
     1
102
RTVSPost2010Prop57
140
1.0
102
RTVSPost2010PropOp57
 70
     1
102
RTVSPropertyOp0
 70
     1
102
RTVSPropertyOp1
 70
     1
102
RTVSPropertyOp2
 70
     1
102
RTVSPropertyOp3
 70
     1
102
RTVSPropertyOp4
 70
     1
102
RTVSPropertyOp5
 70
     1
102
RTVSPropertyOp6
 70
     1
102
RTVSPropertyOp7
 70
     1
102
RTVSPropertyOp8
 70
     1
102
RTVSPropertyOp9
 70
     1
102
RTVSPropertyOp10
 70
     1
102
RTVSPropertyOp11
 70
     1
102
RTVSPropertyOp12
 70
     1
102
RTVSPropertyOp13
 70
     1
102
RTVSPropertyOp14
 70
     1
102
RTVSPropertyOp15
 70
     1
102
RTVSPropertyOp16
 70
     1
102
RTVSPropertyOp17
 70
     1
102
RTVSPropertyOp18
 70
     1
102
RTVSPropertyOp19
 70
     1
102
RTVSPropertyOp20
 70
     1
102
RTVSPropertyOp21
 70
     1
102
RTVSPropertyOp22
 70
     1
102
RTVSPropertyOp23
 70
     1
102
RTVSPropertyOp24
 70
     1
102
RTVSPropertyOp25
 70
     1
102
RTVSPropertyOp26
 70
     1
102
RTVSPropertyOp27
 70
     1
102
RTVSPropertyOp28
 70
     1
102
RTVSPropertyOp29
 70
     1
102
RTVSPropertyOp30
 70
     1
102
RTVSPropertyOp31
 70
     1
102
RTVSPropertyOp32
 70
     1
102
RTVSPropertyOp33
 70
     1
102
RTVSPropertyOp34
 70
     1
102
RTVSPropertyOp35
 70
     1
102
RTVSPropertyOp36
 70
     1
102
RTVSPropertyOp37
 70
     1
102
RTVSPropertyOp38
 70
     1
102
RTVSPropertyOp39
 70
     1
102
RTVSPropertyOp40
 70
     1
102
RTVSPropertyOp41
 70
     1
102
RTVSPropertyOp42
 70
     1
102
RTVSPropertyOp43
 70
     1
102
RTVSPropertyOp44
 70
     1
102
RTVSPropertyOp45
 70
     1
102
RTVSPropertyOp46
 70
     1
102
RTVSPropertyOp47
 70
     1
102
RTVSPropertyOp48
 70
     1
102
RTVSPropertyOp49
 70
     1
102
RTVSPropertyOp50
 70
     1
102
RTVSPropertyOp51
 70
     0
102
RTVSPropertyOp52
 70
     0
102
RTVSPropertyOp53
 70
     1
102
RTVSPropertyOp54
 70
     1
102
RTVSPropertyOp55
 70
     1
102
RTVSPropertyOp56
 70
     1
102
RTVSPropertyOp57
 70
     1
102
RTVSPropertyOp58
 70
     1
102
RTVSPropertyOp59
 70
     1
102
RTVSPropertyOp60
 70
     1
102
RTVSPropertyOp61
 70
     1
102
RTVSPropertyOp62
 70
     1
  0
XRECORD
  5
59FF
102
{ACAD_REACTORS
330
59FE
102
}
330
59FE
100
AcDbXrecord
280
     1
102
RTVSPost2010Prop28
280
     0
102
RTVSPost2010PropOp28
 70
     1
102
RTVSPost2010Prop29
280
     1
102
RTVSPost2010PropOp29
 70
     1
102
RTVSPost2010Prop30
280
     1
102
RTVSPost2010PropOp30
 70
     1
102
RTVSPost2010Prop31
280
     0
102
RTVSPost2010PropOp31
 70
     1
102
RTVSPost2010Prop32
280
     0
102
RTVSPost2010PropOp32
 70
     1
102
RTVSPost2010Prop33
280
     0
102
RTVSPost2010PropOp33
 70
     1
102
RTVSPost2010Prop34
280
     0
102
RTVSPost2010PropOp34
 70
     1
102
RTVSPost2010Prop35
280
     0
102
RTVSPost2010PropOp35
 70
     1
102
RTVSPost2010Prop36
280
     0
102
RTVSPost2010PropOp36
 70
     1
102
RTVSPost2010Prop37
 90
       50
102
RTVSPost2010PropOp37
 70
     1
102
RTVSPost2010Prop38
140
0.0
102
RTVSPost2010PropOp38
 70
     1
102
RTVSPost2010Prop39
140
1.0
102
RTVSPost2010PropOp39
 70
     1
102
RTVSPost2010Prop40
 90
        0
102
RTVSPost2010PropOp40
 70
     1
102
RTVSPost2010Prop41ColorIndex
 90
       18
102
RTVSPost2010Prop41ColorRGB
 90
        0
102
RTVSPost2010PropOp41
 70
     1
102
RTVSPost2010Prop42
 90
       50
102
RTVSPost2010PropOp42
 70
     1
102
RTVSPost2010Prop43
 90
        3
102
RTVSPost2010PropOp43
 70
     1
102
RTVSPost2010Prop44ColorIndex
 90
        5
102
RTVSPost2010Prop44ColorRGB
 90
      255
102
RTVSPost2010PropOp44
 70
     1
102
RTVSPost2010Prop45
280
     0
102
RTVSPost2010PropOp45
 70
     1
102
RTVSPost2010Prop46
 90
       50
102
RTVSPost2010PropOp46
 70
     1
102
RTVSPost2010Prop47
 90
       50
102
RTVSPost2010PropOp47
 70
     1
102
RTVSPost2010Prop48
 90
       50
102
RTVSPost2010PropOp48
 70
     1
102
RTVSPost2010Prop49
280
     0
102
RTVSPost2010PropOp49
 70
     1
102
RTVSPost2010Prop50
 90
       50
102
RTVSPost2010PropOp50
 70
     1
102
RTVSPost2010Prop51ColorIndex
 90
      256
102
RTVSPost2010Prop51ColorRGB
 90
-16777216
102
RTVSPost2010PropOp51
 70
     0
102
RTVSPost2010Prop52
140
1.0
102
RTVSPost2010PropOp52
 70
     0
102
RTVSPost2010Prop53
 90
        2
102
RTVSPost2010PropOp53
 70
     1
102
RTVSPost2010Prop54
  1
strokes_ogs.tif
102
RTVSPost2010PropOp54
 70
     1
102
RTVSPost2010Prop55
280
     0
102
RTVSPost2010PropOp55
 70
     1
102
RTVSPost2010Prop56
140
1.0
102
RTVSPost2010PropOp56
 70
     1
102
RTVSPost2010Prop57
140
1.0
102
RTVSPost2010PropOp57
 70
     1
102
RTVSPropertyOp0
 70
     0
102
RTVSPropertyOp1
 70
     0
102
RTVSPropertyOp2
 70
     0
102
RTVSPropertyOp3
 70
     0
102
RTVSPropertyOp4
 70
     0
102
RTVSPropertyOp5
 70
     0
102
RTVSPropertyOp6
 70
     0
102
RTVSPropertyOp7
 70
     0
102
RTVSPropertyOp8
 70
     0
102
RTVSPropertyOp9
 70
     0
102
RTVSPropertyOp10
 70
     0
102
RTVSPropertyOp11
 70
     0
102
RTVSPropertyOp12
 70
     0
102
RTVSPropertyOp13
 70
     0
102
RTVSPropertyOp14
 70
     2
102
RTVSPropertyOp15
 70
     0
102
RTVSPropertyOp16
 70
     0
102
RTVSPropertyOp17
 70
     0
102
RTVSPropertyOp18
 70
     0
102
RTVSPropertyOp19
 70
     0
102
RTVSPropertyOp20
 70
     0
102
RTVSPropertyOp21
 70
     0
102
RTVSPropertyOp22
 70
     0
102
RTVSPropertyOp23
 70
     0
102
RTVSPropertyOp24
 70
     0
102
RTVSPropertyOp25
 70
     0
102
RTVSPropertyOp26
 70
     0
102
RTVSPropertyOp27
 70
     0
102
RTVSPropertyOp28
 70
     1
102
RTVSPropertyOp29
 70
     1
102
RTVSPropertyOp30
 70
     1
102
RTVSPropertyOp31
 70
     1
102
RTVSPropertyOp32
 70
     1
102
RTVSPropertyOp33
 70
     1
102
RTVSPropertyOp34
 70
     1
102
RTVSPropertyOp35
 70
     1
102
RTVSPropertyOp36
 70
     1
102
RTVSPropertyOp37
 70
     1
102
RTVSPropertyOp38
 70
     1
102
RTVSPropertyOp39
 70
     1
102
RTVSPropertyOp40
 70
     1
102
RTVSPropertyOp41
 70
     1
102
RTVSPropertyOp42
 70
     1
102
RTVSPropertyOp43
 70
     1
102
RTVSPropertyOp44
 70
     1
102
RTVSPropertyOp45
 70
     1
102
RTVSPropertyOp46
 70
     1
102
RTVSPropertyOp47
 70
     1
102
RTVSPropertyOp48
 70
     1
102
RTVSPropertyOp49
 70
     1
102
RTVSPropertyOp50
 70
     1
102
RTVSPropertyOp51
 70
     0
102
RTVSPropertyOp52
 70
     0
102
RTVSPropertyOp53
 70
     1
102
RTVSPropertyOp54
 70
     1
102
RTVSPropertyOp55
 70
     1
102
RTVSPropertyOp56
 70
     1
102
RTVSPropertyOp57
 70
     1
102
RTVSPropertyOp58
 70
     1
102
RTVSPropertyOp59
 70
     1
102
RTVSPropertyOp60
 70
     1
102
RTVSPropertyOp61
 70
     1
102
RTVSPropertyOp62
 70
     1
  0
XRECORD
  5
59F9
102
{ACAD_REACTORS
330
59F8
102
}
330
59F8
100
AcDbXrecord
280
     1
102
RTVSPost2010Prop28
280
     0
102
RTVSPost2010PropOp28
 70
     1
102
RTVSPost2010Prop29
280
     1
102
RTVSPost2010PropOp29
 70
     1
102
RTVSPost2010Prop30
280
     1
102
RTVSPost2010PropOp30
 70
     1
102
RTVSPost2010Prop31
280
     0
102
RTVSPost2010PropOp31
 70
     1
102
RTVSPost2010Prop32
280
     0
102
RTVSPost2010PropOp32
 70
     1
102
RTVSPost2010Prop33
280
     0
102
RTVSPost2010PropOp33
 70
     1
102
RTVSPost2010Prop34
280
     0
102
RTVSPost2010PropOp34
 70
     1
102
RTVSPost2010Prop35
280
     0
102
RTVSPost2010PropOp35
 70
     1
102
RTVSPost2010Prop36
280
     0
102
RTVSPost2010PropOp36
 70
     1
102
RTVSPost2010Prop37
 90
       50
102
RTVSPost2010PropOp37
 70
     1
102
RTVSPost2010Prop38
140
0.0
102
RTVSPost2010PropOp38
 70
     1
102
RTVSPost2010Prop39
140
1.0
102
RTVSPost2010PropOp39
 70
     1
102
RTVSPost2010Prop40
 90
        0
102
RTVSPost2010PropOp40
 70
     1
102
RTVSPost2010Prop41ColorIndex
 90
       18
102
RTVSPost2010Prop41ColorRGB
 90
        0
102
RTVSPost2010PropOp41
 70
     1
102
RTVSPost2010Prop42
 90
       50
102
RTVSPost2010PropOp42
 70
     1
102
RTVSPost2010Prop43
 90
        3
102
RTVSPost2010PropOp43
 70
     1
102
RTVSPost2010Prop44ColorIndex
 90
        5
102
RTVSPost2010Prop44ColorRGB
 90
      255
102
RTVSPost2010PropOp44
 70
     1
102
RTVSPost2010Prop45
280
     0
102
RTVSPost2010PropOp45
 70
     1
102
RTVSPost2010Prop46
 90
       50
102
RTVSPost2010PropOp46
 70
     1
102
RTVSPost2010Prop47
 90
       50
102
RTVSPost2010PropOp47
 70
     1
102
RTVSPost2010Prop48
 90
       50
102
RTVSPost2010PropOp48
 70
     1
102
RTVSPost2010Prop49
280
     0
102
RTVSPost2010PropOp49
 70
     1
102
RTVSPost2010Prop50
 90
       50
102
RTVSPost2010PropOp50
 70
     1
102
RTVSPost2010Prop51ColorIndex
 90
      256
102
RTVSPost2010Prop51ColorRGB
 90
-16777216
102
RTVSPost2010PropOp51
 70
     0
102
RTVSPost2010Prop52
140
1.0
102
RTVSPost2010PropOp52
 70
     0
102
RTVSPost2010Prop53
 90
        2
102
RTVSPost2010PropOp53
 70
     1
102
RTVSPost2010Prop54
  1
strokes_ogs.tif
102
RTVSPost2010PropOp54
 70
     1
102
RTVSPost2010Prop55
280
     0
102
RTVSPost2010PropOp55
 70
     1
102
RTVSPost2010Prop56
140
1.0
102
RTVSPost2010PropOp56
 70
     1
102
RTVSPost2010Prop57
140
1.0
102
RTVSPost2010PropOp57
 70
     1
102
RTVSPropertyOp0
 70
     1
102
RTVSPropertyOp1
 70
     1
102
RTVSPropertyOp2
 70
     1
102
RTVSPropertyOp3
 70
     1
102
RTVSPropertyOp4
 70
     1
102
RTVSPropertyOp5
 70
     1
102
RTVSPropertyOp6
 70
     1
102
RTVSPropertyOp7
 70
     1
102
RTVSPropertyOp8
 70
     1
102
RTVSPropertyOp9
 70
     1
102
RTVSPropertyOp10
 70
     1
102
RTVSPropertyOp11
 70
     1
102
RTVSPropertyOp12
 70
     1
102
RTVSPropertyOp13
 70
     1
102
RTVSPropertyOp14
 70
     1
102
RTVSPropertyOp15
 70
     1
102
RTVSPropertyOp16
 70
     1
102
RTVSPropertyOp17
 70
     1
102
RTVSPropertyOp18
 70
     1
102
RTVSPropertyOp19
 70
     1
102
RTVSPropertyOp20
 70
     1
102
RTVSPropertyOp21
 70
     1
102
RTVSPropertyOp22
 70
     1
102
RTVSPropertyOp23
 70
     1
102
RTVSPropertyOp24
 70
     1
102
RTVSPropertyOp25
 70
     1
102
RTVSPropertyOp26
 70
     1
102
RTVSPropertyOp27
 70
     1
102
RTVSPropertyOp28
 70
     1
102
RTVSPropertyOp29
 70
     1
102
RTVSPropertyOp30
 70
     1
102
RTVSPropertyOp31
 70
     1
102
RTVSPropertyOp32
 70
     1
102
RTVSPropertyOp33
 70
     1
102
RTVSPropertyOp34
 70
     1
102
RTVSPropertyOp35
 70
     1
102
RTVSPropertyOp36
 70
     1
102
RTVSPropertyOp37
 70
     1
102
RTVSPropertyOp38
 70
     1
102
RTVSPropertyOp39
 70
     1
102
RTVSPropertyOp40
 70
     1
102
RTVSPropertyOp41
 70
     1
102
RTVSPropertyOp42
 70
     1
102
RTVSPropertyOp43
 70
     1
102
RTVSPropertyOp44
 70
     1
102
RTVSPropertyOp45
 70
     1
102
RTVSPropertyOp46
 70
     1
102
RTVSPropertyOp47
 70
     1
102
RTVSPropertyOp48
 70
     1
102
RTVSPropertyOp49
 70
     1
102
RTVSPropertyOp50
 70
     1
102
RTVSPropertyOp51
 70
     0
102
RTVSPropertyOp52
 70
     0
102
RTVSPropertyOp53
 70
     1
102
RTVSPropertyOp54
 70
     1
102
RTVSPropertyOp55
 70
     1
102
RTVSPropertyOp56
 70
     1
102
RTVSPropertyOp57
 70
     1
102
RTVSPropertyOp58
 70
     1
102
RTVSPropertyOp59
 70
     1
102
RTVSPropertyOp60
 70
     1
102
RTVSPropertyOp61
 70
     1
102
RTVSPropertyOp62
 70
     1
  0
XRECORD
  5
5A01
102
{ACAD_REACTORS
330
5A00
102
}
330
5A00
100
AcDbXrecord
280
     1
102
RTVSPost2010Prop28
280
     0
102
RTVSPost2010PropOp28
 70
     1
102
RTVSPost2010Prop29
280
     1
102
RTVSPost2010PropOp29
 70
     1
102
RTVSPost2010Prop30
280
     1
102
RTVSPost2010PropOp30
 70
     1
102
RTVSPost2010Prop31
280
     0
102
RTVSPost2010PropOp31
 70
     1
102
RTVSPost2010Prop32
280
     0
102
RTVSPost2010PropOp32
 70
     1
102
RTVSPost2010Prop33
280
     0
102
RTVSPost2010PropOp33
 70
     1
102
RTVSPost2010Prop34
280
     0
102
RTVSPost2010PropOp34
 70
     1
102
RTVSPost2010Prop35
280
     0
102
RTVSPost2010PropOp35
 70
     1
102
RTVSPost2010Prop36
280
     0
102
RTVSPost2010PropOp36
 70
     1
102
RTVSPost2010Prop37
 90
       50
102
RTVSPost2010PropOp37
 70
     1
102
RTVSPost2010Prop38
140
0.0
102
RTVSPost2010PropOp38
 70
     1
102
RTVSPost2010Prop39
140
1.0
102
RTVSPost2010PropOp39
 70
     1
102
RTVSPost2010Prop40
 90
        0
102
RTVSPost2010PropOp40
 70
     1
102
RTVSPost2010Prop41ColorIndex
 90
       18
102
RTVSPost2010Prop41ColorRGB
 90
        0
102
RTVSPost2010PropOp41
 70
     1
102
RTVSPost2010Prop42
 90
       50
102
RTVSPost2010PropOp42
 70
     1
102
RTVSPost2010Prop43
 90
        3
102
RTVSPost2010PropOp43
 70
     1
102
RTVSPost2010Prop44ColorIndex
 90
        5
102
RTVSPost2010Prop44ColorRGB
 90
      255
102
RTVSPost2010PropOp44
 70
     1
102
RTVSPost2010Prop45
280
     0
102
RTVSPost2010PropOp45
 70
     1
102
RTVSPost2010Prop46
 90
       50
102
RTVSPost2010PropOp46
 70
     1
102
RTVSPost2010Prop47
 90
       50
102
RTVSPost2010PropOp47
 70
     1
102
RTVSPost2010Prop48
 90
       50
102
RTVSPost2010PropOp48
 70
     1
102
RTVSPost2010Prop49
280
     0
102
RTVSPost2010PropOp49
 70
     1
102
RTVSPost2010Prop50
 90
       50
102
RTVSPost2010PropOp50
 70
     1
102
RTVSPost2010Prop51ColorIndex
 90
      256
102
RTVSPost2010Prop51ColorRGB
 90
-16777216
102
RTVSPost2010PropOp51
 70
     0
102
RTVSPost2010Prop52
140
1.0
102
RTVSPost2010PropOp52
 70
     0
102
RTVSPost2010Prop53
 90
        2
102
RTVSPost2010PropOp53
 70
     1
102
RTVSPost2010Prop54
  1
strokes_ogs.tif
102
RTVSPost2010PropOp54
 70
     1
102
RTVSPost2010Prop55
280
     0
102
RTVSPost2010PropOp55
 70
     1
102
RTVSPost2010Prop56
140
1.0
102
RTVSPost2010PropOp56
 70
     1
102
RTVSPost2010Prop57
140
1.0
102
RTVSPost2010PropOp57
 70
     1
102
RTVSPropertyOp0
 70
     0
102
RTVSPropertyOp1
 70
     0
102
RTVSPropertyOp2
 70
     0
102
RTVSPropertyOp3
 70
     0
102
RTVSPropertyOp4
 70
     0
102
RTVSPropertyOp5
 70
     0
102
RTVSPropertyOp6
 70
     0
102
RTVSPropertyOp7
 70
     0
102
RTVSPropertyOp8
 70
     0
102
RTVSPropertyOp9
 70
     0
102
RTVSPropertyOp10
 70
     0
102
RTVSPropertyOp11
 70
     0
102
RTVSPropertyOp12
 70
     0
102
RTVSPropertyOp13
 70
     0
102
RTVSPropertyOp14
 70
     2
102
RTVSPropertyOp15
 70
     0
102
RTVSPropertyOp16
 70
     0
102
RTVSPropertyOp17
 70
     0
102
RTVSPropertyOp18
 70
     0
102
RTVSPropertyOp19
 70
     0
102
RTVSPropertyOp20
 70
     0
102
RTVSPropertyOp21
 70
     0
102
RTVSPropertyOp22
 70
     0
102
RTVSPropertyOp23
 70
     0
102
RTVSPropertyOp24
 70
     0
102
RTVSPropertyOp25
 70
     0
102
RTVSPropertyOp26
 70
     0
102
RTVSPropertyOp27
 70
     0
102
RTVSPropertyOp28
 70
     1
102
RTVSPropertyOp29
 70
     1
102
RTVSPropertyOp30
 70
     1
102
RTVSPropertyOp31
 70
     1
102
RTVSPropertyOp32
 70
     1
102
RTVSPropertyOp33
 70
     1
102
RTVSPropertyOp34
 70
     1
102
RTVSPropertyOp35
 70
     1
102
RTVSPropertyOp36
 70
     1
102
RTVSPropertyOp37
 70
     1
102
RTVSPropertyOp38
 70
     1
102
RTVSPropertyOp39
 70
     1
102
RTVSPropertyOp40
 70
     1
102
RTVSPropertyOp41
 70
     1
102
RTVSPropertyOp42
 70
     1
102
RTVSPropertyOp43
 70
     1
102
RTVSPropertyOp44
 70
     1
102
RTVSPropertyOp45
 70
     1
102
RTVSPropertyOp46
 70
     1
102
RTVSPropertyOp47
 70
     1
102
RTVSPropertyOp48
 70
     1
102
RTVSPropertyOp49
 70
     1
102
RTVSPropertyOp50
 70
     1
102
RTVSPropertyOp51
 70
     0
102
RTVSPropertyOp52
 70
     0
102
RTVSPropertyOp53
 70
     1
102
RTVSPropertyOp54
 70
     1
102
RTVSPropertyOp55
 70
     1
102
RTVSPropertyOp56
 70
     1
102
RTVSPropertyOp57
 70
     1
102
RTVSPropertyOp58
 70
     1
102
RTVSPropertyOp59
 70
     1
102
RTVSPropertyOp60
 70
     1
102
RTVSPropertyOp61
 70
     1
102
RTVSPropertyOp62
 70
     1
  0
XRECORD
  5
59F1
102
{ACAD_REACTORS
330
59F0
102
}
330
59F0
100
AcDbXrecord
280
     1
102
RTVSPost2010Prop28
280
     0
102
RTVSPost2010PropOp28
 70
     1
102
RTVSPost2010Prop29
280
     1
102
RTVSPost2010PropOp29
 70
     1
102
RTVSPost2010Prop30
280
     1
102
RTVSPost2010PropOp30
 70
     1
102
RTVSPost2010Prop31
280
     0
102
RTVSPost2010PropOp31
 70
     1
102
RTVSPost2010Prop32
280
     0
102
RTVSPost2010PropOp32
 70
     1
102
RTVSPost2010Prop33
280
     0
102
RTVSPost2010PropOp33
 70
     1
102
RTVSPost2010Prop34
280
     0
102
RTVSPost2010PropOp34
 70
     1
102
RTVSPost2010Prop35
280
     0
102
RTVSPost2010PropOp35
 70
     1
102
RTVSPost2010Prop36
280
     0
102
RTVSPost2010PropOp36
 70
     1
102
RTVSPost2010Prop37
 90
       50
102
RTVSPost2010PropOp37
 70
     1
102
RTVSPost2010Prop38
140
0.0
102
RTVSPost2010PropOp38
 70
     1
102
RTVSPost2010Prop39
140
1.0
102
RTVSPost2010PropOp39
 70
     1
102
RTVSPost2010Prop40
 90
        0
102
RTVSPost2010PropOp40
 70
     1
102
RTVSPost2010Prop41ColorIndex
 90
       18
102
RTVSPost2010Prop41ColorRGB
 90
        0
102
RTVSPost2010PropOp41
 70
     1
102
RTVSPost2010Prop42
 90
       50
102
RTVSPost2010PropOp42
 70
     1
102
RTVSPost2010Prop43
 90
        3
102
RTVSPost2010PropOp43
 70
     1
102
RTVSPost2010Prop44ColorIndex
 90
        5
102
RTVSPost2010Prop44ColorRGB
 90
      255
102
RTVSPost2010PropOp44
 70
     1
102
RTVSPost2010Prop45
280
     0
102
RTVSPost2010PropOp45
 70
     1
102
RTVSPost2010Prop46
 90
       50
102
RTVSPost2010PropOp46
 70
     1
102
RTVSPost2010Prop47
 90
       50
102
RTVSPost2010PropOp47
 70
     1
102
RTVSPost2010Prop48
 90
       50
102
RTVSPost2010PropOp48
 70
     1
102
RTVSPost2010Prop49
280
     0
102
RTVSPost2010PropOp49
 70
     1
102
RTVSPost2010Prop50
 90
       50
102
RTVSPost2010PropOp50
 70
     1
102
RTVSPost2010Prop51ColorIndex
 90
      256
102
RTVSPost2010Prop51ColorRGB
 90
-16777216
102
RTVSPost2010PropOp51
 70
     0
102
RTVSPost2010Prop52
140
1.0
102
RTVSPost2010PropOp52
 70
     0
102
RTVSPost2010Prop53
 90
        2
102
RTVSPost2010PropOp53
 70
     1
102
RTVSPost2010Prop54
  1
strokes_ogs.tif
102
RTVSPost2010PropOp54
 70
     1
102
RTVSPost2010Prop55
280
     0
102
RTVSPost2010PropOp55
 70
     1
102
RTVSPost2010Prop56
140
1.0
102
RTVSPost2010PropOp56
 70
     1
102
RTVSPost2010Prop57
140
1.0
102
RTVSPost2010PropOp57
 70
     1
102
RTVSPropertyOp0
 70
     1
102
RTVSPropertyOp1
 70
     1
102
RTVSPropertyOp2
 70
     1
102
RTVSPropertyOp3
 70
     1
102
RTVSPropertyOp4
 70
     1
102
RTVSPropertyOp5
 70
     1
102
RTVSPropertyOp6
 70
     1
102
RTVSPropertyOp7
 70
     1
102
RTVSPropertyOp8
 70
     1
102
RTVSPropertyOp9
 70
     1
102
RTVSPropertyOp10
 70
     1
102
RTVSPropertyOp11
 70
     1
102
RTVSPropertyOp12
 70
     1
102
RTVSPropertyOp13
 70
     1
102
RTVSPropertyOp14
 70
     1
102
RTVSPropertyOp15
 70
     1
102
RTVSPropertyOp16
 70
     1
102
RTVSPropertyOp17
 70
     1
102
RTVSPropertyOp18
 70
     1
102
RTVSPropertyOp19
 70
     1
102
RTVSPropertyOp20
 70
     1
102
RTVSPropertyOp21
 70
     1
102
RTVSPropertyOp22
 70
     1
102
RTVSPropertyOp23
 70
     1
102
RTVSPropertyOp24
 70
     1
102
RTVSPropertyOp25
 70
     1
102
RTVSPropertyOp26
 70
     1
102
RTVSPropertyOp27
 70
     1
102
RTVSPropertyOp28
 70
     1
102
RTVSPropertyOp29
 70
     1
102
RTVSPropertyOp30
 70
     1
102
RTVSPropertyOp31
 70
     1
102
RTVSPropertyOp32
 70
     1
102
RTVSPropertyOp33
 70
     1
102
RTVSPropertyOp34
 70
     1
102
RTVSPropertyOp35
 70
     1
102
RTVSPropertyOp36
 70
     1
102
RTVSPropertyOp37
 70
     1
102
RTVSPropertyOp38
 70
     1
102
RTVSPropertyOp39
 70
     1
102
RTVSPropertyOp40
 70
     1
102
RTVSPropertyOp41
 70
     1
102
RTVSPropertyOp42
 70
     1
102
RTVSPropertyOp43
 70
     1
102
RTVSPropertyOp44
 70
     1
102
RTVSPropertyOp45
 70
     1
102
RTVSPropertyOp46
 70
     1
102
RTVSPropertyOp47
 70
     1
102
RTVSPropertyOp48
 70
     1
102
RTVSPropertyOp49
 70
     1
102
RTVSPropertyOp50
 70
     1
102
RTVSPropertyOp51
 70
     0
102
RTVSPropertyOp52
 70
     0
102
RTVSPropertyOp53
 70
     1
102
RTVSPropertyOp54
 70
     1
102
RTVSPropertyOp55
 70
     1
102
RTVSPropertyOp56
 70
     1
102
RTVSPropertyOp57
 70
     1
102
RTVSPropertyOp58
 70
     1
102
RTVSPropertyOp59
 70
     1
102
RTVSPropertyOp60
 70
     1
102
RTVSPropertyOp61
 70
     1
102
RTVSPropertyOp62
 70
     1
  0
XRECORD
  5
5A12
102
{ACAD_REACTORS
330
5A11
102
}
330
5A11
100
AcDbXrecord
280
     1
102
RTVSPost2010Prop28
280
     0
102
RTVSPost2010PropOp28
 70
     1
102
RTVSPost2010Prop29
280
     1
102
RTVSPost2010PropOp29
 70
     1
102
RTVSPost2010Prop30
280
     1
102
RTVSPost2010PropOp30
 70
     1
102
RTVSPost2010Prop31
280
     0
102
RTVSPost2010PropOp31
 70
     1
102
RTVSPost2010Prop32
280
     0
102
RTVSPost2010PropOp32
 70
     1
102
RTVSPost2010Prop33
280
     0
102
RTVSPost2010PropOp33
 70
     1
102
RTVSPost2010Prop34
280
     0
102
RTVSPost2010PropOp34
 70
     1
102
RTVSPost2010Prop35
280
     0
102
RTVSPost2010PropOp35
 70
     1
102
RTVSPost2010Prop36
280
     0
102
RTVSPost2010PropOp36
 70
     1
102
RTVSPost2010Prop37
 90
       50
102
RTVSPost2010PropOp37
 70
     1
102
RTVSPost2010Prop38
140
0.0
102
RTVSPost2010PropOp38
 70
     1
102
RTVSPost2010Prop39
140
1.0
102
RTVSPost2010PropOp39
 70
     1
102
RTVSPost2010Prop40
 90
        0
102
RTVSPost2010PropOp40
 70
     1
102
RTVSPost2010Prop41ColorIndex
 90
       18
102
RTVSPost2010Prop41ColorRGB
 90
        0
102
RTVSPost2010PropOp41
 70
     1
102
RTVSPost2010Prop42
 90
       50
102
RTVSPost2010PropOp42
 70
     1
102
RTVSPost2010Prop43
 90
        3
102
RTVSPost2010PropOp43
 70
     1
102
RTVSPost2010Prop44ColorIndex
 90
        5
102
RTVSPost2010Prop44ColorRGB
 90
      255
102
RTVSPost2010PropOp44
 70
     1
102
RTVSPost2010Prop45
280
     0
102
RTVSPost2010PropOp45
 70
     1
102
RTVSPost2010Prop46
 90
       50
102
RTVSPost2010PropOp46
 70
     1
102
RTVSPost2010Prop47
 90
       50
102
RTVSPost2010PropOp47
 70
     1
102
RTVSPost2010Prop48
 90
       50
102
RTVSPost2010PropOp48
 70
     1
102
RTVSPost2010Prop49
280
     0
102
RTVSPost2010PropOp49
 70
     1
102
RTVSPost2010Prop50
 90
       50
102
RTVSPost2010PropOp50
 70
     1
102
RTVSPost2010Prop51ColorIndex
 90
      256
102
RTVSPost2010Prop51ColorRGB
 90
-16777216
102
RTVSPost2010PropOp51
 70
     0
102
RTVSPost2010Prop52
140
1.0
102
RTVSPost2010PropOp52
 70
     0
102
RTVSPost2010Prop53
 90
        2
102
RTVSPost2010PropOp53
 70
     1
102
RTVSPost2010Prop54
  1
strokes_ogs.tif
102
RTVSPost2010PropOp54
 70
     1
102
RTVSPost2010Prop55
280
     0
102
RTVSPost2010PropOp55
 70
     1
102
RTVSPost2010Prop56
140
1.0
102
RTVSPost2010PropOp56
 70
     1
102
RTVSPost2010Prop57
140
1.0
102
RTVSPost2010PropOp57
 70
     1
102
RTVSPropertyOp0
 70
     1
102
RTVSPropertyOp1
 70
     1
102
RTVSPropertyOp2
 70
     1
102
RTVSPropertyOp3
 70
     1
102
RTVSPropertyOp4
 70
     1
102
RTVSPropertyOp5
 70
     1
102
RTVSPropertyOp6
 70
     1
102
RTVSPropertyOp7
 70
     1
102
RTVSPropertyOp8
 70
     1
102
RTVSPropertyOp9
 70
     1
102
RTVSPropertyOp10
 70
     1
102
RTVSPropertyOp11
 70
     1
102
RTVSPropertyOp12
 70
     1
102
RTVSPropertyOp13
 70
     1
102
RTVSPropertyOp14
 70
     1
102
RTVSPropertyOp15
 70
     1
102
RTVSPropertyOp16
 70
     1
102
RTVSPropertyOp17
 70
     1
102
RTVSPropertyOp18
 70
     1
102
RTVSPropertyOp19
 70
     1
102
RTVSPropertyOp20
 70
     1
102
RTVSPropertyOp21
 70
     1
102
RTVSPropertyOp22
 70
     1
102
RTVSPropertyOp23
 70
     1
102
RTVSPropertyOp24
 70
     1
102
RTVSPropertyOp25
 70
     1
102
RTVSPropertyOp26
 70
     1
102
RTVSPropertyOp27
 70
     1
102
RTVSPropertyOp28
 70
     1
102
RTVSPropertyOp29
 70
     1
102
RTVSPropertyOp30
 70
     1
102
RTVSPropertyOp31
 70
     1
102
RTVSPropertyOp32
 70
     1
102
RTVSPropertyOp33
 70
     1
102
RTVSPropertyOp34
 70
     1
102
RTVSPropertyOp35
 70
     1
102
RTVSPropertyOp36
 70
     1
102
RTVSPropertyOp37
 70
     1
102
RTVSPropertyOp38
 70
     1
102
RTVSPropertyOp39
 70
     1
102
RTVSPropertyOp40
 70
     1
102
RTVSPropertyOp41
 70
     1
102
RTVSPropertyOp42
 70
     1
102
RTVSPropertyOp43
 70
     1
102
RTVSPropertyOp44
 70
     1
102
RTVSPropertyOp45
 70
     1
102
RTVSPropertyOp46
 70
     1
102
RTVSPropertyOp47
 70
     1
102
RTVSPropertyOp48
 70
     1
102
RTVSPropertyOp49
 70
     1
102
RTVSPropertyOp50
 70
     1
102
RTVSPropertyOp51
 70
     0
102
RTVSPropertyOp52
 70
     0
102
RTVSPropertyOp53
 70
     1
102
RTVSPropertyOp54
 70
     1
102
RTVSPropertyOp55
 70
     1
102
RTVSPropertyOp56
 70
     1
102
RTVSPropertyOp57
 70
     1
102
RTVSPropertyOp58
 70
     1
102
RTVSPropertyOp59
 70
     1
102
RTVSPropertyOp60
 70
     1
102
RTVSPropertyOp61
 70
     1
102
RTVSPropertyOp62
 70
     1
  0
XRECORD
  5
5A10
102
{ACAD_REACTORS
330
5A0F
102
}
330
5A0F
100
AcDbXrecord
280
     1
102
RTVSPost2010Prop28
280
     0
102
RTVSPost2010PropOp28
 70
     1
102
RTVSPost2010Prop29
280
     1
102
RTVSPost2010PropOp29
 70
     1
102
RTVSPost2010Prop30
280
     1
102
RTVSPost2010PropOp30
 70
     1
102
RTVSPost2010Prop31
280
     0
102
RTVSPost2010PropOp31
 70
     1
102
RTVSPost2010Prop32
280
     0
102
RTVSPost2010PropOp32
 70
     1
102
RTVSPost2010Prop33
280
     0
102
RTVSPost2010PropOp33
 70
     1
102
RTVSPost2010Prop34
280
     0
102
RTVSPost2010PropOp34
 70
     1
102
RTVSPost2010Prop35
280
     0
102
RTVSPost2010PropOp35
 70
     1
102
RTVSPost2010Prop36
280
     0
102
RTVSPost2010PropOp36
 70
     1
102
RTVSPost2010Prop37
 90
       50
102
RTVSPost2010PropOp37
 70
     1
102
RTVSPost2010Prop38
140
0.0
102
RTVSPost2010PropOp38
 70
     1
102
RTVSPost2010Prop39
140
1.0
102
RTVSPost2010PropOp39
 70
     1
102
RTVSPost2010Prop40
 90
        0
102
RTVSPost2010PropOp40
 70
     1
102
RTVSPost2010Prop41ColorIndex
 90
       18
102
RTVSPost2010Prop41ColorRGB
 90
        0
102
RTVSPost2010PropOp41
 70
     1
102
RTVSPost2010Prop42
 90
       50
102
RTVSPost2010PropOp42
 70
     1
102
RTVSPost2010Prop43
 90
        3
102
RTVSPost2010PropOp43
 70
     1
102
RTVSPost2010Prop44ColorIndex
 90
        5
102
RTVSPost2010Prop44ColorRGB
 90
      255
102
RTVSPost2010PropOp44
 70
     1
102
RTVSPost2010Prop45
280
     0
102
RTVSPost2010PropOp45
 70
     1
102
RTVSPost2010Prop46
 90
       50
102
RTVSPost2010PropOp46
 70
     1
102
RTVSPost2010Prop47
 90
       50
102
RTVSPost2010PropOp47
 70
     1
102
RTVSPost2010Prop48
 90
       50
102
RTVSPost2010PropOp48
 70
     1
102
RTVSPost2010Prop49
280
     0
102
RTVSPost2010PropOp49
 70
     1
102
RTVSPost2010Prop50
 90
       50
102
RTVSPost2010PropOp50
 70
     1
102
RTVSPost2010Prop51ColorIndex
 90
      256
102
RTVSPost2010Prop51ColorRGB
 90
-16777216
102
RTVSPost2010PropOp51
 70
     0
102
RTVSPost2010Prop52
140
1.0
102
RTVSPost2010PropOp52
 70
     0
102
RTVSPost2010Prop53
 90
        2
102
RTVSPost2010PropOp53
 70
     1
102
RTVSPost2010Prop54
  1
strokes_ogs.tif
102
RTVSPost2010PropOp54
 70
     1
102
RTVSPost2010Prop55
280
     0
102
RTVSPost2010PropOp55
 70
     1
102
RTVSPost2010Prop56
140
1.0
102
RTVSPost2010PropOp56
 70
     1
102
RTVSPost2010Prop57
140
1.0
102
RTVSPost2010PropOp57
 70
     1
102
RTVSPropertyOp0
 70
     1
102
RTVSPropertyOp1
 70
     1
102
RTVSPropertyOp2
 70
     1
102
RTVSPropertyOp3
 70
     1
102
RTVSPropertyOp4
 70
     1
102
RTVSPropertyOp5
 70
     1
102
RTVSPropertyOp6
 70
     1
102
RTVSPropertyOp7
 70
     1
102
RTVSPropertyOp8
 70
     1
102
RTVSPropertyOp9
 70
     1
102
RTVSPropertyOp10
 70
     1
102
RTVSPropertyOp11
 70
     1
102
RTVSPropertyOp12
 70
     1
102
RTVSPropertyOp13
 70
     1
102
RTVSPropertyOp14
 70
     1
102
RTVSPropertyOp15
 70
     1
102
RTVSPropertyOp16
 70
     1
102
RTVSPropertyOp17
 70
     1
102
RTVSPropertyOp18
 70
     1
102
RTVSPropertyOp19
 70
     1
102
RTVSPropertyOp20
 70
     1
102
RTVSPropertyOp21
 70
     1
102
RTVSPropertyOp22
 70
     1
102
RTVSPropertyOp23
 70
     1
102
RTVSPropertyOp24
 70
     1
102
RTVSPropertyOp25
 70
     1
102
RTVSPropertyOp26
 70
     1
102
RTVSPropertyOp27
 70
     1
102
RTVSPropertyOp28
 70
     1
102
RTVSPropertyOp29
 70
     1
102
RTVSPropertyOp30
 70
     1
102
RTVSPropertyOp31
 70
     1
102
RTVSPropertyOp32
 70
     1
102
RTVSPropertyOp33
 70
     1
102
RTVSPropertyOp34
 70
     1
102
RTVSPropertyOp35
 70
     1
102
RTVSPropertyOp36
 70
     1
102
RTVSPropertyOp37
 70
     1
102
RTVSPropertyOp38
 70
     1
102
RTVSPropertyOp39
 70
     1
102
RTVSPropertyOp40
 70
     1
102
RTVSPropertyOp41
 70
     1
102
RTVSPropertyOp42
 70
     1
102
RTVSPropertyOp43
 70
     1
102
RTVSPropertyOp44
 70
     1
102
RTVSPropertyOp45
 70
     1
102
RTVSPropertyOp46
 70
     1
102
RTVSPropertyOp47
 70
     1
102
RTVSPropertyOp48
 70
     1
102
RTVSPropertyOp49
 70
     1
102
RTVSPropertyOp50
 70
     1
102
RTVSPropertyOp51
 70
     0
102
RTVSPropertyOp52
 70
     0
102
RTVSPropertyOp53
 70
     1
102
RTVSPropertyOp54
 70
     1
102
RTVSPropertyOp55
 70
     1
102
RTVSPropertyOp56
 70
     1
102
RTVSPropertyOp57
 70
     1
102
RTVSPropertyOp58
 70
     1
102
RTVSPropertyOp59
 70
     1
102
RTVSPropertyOp60
 70
     1
102
RTVSPropertyOp61
 70
     1
102
RTVSPropertyOp62
 70
     1
  0
XRECORD
  5
5A0A
102
{ACAD_REACTORS
330
5A09
102
}
330
5A09
100
AcDbXrecord
280
     1
102
RTVSPost2010Prop28
280
     0
102
RTVSPost2010PropOp28
 70
     1
102
RTVSPost2010Prop29
280
     1
102
RTVSPost2010PropOp29
 70
     1
102
RTVSPost2010Prop30
280
     1
102
RTVSPost2010PropOp30
 70
     1
102
RTVSPost2010Prop31
280
     0
102
RTVSPost2010PropOp31
 70
     1
102
RTVSPost2010Prop32
280
     0
102
RTVSPost2010PropOp32
 70
     1
102
RTVSPost2010Prop33
280
     0
102
RTVSPost2010PropOp33
 70
     1
102
RTVSPost2010Prop34
280
     0
102
RTVSPost2010PropOp34
 70
     1
102
RTVSPost2010Prop35
280
     0
102
RTVSPost2010PropOp35
 70
     1
102
RTVSPost2010Prop36
280
     0
102
RTVSPost2010PropOp36
 70
     1
102
RTVSPost2010Prop37
 90
       50
102
RTVSPost2010PropOp37
 70
     1
102
RTVSPost2010Prop38
140
0.0
102
RTVSPost2010PropOp38
 70
     1
102
RTVSPost2010Prop39
140
1.0
102
RTVSPost2010PropOp39
 70
     1
102
RTVSPost2010Prop40
 90
        0
102
RTVSPost2010PropOp40
 70
     1
102
RTVSPost2010Prop41ColorIndex
 90
       18
102
RTVSPost2010Prop41ColorRGB
 90
        0
102
RTVSPost2010PropOp41
 70
     1
102
RTVSPost2010Prop42
 90
       50
102
RTVSPost2010PropOp42
 70
     1
102
RTVSPost2010Prop43
 90
        3
102
RTVSPost2010PropOp43
 70
     1
102
RTVSPost2010Prop44ColorIndex
 90
        5
102
RTVSPost2010Prop44ColorRGB
 90
      255
102
RTVSPost2010PropOp44
 70
     1
102
RTVSPost2010Prop45
280
     0
102
RTVSPost2010PropOp45
 70
     1
102
RTVSPost2010Prop46
 90
       50
102
RTVSPost2010PropOp46
 70
     1
102
RTVSPost2010Prop47
 90
       50
102
RTVSPost2010PropOp47
 70
     1
102
RTVSPost2010Prop48
 90
       50
102
RTVSPost2010PropOp48
 70
     1
102
RTVSPost2010Prop49
280
     0
102
RTVSPost2010PropOp49
 70
     1
102
RTVSPost2010Prop50
 90
       50
102
RTVSPost2010PropOp50
 70
     1
102
RTVSPost2010Prop51ColorIndex
 90
      256
102
RTVSPost2010Prop51ColorRGB
 90
-16777216
102
RTVSPost2010PropOp51
 70
     0
102
RTVSPost2010Prop52
140
1.0
102
RTVSPost2010PropOp52
 70
     0
102
RTVSPost2010Prop53
 90
        2
102
RTVSPost2010PropOp53
 70
     1
102
RTVSPost2010Prop54
  1
strokes_ogs.tif
102
RTVSPost2010PropOp54
 70
     1
102
RTVSPost2010Prop55
280
     0
102
RTVSPost2010PropOp55
 70
     1
102
RTVSPost2010Prop56
140
1.0
102
RTVSPost2010PropOp56
 70
     1
102
RTVSPost2010Prop57
140
1.0
102
RTVSPost2010PropOp57
 70
     1
102
RTVSPropertyOp0
 70
     1
102
RTVSPropertyOp1
 70
     1
102
RTVSPropertyOp2
 70
     1
102
RTVSPropertyOp3
 70
     1
102
RTVSPropertyOp4
 70
     1
102
RTVSPropertyOp5
 70
     1
102
RTVSPropertyOp6
 70
     1
102
RTVSPropertyOp7
 70
     1
102
RTVSPropertyOp8
 70
     1
102
RTVSPropertyOp9
 70
     1
102
RTVSPropertyOp10
 70
     1
102
RTVSPropertyOp11
 70
     1
102
RTVSPropertyOp12
 70
     1
102
RTVSPropertyOp13
 70
     1
102
RTVSPropertyOp14
 70
     1
102
RTVSPropertyOp15
 70
     1
102
RTVSPropertyOp16
 70
     1
102
RTVSPropertyOp17
 70
     1
102
RTVSPropertyOp18
 70
     1
102
RTVSPropertyOp19
 70
     1
102
RTVSPropertyOp20
 70
     1
102
RTVSPropertyOp21
 70
     1
102
RTVSPropertyOp22
 70
     1
102
RTVSPropertyOp23
 70
     1
102
RTVSPropertyOp24
 70
     1
102
RTVSPropertyOp25
 70
     1
102
RTVSPropertyOp26
 70
     1
102
RTVSPropertyOp27
 70
     1
102
RTVSPropertyOp28
 70
     1
102
RTVSPropertyOp29
 70
     1
102
RTVSPropertyOp30
 70
     1
102
RTVSPropertyOp31
 70
     1
102
RTVSPropertyOp32
 70
     1
102
RTVSPropertyOp33
 70
     1
102
RTVSPropertyOp34
 70
     1
102
RTVSPropertyOp35
 70
     1
102
RTVSPropertyOp36
 70
     1
102
RTVSPropertyOp37
 70
     1
102
RTVSPropertyOp38
 70
     1
102
RTVSPropertyOp39
 70
     1
102
RTVSPropertyOp40
 70
     1
102
RTVSPropertyOp41
 70
     1
102
RTVSPropertyOp42
 70
     1
102
RTVSPropertyOp43
 70
     1
102
RTVSPropertyOp44
 70
     1
102
RTVSPropertyOp45
 70
     1
102
RTVSPropertyOp46
 70
     1
102
RTVSPropertyOp47
 70
     1
102
RTVSPropertyOp48
 70
     1
102
RTVSPropertyOp49
 70
     1
102
RTVSPropertyOp50
 70
     1
102
RTVSPropertyOp51
 70
     0
102
RTVSPropertyOp52
 70
     0
102
RTVSPropertyOp53
 70
     1
102
RTVSPropertyOp54
 70
     1
102
RTVSPropertyOp55
 70
     1
102
RTVSPropertyOp56
 70
     1
102
RTVSPropertyOp57
 70
     1
102
RTVSPropertyOp58
 70
     1
102
RTVSPropertyOp59
 70
     1
102
RTVSPropertyOp60
 70
     1
102
RTVSPropertyOp61
 70
     1
102
RTVSPropertyOp62
 70
     1
  0
XRECORD
  5
5A0C
102
{ACAD_REACTORS
330
5A0B
102
}
330
5A0B
100
AcDbXrecord
280
     1
102
RTVSPost2010Prop28
280
     0
102
RTVSPost2010PropOp28
 70
     1
102
RTVSPost2010Prop29
280
     1
102
RTVSPost2010PropOp29
 70
     1
102
RTVSPost2010Prop30
280
     1
102
RTVSPost2010PropOp30
 70
     1
102
RTVSPost2010Prop31
280
     0
102
RTVSPost2010PropOp31
 70
     1
102
RTVSPost2010Prop32
280
     0
102
RTVSPost2010PropOp32
 70
     1
102
RTVSPost2010Prop33
280
     0
102
RTVSPost2010PropOp33
 70
     1
102
RTVSPost2010Prop34
280
     0
102
RTVSPost2010PropOp34
 70
     1
102
RTVSPost2010Prop35
280
     0
102
RTVSPost2010PropOp35
 70
     1
102
RTVSPost2010Prop36
280
     0
102
RTVSPost2010PropOp36
 70
     1
102
RTVSPost2010Prop37
 90
       50
102
RTVSPost2010PropOp37
 70
     1
102
RTVSPost2010Prop38
140
0.0
102
RTVSPost2010PropOp38
 70
     1
102
RTVSPost2010Prop39
140
1.0
102
RTVSPost2010PropOp39
 70
     1
102
RTVSPost2010Prop40
 90
        0
102
RTVSPost2010PropOp40
 70
     1
102
RTVSPost2010Prop41ColorIndex
 90
       18
102
RTVSPost2010Prop41ColorRGB
 90
        0
102
RTVSPost2010PropOp41
 70
     1
102
RTVSPost2010Prop42
 90
       50
102
RTVSPost2010PropOp42
 70
     1
102
RTVSPost2010Prop43
 90
        3
102
RTVSPost2010PropOp43
 70
     1
102
RTVSPost2010Prop44ColorIndex
 90
        5
102
RTVSPost2010Prop44ColorRGB
 90
      255
102
RTVSPost2010PropOp44
 70
     1
102
RTVSPost2010Prop45
280
     0
102
RTVSPost2010PropOp45
 70
     1
102
RTVSPost2010Prop46
 90
       50
102
RTVSPost2010PropOp46
 70
     1
102
RTVSPost2010Prop47
 90
       50
102
RTVSPost2010PropOp47
 70
     1
102
RTVSPost2010Prop48
 90
       50
102
RTVSPost2010PropOp48
 70
     1
102
RTVSPost2010Prop49
280
     0
102
RTVSPost2010PropOp49
 70
     1
102
RTVSPost2010Prop50
 90
       50
102
RTVSPost2010PropOp50
 70
     1
102
RTVSPost2010Prop51ColorIndex
 90
      256
102
RTVSPost2010Prop51ColorRGB
 90
-16777216
102
RTVSPost2010PropOp51
 70
     0
102
RTVSPost2010Prop52
140
1.0
102
RTVSPost2010PropOp52
 70
     0
102
RTVSPost2010Prop53
 90
        2
102
RTVSPost2010PropOp53
 70
     1
102
RTVSPost2010Prop54
  1
strokes_ogs.tif
102
RTVSPost2010PropOp54
 70
     1
102
RTVSPost2010Prop55
280
     0
102
RTVSPost2010PropOp55
 70
     1
102
RTVSPost2010Prop56
140
1.0
102
RTVSPost2010PropOp56
 70
     1
102
RTVSPost2010Prop57
140
1.0
102
RTVSPost2010PropOp57
 70
     1
102
RTVSPropertyOp0
 70
     1
102
RTVSPropertyOp1
 70
     1
102
RTVSPropertyOp2
 70
     1
102
RTVSPropertyOp3
 70
     1
102
RTVSPropertyOp4
 70
     1
102
RTVSPropertyOp5
 70
     1
102
RTVSPropertyOp6
 70
     1
102
RTVSPropertyOp7
 70
     1
102
RTVSPropertyOp8
 70
     1
102
RTVSPropertyOp9
 70
     1
102
RTVSPropertyOp10
 70
     1
102
RTVSPropertyOp11
 70
     1
102
RTVSPropertyOp12
 70
     1
102
RTVSPropertyOp13
 70
     1
102
RTVSPropertyOp14
 70
     1
102
RTVSPropertyOp15
 70
     1
102
RTVSPropertyOp16
 70
     1
102
RTVSPropertyOp17
 70
     1
102
RTVSPropertyOp18
 70
     1
102
RTVSPropertyOp19
 70
     1
102
RTVSPropertyOp20
 70
     1
102
RTVSPropertyOp21
 70
     1
102
RTVSPropertyOp22
 70
     1
102
RTVSPropertyOp23
 70
     1
102
RTVSPropertyOp24
 70
     1
102
RTVSPropertyOp25
 70
     1
102
RTVSPropertyOp26
 70
     1
102
RTVSPropertyOp27
 70
     1
102
RTVSPropertyOp28
 70
     1
102
RTVSPropertyOp29
 70
     1
102
RTVSPropertyOp30
 70
     1
102
RTVSPropertyOp31
 70
     1
102
RTVSPropertyOp32
 70
     1
102
RTVSPropertyOp33
 70
     1
102
RTVSPropertyOp34
 70
     1
102
RTVSPropertyOp35
 70
     1
102
RTVSPropertyOp36
 70
     1
102
RTVSPropertyOp37
 70
     1
102
RTVSPropertyOp38
 70
     1
102
RTVSPropertyOp39
 70
     1
102
RTVSPropertyOp40
 70
     1
102
RTVSPropertyOp41
 70
     1
102
RTVSPropertyOp42
 70
     1
102
RTVSPropertyOp43
 70
     1
102
RTVSPropertyOp44
 70
     1
102
RTVSPropertyOp45
 70
     1
102
RTVSPropertyOp46
 70
     1
102
RTVSPropertyOp47
 70
     1
102
RTVSPropertyOp48
 70
     1
102
RTVSPropertyOp49
 70
     1
102
RTVSPropertyOp50
 70
     1
102
RTVSPropertyOp51
 70
     0
102
RTVSPropertyOp52
 70
     0
102
RTVSPropertyOp53
 70
     1
102
RTVSPropertyOp54
 70
     1
102
RTVSPropertyOp55
 70
     1
102
RTVSPropertyOp56
 70
     1
102
RTVSPropertyOp57
 70
     1
102
RTVSPropertyOp58
 70
     1
102
RTVSPropertyOp59
 70
     1
102
RTVSPropertyOp60
 70
     1
102
RTVSPropertyOp61
 70
     1
102
RTVSPropertyOp62
 70
     1
  0
XRECORD
  5
59F7
102
{ACAD_REACTORS
330
59F6
102
}
330
59F6
100
AcDbXrecord
280
     1
102
RTVSPost2010Prop28
280
     0
102
RTVSPost2010PropOp28
 70
     1
102
RTVSPost2010Prop29
280
     1
102
RTVSPost2010PropOp29
 70
     1
102
RTVSPost2010Prop30
280
     1
102
RTVSPost2010PropOp30
 70
     1
102
RTVSPost2010Prop31
280
     0
102
RTVSPost2010PropOp31
 70
     1
102
RTVSPost2010Prop32
280
     0
102
RTVSPost2010PropOp32
 70
     1
102
RTVSPost2010Prop33
280
     0
102
RTVSPost2010PropOp33
 70
     1
102
RTVSPost2010Prop34
280
     0
102
RTVSPost2010PropOp34
 70
     1
102
RTVSPost2010Prop35
280
     0
102
RTVSPost2010PropOp35
 70
     1
102
RTVSPost2010Prop36
280
     0
102
RTVSPost2010PropOp36
 70
     1
102
RTVSPost2010Prop37
 90
       50
102
RTVSPost2010PropOp37
 70
     1
102
RTVSPost2010Prop38
140
0.0
102
RTVSPost2010PropOp38
 70
     1
102
RTVSPost2010Prop39
140
1.0
102
RTVSPost2010PropOp39
 70
     1
102
RTVSPost2010Prop40
 90
        0
102
RTVSPost2010PropOp40
 70
     1
102
RTVSPost2010Prop41ColorIndex
 90
       18
102
RTVSPost2010Prop41ColorRGB
 90
        0
102
RTVSPost2010PropOp41
 70
     1
102
RTVSPost2010Prop42
 90
       50
102
RTVSPost2010PropOp42
 70
     1
102
RTVSPost2010Prop43
 90
        3
102
RTVSPost2010PropOp43
 70
     1
102
RTVSPost2010Prop44ColorIndex
 90
        5
102
RTVSPost2010Prop44ColorRGB
 90
      255
102
RTVSPost2010PropOp44
 70
     1
102
RTVSPost2010Prop45
280
     0
102
RTVSPost2010PropOp45
 70
     1
102
RTVSPost2010Prop46
 90
       50
102
RTVSPost2010PropOp46
 70
     1
102
RTVSPost2010Prop47
 90
       50
102
RTVSPost2010PropOp47
 70
     1
102
RTVSPost2010Prop48
 90
       50
102
RTVSPost2010PropOp48
 70
     1
102
RTVSPost2010Prop49
280
     0
102
RTVSPost2010PropOp49
 70
     1
102
RTVSPost2010Prop50
 90
       50
102
RTVSPost2010PropOp50
 70
     1
102
RTVSPost2010Prop51ColorIndex
 90
      256
102
RTVSPost2010Prop51ColorRGB
 90
-16777216
102
RTVSPost2010PropOp51
 70
     0
102
RTVSPost2010Prop52
140
1.0
102
RTVSPost2010PropOp52
 70
     0
102
RTVSPost2010Prop53
 90
        2
102
RTVSPost2010PropOp53
 70
     1
102
RTVSPost2010Prop54
  1
strokes_ogs.tif
102
RTVSPost2010PropOp54
 70
     1
102
RTVSPost2010Prop55
280
     0
102
RTVSPost2010PropOp55
 70
     1
102
RTVSPost2010Prop56
140
1.0
102
RTVSPost2010PropOp56
 70
     1
102
RTVSPost2010Prop57
140
1.0
102
RTVSPost2010PropOp57
 70
     1
102
RTVSPropertyOp0
 70
     1
102
RTVSPropertyOp1
 70
     1
102
RTVSPropertyOp2
 70
     1
102
RTVSPropertyOp3
 70
     1
102
RTVSPropertyOp4
 70
     1
102
RTVSPropertyOp5
 70
     1
102
RTVSPropertyOp6
 70
     1
102
RTVSPropertyOp7
 70
     1
102
RTVSPropertyOp8
 70
     1
102
RTVSPropertyOp9
 70
     1
102
RTVSPropertyOp10
 70
     1
102
RTVSPropertyOp11
 70
     1
102
RTVSPropertyOp12
 70
     1
102
RTVSPropertyOp13
 70
     1
102
RTVSPropertyOp14
 70
     1
102
RTVSPropertyOp15
 70
     1
102
RTVSPropertyOp16
 70
     1
102
RTVSPropertyOp17
 70
     1
102
RTVSPropertyOp18
 70
     1
102
RTVSPropertyOp19
 70
     1
102
RTVSPropertyOp20
 70
     1
102
RTVSPropertyOp21
 70
     1
102
RTVSPropertyOp22
 70
     1
102
RTVSPropertyOp23
 70
     1
102
RTVSPropertyOp24
 70
     1
102
RTVSPropertyOp25
 70
     1
102
RTVSPropertyOp26
 70
     1
102
RTVSPropertyOp27
 70
     1
102
RTVSPropertyOp28
 70
     1
102
RTVSPropertyOp29
 70
     1
102
RTVSPropertyOp30
 70
     1
102
RTVSPropertyOp31
 70
     1
102
RTVSPropertyOp32
 70
     1
102
RTVSPropertyOp33
 70
     1
102
RTVSPropertyOp34
 70
     1
102
RTVSPropertyOp35
 70
     1
102
RTVSPropertyOp36
 70
     1
102
RTVSPropertyOp37
 70
     1
102
RTVSPropertyOp38
 70
     1
102
RTVSPropertyOp39
 70
     1
102
RTVSPropertyOp40
 70
     1
102
RTVSPropertyOp41
 70
     1
102
RTVSPropertyOp42
 70
     1
102
RTVSPropertyOp43
 70
     1
102
RTVSPropertyOp44
 70
     1
102
RTVSPropertyOp45
 70
     1
102
RTVSPropertyOp46
 70
     1
102
RTVSPropertyOp47
 70
     1
102
RTVSPropertyOp48
 70
     1
102
RTVSPropertyOp49
 70
     1
102
RTVSPropertyOp50
 70
     1
102
RTVSPropertyOp51
 70
     0
102
RTVSPropertyOp52
 70
     0
102
RTVSPropertyOp53
 70
     1
102
RTVSPropertyOp54
 70
     1
102
RTVSPropertyOp55
 70
     1
102
RTVSPropertyOp56
 70
     1
102
RTVSPropertyOp57
 70
     1
102
RTVSPropertyOp58
 70
     1
102
RTVSPropertyOp59
 70
     1
102
RTVSPropertyOp60
 70
     1
102
RTVSPropertyOp61
 70
     1
102
RTVSPropertyOp62
 70
     1
  0
XRECORD
  5
5A06
102
{ACAD_REACTORS
330
5A05
102
}
330
5A05
100
AcDbXrecord
280
     1
102
RTVSPost2010Prop28
280
     0
102
RTVSPost2010PropOp28
 70
     1
102
RTVSPost2010Prop29
280
     1
102
RTVSPost2010PropOp29
 70
     1
102
RTVSPost2010Prop30
280
     1
102
RTVSPost2010PropOp30
 70
     1
102
RTVSPost2010Prop31
280
     0
102
RTVSPost2010PropOp31
 70
     1
102
RTVSPost2010Prop32
280
     0
102
RTVSPost2010PropOp32
 70
     1
102
RTVSPost2010Prop33
280
     0
102
RTVSPost2010PropOp33
 70
     1
102
RTVSPost2010Prop34
280
     0
102
RTVSPost2010PropOp34
 70
     1
102
RTVSPost2010Prop35
280
     0
102
RTVSPost2010PropOp35
 70
     1
102
RTVSPost2010Prop36
280
     0
102
RTVSPost2010PropOp36
 70
     1
102
RTVSPost2010Prop37
 90
       50
102
RTVSPost2010PropOp37
 70
     1
102
RTVSPost2010Prop38
140
0.0
102
RTVSPost2010PropOp38
 70
     1
102
RTVSPost2010Prop39
140
1.0
102
RTVSPost2010PropOp39
 70
     1
102
RTVSPost2010Prop40
 90
        0
102
RTVSPost2010PropOp40
 70
     1
102
RTVSPost2010Prop41ColorIndex
 90
       18
102
RTVSPost2010Prop41ColorRGB
 90
        0
102
RTVSPost2010PropOp41
 70
     1
102
RTVSPost2010Prop42
 90
       50
102
RTVSPost2010PropOp42
 70
     1
102
RTVSPost2010Prop43
 90
        3
102
RTVSPost2010PropOp43
 70
     1
102
RTVSPost2010Prop44ColorIndex
 90
        5
102
RTVSPost2010Prop44ColorRGB
 90
      255
102
RTVSPost2010PropOp44
 70
     1
102
RTVSPost2010Prop45
280
     0
102
RTVSPost2010PropOp45
 70
     1
102
RTVSPost2010Prop46
 90
       50
102
RTVSPost2010PropOp46
 70
     1
102
RTVSPost2010Prop47
 90
       50
102
RTVSPost2010PropOp47
 70
     1
102
RTVSPost2010Prop48
 90
       50
102
RTVSPost2010PropOp48
 70
     1
102
RTVSPost2010Prop49
280
     0
102
RTVSPost2010PropOp49
 70
     1
102
RTVSPost2010Prop50
 90
       50
102
RTVSPost2010PropOp50
 70
     1
102
RTVSPost2010Prop51ColorIndex
 90
      256
102
RTVSPost2010Prop51ColorRGB
 90
-16777216
102
RTVSPost2010PropOp51
 70
     0
102
RTVSPost2010Prop52
140
1.0
102
RTVSPost2010PropOp52
 70
     0
102
RTVSPost2010Prop53
 90
        2
102
RTVSPost2010PropOp53
 70
     1
102
RTVSPost2010Prop54
  1
strokes_ogs.tif
102
RTVSPost2010PropOp54
 70
     1
102
RTVSPost2010Prop55
280
     0
102
RTVSPost2010PropOp55
 70
     1
102
RTVSPost2010Prop56
140
1.0
102
RTVSPost2010PropOp56
 70
     1
102
RTVSPost2010Prop57
140
1.0
102
RTVSPost2010PropOp57
 70
     1
102
RTVSPropertyOp0
 70
     1
102
RTVSPropertyOp1
 70
     1
102
RTVSPropertyOp2
 70
     1
102
RTVSPropertyOp3
 70
     1
102
RTVSPropertyOp4
 70
     1
102
RTVSPropertyOp5
 70
     1
102
RTVSPropertyOp6
 70
     1
102
RTVSPropertyOp7
 70
     1
102
RTVSPropertyOp8
 70
     1
102
RTVSPropertyOp9
 70
     1
102
RTVSPropertyOp10
 70
     1
102
RTVSPropertyOp11
 70
     1
102
RTVSPropertyOp12
 70
     1
102
RTVSPropertyOp13
 70
     1
102
RTVSPropertyOp14
 70
     1
102
RTVSPropertyOp15
 70
     1
102
RTVSPropertyOp16
 70
     1
102
RTVSPropertyOp17
 70
     1
102
RTVSPropertyOp18
 70
     1
102
RTVSPropertyOp19
 70
     1
102
RTVSPropertyOp20
 70
     1
102
RTVSPropertyOp21
 70
     1
102
RTVSPropertyOp22
 70
     1
102
RTVSPropertyOp23
 70
     1
102
RTVSPropertyOp24
 70
     1
102
RTVSPropertyOp25
 70
     1
102
RTVSPropertyOp26
 70
     1
102
RTVSPropertyOp27
 70
     1
102
RTVSPropertyOp28
 70
     1
102
RTVSPropertyOp29
 70
     1
102
RTVSPropertyOp30
 70
     1
102
RTVSPropertyOp31
 70
     1
102
RTVSPropertyOp32
 70
     1
102
RTVSPropertyOp33
 70
     1
102
RTVSPropertyOp34
 70
     1
102
RTVSPropertyOp35
 70
     1
102
RTVSPropertyOp36
 70
     1
102
RTVSPropertyOp37
 70
     1
102
RTVSPropertyOp38
 70
     1
102
RTVSPropertyOp39
 70
     1
102
RTVSPropertyOp40
 70
     1
102
RTVSPropertyOp41
 70
     1
102
RTVSPropertyOp42
 70
     1
102
RTVSPropertyOp43
 70
     1
102
RTVSPropertyOp44
 70
     1
102
RTVSPropertyOp45
 70
     1
102
RTVSPropertyOp46
 70
     1
102
RTVSPropertyOp47
 70
     1
102
RTVSPropertyOp48
 70
     1
102
RTVSPropertyOp49
 70
     1
102
RTVSPropertyOp50
 70
     1
102
RTVSPropertyOp51
 70
     0
102
RTVSPropertyOp52
 70
     0
102
RTVSPropertyOp53
 70
     1
102
RTVSPropertyOp54
 70
     1
102
RTVSPropertyOp55
 70
     1
102
RTVSPropertyOp56
 70
     1
102
RTVSPropertyOp57
 70
     1
102
RTVSPropertyOp58
 70
     1
102
RTVSPropertyOp59
 70
     1
102
RTVSPropertyOp60
 70
     1
102
RTVSPropertyOp61
 70
     1
102
RTVSPropertyOp62
 70
     1
  0
XRECORD
  5
5A0E
102
{ACAD_REACTORS
330
5A0D
102
}
330
5A0D
100
AcDbXrecord
280
     1
102
RTVSPost2010Prop28
280
     0
102
RTVSPost2010PropOp28
 70
     1
102
RTVSPost2010Prop29
280
     1
102
RTVSPost2010PropOp29
 70
     1
102
RTVSPost2010Prop30
280
     1
102
RTVSPost2010PropOp30
 70
     1
102
RTVSPost2010Prop31
280
     0
102
RTVSPost2010PropOp31
 70
     1
102
RTVSPost2010Prop32
280
     0
102
RTVSPost2010PropOp32
 70
     1
102
RTVSPost2010Prop33
280
     0
102
RTVSPost2010PropOp33
 70
     1
102
RTVSPost2010Prop34
280
     0
102
RTVSPost2010PropOp34
 70
     1
102
RTVSPost2010Prop35
280
     0
102
RTVSPost2010PropOp35
 70
     1
102
RTVSPost2010Prop36
280
     0
102
RTVSPost2010PropOp36
 70
     1
102
RTVSPost2010Prop37
 90
       50
102
RTVSPost2010PropOp37
 70
     1
102
RTVSPost2010Prop38
140
0.0
102
RTVSPost2010PropOp38
 70
     1
102
RTVSPost2010Prop39
140
1.0
102
RTVSPost2010PropOp39
 70
     1
102
RTVSPost2010Prop40
 90
        0
102
RTVSPost2010PropOp40
 70
     1
102
RTVSPost2010Prop41ColorIndex
 90
       18
102
RTVSPost2010Prop41ColorRGB
 90
        0
102
RTVSPost2010PropOp41
 70
     1
102
RTVSPost2010Prop42
 90
       50
102
RTVSPost2010PropOp42
 70
     1
102
RTVSPost2010Prop43
 90
        3
102
RTVSPost2010PropOp43
 70
     1
102
RTVSPost2010Prop44ColorIndex
 90
        5
102
RTVSPost2010Prop44ColorRGB
 90
      255
102
RTVSPost2010PropOp44
 70
     1
102
RTVSPost2010Prop45
280
     0
102
RTVSPost2010PropOp45
 70
     1
102
RTVSPost2010Prop46
 90
       50
102
RTVSPost2010PropOp46
 70
     1
102
RTVSPost2010Prop47
 90
       50
102
RTVSPost2010PropOp47
 70
     1
102
RTVSPost2010Prop48
 90
       50
102
RTVSPost2010PropOp48
 70
     1
102
RTVSPost2010Prop49
280
     0
102
RTVSPost2010PropOp49
 70
     1
102
RTVSPost2010Prop50
 90
       50
102
RTVSPost2010PropOp50
 70
     1
102
RTVSPost2010Prop51ColorIndex
 90
      256
102
RTVSPost2010Prop51ColorRGB
 90
-16777216
102
RTVSPost2010PropOp51
 70
     0
102
RTVSPost2010Prop52
140
1.0
102
RTVSPost2010PropOp52
 70
     0
102
RTVSPost2010Prop53
 90
        2
102
RTVSPost2010PropOp53
 70
     1
102
RTVSPost2010Prop54
  1
strokes_ogs.tif
102
RTVSPost2010PropOp54
 70
     1
102
RTVSPost2010Prop55
280
     0
102
RTVSPost2010PropOp55
 70
     1
102
RTVSPost2010Prop56
140
1.0
102
RTVSPost2010PropOp56
 70
     1
102
RTVSPost2010Prop57
140
1.0
102
RTVSPost2010PropOp57
 70
     1
102
RTVSPropertyOp0
 70
     1
102
RTVSPropertyOp1
 70
     1
102
RTVSPropertyOp2
 70
     1
102
RTVSPropertyOp3
 70
     1
102
RTVSPropertyOp4
 70
     1
102
RTVSPropertyOp5
 70
     1
102
RTVSPropertyOp6
 70
     1
102
RTVSPropertyOp7
 70
     1
102
RTVSPropertyOp8
 70
     1
102
RTVSPropertyOp9
 70
     1
102
RTVSPropertyOp10
 70
     1
102
RTVSPropertyOp11
 70
     1
102
RTVSPropertyOp12
 70
     1
102
RTVSPropertyOp13
 70
     1
102
RTVSPropertyOp14
 70
     1
102
RTVSPropertyOp15
 70
     1
102
RTVSPropertyOp16
 70
     1
102
RTVSPropertyOp17
 70
     1
102
RTVSPropertyOp18
 70
     1
102
RTVSPropertyOp19
 70
     1
102
RTVSPropertyOp20
 70
     1
102
RTVSPropertyOp21
 70
     1
102
RTVSPropertyOp22
 70
     1
102
RTVSPropertyOp23
 70
     1
102
RTVSPropertyOp24
 70
     1
102
RTVSPropertyOp25
 70
     1
102
RTVSPropertyOp26
 70
     1
102
RTVSPropertyOp27
 70
     1
102
RTVSPropertyOp28
 70
     1
102
RTVSPropertyOp29
 70
     1
102
RTVSPropertyOp30
 70
     1
102
RTVSPropertyOp31
 70
     1
102
RTVSPropertyOp32
 70
     1
102
RTVSPropertyOp33
 70
     1
102
RTVSPropertyOp34
 70
     1
102
RTVSPropertyOp35
 70
     1
102
RTVSPropertyOp36
 70
     1
102
RTVSPropertyOp37
 70
     1
102
RTVSPropertyOp38
 70
     1
102
RTVSPropertyOp39
 70
     1
102
RTVSPropertyOp40
 70
     1
102
RTVSPropertyOp41
 70
     1
102
RTVSPropertyOp42
 70
     1
102
RTVSPropertyOp43
 70
     1
102
RTVSPropertyOp44
 70
     1
102
RTVSPropertyOp45
 70
     1
102
RTVSPropertyOp46
 70
     1
102
RTVSPropertyOp47
 70
     1
102
RTVSPropertyOp48
 70
     1
102
RTVSPropertyOp49
 70
     1
102
RTVSPropertyOp50
 70
     1
102
RTVSPropertyOp51
 70
     0
102
RTVSPropertyOp52
 70
     0
102
RTVSPropertyOp53
 70
     1
102
RTVSPropertyOp54
 70
     1
102
RTVSPropertyOp55
 70
     1
102
RTVSPropertyOp56
 70
     1
102
RTVSPropertyOp57
 70
     1
102
RTVSPropertyOp58
 70
     1
102
RTVSPropertyOp59
 70
     1
102
RTVSPropertyOp60
 70
     1
102
RTVSPropertyOp61
 70
     1
102
RTVSPropertyOp62
 70
     1
  0
ENDSEC
  0
EOF
