  0
SECTION
  2
HEADER
  9
$ACADVER
  1
AC1015
  9
$ACADMAINTVER
 70
    20
  9
$DWGCODEPAGE
  3
ANSI_932
  9
$INSBASE
 10
0.0
 20
0.0
 30
0.0
  9
$EXTMIN
 10
-0.216598756651365
 20
-0.1502463206347784
 30
-1000.076267167088
  9
$EXTMAX
 10
552.112743928209
 20
382.0777789340482
 30
0.0000116428818728
  9
$LIMMIN
 10
0.0
 20
0.0
  9
$LIMMAX
 10
2840.0
 20
1970.0
  9
$ORTHOMODE
 70
     0
  9
$REGENMODE
 70
     1
  9
$FILLMODE
 70
     1
  9
$QTEXTMODE
 70
     0
  9
$MIRRTEXT
 70
     1
  9
$LTSCALE
 40
1.0
  9
$ATTMODE
 70
     1
  9
$TEXTSIZE
 40
2.5
  9
$TRACEWID
 40
1.0
  9
$TEXTSTYLE
  7
Standard
  9
$CLAYER
  8
SUNPO
  9
$CELTYPE
  6
ByLayer
  9
$CECOLOR
 62
   256
  9
$CELTSCALE
 40
1.0
  9
$DISPSILH
 70
     0
  9
$DIMSCALE
 40
2.0
  9
$DIMASZ
 40
0.8
  9
$DIMEXO
 40
1.0
  9
$DIMDLI
 40
0.0
  9
$DIMRND
 40
0.0
  9
$DIMDLE
 40
0.0
  9
$DIMEXE
 40
0.0
  9
$DIMTP
 40
0.0
  9
$DIMTM
 40
0.0
  9
$DIMTXT
 40
2.0
  9
$DIMCEN
 40
2.5
  9
$DIMTSZ
 40
0.0
  9
$DIMTOL
 70
     0
  9
$DIMLIM
 70
     0
  9
$DIMTIH
 70
     0
  9
$DIMTOH
 70
     0
  9
$DIMSE1
 70
     0
  9
$DIMSE2
 70
     0
  9
$DIMTAD
 70
     2
  9
$DIMZIN
 70
     8
  9
$DIMBLK
  1

  9
$DIMASO
 70
     1
  9
$DIMSHO
 70
     1
  9
$DIMPOST
  1

  9
$DIMAPOST
  1

  9
$DIMALT
 70
     0
  9
$DIMALTD
 70
     4
  9
$DIMALTF
 40
0.0394
  9
$DIMLFAC
 40
1.0
  9
$DIMTOFL
 70
     1
  9
$DIMTVP
 40
0.0
  9
$DIMTIX
 70
     0
  9
$DIMSOXD
 70
     0
  9
$DIMSAH
 70
     1
  9
$DIMBLK1
  1
DOT
  9
$DIMBLK2
  1
DOT
  9
$DIMSTYLE
  2
STANDARD
  9
$DIMCLRD
 70
     0
  9
$DIMCLRE
 70
     0
  9
$DIMCLRT
 70
     0
  9
$DIMTFAC
 40
1.0
  9
$DIMGAP
 40
0.1
  9
$DIMJUST
 70
     0
  9
$DIMSD1
 70
     0
  9
$DIMSD2
 70
     0
  9
$DIMTOLJ
 70
     1
  9
$DIMTZIN
 70
     0
  9
$DIMALTZ
 70
     0
  9
$DIMALTTZ
 70
     0
  9
$DIMUPT
 70
     0
  9
$DIMDEC
 70
     4
  9
$DIMTDEC
 70
     4
  9
$DIMALTU
 70
     8
  9
$DIMALTTD
 70
     4
  9
$DIMTXSTY
  7
Standard
  9
$DIMAUNIT
 70
     0
  9
$DIMADEC
 70
     0
  9
$DIMALTRND
 40
0.0
  9
$DIMAZIN
 70
     0
  9
$DIMDSEP
 70
    46
  9
$DIMATFIT
 70
     3
  9
$DIMFRAC
 70
     0
  9
$DIMLDRBLK
  1
DOT
  9
$DIMLUNIT
 70
     2
  9
$DIMLWD
 70
    -2
  9
$DIMLWE
 70
    -2
  9
$DIMTMOVE
 70
     1
  9
$LUNITS
 70
     2
  9
$LUPREC
 70
     8
  9
$SKETCHINC
 40
1.0
  9
$FILLETRAD
 40
0.0
  9
$AUNITS
 70
     0
  9
$AUPREC
 70
     8
  9
$MENU
  1
.
  9
$ELEVATION
 40
0.0
  9
$PELEVATION
 40
0.0
  9
$THICKNESS
 40
0.0
  9
$LIMCHECK
 70
     0
  9
$CHAMFERA
 40
10.0
  9
$CHAMFERB
 40
10.0
  9
$CHAMFERC
 40
20.0
  9
$CHAMFERD
 40
0.0
  9
$SKPOLY
 70
     0
  9
$TDCREATE
 40
2453276.413761574
  9
$TDUCREATE
 40
2453276.038766620
  9
$TDUPDATE
 40
2459986.615694444
  9
$TDUUPDATE
 40
2459986.240694445
  9
$TDINDWG
 40
0.2601269560
  9
$TDUSRTIMER
 40
0.2601269560
  9
$USRTIMER
 70
     1
  9
$ANGBASE
 50
0.0
  9
$ANGDIR
 70
     0
  9
$PDMODE
 70
     0
  9
$PDSIZE
 40
0.0
  9
$PLINEWID
 40
0.0
  9
$SPLFRAME
 70
     0
  9
$SPLINETYPE
 70
     6
  9
$SPLINESEGS
 70
     8
  9
$HANDSEED
  5
34F2
  9
$SURFTAB1
 70
     6
  9
$SURFTAB2
 70
     6
  9
$SURFTYPE
 70
     6
  9
$SURFU
 70
     6
  9
$SURFV
 70
     6
  9
$UCSBASE
  2

  9
$UCSNAME
  2

  9
$UCSORG
 10
0.0
 20
0.0
 30
0.0
  9
$UCSXDIR
 10
1.0
 20
0.0
 30
0.0
  9
$UCSYDIR
 10
0.0
 20
1.0
 30
0.0
  9
$UCSORTHOREF
  2

  9
$UCSORTHOVIEW
 70
     0
  9
$UCSORGTOP
 10
0.0
 20
0.0
 30
0.0
  9
$UCSORGBOTTOM
 10
0.0
 20
0.0
 30
0.0
  9
$UCSORGLEFT
 10
0.0
 20
0.0
 30
0.0
  9
$UCSORGRIGHT
 10
0.0
 20
0.0
 30
0.0
  9
$UCSORGFRONT
 10
0.0
 20
0.0
 30
0.0
  9
$UCSORGBACK
 10
0.0
 20
0.0
 30
0.0
  9
$PUCSBASE
  2

  9
$PUCSNAME
  2

  9
$PUCSORG
 10
0.0
 20
0.0
 30
0.0
  9
$PUCSXDIR
 10
1.0
 20
0.0
 30
0.0
  9
$PUCSYDIR
 10
0.0
 20
1.0
 30
0.0
  9
$PUCSORTHOREF
  2

  9
$PUCSORTHOVIEW
 70
     0
  9
$PUCSORGTOP
 10
0.0
 20
0.0
 30
0.0
  9
$PUCSORGBOTTOM
 10
0.0
 20
0.0
 30
0.0
  9
$PUCSORGLEFT
 10
0.0
 20
0.0
 30
0.0
  9
$PUCSORGRIGHT
 10
0.0
 20
0.0
 30
0.0
  9
$PUCSORGFRONT
 10
0.0
 20
0.0
 30
0.0
  9
$PUCSORGBACK
 10
0.0
 20
0.0
 30
0.0
  9
$USERI1
 70
     0
  9
$USERI2
 70
     0
  9
$USERI3
 70
     0
  9
$USERI4
 70
     0
  9
$USERI5
 70
     0
  9
$USERR1
 40
0.0
  9
$USERR2
 40
0.0
  9
$USERR3
 40
0.0
  9
$USERR4
 40
0.0
  9
$USERR5
 40
0.0
  9
$WORLDVIEW
 70
     1
  9
$SHADEDGE
 70
     2
  9
$SHADEDIF
 70
    70
  9
$TILEMODE
 70
     1
  9
$MAXACTVP
 70
    64
  9
$PINSBASE
 10
0.0
 20
0.0
 30
0.0
  9
$PLIMCHECK
 70
     0
  9
$PEXTMIN
 10
0.0
 20
0.0
 30
0.0
  9
$PEXTMAX
 10
0.0
 20
0.0
 30
0.0
  9
$PLIMMIN
 10
0.0
 20
0.0
  9
$PLIMMAX
 10
12.0
 20
9.0
  9
$UNITMODE
 70
     0
  9
$VISRETAIN
 70
     1
  9
$PLINEGEN
 70
     0
  9
$PSLTSCALE
 70
     1
  9
$TREEDEPTH
 70
  3020
  9
$CMLSTYLE
  2
Standard
  9
$CMLJUST
 70
     0
  9
$CMLSCALE
 40
20.0
  9
$PROXYGRAPHICS
 70
     1
  9
$MEASUREMENT
 70
     1
  9
$CELWEIGHT
370
    -1
  9
$ENDCAPS
280
     0
  9
$JOINSTYLE
280
     0
  9
$LWDISPLAY
290
     0
  9
$INSUNITS
 70
     4
  9
$HYPERLINKBASE
  1

  9
$STYLESHEET
  1
monochrome.stb
  9
$XEDIT
290
     1
  9
$CEPSNTYPE
380
     0
  9
$PSTYLEMODE
290
     1
  9
$FINGERPRINTGUID
  2
{B4E61C12-08AD-407D-A83C-7C7812CA1D8B}
  9
$VERSIONGUID
  2
{76ADACE7-8185-E24B-878E-599F6EF278CF}
  9
$EXTNAMES
290
     1
  9
$PSVPSCALE
 40
0.0
  9
$OLESTARTUP
290
     0
  0
ENDSEC
  0
SECTION
  2
CLASSES
  0
CLASS
  1
ACDBDICTIONARYWDFLT
  2
AcDbDictionaryWithDefault
  3
ObjectDBX Classes
 90
        0
280
     0
281
     0
  0
CLASS
  1
ACDBPLACEHOLDER
  2
AcDbPlaceHolder
  3
ObjectDBX Classes
 90
        0
280
     0
281
     0
  0
CLASS
  1
LAYOUT
  2
AcDbLayout
  3
ObjectDBX Classes
 90
        0
280
     0
281
     0
  0
CLASS
  1
DICTIONARYVAR
  2
AcDbDictionaryVar
  3
ObjectDBX Classes
 90
        0
280
     0
281
     0
  0
CLASS
  1
SORTENTSTABLE
  2
AcDbSortentsTable
  3
ObjectDBX Classes
 90
        0
280
     0
281
     0
  0
CLASS
  1
MATERIAL
  2
AcDbMaterial
  3
ObjectDBX Classes
 90
     1153
280
     0
281
     0
  0
CLASS
  1
VISUALSTYLE
  2
AcDbVisualStyle
  3
ObjectDBX Classes
 90
     4095
280
     0
281
     0
  0
CLASS
  1
TABLESTYLE
  2
AcDbTableStyle
  3
ObjectDBX Classes
 90
     4095
280
     0
281
     0
  0
CLASS
  1
SCALE
  2
AcDbScale
  3
ObjectDBX Classes
 90
     1153
280
     0
281
     0
  0
CLASS
  1
MLEADERSTYLE
  2
AcDbMLeaderStyle
  3
ACDB_MLEADERSTYLE_CLASS
 90
     4095
280
     0
281
     0
  0
CLASS
  1
AEC_REFEDIT_STATUS_TRACKER
  2
AecDbRefEditStatusTracker
  3
AecArchBase60|Product Desc: Autodesk Architectural Desktop 2007 |Company: Autodesk,Inc. |WEB Address: www.autodesk.com
 90
    32897
280
     0
281
     0
  0
CLASS
  1
NPOCOLLECTION
  2
AcDbImpNonPersistentObjectsCollection
  3
ObjectDBX Classes
 90
    33921
280
     0
281
     0
  0
CLASS
  1
CELLSTYLEMAP
  2
AcDbCellStyleMap
  3
ObjectDBX Classes
 90
     1152
280
     0
281
     0
  0
CLASS
  1
ACDBSECTIONVIEWSTYLE
  2
AcDbSectionViewStyle
  3
ObjectDBX Classes
 90
     1025
280
     0
281
     0
  0
CLASS
  1
ACDBDETAILVIEWSTYLE
  2
AcDbDetailViewStyle
  3
ObjectDBX Classes
 90
     1025
280
     0
281
     0
  0
ENDSEC
  0
SECTION
  2
TABLES
  0
TABLE
  2
VPORT
  5
8
102
{ACAD_XDICTIONARY
360
2D8C
102
}
330
0
100
AcDbSymbolTable
 70
     1
  0
VPORT
  5
2CDC
330
8
100
AcDbSymbolTableRecord
100
AcDbViewportTableRecord
  2
*Active
 70
     0
 10
0.0
 20
0.0
 11
1.0
 21
1.0
 12
275.9480725857788
 22
190.9637663067067
 13
0.0
 23
0.0
 14
10.0
 24
10.0
 15
10.0
 25
10.0
 16
0.0
 26
0.0
 36
1.0
 17
0.0
 27
0.0
 37
0.0
 40
385.1273528798765
 41
2.173417721518987
 42
50.0
 43
0.0
 44
0.0
 50
0.0
 51
0.0
 71
     0
 72
   100
 73
     1
 74
     3
 75
     0
 76
     0
 77
     0
 78
     0
281
     0
 65
     1
110
0.0
120
0.0
130
0.0
111
1.0
121
0.0
131
0.0
112
0.0
122
1.0
132
0.0
 79
     0
146
0.0
1001
ACAD_NAV_VCDISPLAY
1070
     3
  0
ENDTAB
  0
TABLE
  2
LTYPE
  5
5
330
0
100
AcDbSymbolTable
 70
     1
  0
LTYPE
  5
14
330
5
100
AcDbSymbolTableRecord
100
AcDbLinetypeTableRecord
  2
ByBlock
 70
     0
  3

 72
    65
 73
     0
 40
0.0
  0
LTYPE
  5
15
330
5
100
AcDbSymbolTableRecord
100
AcDbLinetypeTableRecord
  2
ByLayer
 70
     0
  3

 72
    65
 73
     0
 40
0.0
  0
LTYPE
  5
16
330
5
100
AcDbSymbolTableRecord
100
AcDbLinetypeTableRecord
  2
Continuous
 70
     0
  3
Solid line
 72
    65
 73
     0
 40
0.0
  0
ENDTAB
  0
TABLE
  2
LAYER
  5
2
102
{ACAD_XDICTIONARY
360
2D
102
}
330
0
100
AcDbSymbolTable
 70
     8
  0
LAYER
  5
10
102
{ACAD_XDICTIONARY
360
2D7E
102
}
330
2
100
AcDbSymbolTableRecord
100
AcDbLayerTableRecord
  2
0
 70
     0
 62
     7
  6
Continuous
290
     0
370
    -3
390
29
  0
LAYER
  5
2301
330
2
100
AcDbSymbolTableRecord
100
AcDbLayerTableRecord
  2
Defpoints
 70
     0
 62
    -7
  6
Continuous
290
     0
370
    -3
390
F
  0
LAYER
  5
2388
102
{ACAD_XDICTIONARY
360
2D80
102
}
330
2
100
AcDbSymbolTableRecord
100
AcDbLayerTableRecord
  2
moji
 70
     0
 62
     7
  6
Continuous
370
    -3
390
29
  0
LAYER
  5
238A
102
{ACAD_XDICTIONARY
360
2D82
102
}
330
2
100
AcDbSymbolTableRecord
100
AcDbLayerTableRecord
  2
SUNPO
 70
     0
 62
     7
  6
Continuous
370
    -3
390
29
  0
LAYER
  5
2757
102
{ACAD_XDICTIONARY
360
2D84
102
}
330
2
100
AcDbSymbolTableRecord
100
AcDbLayerTableRecord
  2
KANAMONO
 70
     0
 62
     5
  6
Continuous
370
    -3
390
29
  0
LAYER
  5
2758
102
{ACAD_XDICTIONARY
360
2D86
102
}
330
2
100
AcDbSymbolTableRecord
100
AcDbLayerTableRecord
  2
KANAMONO_SCREW
 70
     0
 62
     4
  6
Continuous
370
    -3
390
29
  0
LAYER
  5
2E43
102
{ACAD_XDICTIONARY
360
2E44
102
}
330
2
100
AcDbSymbolTableRecord
100
AcDbLayerTableRecord
  2
WAKU
 70
     0
 62
     7
  6
Continuous
370
    -3
390
29
  0
LAYER
  5
33BB
102
{ACAD_XDICTIONARY
360
33BC
102
}
330
2
100
AcDbSymbolTableRecord
100
AcDbLayerTableRecord
  2
single
 70
     0
 62
     6
  6
Continuous
370
    -3
390
F
  0
ENDTAB
  0
TABLE
  2
STYLE
  5
3
330
0
100
AcDbSymbolTable
 70
     2
  0
STYLE
  5
11
330
3
100
AcDbSymbolTableRecord
100
AcDbTextStyleTableRecord
  2
Standard
 70
     0
 40
0.0
 41
1.0
 50
0.0
 71
     0
 42
2.5
  3

  4

1001
ACAD
1000
MS Gothic
1071
    32817
  0
STYLE
  5
2E45
330
3
100
AcDbSymbolTableRecord
100
AcDbTextStyleTableRecord
  2
MSゴシック
 70
     0
 40
0.0
 41
1.0
 50
0.0
 71
     0
 42
2.5
  3

  4

1001
ACAD
1000
MS Gothic
1071
    32817
  0
ENDTAB
  0
TABLE
  2
VIEW
  5
6
330
0
100
AcDbSymbolTable
 70
     0
  0
ENDTAB
  0
TABLE
  2
UCS
  5
7
330
0
100
AcDbSymbolTable
 70
     0
  0
ENDTAB
  0
TABLE
  2
APPID
  5
9
330
0
100
AcDbSymbolTable
 70
     8
  0
APPID
  5
12
330
9
100
AcDbSymbolTableRecord
100
AcDbRegAppTableRecord
  2
ACAD
 70
     0
  0
APPID
  5
2DBC
330
9
100
AcDbSymbolTableRecord
100
AcDbRegAppTableRecord
  2
ACAD_MLEADERVER
 70
     0
  0
APPID
  5
2DFE
330
9
100
AcDbSymbolTableRecord
100
AcDbRegAppTableRecord
  2
ACAD_EXEMPT_FROM_CAD_STANDARDS
 70
     0
  0
APPID
  5
2E46
330
9
100
AcDbSymbolTableRecord
100
AcDbRegAppTableRecord
  2
ACAD_PSEXT
 70
     0
  0
APPID
  5
2E47
330
9
100
AcDbSymbolTableRecord
100
AcDbRegAppTableRecord
  2
ACAD_NAV_VCDISPLAY
 70
     0
  0
APPID
  5
3260
330
9
100
AcDbSymbolTableRecord
100
AcDbRegAppTableRecord
  2
AcadAnnoPO
 70
     0
  0
APPID
  5
32D9
330
9
100
AcDbSymbolTableRecord
100
AcDbRegAppTableRecord
  2
Acad_TC
 70
     0
  0
APPID
  5
33BD
330
9
100
AcDbSymbolTableRecord
100
AcDbRegAppTableRecord
  2
AcDbDynamicBlockGUID
 70
     0
  0
ENDTAB
  0
TABLE
  2
DIMSTYLE
  5
A
330
0
100
AcDbSymbolTable
 70
     1
100
AcDbDimStyleTable
 71
     1
340
22E4
  0
DIMSTYLE
105
22E4
330
A
100
AcDbSymbolTableRecord
100
AcDbDimStyleTableRecord
  2
STANDARD
 70
     0
 40
2.0
 41
0.8
 42
1.0
 43
0.0
 44
0.0
 73
     0
 74
     0
 77
     2
 78
     8
140
2.0
141
2.5
143
0.0394
147
0.1
171
     4
172
     1
173
     1
273
     8
274
     4
279
     1
340
11
341
903
343
903
344
903
  0
ENDTAB
  0
TABLE
  2
BLOCK_RECORD
  5
1
330
0
100
AcDbSymbolTable
 70
     9
  0
BLOCK_RECORD
  5
1F
102
{ACAD_XDICTIONARY
360
1C62
102
}
330
1
100
AcDbSymbolTableRecord
100
AcDbBlockTableRecord
  2
*Model_Space
340
22
  0
BLOCK_RECORD
  5
1CD0
330
1
100
AcDbSymbolTableRecord
100
AcDbBlockTableRecord
  2
*Paper_Space
340
1CD1
  0
BLOCK_RECORD
  5
903
330
1
100
AcDbSymbolTableRecord
100
AcDbBlockTableRecord
  2
_DOT
340
0
102
{BLKREFS
331
32DD
331
32DE
331
32E6
331
32E7
331
32EF
331
32F0
331
32F8
331
32F9
331
3301
331
3302
331
3412
331
3413
331
3418
331
3419
331
341E
331
341F
331
3424
331
3425
331
342A
331
342B
102
}
  0
BLOCK_RECORD
  5
271E
330
1
100
AcDbSymbolTableRecord
100
AcDbBlockTableRecord
  2
hps6-15-40
340
0
310
2800000020000000200000000100080000000000000400000000000000000000000000000000000000000000000080000080000000808000800000008000800080800000C0C0C000C0DCC000F0CAA6000020400000206000002080000020A0000020C0000020E00000400000004020000040400000406000004080000040A0
310
000040C0000040E00000600000006020000060400000606000006080000060A0000060C0000060E00000800000008020000080400000806000008080000080A0000080C0000080E00000A0000000A0200000A0400000A0600000A0800000A0A00000A0C00000A0E00000C0000000C0200000C0400000C0600000C0800000C0
310
A00000C0C00000C0E00000E0000000E0200000E0400000E0600000E0800000E0A00000E0C00000E0E00040000000400020004000400040006000400080004000A0004000C0004000E00040200000402020004020400040206000402080004020A0004020C0004020E000404000004040200040404000404060004040800040
310
40A0004040C0004040E00040600000406020004060400040606000406080004060A0004060C0004060E00040800000408020004080400040806000408080004080A0004080C0004080E00040A0000040A0200040A0400040A0600040A0800040A0A00040A0C00040A0E00040C0000040C0200040C0400040C0600040C08000
310
40C0A00040C0C00040C0E00040E0000040E0200040E0400040E0600040E0800040E0A00040E0C00040E0E00080000000800020008000400080006000800080008000A0008000C0008000E00080200000802020008020400080206000802080008020A0008020C0008020E00080400000804020008040400080406000804080
310
008040A0008040C0008040E00080600000806020008060400080606000806080008060A0008060C0008060E00080800000808020008080400080806000808080008080A0008080C0008080E00080A0000080A0200080A0400080A0600080A0800080A0A00080A0C00080A0E00080C0000080C0200080C0400080C0600080C0
310
800080C0A00080C0C00080C0E00080E0000080E0200080E0400080E0600080E0800080E0A00080E0C00080E0E000C0000000C0002000C0004000C0006000C0008000C000A000C000C000C000E000C0200000C0202000C0204000C0206000C0208000C020A000C020C000C020E000C0400000C0402000C0404000C0406000C0
310
408000C040A000C040C000C040E000C0600000C0602000C0604000C0606000C0608000C060A000C060C000C060E000C0800000C0802000C0804000C0806000C0808000C080A000C080C000C080E000C0A00000C0A02000C0A04000C0A06000C0A08000C0A0A000C0A0C000C0A0E000C0C00000C0C02000C0C04000C0C06000
310
C0C08000C0C0A000F0FBFF00A4A0A000808080000000FF0000FF000000FFFF00FF000000FF00FF00FFFF0000FFFFFF00FFFFFFFFFFFFFFFFFFFFFFFFFFFFFFFFFFFFFFFFFFFFFFFFFFFFFFFFFFFFFFFFFFFFFFFFFFFFFFFFFFFFFFFFFFFFFFFFFFFFFFFFFFFFFFFFFFFFFFFFFFFFFFFFFFFFFFFFFFFFFFFFFFFFFFFFFFFFFF
310
FEFEFFFFFFFFFFFFFFFFFFFFFFFFFFFFFFFFFFFFFFFFFFFFFFFFFFFFFFFFFFFFFEFFFEFFFFFFFFFFFFFFFFFFFFFFFFFFFFFFFFFFFFFFFFFFFFFFFFFFFFFFFFFEFEFEFEFFFFFFFFFFFFFFFFFFFFFFFFFFFFFFFFFFFFFFFFFFFFFFFFFFFFFFFEFFFEFEFFFEFFFFFFFFFFFFFFFFFFFFFFFFFFFFFFFFFFFFFFFFFFFFFFFFFFFFFE
310
FFFEFEFFFEFFFFFFFFFFFFFFFFFFFFFFFFFFFFFFFFFFFFFFFFFFFFFFFFFFFFFEFFFEFEFFFEFFFFFFFFFFFFFFFFFFFFFFFFFFFFFFFFFFFFFFFFFFFFFFFFFFFFFEFFFEFEFFFEFFFFFFFFFFFFFFFFFFFFFFFFFFFFFFFFFFFFFFFFFFFFFFFFFFFFFFFEFEFEFEFFFFFFFFFFFFFFFFFFFFFFFFFFFFFFFFFFFFFFFFFFFFFFFFFFFFFF
310
FFFEFEFEFEFFFFFFFFFFFFFFFFFFFFFFFFFFFFFFFFFFFFFFFFFFFFFFFFFFFFFFFFFEFEFEFEFFFFFFFFFFFFFFFFFFFFFFFFFFFFFFFFFFFFFFFFFFFFFFFFFFFFFFFFFEFEFEFEFFFFFFFFFFFFFFFFFFFFFFFFFFFFFFFFFFFFFFFFFFFFFFFFFFFFFFFFFEFEFEFEFFFFFFFFFFFFFFFFFFFFFFFFFFFFFFFFFFFFFFFFFFFFFFFFFFFF
310
FFFFFEFEFEFEFFFFFFFFFFFFFFFFFFFFFFFFFFFFFFFFFFFFFFFFFFFFFFFFFFFFFFFFFEFEFEFEFFFFFFFFFFFFFFFFFFFFFFFFFFFFFFFFFFFFFFFFFFFFFFFFFFFFFFFFFEFFFFFEFFFFFFFFFFFFFFFFFFFFFFFFFFFFFFFFFFFFFFFFFFFFFFFFFFFFFFFFFEFEFEFEFFFFFFFFFFFFFFFFFFFFFFFFFFFFFFFFFFFFFFFFFFFFFFFFFF
310
FFFFFFFEFFFFFEFFFFFFFFFFFFFFFFFFFFFFFFFFFFFFFFFFFFFFFFFFFFFFFFFFFFFFFFFEFFFFFEFFFFFFFFFFFFFFFFFFFFFFFFFFFFFFFFFFFFFFFFFFFFFFFFFFFFFFFFFEFFFFFEFFFFFFFFFFFFFFFFFFFFFFFFFFFFFFFFFFFFFFFFFFFFFFFFFFFFFFFFFEFFFFFEFFFFFFFFFFFFFFFFFFFFFFFFFFFFFFFFFFFFFFFFFFFFFFFF
310
FFFFFFFFFEFFFFFEFFFFFFFFFFFFFFFFFFFFFFFFFFFFFFFFFFFFFFFFFFFFFFFFFFFFFFFFFEFFFFFEFFFFFFFFFFFFFFFFFFFFFFFFFFFFFFFFFFFFFFFFFFFFFFFFFFFFFFFFFEFFFFFEFFFFFFFFFFFFFFFFFFFFFFFFFFFFFFFFFFFFFFFFFFFFFFFFFFFFFFFFFEFFFFFEFFFFFFFFFFFFFFFFFFFFFFFFFFFFFFFFFFFFFFFFFFFFFF
310
FFFFFFFFFFFEFFFFFEFFFFFFFFFFFFFFFFFFFFFFFFFFFFFFFFFFFFFFFFFFFFFFFFFFFFFFFFFEFFFFFEFFFFFFFFFFFFFFFFFFFFFFFFFFFFFFFFFFFFFFFFFFFFFFFFFFFFFEFEFEFEFEFEFEFEFFFFFFFFFFFFFFFFFFFFFFFFFFFFFFFFFFFFFFFFFFFFFFFFFEFEFEFEFEFEFEFEFFFFFFFFFFFFFFFFFFFFFFFFFFFFFFFFFFFFFFFF
310
FFFFFFFFFFFFFEFEFEFEFFFFFFFFFFFFFFFFFFFFFFFFFFFFFFFFFFFFFFFFFFFFFFFFFFFFFFFFFFFFFFFFFFFFFFFFFFFFFFFFFFFFFFFFFFFF
1001
ACAD
1000
DesignCenter Data
1002
{
1070
     1
1070
     4
1002
}
  0
BLOCK_RECORD
  5
2BDC
330
1
100
AcDbSymbolTableRecord
100
AcDbBlockTableRecord
  2
*D2
340
0
  0
BLOCK_RECORD
  5
2BFD
330
1
100
AcDbSymbolTableRecord
100
AcDbBlockTableRecord
  2
*D3
340
0
  0
BLOCK_RECORD
  5
2C0A
330
1
100
AcDbSymbolTableRecord
100
AcDbBlockTableRecord
  2
*D4
340
0
  0
BLOCK_RECORD
  5
2C17
330
1
100
AcDbSymbolTableRecord
100
AcDbBlockTableRecord
  2
*D5
340
0
  0
BLOCK_RECORD
  5
2C24
330
1
100
AcDbSymbolTableRecord
100
AcDbBlockTableRecord
  2
*D6
340
0
  0
BLOCK_RECORD
  5
3350
102
{ACAD_XDICTIONARY
360
3351
102
}
330
1
100
AcDbSymbolTableRecord
100
AcDbBlockTableRecord
  2
hf6-40
340
0
310
28000000200000002000000001002000000000000010000001000000010000000000000000000000302821FF302821FF302821FF302821FF302821FF302821FF302821FF302821FF302821FF302821FF302821FF302821FF302821FF302821FF302821FF302821FF302821FF302821FF302821FF302821FF302821FF302821
310
FF302821FF302821FF302821FF302821FF302821FF302821FF302821FF302821FF302821FF302821FF302821FF302821FF302821FF302821FF302821FF302821FF302821FF302821FF302821FF302821FF302821FF302821FF302821FF302821FF302821FF302821FFFFFF00FF302821FF302821FF302821FF302821FF3028
310
21FF302821FF302821FF302821FF302821FF302821FF302821FF302821FF302821FF302821FF302821FF302821FF302821FF302821FF302821FF302821FF302821FF302821FF302821FF302821FF302821FF302821FF302821FF302821FF302821FF302821FFFFFF00FFFFFF00FF302821FF302821FF302821FF302821FF30
310
2821FF302821FF302821FF302821FF302821FF302821FF302821FF302821FF302821FF302821FF302821FF302821FF302821FF302821FF302821FF302821FF302821FF302821FF302821FF302821FF302821FF302821FF302821FF302821FF302821FF302821FFFFFF00FFFFFF00FFFFFF00FF302821FF302821FF302821FF
310
302821FF302821FF302821FF302821FF302821FF302821FF302821FF302821FF302821FF302821FF302821FF302821FF302821FF302821FF302821FF302821FF302821FF302821FF302821FF302821FF302821FF302821FF302821FF302821FF302821FFFFFF00FFFFFF00FFFFFF00FFFFFF00FF302821FF302821FF302821
310
FF302821FF302821FF302821FF302821FF302821FF302821FF302821FF302821FF302821FF302821FF302821FF302821FF302821FF302821FF302821FF302821FF302821FF302821FF302821FF302821FF302821FF302821FF302821FF302821FF302821FFFFFF00FFFFFF00FFFFFF00FFFFFF00FF302821FF302821FF3028
310
21FF302821FF302821FF302821FF302821FF302821FF302821FF302821FF302821FF302821FF302821FF302821FF302821FF302821FF302821FF302821FF302821FF302821FF302821FF302821FF302821FF302821FF302821FF302821FF302821FF302821FFFFFF00FFFFFF00FFFFFF00FFFFFF00FF302821FF302821FF30
310
2821FF302821FF302821FF302821FF302821FF302821FF302821FF302821FF302821FF302821FF302821FF302821FF302821FF302821FF302821FF302821FF302821FF302821FF302821FF302821FF302821FF302821FF302821FF302821FF302821FF302821FFFFFF00FFFFFF00FFFFFF00FFFFFF00FF302821FF302821FF
310
302821FF302821FF302821FF302821FF302821FF302821FF302821FF302821FF302821FF302821FF302821FF302821FF302821FF302821FF302821FF302821FF302821FF302821FF302821FF302821FF302821FF302821FF302821FF302821FF302821FF302821FFFFFF00FFFFFF00FFFFFF00FFFFFF00FF302821FF302821
310
FF302821FF302821FF302821FF302821FF302821FF302821FF302821FF302821FF302821FF302821FF302821FF302821FF302821FF302821FF302821FF302821FF302821FF302821FF302821FF302821FF302821FF302821FF302821FF302821FF302821FF302821FFFFFF00FFFFFF00FFFFFF00FFFFFF00FF302821FF3028
310
21FF302821FF302821FF302821FF302821FF302821FF302821FF302821FF302821FF302821FF302821FF302821FF302821FF302821FF302821FF302821FF302821FF302821FF302821FF302821FF302821FF302821FF302821FF302821FF302821FF302821FF302821FFFFFF00FFFFFF00FFFFFF00FFFFFF00FF302821FF30
310
2821FF302821FF302821FF302821FF302821FF302821FF302821FF302821FF302821FF302821FF302821FF302821FF302821FF302821FF302821FF302821FF302821FF302821FF302821FF302821FF302821FF302821FF302821FF302821FF302821FF302821FF302821FFFFFF00FFFFFF00FFFFFF00FFFFFF00FF302821FF
310
302821FF302821FF302821FF302821FF302821FF302821FF302821FF302821FF302821FF302821FF302821FF302821FF302821FF302821FF302821FF302821FF302821FF302821FF302821FF302821FF302821FF302821FF302821FF302821FF302821FF302821FF302821FFFFFF00FFFFFF00FFFFFF00FFFFFF00FF302821
310
FF302821FF302821FF302821FF302821FF302821FF302821FF302821FF302821FF302821FF302821FF302821FF302821FF302821FF302821FF302821FF302821FF302821FF302821FF302821FF302821FF302821FF302821FF302821FF302821FF302821FF302821FF302821FFFFFF00FFFFFF00FFFFFF00FFFFFF00FF3028
310
21FF302821FF302821FF302821FF302821FF302821FF302821FF302821FF302821FF302821FF302821FF302821FF302821FF302821FF302821FF302821FF302821FF302821FF302821FF302821FF302821FF302821FF302821FF302821FF302821FF302821FF302821FF302821FFFFFF00FFFFFF00FFFFFF00FFFFFF00FF30
310
2821FF302821FF302821FF302821FF302821FF302821FF302821FF302821FF302821FF302821FF302821FF302821FF302821FF302821FF302821FF302821FF302821FF302821FF302821FF302821FF302821FF302821FF302821FF302821FF302821FF302821FF302821FF302821FFFFFF00FFFFFF00FFFFFF00FFFFFF00FF
310
302821FF302821FF302821FF302821FF302821FF302821FF302821FF302821FF302821FF302821FF302821FF302821FF302821FF302821FF302821FF302821FF302821FF302821FF302821FF302821FF302821FF302821FF302821FF302821FF302821FF302821FF302821FF302821FFFFFF00FFFFFF00FFFFFF00FFFFFF00
310
FF302821FF302821FF302821FF302821FF302821FF302821FF302821FF302821FF302821FF302821FF302821FF302821FF302821FF302821FF302821FF302821FF302821FF302821FF302821FF302821FF302821FF302821FF302821FF302821FF302821FF302821FF302821FF302821FFFFFF00FFFFFF00FFFFFF00FFFFFF
310
00FF302821FF302821FF302821FF302821FF302821FF302821FF302821FF302821FF302821FF302821FF302821FF302821FF302821FF302821FF302821FF302821FF302821FF302821FF302821FF302821FF302821FF302821FF302821FF302821FF302821FF302821FF302821FF302821FFFFFF00FFFFFF00FFFFFF00FFFF
310
FF00FF302821FF302821FF302821FF302821FF302821FF302821FF302821FF302821FF302821FF302821FF302821FF302821FF302821FF302821FF302821FF302821FF302821FF302821FF302821FF302821FF302821FF302821FF302821FF302821FF302821FF302821FF302821FF302821FFFFFF00FFFFFF00FFFFFF00FF
310
FFFF00FF302821FF302821FF302821FF302821FF302821FF302821FF302821FF302821FF302821FF302821FF302821FF302821FF302821FF302821FF302821FF302821FF302821FF302821FF302821FF302821FF302821FF302821FF302821FF302821FF302821FF302821FF302821FF302821FFFFFF00FFFFFF00FFFFFF00
310
FFFFFF00FF302821FF302821FF302821FF302821FF302821FF302821FF302821FF302821FF302821FF302821FF302821FF302821FF302821FF302821FF302821FF302821FF302821FF302821FF302821FF302821FF302821FF302821FF302821FF302821FF302821FF302821FF302821FF302821FFFFFF00FFFFFF00FFFFFF
310
00FFFFFF00FF302821FF302821FF302821FF302821FF302821FF302821FF302821FF302821FF302821FF302821FF302821FF302821FF302821FF302821FF302821FF302821FF302821FF302821FF302821FF302821FF302821FF302821FF302821FF302821FF302821FF302821FF302821FF302821FFFFFF00FFFFFF00FFFF
310
FF00FFFFFF00FF302821FF302821FF302821FF302821FF302821FF302821FF302821FF302821FF302821FF302821FF302821FF302821FF302821FF302821FF302821FF302821FF302821FF302821FF302821FF302821FF302821FF302821FF302821FF302821FF302821FF302821FF302821FF302821FFFFFF00FFFFFF00FF
310
FFFF00FFFFFF00FF302821FF302821FF302821FF302821FF302821FF302821FF302821FF302821FF302821FF302821FF302821FF302821FF302821FF302821FF302821FF302821FF302821FF302821FF302821FF302821FF302821FF302821FF302821FF302821FF302821FF302821FF302821FF302821FFFFFF00FFFFFF00
310
FFFFFF00FFFFFF00FF302821FF302821FF302821FF302821FF302821FF302821FF302821FF302821FF302821FF302821FF302821FF302821FF302821FF302821FF302821FF302821FF302821FF302821FF302821FF302821FF302821FF302821FF302821FF302821FF302821FF302821FF302821FF302821FFFFFF00FFFFFF
310
00FFFFFF00FFFFFF00FF302821FF302821FF302821FF302821FF302821FF302821FF302821FF302821FF302821FF302821FF302821FF302821FF302821FF302821FF302821FF302821FF302821FF302821FF302821FF302821FF302821FF302821FF302821FF302821FF302821FF302821FF302821FF302821FFFFFF00FFFF
310
FF00FFFFFF00FFFFFF00FF302821FF302821FF302821FF302821FF302821FF302821FF302821FF302821FF302821FF302821FF302821FF302821FF302821FF302821FF302821FF302821FF302821FF302821FF302821FF302821FF302821FF302821FF302821FF302821FF302821FF302821FF302821FF302821FFFFFF00FF
310
FFFF00FFFFFF00FFFFFF00FF302821FF302821FF302821FF302821FF302821FF302821FF302821FF302821FF302821FF302821FF302821FF302821FF302821FF302821FF302821FF302821FF302821FF302821FF302821FF302821FF302821FF302821FF302821FF302821FF302821FF302821FFFFFF00FFFFFF00FFFFFF00
310
FFFFFF00FFFFFF00FFFFFF00FFFFFF00FFFFFF00FF302821FF302821FF302821FF302821FF302821FF302821FF302821FF302821FF302821FF302821FF302821FF302821FF302821FF302821FF302821FF302821FF302821FF302821FF302821FF302821FF302821FF302821FF302821FF302821FFFFFF00FFFFFF00FFFFFF
310
00FFFFFF00FFFFFF00FFFFFF00FFFFFF00FFFFFF00FF302821FF302821FF302821FF302821FF302821FF302821FF302821FF302821FF302821FF302821FF302821FF302821FF302821FF302821FF302821FF302821FF302821FF302821FF302821FF302821FF302821FF302821FF302821FF302821FF302821FFFFFF00FFFF
310
FF00FFFFFF00FFFFFF00FFFFFF00FFFFFF00FF302821FF302821FF302821FF302821FF302821FF302821FF302821FF302821FF302821FF302821FF302821FF302821FF302821FF302821FF302821FF302821FF302821FF302821FF302821FF302821FF302821FF302821FF302821FF302821FF302821FF302821FF302821FF
310
302821FF302821FF302821FF302821FF302821FF302821FF302821FF302821FF302821FF302821FF302821FF302821FF302821FF302821FF302821FF302821FF302821FF302821FF
102
{BLKREFS
102
}
1001
AcDbDynamicBlockGUID
1000
{0BC69769-0555-4E4A-9F81-E641B076B9A3}
1001
ACAD
1000
DesignCenter Data
1002
{
1070
     1
1070
     4
1002
}
  0
ENDTAB
  0
ENDSEC
  0
SECTION
  2
BLOCKS
  0
BLOCK
  5
20
330
1F
100
AcDbEntity
  8
0
100
AcDbBlockBegin
  2
*Model_Space
 70
     0
 10
0.0
 20
0.0
 30
0.0
  3
*Model_Space
  1

  0
ENDBLK
  5
21
330
1F
100
AcDbEntity
  8
0
100
AcDbBlockEnd
  0
BLOCK
  5
1CD2
330
1CD0
100
AcDbEntity
 67
     1
  8
0
100
AcDbBlockBegin
  2
*Paper_Space
 70
     0
 10
0.0
 20
0.0
 30
0.0
  3
*Paper_Space
  1

  0
ENDBLK
  5
1CD3
330
1CD0
100
AcDbEntity
 67
     1
  8
0
100
AcDbBlockEnd
  0
BLOCK
  5
906
330
903
100
AcDbEntity
  8
0
100
AcDbBlockBegin
  2
_DOT
 70
     0
 10
0.0
 20
0.0
 30
0.0
  3
_DOT
  1

  0
LWPOLYLINE
  5
904
330
903
100
AcDbEntity
  8
0
  6
ByBlock
 62
     0
100
AcDbPolyline
 90
        2
 70
     1
 43
0.5
 10
-0.25
 20
0.0
 42
1.0
 10
0.25
 20
0.0
 42
1.0
  0
LINE
  5
905
330
903
100
AcDbEntity
  8
0
  6
ByBlock
 62
     0
100
AcDbLine
 10
-0.5
 20
0.0
 30
0.0
 11
-1.0
 21
0.0
 31
0.0
  0
ENDBLK
  5
907
330
903
100
AcDbEntity
  8
0
100
AcDbBlockEnd
  0
BLOCK
  5
2755
330
271E
100
AcDbEntity
  8
0
 48
20.0
100
AcDbBlockBegin
  2
hps6-15-40
 70
     0
 10
0.0
 20
0.0
 30
0.0
  3
hps6-15-40
  1

  0
LINE
  5
271F
330
271E
100
AcDbEntity
  8
KANAMONO_SCREW
 48
20.0
100
AcDbLine
 10
3.000000000000028
 20
-1.000000000000028
 30
0.0
 11
3.0
 21
-23.00000000000003
 31
0.0
  0
LINE
  5
2720
330
271E
100
AcDbEntity
  8
KANAMONO_SCREW
 48
20.0
100
AcDbLine
 10
-2.999999999999971
 20
-1.0
 30
0.0
 11
-2.999999999999971
 21
-23.00000000000006
 31
0.0
  0
LINE
  5
2721
330
271E
100
AcDbEntity
  8
KANAMONO_SCREW
 48
20.0
100
AcDbLine
 10
-0.9581933694132658
 20
-39.05238304003339
 30
0.0
 11
0.9372873322623718
 21
-38.57851286461448
 31
0.0
  0
LINE
  5
2722
330
271E
100
AcDbEntity
  8
KANAMONO_SCREW
 48
20.0
100
AcDbLine
 10
-0.25
 20
-23.00000000000006
 30
0.0
 11
-1.0
 21
-40.00000000000002
 31
0.0
  0
LINE
  5
2723
330
271E
100
AcDbEntity
  8
KANAMONO_SCREW
 48
20.0
100
AcDbLine
 10
-3.0
 20
-40.00000000000002
 30
0.0
 11
-3.689189189189193
 21
-38.62162162162164
 31
0.0
  0
LINE
  5
2724
330
271E
100
AcDbEntity
  8
KANAMONO_SCREW
 48
20.0
100
AcDbLine
 10
0.25
 20
-23.00000000000006
 30
0.0
 11
1.0
 21
-40.00000000000002
 31
0.0
  0
LINE
  5
2725
330
271E
100
AcDbEntity
  8
KANAMONO_SCREW
 48
20.0
100
AcDbLine
 10
3.0
 20
-40.00000000000002
 30
0.0
 11
3.689189189189193
 21
-38.62162162162164
 31
0.0
  0
LINE
  5
2726
330
271E
100
AcDbEntity
  8
KANAMONO_SCREW
 48
20.0
100
AcDbLine
 10
-1.616448107290779
 20
-40.71694672450277
 30
0.0
 11
1.251338790720183
 21
-40.00000000000002
 31
0.0
  0
ARC
  5
2727
330
271E
100
AcDbEntity
  8
KANAMONO_SCREW
 48
20.0
100
AcDbCircle
 10
-0.0000000110134692
 20
-43.31283469768007
 30
0.0
 40
0.5
100
AcDbArc
 50
202.5000000000006
 51
337.4999999999994
  0
LINE
  5
2728
330
271E
100
AcDbEntity
  8
KANAMONO_SCREW
 48
20.0
100
AcDbLine
 10
-0.9999999999999715
 20
-40.00000000000002
 30
0.0
 11
-3.0
 21
-40.00000000000002
 31
0.0
  0
LINE
  5
2729
330
271E
100
AcDbEntity
  8
KANAMONO_SCREW
 48
20.0
100
AcDbLine
 10
-1.913417161825464
 20
-40.00000000000002
 30
0.0
 11
-0.461939777269123
 21
-43.5041764138626
 31
0.0
  0
LINE
  5
272A
330
271E
100
AcDbEntity
  8
KANAMONO_SCREW
 48
20.0
100
AcDbLine
 10
0.9999999999999715
 20
-40.00000000000002
 30
0.0
 11
3.0
 21
-40.00000000000002
 31
0.0
  0
LINE
  5
272B
330
271E
100
AcDbEntity
  8
KANAMONO_SCREW
 48
20.0
100
AcDbLine
 10
1.913417161825464
 20
-40.00000000000002
 30
0.0
 11
0.4619397552421845
 21
-43.5041764138626
 31
0.0
  0
LINE
  5
272C
330
271E
100
AcDbEntity
  8
KANAMONO_SCREW
 48
20.0
100
AcDbLine
 10
-3.154261712747711
 20
-26.49659882228088
 30
0.0
 11
-3.689189189189193
 21
-38.62162162162164
 31
0.0
  0
LINE
  5
272D
330
271E
100
AcDbEntity
  8
KANAMONO_SCREW
 48
20.0
100
AcDbLine
 10
-0.489791882424413
 20
-28.43528266828619
 30
0.0
 11
0.4791055140805725
 21
-28.19305831915995
 31
0.0
  0
LINE
  5
272E
330
271E
100
AcDbEntity
  8
KANAMONO_SCREW
 48
20.0
100
AcDbLine
 10
3.154261712756664
 20
-26.49659882228048
 30
0.0
 11
3.689189189189193
 21
-38.62162162162164
 31
0.0
  0
LINE
  5
272F
330
271E
100
AcDbEntity
  8
KANAMONO_SCREW
 48
20.0
100
AcDbLine
 10
-0.7574498749894758
 20
-34.50219716642744
 30
0.0
 11
0.7409236958987436
 21
-34.12760377370537
 31
0.0
  0
LINE
  5
2730
330
271E
100
AcDbEntity
  8
KANAMONO_SCREW
 48
20.0
100
AcDbLine
 10
-0.8243643731307201
 20
-36.01892579096276
 30
0.0
 11
0.8063782413532862
 21
-35.61124013734172
 31
0.0
  0
LINE
  5
2731
330
271E
100
AcDbEntity
  8
KANAMONO_SCREW
 48
20.0
100
AcDbLine
 10
-0.891278871271993
 20
-37.5356544154981
 30
0.0
 11
0.871832786807829
 21
-37.0948765009781
 31
0.0
  0
LINE
  5
2732
330
271E
100
AcDbEntity
  8
KANAMONO_SCREW
 48
20.0
100
AcDbLine
 10
-0.5567063805656574
 20
-29.95201129282148
 30
0.0
 11
0.5445600595351153
 21
-29.6766946827963
 31
0.0
  0
LINE
  5
2733
330
271E
100
AcDbEntity
  8
KANAMONO_SCREW
 48
20.0
100
AcDbLine
 10
-0.6236208787069586
 20
-31.46873991735683
 30
0.0
 11
0.610014604989658
 21
-31.16033104643268
 31
0.0
  0
LINE
  5
2734
330
271E
100
AcDbEntity
  8
KANAMONO_SCREW
 48
20.0
100
AcDbLine
 10
-0.690535376848203
 20
-32.98546854189209
 30
0.0
 11
0.6754691504442008
 21
-32.643967410069
 31
0.0
  0
LINE
  5
2735
330
271E
100
AcDbEntity
  8
KANAMONO_SCREW
 48
20.0
100
AcDbLine
 10
-0.4228773842831402
 20
-26.91855404375085
 30
0.0
 11
0.4136509686260297
 21
-26.70942195552357
 31
0.0
  0
LINE
  5
2736
330
271E
100
AcDbEntity
  8
KANAMONO_SCREW
 48
20.0
100
AcDbLine
 10
-2.904504654022304
 20
-26.50761751604881
 30
0.0
 11
-3.154261712756664
 21
-26.49659882228048
 31
0.0
  0
LINE
  5
2737
330
271E
100
AcDbEntity
  8
KANAMONO_SCREW
 48
20.0
100
AcDbLine
 10
-2.893485960253968
 20
-26.25786045731445
 30
0.0
 11
-3.143243018988329
 21
-26.24684176354612
 31
0.0
  0
LINE
  5
2738
330
271E
100
AcDbEntity
  8
KANAMONO_SCREW
 48
20.0
100
AcDbLine
 10
-2.761261635033946
 20
-23.2607757525021
 30
0.0
 11
-3.011018693768306
 21
-23.24975705873376
 31
0.0
  0
LINE
  5
2739
330
271E
100
AcDbEntity
  8
KANAMONO_SCREW
 48
20.0
100
AcDbLine
 10
-2.750242941265611
 20
-23.01101869376774
 30
0.0
 11
-2.999999999999971
 21
-22.9999999999994
 31
0.0
  0
LINE
  5
273A
330
271E
100
AcDbEntity
  8
KANAMONO_SCREW
 48
20.0
100
AcDbLine
 10
-2.750242941265611
 20
-23.01101869376774
 30
0.0
 11
-2.904504654013322
 21
-26.50761751604924
 31
0.0
  0
LINE
  5
273B
330
271E
100
AcDbEntity
  8
KANAMONO_SCREW
 48
20.0
100
AcDbLine
 10
-3.011018693767681
 20
-23.24975705873379
 30
0.0
 11
-3.143243018980001
 21
-26.24684176354652
 31
0.0
  0
LINE
  5
273C
330
271E
100
AcDbEntity
  8
KANAMONO_SCREW
 48
20.0
100
AcDbLine
 10
2.750242941265611
 20
-23.01101869376774
 30
0.0
 11
2.999999999999971
 21
-22.9999999999994
 31
0.0
  0
LINE
  5
273D
330
271E
100
AcDbEntity
  8
KANAMONO_SCREW
 48
20.0
100
AcDbLine
 10
2.761261635033946
 20
-23.2607757525021
 30
0.0
 11
3.011018693768306
 21
-23.24975705873376
 31
0.0
  0
LINE
  5
273E
330
271E
100
AcDbEntity
  8
KANAMONO_SCREW
 48
20.0
100
AcDbLine
 10
2.893485960253968
 20
-26.25786045731445
 30
0.0
 11
3.143243018988329
 21
-26.24684176354612
 31
0.0
  0
LINE
  5
273F
330
271E
100
AcDbEntity
  8
KANAMONO_SCREW
 48
20.0
100
AcDbLine
 10
2.904504654022304
 20
-26.50761751604881
 30
0.0
 11
3.154261712756664
 21
-26.49659882228048
 31
0.0
  0
LINE
  5
2740
330
271E
100
AcDbEntity
  8
KANAMONO_SCREW
 48
20.0
100
AcDbLine
 10
3.011018693767681
 20
-23.24975705873379
 30
0.0
 11
3.143243018980001
 21
-26.24684176354652
 31
0.0
  0
LINE
  5
2741
330
271E
100
AcDbEntity
  8
KANAMONO_SCREW
 48
20.0
100
AcDbLine
 10
2.750242941265611
 20
-23.01101869376774
 30
0.0
 11
2.904504654013322
 21
-26.50761751604924
 31
0.0
  0
LINE
  5
2742
330
271E
100
AcDbEntity
  8
KANAMONO_SCREW
 48
20.0
100
AcDbLine
 10
-0.2890483880005945
 20
-23.88509679468027
 30
0.0
 11
0.2827418777169157
 21
-23.74214922825087
 31
0.0
  0
LINE
  5
2743
330
271E
100
AcDbEntity
  8
KANAMONO_SCREW
 48
20.0
100
AcDbLine
 10
-0.3559628861419242
 20
-25.40182541921553
 30
0.0
 11
0.3481964231714585
 21
-25.22578559188719
 31
0.0
  0
LINE
  5
2744
330
271E
100
AcDbEntity
  8
KANAMONO_SCREW
 48
20.0
100
AcDbLine
 10
-0.25
 20
-23.00000000000006
 30
0.0
 11
0.25
 21
-23.00000000000006
 31
0.0
  0
LINE
  5
2745
330
271E
100
AcDbEntity
  8
KANAMONO_SCREW
 48
20.0
100
AcDbLine
 10
-2.999999999999971
 20
-17.9999999999994
 30
0.0
 11
3.0
 21
-17.9999999999994
 31
0.0
  0
LINE
  5
2746
330
271E
100
AcDbEntity
  8
KANAMONO_SCREW
 48
20.0
100
AcDbLine
 10
-2.999999999999971
 20
-20.99999999999941
 30
0.0
 11
3.0
 21
-20.99999999999941
 31
0.0
  0
LINE
  5
2747
330
271E
100
AcDbEntity
  8
KANAMONO_SCREW
 48
20.0
100
AcDbLine
 10
-5.5
 20
1.999999999999971
 30
0.0
 11
5.5
 21
1.999999999999971
 31
0.0
  0
LINE
  5
2748
330
271E
100
AcDbEntity
  8
KANAMONO_SCREW
 48
20.0
100
AcDbLine
 10
-5.5
 20
-0.0000000000000284
 30
0.0
 11
-3.999999999999971
 21
0.0
 31
0.0
  0
LINE
  5
2749
330
271E
100
AcDbEntity
  8
KANAMONO_SCREW
 48
20.0
100
AcDbLine
 10
-5.5
 20
-0.0000000000000284
 30
0.0
 11
-5.5
 21
1.999999999999971
 31
0.0
  0
LINE
  5
274A
330
271E
100
AcDbEntity
  8
KANAMONO_SCREW
 48
20.0
100
AcDbLine
 10
3.0
 20
2.749999999999971
 30
0.0
 11
4.25
 21
2.499999999999971
 31
0.0
  0
LINE
  5
274B
330
271E
100
AcDbEntity
  8
KANAMONO_SCREW
 48
20.0
100
AcDbLine
 10
4.25
 20
2.499999999999971
 30
0.0
 11
-4.25
 21
2.499999999999971
 31
0.0
  0
LINE
  5
274C
330
271E
100
AcDbEntity
  8
KANAMONO_SCREW
 48
20.0
100
AcDbLine
 10
-4.0
 20
0.0000000000000284
 30
0.0
 11
4.000000000000028
 21
-0.0000000000000284
 31
0.0
  0
ARC
  5
274D
330
271E
100
AcDbEntity
  8
KANAMONO_SCREW
 48
20.0
100
AcDbCircle
 10
4.000000000000028
 20
-1.000000000000028
 30
0.0
 40
1.0
100
AcDbArc
 50
90.0
 51
180.0
  0
LINE
  5
274E
330
271E
100
AcDbEntity
  8
KANAMONO_SCREW
 48
20.0
100
AcDbLine
 10
3.0
 20
2.749999999999971
 30
0.0
 11
-3.0
 21
2.749999999999971
 31
0.0
  0
LINE
  5
274F
330
271E
100
AcDbEntity
  8
KANAMONO_SCREW
 48
20.0
100
AcDbLine
 10
-4.25
 20
2.499999999999971
 30
0.0
 11
-3.0
 21
2.749999999999971
 31
0.0
  0
LINE
  5
2750
330
271E
100
AcDbEntity
  8
KANAMONO_SCREW
 48
20.0
100
AcDbLine
 10
-4.25
 20
2.499999999999971
 30
0.0
 11
-4.25
 21
1.999999999999971
 31
0.0
  0
ARC
  5
2751
330
271E
100
AcDbEntity
  8
KANAMONO_SCREW
 48
20.0
100
AcDbCircle
 10
-3.999999999999971
 20
-1.0
 30
0.0
 40
1.0
100
AcDbArc
 50
0.0
 51
90.0
  0
LINE
  5
2752
330
271E
100
AcDbEntity
  8
KANAMONO_SCREW
 48
20.0
100
AcDbLine
 10
4.25
 20
1.999999999999971
 30
0.0
 11
4.25
 21
2.499999999999971
 31
0.0
  0
LINE
  5
2753
330
271E
100
AcDbEntity
  8
KANAMONO_SCREW
 48
20.0
100
AcDbLine
 10
4.000000000000028
 20
-0.0000000000000284
 30
0.0
 11
5.5
 21
-0.0000000000000284
 31
0.0
  0
LINE
  5
2754
330
271E
100
AcDbEntity
  8
KANAMONO_SCREW
 48
20.0
100
AcDbLine
 10
5.5
 20
1.999999999999971
 30
0.0
 11
5.5
 21
-0.0000000000000284
 31
0.0
  0
ENDBLK
  5
2756
330
271E
100
AcDbEntity
  8
0
 48
20.0
100
AcDbBlockEnd
  0
BLOCK
  5
2BE6
330
2BDC
100
AcDbEntity
  8
0
100
AcDbBlockBegin
  2
*D2
 70
     1
 10
0.0
 20
0.0
 30
0.0
  3
*D2
  1

  0
LINE
  5
32DA
330
2BDC
100
AcDbEntity
  8
SUNPO
 62
     0
370
    -2
100
AcDbLine
 10
247.1796026900391
 20
181.9725591664125
 30
0.0
 11
247.1796026900391
 21
85.67087720015823
 31
0.0
  0
LINE
  5
32DB
330
2BDC
100
AcDbEntity
  8
SUNPO
 62
     0
370
    -2
100
AcDbLine
 10
271.1796026900391
 20
130.3725591664125
 30
0.0
 11
271.1796026900391
 21
85.67087720015823
 31
0.0
  0
LINE
  5
32DC
330
2BDC
100
AcDbEntity
  8
SUNPO
 62
     0
370
    -2
100
AcDbLine
 10
248.7796026900391
 20
85.67087720015823
 30
0.0
 11
269.579602690039
 21
85.67087720015823
 31
0.0
  0
INSERT
  5
32DD
330
2BDC
100
AcDbEntity
  8
SUNPO
 62
     0
370
    -2
100
AcDbBlockReference
  2
_DOT
 10
247.1796026900391
 20
85.67087720015823
 30
0.0
 41
1.6
 42
1.6
 43
1.6
 50
180.0
  0
INSERT
  5
32DE
330
2BDC
100
AcDbEntity
  8
SUNPO
 62
     0
370
    -2
100
AcDbBlockReference
  2
_DOT
 10
271.1796026900391
 20
85.67087720015823
 30
0.0
 41
1.6
 42
1.6
 43
1.6
  0
MTEXT
  5
32DF
330
2BDC
100
AcDbEntity
  8
SUNPO
 62
     0
100
AcDbMText
 10
259.1796026900391
 20
83.47087720015823
 30
0.0
 40
4.0
 41
0.0
 71
     5
 72
     1
  1
\A1;24
  7
MSゴシック
 73
     1
 44
1.0
1001
ACAD
1000
MTEXTBEGIN
1070
    73
1070
     1
1070
    44
1040
1.0
1070
    74
1070
     0
1000
MTEXTEND
  0
POINT
  5
32E0
330
2BDC
100
AcDbEntity
  8
Defpoints
 62
     0
100
AcDbPoint
 10
247.1796026900391
 20
183.9725591664125
 30
0.0
  0
POINT
  5
32E1
330
2BDC
100
AcDbEntity
  8
Defpoints
 62
     0
100
AcDbPoint
 10
271.1796026900391
 20
132.3725591664125
 30
0.0
  0
POINT
  5
32E2
330
2BDC
100
AcDbEntity
  8
Defpoints
 62
     0
100
AcDbPoint
 10
271.1796026900391
 20
85.67087720015823
 30
0.0
  0
ENDBLK
  5
2BE7
330
2BDC
100
AcDbEntity
  8
0
100
AcDbBlockEnd
  0
BLOCK
  5
2C07
330
2BFD
100
AcDbEntity
  8
0
100
AcDbBlockBegin
  2
*D3
 70
     1
 10
0.0
 20
0.0
 30
0.0
  3
*D3
  1

  0
LINE
  5
32E3
330
2BFD
100
AcDbEntity
  8
SUNPO
 62
     0
370
    -2
100
AcDbLine
 10
271.1796026900391
 20
130.3725591664125
 30
0.0
 11
271.1796026900391
 21
85.67087720015823
 31
0.0
  0
LINE
  5
32E4
330
2BFD
100
AcDbEntity
  8
SUNPO
 62
     0
370
    -2
100
AcDbLine
 10
316.1796026900391
 20
130.7225591664125
 30
0.0
 11
316.1796026900391
 21
85.67087720015823
 31
0.0
  0
LINE
  5
32E5
330
2BFD
100
AcDbEntity
  8
SUNPO
 62
     0
370
    -2
100
AcDbLine
 10
272.7796026900391
 20
85.67087720015823
 30
0.0
 11
314.5796026900391
 21
85.67087720015823
 31
0.0
  0
INSERT
  5
32E6
330
2BFD
100
AcDbEntity
  8
SUNPO
 62
     0
370
    -2
100
AcDbBlockReference
  2
_DOT
 10
271.1796026900391
 20
85.67087720015823
 30
0.0
 41
1.6
 42
1.6
 43
1.6
 50
180.0
  0
INSERT
  5
32E7
330
2BFD
100
AcDbEntity
  8
SUNPO
 62
     0
370
    -2
100
AcDbBlockReference
  2
_DOT
 10
316.1796026900391
 20
85.67087720015823
 30
0.0
 41
1.6
 42
1.6
 43
1.6
  0
MTEXT
  5
32E8
330
2BFD
100
AcDbEntity
  8
SUNPO
 62
     0
100
AcDbMText
 10
293.6796026900391
 20
83.47087720015823
 30
0.0
 40
4.0
 41
0.0
 71
     5
 72
     1
  1
\A1;45
  7
MSゴシック
 73
     1
 44
1.0
1001
ACAD
1000
MTEXTBEGIN
1070
    73
1070
     1
1070
    44
1040
1.0
1070
    74
1070
     0
1000
MTEXTEND
  0
POINT
  5
32E9
330
2BFD
100
AcDbEntity
  8
Defpoints
 62
     0
100
AcDbPoint
 10
271.1796026900391
 20
132.3725591664125
 30
0.0
  0
POINT
  5
32EA
330
2BFD
100
AcDbEntity
  8
Defpoints
 62
     0
100
AcDbPoint
 10
316.1796026900391
 20
132.7225591664125
 30
0.0
  0
POINT
  5
32EB
330
2BFD
100
AcDbEntity
  8
Defpoints
 62
     0
100
AcDbPoint
 10
316.1796026900391
 20
85.67087720015823
 30
0.0
  0
ENDBLK
  5
2C08
330
2BFD
100
AcDbEntity
  8
0
100
AcDbBlockEnd
  0
BLOCK
  5
2C14
330
2C0A
100
AcDbEntity
  8
0
100
AcDbBlockBegin
  2
*D4
 70
     1
 10
0.0
 20
0.0
 30
0.0
  3
*D4
  1

  0
LINE
  5
32EC
330
2C0A
100
AcDbEntity
  8
SUNPO
 62
     0
370
    -2
100
AcDbLine
 10
247.1796026900392
 20
185.9725591664126
 30
0.0
 11
247.1796026900392
 21
194.3185766664126
 31
0.0
  0
LINE
  5
32ED
330
2C0A
100
AcDbEntity
  8
SUNPO
 62
     0
370
    -2
100
AcDbLine
 10
287.179602690039
 20
185.9725591664126
 30
0.0
 11
287.179602690039
 21
194.3185766664126
 31
0.0
  0
LINE
  5
32EE
330
2C0A
100
AcDbEntity
  8
SUNPO
 62
     0
370
    -2
100
AcDbLine
 10
248.7796026900391
 20
194.3185766664126
 30
0.0
 11
285.5796026900389
 21
194.3185766664126
 31
0.0
  0
INSERT
  5
32EF
330
2C0A
100
AcDbEntity
  8
SUNPO
 62
     0
370
    -2
100
AcDbBlockReference
  2
_DOT
 10
247.1796026900392
 20
194.3185766664126
 30
0.0
 41
1.6
 42
1.6
 43
1.6
 50
180.0
  0
INSERT
  5
32F0
330
2C0A
100
AcDbEntity
  8
SUNPO
 62
     0
370
    -2
100
AcDbBlockReference
  2
_DOT
 10
287.179602690039
 20
194.3185766664126
 30
0.0
 41
1.6
 42
1.6
 43
1.6
  0
MTEXT
  5
32F1
330
2C0A
100
AcDbEntity
  8
SUNPO
 62
     0
100
AcDbMText
 10
267.179602690039
 20
196.5185766664126
 30
0.0
 40
4.0
 41
0.0
 71
     5
 72
     1
  1
\A1;40
  7
MSゴシック
 73
     1
 44
1.0
1001
ACAD
1000
MTEXTBEGIN
1070
    73
1070
     1
1070
    44
1040
1.0
1070
    74
1070
     0
1000
MTEXTEND
  0
POINT
  5
32F2
330
2C0A
100
AcDbEntity
  8
Defpoints
 62
     0
100
AcDbPoint
 10
247.1796026900392
 20
183.9725591664126
 30
0.0
  0
POINT
  5
32F3
330
2C0A
100
AcDbEntity
  8
Defpoints
 62
     0
100
AcDbPoint
 10
287.179602690039
 20
183.9725591664126
 30
0.0
  0
POINT
  5
32F4
330
2C0A
100
AcDbEntity
  8
Defpoints
 62
     0
100
AcDbPoint
 10
287.179602690039
 20
194.3185766664126
 30
0.0
  0
ENDBLK
  5
2C15
330
2C0A
100
AcDbEntity
  8
0
100
AcDbBlockEnd
  0
BLOCK
  5
2C21
330
2C17
100
AcDbEntity
  8
0
100
AcDbBlockBegin
  2
*D5
 70
     1
 10
0.0
 20
0.0
 30
0.0
  3
*D5
  1

  0
LINE
  5
32F5
330
2C17
100
AcDbEntity
  8
SUNPO
 62
     0
370
    -2
100
AcDbLine
 10
287.7662777319681
 20
183.6225591664126
 30
0.0
 11
342.6657066006104
 21
183.6225591664126
 31
0.0
  0
LINE
  5
32F6
330
2C17
100
AcDbEntity
  8
SUNPO
 62
     0
370
    -2
100
AcDbLine
 10
317.5796026900392
 20
133.3225591664126
 30
0.0
 11
342.6657066006104
 21
133.3225591664126
 31
0.0
  0
LINE
  5
32F7
330
2C17
100
AcDbEntity
  8
SUNPO
 62
     0
370
    -2
100
AcDbLine
 10
342.6657066006104
 20
182.0225591664126
 30
0.0
 11
342.6657066006104
 21
134.9225591664126
 31
0.0
  0
INSERT
  5
32F8
330
2C17
100
AcDbEntity
  8
SUNPO
 62
     0
370
    -2
100
AcDbBlockReference
  2
_DOT
 10
342.6657066006104
 20
183.6225591664126
 30
0.0
 41
1.6
 42
1.6
 43
1.6
 50
90.0
  0
INSERT
  5
32F9
330
2C17
100
AcDbEntity
  8
SUNPO
 62
     0
370
    -2
100
AcDbBlockReference
  2
_DOT
 10
342.6657066006104
 20
133.3225591664126
 30
0.0
 41
1.6
 42
1.6
 43
1.6
 50
270.0
  0
MTEXT
  5
32FA
330
2C17
100
AcDbEntity
  8
SUNPO
 62
     0
100
AcDbMText
 10
344.8657066006103
 20
158.4725591664124
 30
0.0
 40
4.0
 41
0.0
 71
     5
 72
     1
  1
\A1;50.3
  7
MSゴシック
 11
0.0000000000000001
 21
1.0
 31
0.0
 73
     1
 44
1.0
1001
ACAD
1000
MTEXTBEGIN
1070
    73
1070
     1
1070
    44
1040
1.0
1070
    74
1070
     0
1000
MTEXTEND
  0
POINT
  5
32FB
330
2C17
100
AcDbEntity
  8
Defpoints
 62
     0
100
AcDbPoint
 10
285.7662777319681
 20
183.6225591664126
 30
0.0
  0
POINT
  5
32FC
330
2C17
100
AcDbEntity
  8
Defpoints
 62
     0
100
AcDbPoint
 10
315.5796026900392
 20
133.3225591664126
 30
0.0
  0
POINT
  5
32FD
330
2C17
100
AcDbEntity
  8
Defpoints
 62
     0
100
AcDbPoint
 10
342.6657066006104
 20
133.3225591664126
 30
0.0
  0
ENDBLK
  5
2C22
330
2C17
100
AcDbEntity
  8
0
100
AcDbBlockEnd
  0
BLOCK
  5
2C2E
330
2C24
100
AcDbEntity
  8
0
100
AcDbBlockBegin
  2
*D6
 70
     1
 10
0.0
 20
0.0
 30
0.0
  3
*D6
  1

  0
LINE
  5
32FE
330
2C24
100
AcDbEntity
  8
SUNPO
 62
     0
370
    -2
100
AcDbLine
 10
317.5796026900392
 20
133.3225591664126
 30
0.0
 11
335.8256847121659
 21
133.3225591664126
 31
0.0
  0
LINE
  5
32FF
330
2C24
100
AcDbEntity
  8
SUNPO
 62
     0
370
    -2
100
AcDbLine
 10
288.4296026900391
 20
183.2225591664126
 30
0.0
 11
335.8256847121659
 21
183.2225591664126
 31
0.0
  0
LINE
  5
3300
330
2C24
100
AcDbEntity
  8
SUNPO
 62
     0
370
    -2
100
AcDbLine
 10
335.8256847121659
 20
134.9225591664126
 30
0.0
 11
335.8256847121659
 21
181.6225591664126
 31
0.0
  0
INSERT
  5
3301
330
2C24
100
AcDbEntity
  8
SUNPO
 62
     0
370
    -2
100
AcDbBlockReference
  2
_DOT
 10
335.8256847121659
 20
133.3225591664126
 30
0.0
 41
1.6
 42
1.6
 43
1.6
 50
270.0
  0
INSERT
  5
3302
330
2C24
100
AcDbEntity
  8
SUNPO
 62
     0
370
    -2
100
AcDbBlockReference
  2
_DOT
 10
335.8256847121659
 20
183.2225591664126
 30
0.0
 41
1.6
 42
1.6
 43
1.6
 50
90.0
  0
MTEXT
  5
3303
330
2C24
100
AcDbEntity
  8
SUNPO
 62
     0
100
AcDbMText
 10
338.0256847121659
 20
158.2725591664125
 30
0.0
 40
4.0
 41
0.0
 71
     5
 72
     1
  1
\A1;49.9
  7
MSゴシック
 11
0.0000000000000001
 21
1.0
 31
0.0
 73
     1
 44
1.0
1001
ACAD
1000
MTEXTBEGIN
1070
    73
1070
     1
1070
    44
1040
1.0
1070
    74
1070
     0
1000
MTEXTEND
  0
POINT
  5
3304
330
2C24
100
AcDbEntity
  8
Defpoints
 62
     0
100
AcDbPoint
 10
315.5796026900392
 20
133.3225591664126
 30
0.0
  0
POINT
  5
3305
330
2C24
100
AcDbEntity
  8
Defpoints
 62
     0
100
AcDbPoint
 10
286.4296026900391
 20
183.2225591664126
 30
0.0
  0
POINT
  5
3306
330
2C24
100
AcDbEntity
  8
Defpoints
 62
     0
100
AcDbPoint
 10
335.8256847121659
 20
183.2225591664126
 30
0.0
  0
ENDBLK
  5
2C2F
330
2C24
100
AcDbEntity
  8
0
100
AcDbBlockEnd
  0
BLOCK
  5
3352
330
3350
100
AcDbEntity
  8
0
100
AcDbBlockBegin
  2
hf6-40
 70
     0
 10
0.0
 20
0.0
 30
0.0
  3
hf6-40
  1

  0
LINE
  5
3353
330
3350
100
AcDbEntity
  8
KANAMONO_SCREW
370
    -3
100
AcDbLine
 10
-2.75
 20
-7.5
 30
0.0
 11
-2.75
 21
-12.5
 31
0.0
  0
LINE
  5
3354
330
3350
100
AcDbEntity
  8
KANAMONO_SCREW
370
    -3
100
AcDbLine
 10
2.75
 20
-7.5
 30
0.0
 11
2.75
 21
-12.5
 31
0.0
  0
LINE
  5
3355
330
3350
100
AcDbEntity
  8
KANAMONO_SCREW
370
    -3
100
AcDbLine
 10
2.997471113091478
 20
-19.36340647345605
 30
0.0
 11
2.997471113091478
 21
-12.5
 31
0.0
  0
LINE
  5
3356
330
3350
100
AcDbEntity
  8
KANAMONO_SCREW
370
    -3
100
AcDbLine
 10
-2.997469864986214
 20
-19.36340647345605
 30
0.0
 11
-2.997469864986214
 21
-12.5
 31
0.0
  0
LINE
  5
3357
330
3350
100
AcDbEntity
  8
KANAMONO_SCREW
370
    -3
100
AcDbLine
 10
2.997471113091478
 20
-12.5
 30
0.0
 11
-2.997469864986214
 21
-12.5
 31
0.0
  0
ARC
  5
3358
330
3350
100
AcDbEntity
  8
KANAMONO_SCREW
370
    -3
100
AcDbCircle
 10
0.0
 20
-14.09999999999991
 30
0.0
 40
0.6
100
AcDbArc
 50
300.391260224242
 51
239.6087397757361
  0
LINE
  5
3359
330
3350
100
AcDbEntity
  8
KANAMONO_SCREW
370
    -3
100
AcDbLine
 10
0.303541315345683
 20
-37.5
 30
0.0
 11
0.303541315345683
 21
-14.6175545090889
 31
0.0
  0
LINE
  5
335A
330
3350
100
AcDbEntity
  8
KANAMONO_SCREW
370
    -3
100
AcDbLine
 10
-0.3035413153459103
 20
-35.60286677908925
 30
0.0
 11
-0.303541315345683
 21
-14.61755450908867
 31
0.0
  0
LINE
  5
335B
330
3350
100
AcDbEntity
  8
KANAMONO_SCREW
370
    -3
100
AcDbLine
 10
-0.303541315345683
 20
-33.62984822934232
 30
0.0
 11
0.303541315345683
 21
-33.62984822934232
 31
0.0
  0
LINE
  5
335C
330
3350
100
AcDbEntity
  8
KANAMONO_SCREW
370
    -3
100
AcDbLine
 10
-0.303541315345683
 20
-33.02276559865095
 30
0.0
 11
0.303541315345683
 21
-33.02276559865095
 31
0.0
  0
LINE
  5
335D
330
3350
100
AcDbEntity
  8
KANAMONO_SCREW
370
    -3
100
AcDbLine
 10
1.550000000000181
 20
-7.5
 30
0.0
 11
2.997471113091478
 21
-7.5
 31
0.0
  0
LINE
  5
335E
330
3350
100
AcDbEntity
  8
KANAMONO_SCREW
370
    -3
100
AcDbLine
 10
-2.997469864986214
 20
-7.5
 30
0.0
 11
-1.549999999999954
 21
-7.5
 31
0.0
  0
ARC
  5
335F
330
3350
100
AcDbEntity
  8
KANAMONO_SCREW
370
    -3
100
AcDbCircle
 10
-1.549999999999954
 20
-7.075000000000045
 30
0.0
 40
0.425
100
AcDbArc
 50
270.0
 51
90.0
  0
ARC
  5
3360
330
3350
100
AcDbEntity
  8
KANAMONO_SCREW
370
    -3
100
AcDbCircle
 10
1.549999999999954
 20
-7.075000000000045
 30
0.0
 40
0.425
100
AcDbArc
 50
90.0
 51
270.0
  0
LINE
  5
3361
330
3350
100
AcDbEntity
  8
KANAMONO_SCREW
370
    -3
100
AcDbLine
 10
1.549999999999954
 20
-6.649999999999863
 30
0.0
 11
2.997471113091478
 21
-6.649999999999863
 31
0.0
  0
LINE
  5
3362
330
3350
100
AcDbEntity
  8
KANAMONO_SCREW
370
    -3
100
AcDbLine
 10
-2.997469864986214
 20
-6.649999999999863
 30
0.0
 11
-1.549999999999954
 21
-6.649999999999863
 31
0.0
  0
LINE
  5
3363
330
3350
100
AcDbEntity
  8
KANAMONO_SCREW
370
    -3
100
AcDbLine
 10
1.549999999999954
 20
-6.149999999999863
 30
0.0
 11
2.997471113091478
 21
-6.149999999999863
 31
0.0
  0
LINE
  5
3364
330
3350
100
AcDbEntity
  8
KANAMONO_SCREW
370
    -3
100
AcDbLine
 10
-2.997469864986214
 20
-6.149999999999863
 30
0.0
 11
-1.549999999999954
 21
-6.149999999999863
 31
0.0
  0
LINE
  5
3365
330
3350
100
AcDbEntity
  8
KANAMONO_SCREW
370
    -3
100
AcDbLine
 10
1.549999999999954
 20
-5.649999999999863
 30
0.0
 11
2.997471113091478
 21
-5.649999999999863
 31
0.0
  0
LINE
  5
3366
330
3350
100
AcDbEntity
  8
KANAMONO_SCREW
370
    -3
100
AcDbLine
 10
-2.997469864986214
 20
-5.649999999999863
 30
0.0
 11
-1.549999999999954
 21
-5.649999999999863
 31
0.0
  0
LINE
  5
3367
330
3350
100
AcDbEntity
  8
KANAMONO_SCREW
370
    -3
100
AcDbLine
 10
1.549999999999954
 20
-5.149999999999863
 30
0.0
 11
2.997471113091478
 21
-5.149999999999863
 31
0.0
  0
LINE
  5
3368
330
3350
100
AcDbEntity
  8
KANAMONO_SCREW
370
    -3
100
AcDbLine
 10
-2.997469864986214
 20
-5.149999999999863
 30
0.0
 11
-1.549999999999954
 21
-5.149999999999863
 31
0.0
  0
LINE
  5
3369
330
3350
100
AcDbEntity
  8
KANAMONO_SCREW
370
    -3
100
AcDbLine
 10
1.549999999999954
 20
-4.649999999999863
 30
0.0
 11
2.997471113091478
 21
-4.649999999999863
 31
0.0
  0
LINE
  5
336A
330
3350
100
AcDbEntity
  8
KANAMONO_SCREW
370
    -3
100
AcDbLine
 10
-2.997469864986214
 20
-4.649999999999863
 30
0.0
 11
-1.549999999999954
 21
-4.649999999999863
 31
0.0
  0
LINE
  5
336B
330
3350
100
AcDbEntity
  8
KANAMONO_SCREW
370
    -3
100
AcDbLine
 10
1.549999999999954
 20
-4.149999999999863
 30
0.0
 11
2.997471113091478
 21
-4.149999999999863
 31
0.0
  0
LINE
  5
336C
330
3350
100
AcDbEntity
  8
KANAMONO_SCREW
370
    -3
100
AcDbLine
 10
-2.997469864986214
 20
-4.149999999999863
 30
0.0
 11
-1.549999999999954
 21
-4.149999999999863
 31
0.0
  0
LINE
  5
336D
330
3350
100
AcDbEntity
  8
KANAMONO_SCREW
370
    -3
100
AcDbLine
 10
1.549999999999954
 20
-3.649999999999863
 30
0.0
 11
2.997471113091478
 21
-3.649999999999863
 31
0.0
  0
LINE
  5
336E
330
3350
100
AcDbEntity
  8
KANAMONO_SCREW
370
    -3
100
AcDbLine
 10
-2.997469864986214
 20
-3.649999999999863
 30
0.0
 11
-1.549999999999954
 21
-3.649999999999863
 31
0.0
  0
LINE
  5
336F
330
3350
100
AcDbEntity
  8
KANAMONO_SCREW
370
    -3
100
AcDbLine
 10
1.549999999999954
 20
-3.149999999999863
 30
0.0
 11
2.997471113091478
 21
-3.149999999999863
 31
0.0
  0
LINE
  5
3370
330
3350
100
AcDbEntity
  8
KANAMONO_SCREW
370
    -3
100
AcDbLine
 10
-2.997469864986214
 20
-3.149999999999863
 30
0.0
 11
-1.549999999999954
 21
-3.149999999999863
 31
0.0
  0
LINE
  5
3371
330
3350
100
AcDbEntity
  8
KANAMONO_SCREW
370
    -3
100
AcDbLine
 10
1.549999999999954
 20
-2.649999999999863
 30
0.0
 11
2.997471113091478
 21
-2.649999999999863
 31
0.0
  0
LINE
  5
3372
330
3350
100
AcDbEntity
  8
KANAMONO_SCREW
370
    -3
100
AcDbLine
 10
-2.997469864986214
 20
-2.649999999999863
 30
0.0
 11
-1.549999999999954
 21
-2.649999999999863
 31
0.0
  0
LINE
  5
3373
330
3350
100
AcDbEntity
  8
KANAMONO_SCREW
370
    -3
100
AcDbLine
 10
1.549999999999954
 20
-2.200000000000045
 30
0.0
 11
2.997471113091478
 21
-2.200000000000045
 31
0.0
  0
LINE
  5
3374
330
3350
100
AcDbEntity
  8
KANAMONO_SCREW
370
    -3
100
AcDbLine
 10
-2.997469864986214
 20
-2.200000000000045
 30
0.0
 11
-1.549999999999954
 21
-2.200000000000045
 31
0.0
  0
LINE
  5
3375
330
3350
100
AcDbEntity
  8
KANAMONO_SCREW
370
    -3
100
AcDbLine
 10
2.997471113091478
 20
-7.5
 30
0.0
 11
2.997471113091478
 21
0.0
 31
0.0
  0
LINE
  5
3376
330
3350
100
AcDbEntity
  8
KANAMONO_SCREW
370
    -3
100
AcDbLine
 10
-2.997469864986214
 20
-7.5
 30
0.0
 11
-2.997469864986214
 21
0.0
 31
0.0
  0
LINE
  5
3377
330
3350
100
AcDbEntity
  8
KANAMONO_SCREW
370
    -3
100
AcDbLine
 10
1.550000000000181
 20
-7.5
 30
0.0
 11
1.550000000000181
 21
-10.45000000000004
 31
0.0
  0
LINE
  5
3378
330
3350
100
AcDbEntity
  8
KANAMONO_SCREW
370
    -3
100
AcDbLine
 10
-1.549999999999954
 20
-7.5
 30
0.0
 11
-1.549999999999954
 21
-10.45000000000004
 31
0.0
  0
LINE
  5
3379
330
3350
100
AcDbEntity
  8
KANAMONO_SCREW
370
    -3
100
AcDbLine
 10
1.549999999999954
 20
-2.049999999999954
 30
0.0
 11
1.549999999999954
 21
-6.649999999999863
 31
0.0
  0
LINE
  5
337A
330
3350
100
AcDbEntity
  8
KANAMONO_SCREW
370
    -3
100
AcDbLine
 10
-1.549999999999954
 20
-2.049999999999954
 30
0.0
 11
-1.549999999999954
 21
-6.649999999999863
 31
0.0
  0
ARC
  5
337B
330
3350
100
AcDbEntity
  8
KANAMONO_SCREW
370
    -3
100
AcDbCircle
 10
0.0
 20
-10.45000000000004
 30
0.0
 40
1.55
100
AcDbArc
 50
180.0
 51
0.0
  0
ARC
  5
337C
330
3350
100
AcDbEntity
  8
KANAMONO_SCREW
370
    -3
100
AcDbCircle
 10
0.0
 20
-2.049999999999954
 30
0.0
 40
1.55
100
AcDbArc
 50
0.0
 51
180.0
  0
LINE
  5
337D
330
3350
100
AcDbEntity
  8
KANAMONO_SCREW
370
    -3
100
AcDbLine
 10
-6.5
 20
1.0
 30
0.0
 11
-4.549999999999954
 21
2.5
 31
0.0
  0
LINE
  5
337E
330
3350
100
AcDbEntity
  8
KANAMONO_SCREW
370
    -3
100
AcDbLine
 10
4.549999999999954
 20
2.5
 30
0.0
 11
6.5
 21
1.0
 31
0.0
  0
LINE
  5
337F
330
3350
100
AcDbEntity
  8
KANAMONO_SCREW
370
    -3
100
AcDbLine
 10
-4.549999999999954
 20
2.5
 30
0.0
 11
4.549999999999954
 21
2.5
 31
0.0
  0
LINE
  5
3380
330
3350
100
AcDbEntity
  8
KANAMONO_SCREW
370
    -3
100
AcDbLine
 10
6.5
 20
1.0
 30
0.0
 11
6.5
 21
0.0
 31
0.0
  0
LINE
  5
3381
330
3350
100
AcDbEntity
  8
KANAMONO_SCREW
370
    -3
100
AcDbLine
 10
-6.5
 20
1.0
 30
0.0
 11
6.5
 21
1.0
 31
0.0
  0
LINE
  5
3382
330
3350
100
AcDbEntity
  8
KANAMONO_SCREW
370
    -3
100
AcDbLine
 10
-6.5
 20
1.0
 30
0.0
 11
-6.5
 21
0.0
 31
0.0
  0
LINE
  5
3383
330
3350
100
AcDbEntity
  8
KANAMONO_SCREW
370
    -3
100
AcDbLine
 10
-6.5
 20
0.0
 30
0.0
 11
6.5
 21
0.0
 31
0.0
  0
LINE
  5
3384
330
3350
100
AcDbEntity
  8
KANAMONO_SCREW
370
    -3
100
AcDbLine
 10
-3.845451859014701
 20
2.563049103665207
 30
0.0
 11
3.845451859014701
 21
2.563049103665207
 31
0.0
  0
ARC
  5
3385
330
3350
100
AcDbEntity
  8
KANAMONO_SCREW
370
    -3
100
AcDbCircle
 10
0.0
 20
1.913049103665343
 30
0.0
 40
3.900000000000005
100
AcDbArc
 50
170.4059317731384
 51
171.3440832872695
  0
ARC
  5
3386
330
3350
100
AcDbEntity
  8
KANAMONO_SCREW
370
    -3
100
AcDbCircle
 10
0.0
 20
1.913049103665343
 30
0.0
 40
3.900000000000005
100
AcDbArc
 50
8.655916712730483
 51
9.594068226861594
  0
LINE
  5
3387
330
3350
100
AcDbEntity
  8
KANAMONO_SCREW
370
    -3
100
AcDbLine
 10
0.0
 20
-45.73695089633474
 30
0.0
 11
0.0
 21
-38.28034643055366
 31
0.0
  0
LINE
  5
3388
330
3350
100
AcDbEntity
  8
KANAMONO_SCREW
370
    -3
100
AcDbLine
 10
1.756238311011884
 20
-37.73695089633475
 30
0.0
 11
-1.764285714285506
 21
-37.73695089633475
 31
0.0
  0
LINE
  5
3389
330
3350
100
AcDbEntity
  8
KANAMONO_SCREW
370
    -3
100
AcDbLine
 10
-1.75
 20
-37.73695089633475
 30
0.0
 11
-1.75
 21
-40.73695089633474
 31
0.0
  0
LINE
  5
338A
330
3350
100
AcDbEntity
  8
KANAMONO_SCREW
370
    -3
100
AcDbLine
 10
1.75
 20
-37.73695089633475
 30
0.0
 11
1.75
 21
-40.73695089633474
 31
0.0
  0
LINE
  5
338B
330
3350
100
AcDbEntity
  8
KANAMONO_SCREW
370
    -3
100
AcDbLine
 10
-1.75
 20
-40.73695089633474
 30
0.0
 11
1.75
 21
-40.73695089633474
 31
0.0
  0
ELLIPSE
  5
338C
330
3350
100
AcDbEntity
  8
KANAMONO_SCREW
370
    -3
100
AcDbEllipse
 10
-1.25
 20
-40.73695089633474
 30
0.0
 11
0.0000000000000027
 21
1.700000000000017
 31
0.0
210
0.0
220
0.0
230
1.0
 40
0.2941176470588373
 41
0.0
 42
1.570796326794863
  0
ELLIPSE
  5
338D
330
3350
100
AcDbEntity
  8
KANAMONO_SCREW
370
    -3
100
AcDbEllipse
 10
1.25
 20
-40.73695089633474
 30
0.0
 11
0.0000000000000027
 21
1.700000000000017
 31
0.0
210
0.0
220
0.0
230
1.0
 40
0.2941176470588038
 41
-1.570796326794896
 42
0.0
  0
ELLIPSE
  5
338E
330
3350
100
AcDbEntity
  8
KANAMONO_SCREW
370
    -3
100
AcDbEllipse
 10
1.25
 20
-40.73695089633474
 30
0.0
 11
0.0000000000000027
 21
1.700000000000017
 31
0.0
210
0.0
220
0.0
230
1.0
 40
0.7353489374659476
 41
0.0
 42
1.570796326794895
  0
ELLIPSE
  5
338F
330
3350
100
AcDbEntity
  8
KANAMONO_SCREW
370
    -3
100
AcDbEllipse
 10
-1.25
 20
-40.73695089633474
 30
0.0
 11
0.0000000000000027
 21
1.700000000000017
 31
0.0
210
0.0
220
0.0
230
1.0
 40
0.7352941176470348
 41
-1.559108661948553
 42
0.0
  0
LINE
  5
3390
330
3350
100
AcDbEntity
  8
KANAMONO_SCREW
370
    -3
100
AcDbLine
 10
1.75
 20
-40.73695089633474
 30
0.0
 11
0.0
 21
-45.73695089633474
 31
0.0
  0
LINE
  5
3391
330
3350
100
AcDbEntity
  8
KANAMONO_SCREW
370
    -3
100
AcDbLine
 10
0.0
 20
-45.73695089633474
 30
0.0
 11
-1.75
 21
-40.73695089633474
 31
0.0
  0
LINE
  5
3392
330
3350
100
AcDbEntity
  8
KANAMONO_SCREW
370
    -3
100
AcDbLine
 10
2.997465126966744
 20
-19.36340647345605
 30
0.0
 11
2.997161603100039
 21
-19.36513957642205
 31
0.0
  0
LINE
  5
3393
330
3350
100
AcDbEntity
  8
KANAMONO_SCREW
370
    -3
100
AcDbLine
 10
2.25
 20
-21.32551281565679
 30
0.0
 11
2.25
 21
-23.0817875864409
 31
0.0
  0
LINE
  5
3394
330
3350
100
AcDbEntity
  8
KANAMONO_SCREW
370
    -3
100
AcDbLine
 10
2.25
 20
-25.04389404538461
 30
0.0
 11
2.25
 21
-26.80016869942574
 31
0.0
  0
LINE
  5
3395
330
3350
100
AcDbEntity
  8
KANAMONO_SCREW
370
    -3
100
AcDbLine
 10
2.25
 20
-28.76227527511219
 30
0.0
 11
2.25
 21
-30.51854981241059
 31
0.0
  0
LINE
  5
3396
330
3350
100
AcDbEntity
  8
KANAMONO_SCREW
370
    -3
100
AcDbLine
 10
2.25
 20
-32.40477105926038
 30
0.0
 11
2.25
 21
-34.16104559655901
 31
0.0
  0
LINE
  5
3397
330
3350
100
AcDbEntity
  8
KANAMONO_SCREW
370
    -3
100
AcDbLine
 10
1.208052249623506
 20
-22.14651336424936
 30
0.0
 11
1.208052249623506
 21
-22.62647554806063
 31
0.0
  0
LINE
  5
3398
330
3350
100
AcDbEntity
  8
KANAMONO_SCREW
370
    -3
100
AcDbLine
 10
1.799999999999045
 20
-37.48695089633463
 30
0.0
 11
1.764285714285506
 21
-37.73695089633475
 31
0.0
  0
LINE
  5
3399
330
3350
100
AcDbEntity
  8
KANAMONO_SCREW
370
    -3
100
AcDbLine
 10
1.799999999999045
 20
-37.48695089633463
 30
0.0
 11
1.665439312529542
 21
-37.46965023651717
 31
0.0
  0
LWPOLYLINE
  5
339A
330
3350
100
AcDbEntity
  8
KANAMONO_SCREW
370
    -3
100
AcDbPolyline
 90
       39
 70
     0
 43
0.0
 10
2.997469864986214
 20
-15.95029906205491
 10
2.75099031142281
 20
-17.34633265393358
 10
1.4883701498145
 20
-18.00361110739527
 42
0.2592004735663025
 10
1.208052249623506
 20
-18.42813225126474
 10
1.208052249623506
 20
-18.90809443507578
 42
0.2036136011950793
 10
1.339735741728645
 20
-19.21805430880795
 42
0.1982842753974383
 10
1.70809732412431
 20
-19.36340647345605
 10
2.997471113091478
 20
-19.36340647345605
 10
2.69205229532622
 20
-21.09539495608919
 10
1.490608986478719
 20
-21.7208267557811
 42
0.257920399275152
 10
1.208052249623506
 20
-22.14651336424936
 10
1.208052249623506
 20
-22.62647554806063
 42
0.2036139203470236
 10
1.339735965989348
 20
-22.9364354217928
 42
0.1982836950201352
 10
1.708097665923105
 20
-23.0817875864409
 10
2.997465351227447
 20
-23.0817875864409
 10
2.692052519586923
 20
-24.81377606907404
 10
1.490609210739648
 20
-25.43920786876595
 42
0.2579203992749133
 10
1.208052473884208
 20
-25.8648944772342
 10
1.208052473884208
 20
-26.34485666104547
 42
0.2036139203458012
 10
1.339736190247549
 20
-26.65481653477377
 42
0.1982836950192671
 10
1.708097890183807
 20
-26.80016869942574
 10
2.997465575488149
 20
-26.80016869942574
 10
2.692052743847852
 20
-28.53215718205888
 10
1.490609435000351
 20
-29.15758898175079
 42
0.257920399274954
 10
1.208052698144911
 20
-29.58327559021905
 10
1.208052645906718
 20
-30.06323783939206
 42
0.2036275691502115
 10
1.339752932205556
 20
-30.37321423333856
 42
0.1982685003745556
 10
1.708097491553871
 20
-30.51854981241059
 10
2.997465799749079
 20
-30.51854981241059
 10
2.706785426637452
 20
-32.16698361698082
 10
1.490032062491536
 20
-32.80038532700314
 42
0.2582492780404442
 10
1.208052645906718
 20
-33.22577127425461
 10
1.208052698144911
 20
-33.70573355817874
 42
0.1922719400571094
 10
1.326266596907316
 20
-34.00178214530092
 42
0.2110160733286848
 10
1.708219614801237
 20
-34.16104559655901
 10
2.997466119571527
 20
-34.16104559655901
 10
2.742587178235908
 20
-35.60294719071249
 10
1.647916649894114
 20
-37.50000006536175
 10
0.0000000877653292
 20
-37.5
  0
LINE
  5
339B
330
3350
100
AcDbEntity
  8
KANAMONO_SCREW
370
    -3
100
AcDbLine
 10
0.303541315345683
 20
-35.60286677908925
 30
0.0
 11
2.742587178235908
 21
-35.60294719071249
 31
0.0
  0
LWPOLYLINE
  5
339C
330
3350
100
AcDbEntity
  8
KANAMONO_SCREW
370
    -3
100
AcDbPolyline
 90
        4
 70
     0
 43
0.0
 10
2.053378008476784
 20
-19.36340637648789
 42
-0.4141897041352463
 10
1.59359145704343
 20
-18.90809443507578
 10
1.593591460230982
 20
-18.22743324655255
 42
-0.279432028215579
 10
1.843138415527619
 20
-17.81893067494252
 42
-3.4148491111701
  0
LWPOLYLINE
  5
339D
330
3350
100
AcDbEntity
  8
KANAMONO_SCREW
370
    -3
100
AcDbPolyline
 90
        4
 70
     0
 43
0.0
 10
2.053378008476784
 20
-23.08178725221376
 42
-0.4141897041352463
 10
1.59359145704343
 20
-22.62647531080165
 10
1.593591460230982
 20
-21.94581412227842
 42
-0.279432028215579
 10
1.843138415527619
 20
-21.53731155066839
 42
-3.4148491111701
  0
LWPOLYLINE
  5
339E
330
3350
100
AcDbEntity
  8
KANAMONO_SCREW
370
    -3
100
AcDbPolyline
 90
        4
 70
     0
 43
0.0
 10
2.053378232737713
 20
-26.80016860245757
 42
-0.4141897041352463
 10
1.59359168130436
 20
-26.34485666104547
 10
1.593591684491912
 20
-25.66419547252224
 42
-0.279432028215579
 10
1.843138639788548
 20
-25.25569290091221
 42
-3.4148491111701
  0
LWPOLYLINE
  5
339F
330
3350
100
AcDbEntity
  8
KANAMONO_SCREW
370
    -3
100
AcDbPolyline
 90
        4
 70
     0
 43
0.0
 10
2.053378456998643
 20
-30.51854971544242
 42
-0.4141897041352463
 10
1.59359190556529
 20
-30.06323777403031
 10
1.593591908752841
 20
-29.38257658550708
 42
-0.279432028215579
 10
1.843138864049478
 20
-28.97407401389705
 42
-3.4148491111701
  0
LWPOLYLINE
  5
33A0
330
3350
100
AcDbEntity
  8
KANAMONO_SCREW
370
    -3
100
AcDbPolyline
 90
        4
 70
     0
 43
0.0
 10
2.053378456998643
 20
-34.16104549959084
 42
-0.4141897041352463
 10
1.59359190556529
 20
-33.70573355817874
 10
1.593591908752841
 20
-33.02507236965551
 42
-0.279432028215579
 10
1.843138864049478
 20
-32.61656979804548
 42
-3.4148491111701
  0
LWPOLYLINE
  5
33A1
330
3350
100
AcDbEntity
  8
KANAMONO_SCREW
370
    -3
100
AcDbPolyline
 90
        3
 70
     0
 43
0.0
 10
1.208052645906946
 20
-37.50000004791514
 10
1.208052645906718
 20
-33.99062720900065
 10
1.326266596907316
 20
-34.00178214530092
  0
LWPOLYLINE
  5
33A2
330
3350
100
AcDbEntity
  8
KANAMONO_SCREW
370
    -3
100
AcDbPolyline
 90
        3
 70
     0
 43
0.0
 10
1.208052645906718
 20
-33.22577127329874
 10
1.2080526459481
 20
-30.36198442103751
 10
1.339752932205556
 20
-30.37321423333856
  0
LWPOLYLINE
  5
33A3
330
3350
100
AcDbEntity
  8
KANAMONO_SCREW
370
    -3
100
AcDbPolyline
 90
        3
 70
     0
 43
0.0
 10
1.208052645906718
 20
-29.58327549010619
 10
1.208052645948555
 20
-26.64359457956107
 10
1.339736190247549
 20
-26.65481653477377
  0
LWPOLYLINE
  5
33A4
330
3350
100
AcDbEntity
  8
KANAMONO_SCREW
370
    -3
100
AcDbPolyline
 90
        3
 70
     0
 43
0.0
 10
1.208052421646016
 20
-25.86489437712135
 10
1.208052421687398
 20
-22.92521346657634
 10
1.339735965989348
 20
-22.9364354217928
  0
LWPOLYLINE
  5
33A5
330
3350
100
AcDbEntity
  8
KANAMONO_SCREW
370
    -3
100
AcDbPolyline
 90
        3
 70
     0
 43
0.0
 10
1.208052197385313
 20
-22.1465132641365
 10
1.208052197385313
 20
-19.2068323535882
 10
1.339735741728645
 20
-19.21805430880795
  0
LINE
  5
33A6
330
3350
100
AcDbEntity
  8
KANAMONO_SCREW
370
    -3
100
AcDbLine
 10
-2.997465126966744
 20
-19.36340647345605
 30
0.0
 11
-2.997161603100039
 21
-19.36513957642205
 31
0.0
  0
LINE
  5
33A7
330
3350
100
AcDbEntity
  8
KANAMONO_SCREW
370
    -3
100
AcDbLine
 10
-2.25
 20
-21.32551281565679
 30
0.0
 11
-2.25
 21
-23.0817875864409
 31
0.0
  0
LINE
  5
33A8
330
3350
100
AcDbEntity
  8
KANAMONO_SCREW
370
    -3
100
AcDbLine
 10
-2.25
 20
-25.04389404538461
 30
0.0
 11
-2.25
 21
-26.80016869942574
 31
0.0
  0
LINE
  5
33A9
330
3350
100
AcDbEntity
  8
KANAMONO_SCREW
370
    -3
100
AcDbLine
 10
-2.25
 20
-28.76227527511219
 30
0.0
 11
-2.25
 21
-30.51854981241059
 31
0.0
  0
LINE
  5
33AA
330
3350
100
AcDbEntity
  8
KANAMONO_SCREW
370
    -3
100
AcDbLine
 10
-2.25
 20
-32.40477105926038
 30
0.0
 11
-2.25
 21
-34.16104559655901
 31
0.0
  0
LINE
  5
33AB
330
3350
100
AcDbEntity
  8
KANAMONO_SCREW
370
    -3
100
AcDbLine
 10
-1.208052249623506
 20
-22.14651336424936
 30
0.0
 11
-1.208052249623506
 21
-22.62647554806063
 31
0.0
  0
LINE
  5
33AC
330
3350
100
AcDbEntity
  8
KANAMONO_SCREW
370
    -3
100
AcDbLine
 10
-1.799999999999045
 20
-37.48695089633463
 30
0.0
 11
-1.764285714285506
 21
-37.73695089633475
 31
0.0
  0
LINE
  5
33AD
330
3350
100
AcDbEntity
  8
KANAMONO_SCREW
370
    -3
100
AcDbLine
 10
-1.799999999999045
 20
-37.48695089633463
 30
0.0
 11
-1.665439312529542
 21
-37.46965023651717
 31
0.0
  0
LINE
  5
33AE
330
3350
100
AcDbEntity
  8
KANAMONO_SCREW
370
    -3
100
AcDbLine
 10
-0.303541315345683
 20
-35.60286677908925
 30
0.0
 11
-2.742587178235908
 21
-35.60294719071249
 31
0.0
  0
LWPOLYLINE
  5
33AF
330
3350
100
AcDbEntity
  8
KANAMONO_SCREW
370
    -3
100
AcDbPolyline
 90
        4
 70
     0
 43
0.0
 10
-2.053378008476784
 20
-19.36340637648789
 42
0.4141897041352463
 10
-1.59359145704343
 20
-18.90809443507578
 10
-1.593591460230982
 20
-18.22743324655255
 42
0.279432028215579
 10
-1.843138415527619
 20
-17.81893067494252
 42
3.4148491111701
  0
LWPOLYLINE
  5
33B0
330
3350
100
AcDbEntity
  8
KANAMONO_SCREW
370
    -3
100
AcDbPolyline
 90
        4
 70
     0
 43
0.0
 10
-2.053378008476784
 20
-23.08178725221376
 42
0.4141897041352463
 10
-1.59359145704343
 20
-22.62647531080165
 10
-1.593591460230982
 20
-21.94581412227842
 42
0.279432028215579
 10
-1.843138415527619
 20
-21.53731155066839
 42
3.4148491111701
  0
LWPOLYLINE
  5
33B1
330
3350
100
AcDbEntity
  8
KANAMONO_SCREW
370
    -3
100
AcDbPolyline
 90
        4
 70
     0
 43
0.0
 10
-2.053378232737713
 20
-26.80016860245757
 42
0.4141897041352463
 10
-1.59359168130436
 20
-26.34485666104547
 10
-1.593591684491912
 20
-25.66419547252224
 42
0.279432028215579
 10
-1.843138639788548
 20
-25.25569290091221
 42
3.4148491111701
  0
LWPOLYLINE
  5
33B2
330
3350
100
AcDbEntity
  8
KANAMONO_SCREW
370
    -3
100
AcDbPolyline
 90
        4
 70
     0
 43
0.0
 10
-2.053378456998643
 20
-30.51854971544242
 42
0.4141897041352463
 10
-1.59359190556529
 20
-30.06323777403031
 10
-1.593591908752841
 20
-29.38257658550708
 42
0.279432028215579
 10
-1.843138864049478
 20
-28.97407401389705
 42
3.4148491111701
  0
LWPOLYLINE
  5
33B3
330
3350
100
AcDbEntity
  8
KANAMONO_SCREW
370
    -3
100
AcDbPolyline
 90
        4
 70
     0
 43
0.0
 10
-2.053378456998643
 20
-34.16104549959084
 42
0.4141897041352463
 10
-1.59359190556529
 20
-33.70573355817874
 10
-1.593591908752841
 20
-33.02507236965551
 42
0.279432028215579
 10
-1.843138864049478
 20
-32.61656979804548
 42
3.4148491111701
  0
LWPOLYLINE
  5
33B4
330
3350
100
AcDbEntity
  8
KANAMONO_SCREW
370
    -3
100
AcDbPolyline
 90
        3
 70
     0
 43
0.0
 10
-1.208052645906946
 20
-37.50000004791514
 10
-1.208052645906718
 20
-33.99062720900065
 10
-1.326266596907316
 20
-34.00178214530092
  0
LWPOLYLINE
  5
33B5
330
3350
100
AcDbEntity
  8
KANAMONO_SCREW
370
    -3
100
AcDbPolyline
 90
        3
 70
     0
 43
0.0
 10
-1.208052645906718
 20
-33.22577127329874
 10
-1.2080526459481
 20
-30.36198442103751
 10
-1.339752932205556
 20
-30.37321423333856
  0
LWPOLYLINE
  5
33B6
330
3350
100
AcDbEntity
  8
KANAMONO_SCREW
370
    -3
100
AcDbPolyline
 90
        3
 70
     0
 43
0.0
 10
-1.208052645906718
 20
-29.58327549010619
 10
-1.208052645948555
 20
-26.64359457956107
 10
-1.339736190247549
 20
-26.65481653477377
  0
LWPOLYLINE
  5
33B7
330
3350
100
AcDbEntity
  8
KANAMONO_SCREW
370
    -3
100
AcDbPolyline
 90
        3
 70
     0
 43
0.0
 10
-1.208052421646016
 20
-25.86489437712135
 10
-1.208052421687398
 20
-22.92521346657634
 10
-1.339735965989348
 20
-22.9364354217928
  0
LWPOLYLINE
  5
33B8
330
3350
100
AcDbEntity
  8
KANAMONO_SCREW
370
    -3
100
AcDbPolyline
 90
        3
 70
     0
 43
0.0
 10
-1.208052197385313
 20
-22.1465132641365
 10
-1.208052197385313
 20
-19.2068323535882
 10
-1.339735741728645
 20
-19.21805430880795
  0
LWPOLYLINE
  5
33B9
330
3350
100
AcDbEntity
  8
KANAMONO_SCREW
370
    -3
100
AcDbPolyline
 90
       39
 70
     0
 43
0.0
 10
-2.99746484207867
 20
-15.95029838780647
 10
-2.750985602538321
 20
-17.34633203512806
 10
-1.488365588777696
 20
-18.00361077260277
 42
-0.2592004735663025
 10
-1.208047784078189
 20
-18.42813197952682
 10
-1.208047892040667
 20
-18.90809416333786
 42
-0.2036136011950793
 10
-1.339731453867898
 20
-19.21805400744915
 42
-0.1982842753974383
 10
-1.708093068958987
 20
-19.3634060892382
 10
-2.997466857926156
 20
-19.36340579920716
 10
-2.692048429753413
 20
-21.09539435054103
 10
-1.490605261590189
 20
-21.72082642048486
 42
-0.257920399275152
 10
-1.208048620488625
 20
-22.14651309251133
 10
-1.208048728451103
 20
-22.62647527632259
 42
-0.2036139203470236
 10
-1.339732514539036
 20
-22.93643512043388
 42
-0.1982836950201352
 10
-1.708094247168219
 20
-23.08178720222293
 10
-2.99746193247256
 20
-23.08178691219337
 10
-2.692049490424551
 20
-24.81377546352576
 10
-1.490606322261555
 20
-25.43920753346958
 42
-0.2579203992749133
 10
-1.208049681159764
 20
-25.86489420549594
 10
-1.208049789122242
 20
-26.34485638930721
 42
-0.2036139203458012
 10
-1.339733575207674
 20
-26.65481623341475
 42
-0.1982836950192671
 10
-1.708095307839357
 20
-26.80016831520766
 10
-2.997462993143699
 20
-26.80016802517798
 10
-2.692050551095917
 20
-28.53215657651038
 10
-1.490607382932694
 20
-29.15758864645431
 42
-0.257920399274954
 10
-1.208050741830902
 20
-29.58327531848068
 10
-1.208050797555188
 20
-30.06323756765369
 42
-0.2036275691502115
 10
-1.339751153579982
 20
-30.37321393197556
 42
-0.1982685003745556
 10
-1.708095745619857
 20
-30.51854942819239
 10
-2.997464053815065
 20
-30.51854913816271
 10
-2.706784051501244
 20
-32.16698300811834
 10
-1.490030829832221
 20
-32.80038499183638
 42
-0.2582492780404442
 10
-1.208051508933522
 20
-33.22577100251613
 10
-1.208051669134192
 20
-33.70573328644025
 42
-0.1922719400571094
 10
-1.326265634489573
 20
-34.00178184697143
 42
-0.2110160733286848
 10
-1.708218688208035
 20
-34.1610452123133
 10
-2.997465192978324
 20
-34.16104492231091
 10
-2.742586575983295
 20
-35.60294657379677
 10
-1.647916474363455
 20
-37.49999969468035
 10
0.0000000877651019
 20
-37.5
  0
ENDBLK
  5
33BA
330
3350
100
AcDbEntity
  8
0
100
AcDbBlockEnd
  0
ENDSEC
  0
SECTION
  2
ENTITIES
  0
LINE
  5
29C1
330
1F
100
AcDbEntity
  8
moji
100
AcDbLine
 10
154.7496692999999
 20
235.0000000000001
 30
0.0
 11
154.7496692999999
 21
263.0000000000001
 31
0.0
  0
LINE
  5
29C2
330
1F
100
AcDbEntity
  8
moji
100
AcDbLine
 10
194.7496692999999
 20
235.0000000000001
 30
0.0
 11
194.7496692999999
 21
263.0000000000001
 31
0.0
  0
LINE
  5
29C3
330
1F
100
AcDbEntity
  8
moji
100
AcDbLine
 10
154.7496692999999
 20
235.0000000000001
 30
0.0
 11
329.7496692999999
 21
235.0000000000001
 31
0.0
  0
TEXT
  5
29C5
330
1F
100
AcDbEntity
  8
moji
100
AcDbText
 10
157.2496692999999
 20
243.5000000000001
 30
0.0
 40
4.0
  1
表面処理　標準
  7
MSゴシック
100
AcDbText
  0
TEXT
  5
29C6
330
1F
100
AcDbEntity
  8
moji
100
AcDbText
 10
197.2496692999999
 20
250.5000000000002
 30
0.0
 40
4.0
  1
A6063S-T5
  7
MSゴシック
100
AcDbText
  0
TEXT
  5
29C7
330
1F
100
AcDbEntity
  8
moji
100
AcDbText
 10
157.2496692999999
 20
250.5000000000002
 30
0.0
 40
4.0
  1
材質
  7
MSゴシック
100
AcDbText
  0
LINE
  5
29C8
330
1F
100
AcDbEntity
  8
moji
100
AcDbLine
 10
154.7496692999999
 20
249.0000000000001
 30
0.0
 11
329.7496692999999
 21
249.0000000000001
 31
0.0
  0
LINE
  5
29C9
330
1F
100
AcDbEntity
  8
moji
100
AcDbLine
 10
154.7496692999999
 20
256.0000000000001
 30
0.0
 11
329.7496692999999
 21
256.0000000000001
 31
0.0
  0
LINE
  5
29CB
330
1F
100
AcDbEntity
  8
moji
100
AcDbLine
 10
329.7496692999999
 20
235.0000000000003
 30
0.0
 11
329.7496692999998
 21
263.0000000000001
 31
0.0
  0
TEXT
  5
29CC
330
1F
100
AcDbEntity
  8
moji
100
AcDbText
 10
157.2496692999999
 20
264.5000000000002
 30
0.0
 40
4.0
  1
アルミ中間桟木50S
  7
MSゴシック
100
AcDbText
  0
LINE
  5
29CD
330
1F
100
AcDbEntity
  8
moji
100
AcDbLine
 10
154.7496692999999
 20
263.0000000000001
 30
0.0
 11
329.7496692999999
 21
263.0000000000001
 31
0.0
  0
TEXT
  5
29CE
330
1F
100
AcDbEntity
  8
moji
100
AcDbText
 10
197.2496692999999
 20
257.5000000000001
 30
0.0
 40
4.0
  1
本体
  7
MSゴシック
100
AcDbText
  0
LINE
  5
29CF
330
1F
100
AcDbEntity
  8
moji
100
AcDbLine
 10
154.7496693
 20
210.5000000000001
 30
0.0
 11
154.7496693
 21
231.5000000000003
 31
0.0
  0
LINE
  5
29D0
330
1F
100
AcDbEntity
  8
moji
100
AcDbLine
 10
194.7496692999999
 20
210.5000000000001
 30
0.0
 11
194.7496692999999
 21
231.5000000000003
 31
0.0
  0
LINE
  5
29D1
330
1F
100
AcDbEntity
  8
moji
100
AcDbLine
 10
154.7496692999999
 20
210.5000000000001
 30
0.0
 11
329.7496692999999
 21
210.5000000000001
 31
0.0
  0
LINE
  5
29D2
330
1F
100
AcDbEntity
  8
moji
100
AcDbLine
 10
154.7496692999999
 20
231.5000000000003
 30
0.0
 11
329.7496692999999
 21
231.5000000000001
 31
0.0
  0
LINE
  5
29D3
330
1F
100
AcDbEntity
  8
moji
100
AcDbLine
 10
228.4996693
 20
210.5000000000001
 30
0.0
 11
228.4996693
 21
231.5000000000003
 31
0.0
  0
LINE
  5
29D4
330
1F
100
AcDbEntity
  8
moji
100
AcDbLine
 10
329.7496692999999
 20
210.5000000000001
 30
0.0
 11
329.7496692999999
 21
231.5000000000003
 31
0.0
  0
TEXT
  5
29D5
330
1F
100
AcDbEntity
  8
moji
100
AcDbText
 10
157.2496693
 20
226.0000000000002
 30
0.0
 40
4.0
  1
規格(mm)
  7
MSゴシック
100
AcDbText
  0
TEXT
  5
29D6
330
1F
100
AcDbEntity
  8
moji
100
AcDbText
 10
197.2496692999999
 20
226.0000000000004
 30
0.0
 40
4.0
  1
長さ
  7
MSゴシック
100
AcDbText
  0
TEXT
  5
29D7
330
1F
100
AcDbEntity
  8
moji
100
AcDbText
 10
264.7496692999999
 20
219.0000000000001
 30
0.0
 40
4.0
  1
数量
  7
MSゴシック
100
AcDbText
  0
TEXT
  5
29D8
330
1F
100
AcDbEntity
  8
moji
100
AcDbText
 10
264.7496692999999
 20
212.0000000000001
 30
0.0
 40
4.0
  1
700
  7
MSゴシック
100
AcDbText
  0
TEXT
  5
29D9
330
1F
100
AcDbEntity
  8
moji
100
AcDbText
 10
197.2496693
 20
212.0000000000003
 30
0.0
 40
4.0
  1
2000
  7
MSゴシック
100
AcDbText
  0
TEXT
  5
29DA
330
1F
100
AcDbEntity
  8
moji
100
AcDbText
 10
264.7496692999999
 20
226.0000000000002
 30
0.0
 40
4.0
  1
ビス穴
  7
MSゴシック
100
AcDbText
  0
LINE
  5
29DB
330
1F
100
AcDbEntity
  8
moji
100
AcDbLine
 10
295.9996692999999
 20
210.5
 30
0.0
 11
295.9996692999999
 21
224.5000000000003
 31
0.0
  0
LINE
  5
29DC
330
1F
100
AcDbEntity
  8
moji
100
AcDbLine
 10
194.7496692999999
 20
217.5000000000002
 30
0.0
 11
329.7496692999999
 21
217.5000000000002
 31
0.0
  0
LINE
  5
29DD
330
1F
100
AcDbEntity
  8
moji
100
AcDbLine
 10
262.2496692999999
 20
210.5000000000001
 30
0.0
 11
262.2496692999999
 21
231.5000000000003
 31
0.0
  0
LINE
  5
29DE
330
1F
100
AcDbEntity
  8
moji
100
AcDbLine
 10
262.2496692999999
 20
224.5000000000003
 30
0.0
 11
329.7496692999999
 21
224.5000000000001
 31
0.0
  0
TEXT
  5
29DF
330
1F
100
AcDbEntity
  8
moji
100
AcDbText
 10
298.4996692999999
 20
219.0000000000003
 30
0.0
 40
4.0
  1
間隔
  7
MSゴシック
100
AcDbText
  0
TEXT
  5
29E0
330
1F
100
AcDbEntity
  8
moji
100
AcDbText
 10
298.4996692999999
 20
212.0000000000001
 30
0.0
 40
4.0
  1
300
  7
MSゴシック
100
AcDbText
  0
TEXT
  5
29E1
330
1F
100
AcDbEntity
  8
moji
100
AcDbText
 10
230.9996692999999
 20
212.0000000000001
 30
0.0
 40
4.0
  1
1.2(一部1.1)
  7
MSゴシック
100
AcDbText
  0
TEXT
  5
29E2
330
1F
100
AcDbEntity
  8
moji
100
AcDbText
 10
230.9996692999999
 20
226.0000000000004
 30
0.0
 40
4.0
  1
厚さ
  7
MSゴシック
100
AcDbText
  0
TEXT
  5
2D7D
330
1F
100
AcDbEntity
  8
moji
100
AcDbText
 10
197.2496692999998
 20
243.5
 30
0.0
 40
4.0
  1
JIS H 8602-2010 A1種
  7
MSゴシック
100
AcDbText
  0
LINE
  5
2E5A
330
1F
100
AcDbEntity
  8
0
100
AcDbLine
 10
0.0
 20
369.9999999999997
 30
0.0
 11
552.0000000000001
 21
369.999999999999
 31
0.0
  0
TEXT
  5
2E5B
330
1F
100
AcDbEntity
  8
WAKU
100
AcDbText
 10
529.507614213198
 20
372.0000000000001
 30
0.0
 40
6.0
  1
ch-50
  7
MSゴシック
 72
     2
 11
549.0000000000001
 21
372.0000000000001
 31
0.0
100
AcDbText
  0
TEXT
  5
2E5D
330
1F
100
AcDbEntity
  8
WAKU
100
AcDbText
 10
3.0
 20
372.0000000000001
 30
0.0
 40
8.0
  1
アルミ雨仕舞材／勾配屋根用
  7
MSゴシック
100
AcDbText
  0
TEXT
  5
2E5E
330
1F
100
AcDbEntity
  8
WAKU
100
AcDbText
 10
3.0
 20
360.0000000000008
 30
0.0
 40
6.0
  1
アルミ中間桟木５０Ｓ／断熱ズレ止め桟木 ５０ｍｍ用
  7
MSゴシック
100
AcDbText
  0
TEXT
  5
2E5F
330
1F
100
AcDbEntity
  8
WAKU
100
AcDbText
 10
521.7106598984773
 20
360.000000000001
 30
0.0
 40
6.0
  1
1/2(A4)
  7
MSゴシック
 72
     2
 11
549.0000000000001
 21
360.000000000001
 31
0.0
100
AcDbText
  0
LINE
  5
340B
330
1F
100
AcDbEntity
  8
0
100
AcDbLine
 10
96.00000000000001
 20
59.00000000000002
 30
0.0
 11
456.0
 21
59.00000000000002
 31
0.0
  0
LINE
  5
340C
330
1F
100
AcDbEntity
  8
0
100
AcDbLine
 10
456.0
 20
59.00000000000002
 30
0.0
 11
456.0
 21
299.0
 31
0.0
  0
LINE
  5
340D
330
1F
100
AcDbEntity
  8
0
100
AcDbLine
 10
456.0
 20
299.0
 30
0.0
 11
96.00000000000001
 21
299.0
 31
0.0
  0
LINE
  5
340E
330
1F
100
AcDbEntity
  8
0
100
AcDbLine
 10
96.00000000000001
 20
299.0
 30
0.0
 11
96.00000000000001
 21
59.00000000000002
 31
0.0
  0
LINE
  5
340F
330
1F
100
AcDbEntity
  8
SUNPO
100
AcDbLine
 10
247.1796026900391
 20
181.9725591664125
 30
0.0
 11
247.1796026900391
 21
85.67087720015823
 31
0.0
  0
LINE
  5
3410
330
1F
100
AcDbEntity
  8
SUNPO
100
AcDbLine
 10
271.1796026900391
 20
130.3725591664125
 30
0.0
 11
271.1796026900391
 21
85.67087720015823
 31
0.0
  0
LINE
  5
3411
330
1F
100
AcDbEntity
  8
SUNPO
100
AcDbLine
 10
248.7796026900391
 20
85.67087720015823
 30
0.0
 11
269.579602690039
 21
85.67087720015823
 31
0.0
  0
INSERT
  5
3412
330
1F
100
AcDbEntity
  8
SUNPO
100
AcDbBlockReference
  2
_DOT
 10
247.1796026900391
 20
85.67087720015823
 30
0.0
 41
1.6
 42
1.6
 43
1.6
 50
180.0
  0
INSERT
  5
3413
330
1F
100
AcDbEntity
  8
SUNPO
100
AcDbBlockReference
  2
_DOT
 10
271.1796026900391
 20
85.67087720015823
 30
0.0
 41
1.6
 42
1.6
 43
1.6
  0
MTEXT
  5
3414
330
1F
100
AcDbEntity
  8
SUNPO
100
AcDbMText
 10
259.1796026900391
 20
83.47087720015823
 30
0.0
 40
4.0
 41
0.0
 71
     5
 72
     1
  1
\A1;24
  7
MSゴシック
 73
     1
 44
1.0
1001
ACAD
1000
MTEXTBEGIN
1070
    73
1070
     1
1070
    44
1040
1.0
1070
    74
1070
     0
1000
MTEXTEND
  0
LINE
  5
3415
330
1F
100
AcDbEntity
  8
SUNPO
100
AcDbLine
 10
271.1796026900391
 20
130.3725591664125
 30
0.0
 11
271.1796026900391
 21
85.67087720015823
 31
0.0
  0
LINE
  5
3416
330
1F
100
AcDbEntity
  8
SUNPO
100
AcDbLine
 10
316.1796026900391
 20
130.7225591664125
 30
0.0
 11
316.1796026900391
 21
85.67087720015823
 31
0.0
  0
LINE
  5
3417
330
1F
100
AcDbEntity
  8
SUNPO
100
AcDbLine
 10
272.7796026900391
 20
85.67087720015823
 30
0.0
 11
314.5796026900391
 21
85.67087720015823
 31
0.0
  0
INSERT
  5
3418
330
1F
100
AcDbEntity
  8
SUNPO
100
AcDbBlockReference
  2
_DOT
 10
271.1796026900391
 20
85.67087720015823
 30
0.0
 41
1.6
 42
1.6
 43
1.6
 50
180.0
  0
INSERT
  5
3419
330
1F
100
AcDbEntity
  8
SUNPO
100
AcDbBlockReference
  2
_DOT
 10
316.1796026900391
 20
85.67087720015823
 30
0.0
 41
1.6
 42
1.6
 43
1.6
  0
MTEXT
  5
341A
330
1F
100
AcDbEntity
  8
SUNPO
100
AcDbMText
 10
293.6796026900391
 20
83.47087720015823
 30
0.0
 40
4.0
 41
0.0
 71
     5
 72
     1
  1
\A1;45
  7
MSゴシック
 73
     1
 44
1.0
1001
ACAD
1000
MTEXTBEGIN
1070
    73
1070
     1
1070
    44
1040
1.0
1070
    74
1070
     0
1000
MTEXTEND
  0
LINE
  5
341B
330
1F
100
AcDbEntity
  8
SUNPO
100
AcDbLine
 10
247.1796026900392
 20
185.9725591664126
 30
0.0
 11
247.1796026900392
 21
194.3185766664126
 31
0.0
  0
LINE
  5
341C
330
1F
100
AcDbEntity
  8
SUNPO
100
AcDbLine
 10
287.179602690039
 20
185.9725591664126
 30
0.0
 11
287.179602690039
 21
194.3185766664126
 31
0.0
  0
LINE
  5
341D
330
1F
100
AcDbEntity
  8
SUNPO
100
AcDbLine
 10
248.7796026900391
 20
194.3185766664126
 30
0.0
 11
285.5796026900389
 21
194.3185766664126
 31
0.0
  0
INSERT
  5
341E
330
1F
100
AcDbEntity
  8
SUNPO
100
AcDbBlockReference
  2
_DOT
 10
247.1796026900392
 20
194.3185766664126
 30
0.0
 41
1.6
 42
1.6
 43
1.6
 50
180.0
  0
INSERT
  5
341F
330
1F
100
AcDbEntity
  8
SUNPO
100
AcDbBlockReference
  2
_DOT
 10
287.179602690039
 20
194.3185766664126
 30
0.0
 41
1.6
 42
1.6
 43
1.6
  0
MTEXT
  5
3420
330
1F
100
AcDbEntity
  8
SUNPO
100
AcDbMText
 10
267.179602690039
 20
196.5185766664126
 30
0.0
 40
4.0
 41
0.0
 71
     5
 72
     1
  1
\A1;40
  7
MSゴシック
 73
     1
 44
1.0
1001
ACAD
1000
MTEXTBEGIN
1070
    73
1070
     1
1070
    44
1040
1.0
1070
    74
1070
     0
1000
MTEXTEND
  0
LINE
  5
3421
330
1F
100
AcDbEntity
  8
SUNPO
100
AcDbLine
 10
287.7662777319681
 20
183.6225591664126
 30
0.0
 11
342.6657066006104
 21
183.6225591664126
 31
0.0
  0
LINE
  5
3422
330
1F
100
AcDbEntity
  8
SUNPO
100
AcDbLine
 10
317.5796026900392
 20
133.3225591664126
 30
0.0
 11
342.6657066006104
 21
133.3225591664126
 31
0.0
  0
LINE
  5
3423
330
1F
100
AcDbEntity
  8
SUNPO
100
AcDbLine
 10
342.6657066006104
 20
182.0225591664126
 30
0.0
 11
342.6657066006104
 21
134.9225591664126
 31
0.0
  0
INSERT
  5
3424
330
1F
100
AcDbEntity
  8
SUNPO
100
AcDbBlockReference
  2
_DOT
 10
342.6657066006104
 20
183.6225591664126
 30
0.0
 41
1.6
 42
1.6
 43
1.6
 50
90.0
  0
INSERT
  5
3425
330
1F
100
AcDbEntity
  8
SUNPO
100
AcDbBlockReference
  2
_DOT
 10
342.6657066006104
 20
133.3225591664126
 30
0.0
 41
1.6
 42
1.6
 43
1.6
 50
270.0
  0
MTEXT
  5
3426
330
1F
100
AcDbEntity
  8
SUNPO
100
AcDbMText
 10
344.8657066006103
 20
158.4725591664124
 30
0.0
 40
4.0
 41
0.0
 71
     5
 72
     1
  1
\A1;50.3
  7
MSゴシック
 11
0.0000000000000001
 21
1.0
 31
0.0
 73
     1
 44
1.0
1001
ACAD
1000
MTEXTBEGIN
1070
    73
1070
     1
1070
    44
1040
1.0
1070
    74
1070
     0
1000
MTEXTEND
  0
LINE
  5
3427
330
1F
100
AcDbEntity
  8
SUNPO
100
AcDbLine
 10
317.5796026900392
 20
133.3225591664126
 30
0.0
 11
335.8256847121659
 21
133.3225591664126
 31
0.0
  0
LINE
  5
3428
330
1F
100
AcDbEntity
  8
SUNPO
100
AcDbLine
 10
288.4296026900391
 20
183.2225591664126
 30
0.0
 11
335.8256847121659
 21
183.2225591664126
 31
0.0
  0
LINE
  5
3429
330
1F
100
AcDbEntity
  8
SUNPO
100
AcDbLine
 10
335.8256847121659
 20
134.9225591664126
 30
0.0
 11
335.8256847121659
 21
181.6225591664126
 31
0.0
  0
INSERT
  5
342A
330
1F
100
AcDbEntity
  8
SUNPO
100
AcDbBlockReference
  2
_DOT
 10
335.8256847121659
 20
133.3225591664126
 30
0.0
 41
1.6
 42
1.6
 43
1.6
 50
270.0
  0
INSERT
  5
342B
330
1F
100
AcDbEntity
  8
SUNPO
100
AcDbBlockReference
  2
_DOT
 10
335.8256847121659
 20
183.2225591664126
 30
0.0
 41
1.6
 42
1.6
 43
1.6
 50
90.0
  0
MTEXT
  5
342C
330
1F
100
AcDbEntity
  8
SUNPO
100
AcDbMText
 10
338.0256847121659
 20
158.2725591664125
 30
0.0
 40
4.0
 41
0.0
 71
     5
 72
     1
  1
\A1;49.9
  7
MSゴシック
 11
0.0000000000000001
 21
1.0
 31
0.0
 73
     1
 44
1.0
1001
ACAD
1000
MTEXTBEGIN
1070
    73
1070
     1
1070
    44
1040
1.0
1070
    74
1070
     0
1000
MTEXTEND
  0
ARC
  5
342D
330
1F
100
AcDbEntity
  8
KANAMONO
 62
     5
100
AcDbCircle
 39
-1000.0
 10
272.4296026900391
 20
133.5725591664125
 30
0.0
 40
0.25
100
AcDbArc
 50
180.0
 51
270.0
  0
LINE
  5
342E
330
1F
100
AcDbEntity
  8
KANAMONO
 62
     5
100
AcDbLine
 39
-1000.0
 10
272.1796026900391
 20
133.5725591664125
 30
0.0
 11
272.1796026900391
 21
183.1225591664125
 31
0.0
  0
ARC
  5
342F
330
1F
100
AcDbEntity
  8
KANAMONO
 62
     5
100
AcDbCircle
 39
-1000.0
 10
272.6796026900391
 20
183.1225591664125
 30
0.0
 40
0.5
100
AcDbArc
 50
90.0
 51
180.0
  0
LINE
  5
3430
330
1F
100
AcDbEntity
  8
KANAMONO
 62
     5
100
AcDbLine
 39
-1000.0
 10
272.6796026900391
 20
183.6225591664125
 30
0.0
 11
285.766277731968
 21
183.6225591664125
 31
0.0
  0
ARC
  5
3431
330
1F
100
AcDbEntity
  8
KANAMONO
 62
     5
100
AcDbCircle
 39
-1000.0
 10
286.4296026900391
 20
183.9725591664126
 30
0.0
 40
0.7500000000000166
100
AcDbArc
 50
207.8181392846552
 51
90.0
  0
LINE
  5
3432
330
1F
100
AcDbEntity
  8
KANAMONO
 62
     5
100
AcDbLine
 39
-1000.0
 10
286.4296026900391
 20
184.7225591664125
 30
0.0
 11
247.9296026900391
 21
184.7225591664125
 31
0.0
  0
ARC
  5
3433
330
1F
100
AcDbEntity
  8
KANAMONO
 62
     5
100
AcDbCircle
 39
-1000.0
 10
247.9296026900391
 20
183.9725591664126
 30
0.0
 40
0.7499999999999716
100
AcDbArc
 50
90.0
 51
332.1818607153438
  0
LINE
  5
3434
330
1F
100
AcDbEntity
  8
KANAMONO
 62
     5
100
AcDbLine
 39
-1000.0
 10
248.5929276481102
 20
183.6225591664125
 30
0.0
 11
270.6796026900391
 21
183.6225591664125
 31
0.0
  0
ARC
  5
3435
330
1F
100
AcDbEntity
  8
KANAMONO
 62
     5
100
AcDbCircle
 39
-1000.0
 10
270.6796026900391
 20
183.1225591664125
 30
0.0
 40
0.5
100
AcDbArc
 50
0.0
 51
90.0
  0
LINE
  5
3436
330
1F
100
AcDbEntity
  8
KANAMONO
 62
     5
100
AcDbLine
 39
-1000.0
 10
271.1796026900391
 20
183.1225591664125
 30
0.0
 11
271.1796026900391
 21
132.3725591664125
 31
0.0
  0
ARC
  5
3437
330
1F
100
AcDbEntity
  8
KANAMONO
 62
     5
100
AcDbCircle
 39
-1000.0
 10
271.4296026900391
 20
132.3725591664125
 30
0.0
 40
0.25
100
AcDbArc
 50
180.0
 51
270.0
  0
LINE
  5
3438
330
1F
100
AcDbEntity
  8
KANAMONO
 62
     5
100
AcDbLine
 39
-1000.0
 10
271.4296026900391
 20
132.1225591664125
 30
0.0
 11
315.579602690039
 21
132.1225591664125
 31
0.0
  0
ARC
  5
3439
330
1F
100
AcDbEntity
  8
KANAMONO
 62
     5
100
AcDbCircle
 39
-1000.0
 10
315.579602690039
 20
132.7225591664126
 30
0.0
 40
0.6000000000000228
100
AcDbArc
 50
270.0
 51
359.9999999999973
  0
ARC
  5
343A
330
1F
100
AcDbEntity
  8
KANAMONO
 62
     5
100
AcDbCircle
 39
-1000.0
 10
315.579602690039
 20
132.7225591664125
 30
0.0
 40
0.6000000000000228
100
AcDbArc
 50
0.0000000000027141
 51
90.0
  0
LINE
  5
343B
330
1F
100
AcDbEntity
  8
KANAMONO
 62
     5
100
AcDbLine
 39
-1000.0
 10
315.579602690039
 20
133.3225591664125
 30
0.0
 11
296.4796026900391
 21
133.3225591664125
 31
0.0
  0
LINE
  5
343C
330
1F
100
AcDbEntity
  8
KANAMONO
 62
     5
100
AcDbLine
 39
-1000.0
 10
296.4796026900391
 20
133.3225591664125
 30
0.0
 11
296.1796026900391
 21
133.0225591664125
 31
0.0
  0
LINE
  5
343D
330
1F
100
AcDbEntity
  8
KANAMONO
 62
     5
100
AcDbLine
 39
-1000.0
 10
296.1796026900391
 20
133.0225591664125
 30
0.0
 11
295.8796026900391
 21
133.3225591664125
 31
0.0
  0
LINE
  5
343E
330
1F
100
AcDbEntity
  8
KANAMONO
 62
     5
100
AcDbLine
 39
-1000.0
 10
295.8796026900391
 20
133.3225591664125
 30
0.0
 11
272.4296026900391
 21
133.3225591664125
 31
0.0
  0
LINE
  5
343F
330
1F
100
AcDbEntity
  8
WAKU
100
AcDbLine
 10
552.0000000000001
 20
358.0
 30
0.0
 11
0.0
 21
358.0
 31
0.0
  0
LINE
  5
3440
330
1F
100
AcDbEntity
  8
WAKU
100
AcDbLine
 10
0.0
 20
358.0
 30
0.0
 11
0.0
 21
382.0000000000001
 31
0.0
  0
LINE
  5
3441
330
1F
100
AcDbEntity
  8
WAKU
100
AcDbLine
 10
0.0
 20
382.0000000000001
 30
0.0
 11
552.0000000000001
 21
382.0000000000001
 31
0.0
  0
LINE
  5
3442
330
1F
100
AcDbEntity
  8
WAKU
100
AcDbLine
 10
552.0000000000001
 20
382.0000000000001
 30
0.0
 11
552.0000000000001
 21
358.0
 31
0.0
  0
LINE
  5
3443
330
1F
100
AcDbEntity
  8
WAKU
100
AcDbLine
 10
0.0
 20
0.0
 30
0.0
 11
552.0000000000001
 21
0.0
 31
0.0
  0
LINE
  5
3444
330
1F
100
AcDbEntity
  8
WAKU
100
AcDbLine
 10
552.0000000000001
 20
0.0
 30
0.0
 11
552.0000000000001
 21
382.0000000000001
 31
0.0
  0
LINE
  5
3445
330
1F
100
AcDbEntity
  8
WAKU
100
AcDbLine
 10
552.0000000000001
 20
382.0000000000001
 30
0.0
 11
0.0
 21
382.0000000000001
 31
0.0
  0
LINE
  5
3446
330
1F
100
AcDbEntity
  8
WAKU
100
AcDbLine
 10
0.0
 20
382.0000000000001
 30
0.0
 11
0.0
 21
0.0
 31
0.0
  0
LINE
  5
3447
330
1F
100
AcDbEntity
  8
KANAMONO_SCREW
370
    -3
100
AcDbLine
 10
293.4296026900391
 20
125.8225591664125
 30
0.0
 11
293.4296026900391
 21
120.8225591664125
 31
0.0
  0
LINE
  5
3448
330
1F
100
AcDbEntity
  8
KANAMONO_SCREW
370
    -3
100
AcDbLine
 10
298.9296026900391
 20
125.8225591664125
 30
0.0
 11
298.9296026900391
 21
120.8225591664125
 31
0.0
  0
LINE
  5
3449
330
1F
100
AcDbEntity
  8
KANAMONO_SCREW
370
    -3
100
AcDbLine
 10
299.1770738031306
 20
113.9591526929565
 30
0.0
 11
299.1770738031306
 21
120.8225591664125
 31
0.0
  0
LINE
  5
344A
330
1F
100
AcDbEntity
  8
KANAMONO_SCREW
370
    -3
100
AcDbLine
 10
293.1821328250529
 20
113.9591526929565
 30
0.0
 11
293.1821328250529
 21
120.8225591664125
 31
0.0
  0
LINE
  5
344B
330
1F
100
AcDbEntity
  8
KANAMONO_SCREW
370
    -3
100
AcDbLine
 10
299.1770738031306
 20
120.8225591664125
 30
0.0
 11
293.1821328250529
 21
120.8225591664125
 31
0.0
  0
ARC
  5
344C
330
1F
100
AcDbEntity
  8
KANAMONO_SCREW
370
    -3
100
AcDbCircle
 10
296.1796026900391
 20
119.2225591664126
 30
0.0
 40
0.6
100
AcDbArc
 50
300.3912602242412
 51
239.6087397757361
  0
LINE
  5
344D
330
1F
100
AcDbEntity
  8
KANAMONO_SCREW
370
    -3
100
AcDbLine
 10
296.4831440053848
 20
95.82255916641257
 30
0.0
 11
296.4831440053848
 21
118.7050046573236
 31
0.0
  0
LINE
  5
344E
330
1F
100
AcDbEntity
  8
KANAMONO_SCREW
370
    -3
100
AcDbLine
 10
295.8760613746932
 20
97.71969238732332
 30
0.0
 11
295.8760613746934
 21
118.7050046573238
 31
0.0
  0
LINE
  5
344F
330
1F
100
AcDbEntity
  8
KANAMONO_SCREW
370
    -3
100
AcDbLine
 10
295.8760613746934
 20
99.69271093707025
 30
0.0
 11
296.4831440053848
 21
99.69271093707025
 31
0.0
  0
LINE
  5
3450
330
1F
100
AcDbEntity
  8
KANAMONO_SCREW
370
    -3
100
AcDbLine
 10
295.8760613746934
 20
100.2997935677616
 30
0.0
 11
296.4831440053848
 21
100.2997935677616
 31
0.0
  0
LINE
  5
3451
330
1F
100
AcDbEntity
  8
KANAMONO_SCREW
370
    -3
100
AcDbLine
 10
297.7296026900393
 20
125.8225591664125
 30
0.0
 11
299.1770738031306
 21
125.8225591664125
 31
0.0
  0
LINE
  5
3452
330
1F
100
AcDbEntity
  8
KANAMONO_SCREW
370
    -3
100
AcDbLine
 10
293.1821328250529
 20
125.8225591664125
 30
0.0
 11
294.6296026900392
 21
125.8225591664125
 31
0.0
  0
ARC
  5
3453
330
1F
100
AcDbEntity
  8
KANAMONO_SCREW
370
    -3
100
AcDbCircle
 10
294.6296026900392
 20
126.2475591664125
 30
0.0
 40
0.425
100
AcDbArc
 50
270.0
 51
90.0
  0
ARC
  5
3454
330
1F
100
AcDbEntity
  8
KANAMONO_SCREW
370
    -3
100
AcDbCircle
 10
297.7296026900391
 20
126.2475591664125
 30
0.0
 40
0.425
100
AcDbArc
 50
90.0
 51
270.0
  0
LINE
  5
3455
330
1F
100
AcDbEntity
  8
KANAMONO_SCREW
370
    -3
100
AcDbLine
 10
297.7296026900391
 20
126.6725591664127
 30
0.0
 11
299.1770738031306
 21
126.6725591664127
 31
0.0
  0
LINE
  5
3456
330
1F
100
AcDbEntity
  8
KANAMONO_SCREW
370
    -3
100
AcDbLine
 10
293.1821328250529
 20
126.6725591664127
 30
0.0
 11
294.6296026900392
 21
126.6725591664127
 31
0.0
  0
LINE
  5
3457
330
1F
100
AcDbEntity
  8
KANAMONO_SCREW
370
    -3
100
AcDbLine
 10
297.7296026900391
 20
127.1725591664127
 30
0.0
 11
299.1770738031306
 21
127.1725591664127
 31
0.0
  0
LINE
  5
3458
330
1F
100
AcDbEntity
  8
KANAMONO_SCREW
370
    -3
100
AcDbLine
 10
293.1821328250529
 20
127.1725591664127
 30
0.0
 11
294.6296026900392
 21
127.1725591664127
 31
0.0
  0
LINE
  5
3459
330
1F
100
AcDbEntity
  8
KANAMONO_SCREW
370
    -3
100
AcDbLine
 10
297.7296026900391
 20
127.6725591664127
 30
0.0
 11
299.1770738031306
 21
127.6725591664127
 31
0.0
  0
LINE
  5
345A
330
1F
100
AcDbEntity
  8
KANAMONO_SCREW
370
    -3
100
AcDbLine
 10
293.1821328250529
 20
127.6725591664127
 30
0.0
 11
294.6296026900392
 21
127.6725591664127
 31
0.0
  0
LINE
  5
345B
330
1F
100
AcDbEntity
  8
KANAMONO_SCREW
370
    -3
100
AcDbLine
 10
297.7296026900391
 20
128.1725591664127
 30
0.0
 11
299.1770738031306
 21
128.1725591664127
 31
0.0
  0
LINE
  5
345C
330
1F
100
AcDbEntity
  8
KANAMONO_SCREW
370
    -3
100
AcDbLine
 10
293.1821328250529
 20
128.1725591664127
 30
0.0
 11
294.6296026900392
 21
128.1725591664127
 31
0.0
  0
LINE
  5
345D
330
1F
100
AcDbEntity
  8
KANAMONO_SCREW
370
    -3
100
AcDbLine
 10
297.7296026900391
 20
128.6725591664127
 30
0.0
 11
299.1770738031306
 21
128.6725591664127
 31
0.0
  0
LINE
  5
345E
330
1F
100
AcDbEntity
  8
KANAMONO_SCREW
370
    -3
100
AcDbLine
 10
293.1821328250529
 20
128.6725591664127
 30
0.0
 11
294.6296026900392
 21
128.6725591664127
 31
0.0
  0
LINE
  5
345F
330
1F
100
AcDbEntity
  8
KANAMONO_SCREW
370
    -3
100
AcDbLine
 10
297.7296026900391
 20
129.1725591664127
 30
0.0
 11
299.1770738031306
 21
129.1725591664127
 31
0.0
  0
LINE
  5
3460
330
1F
100
AcDbEntity
  8
KANAMONO_SCREW
370
    -3
100
AcDbLine
 10
293.1821328250529
 20
129.1725591664127
 30
0.0
 11
294.6296026900392
 21
129.1725591664127
 31
0.0
  0
LINE
  5
3461
330
1F
100
AcDbEntity
  8
KANAMONO_SCREW
370
    -3
100
AcDbLine
 10
297.7296026900391
 20
129.6725591664127
 30
0.0
 11
299.1770738031306
 21
129.6725591664127
 31
0.0
  0
LINE
  5
3462
330
1F
100
AcDbEntity
  8
KANAMONO_SCREW
370
    -3
100
AcDbLine
 10
293.1821328250529
 20
129.6725591664127
 30
0.0
 11
294.6296026900392
 21
129.6725591664127
 31
0.0
  0
LINE
  5
3463
330
1F
100
AcDbEntity
  8
KANAMONO_SCREW
370
    -3
100
AcDbLine
 10
297.7296026900391
 20
130.1725591664127
 30
0.0
 11
299.1770738031306
 21
130.1725591664127
 31
0.0
  0
LINE
  5
3464
330
1F
100
AcDbEntity
  8
KANAMONO_SCREW
370
    -3
100
AcDbLine
 10
293.1821328250529
 20
130.1725591664127
 30
0.0
 11
294.6296026900392
 21
130.1725591664127
 31
0.0
  0
LINE
  5
3465
330
1F
100
AcDbEntity
  8
KANAMONO_SCREW
370
    -3
100
AcDbLine
 10
297.7296026900391
 20
130.6725591664127
 30
0.0
 11
299.1770738031306
 21
130.6725591664127
 31
0.0
  0
LINE
  5
3466
330
1F
100
AcDbEntity
  8
KANAMONO_SCREW
370
    -3
100
AcDbLine
 10
293.1821328250529
 20
130.6725591664127
 30
0.0
 11
294.6296026900392
 21
130.6725591664127
 31
0.0
  0
LINE
  5
3467
330
1F
100
AcDbEntity
  8
KANAMONO_SCREW
370
    -3
100
AcDbLine
 10
297.7296026900391
 20
131.1225591664125
 30
0.0
 11
299.1770738031306
 21
131.1225591664125
 31
0.0
  0
LINE
  5
3468
330
1F
100
AcDbEntity
  8
KANAMONO_SCREW
370
    -3
100
AcDbLine
 10
293.1821328250529
 20
131.1225591664125
 30
0.0
 11
294.6296026900392
 21
131.1225591664125
 31
0.0
  0
LINE
  5
3469
330
1F
100
AcDbEntity
  8
KANAMONO_SCREW
370
    -3
100
AcDbLine
 10
299.1770738031306
 20
125.8225591664125
 30
0.0
 11
299.1770738031306
 21
133.3225591664125
 31
0.0
  0
LINE
  5
346A
330
1F
100
AcDbEntity
  8
KANAMONO_SCREW
370
    -3
100
AcDbLine
 10
293.1821328250529
 20
125.8225591664125
 30
0.0
 11
293.1821328250529
 21
133.3225591664125
 31
0.0
  0
LINE
  5
346B
330
1F
100
AcDbEntity
  8
KANAMONO_SCREW
370
    -3
100
AcDbLine
 10
297.7296026900393
 20
125.8225591664125
 30
0.0
 11
297.7296026900393
 21
122.8725591664125
 31
0.0
  0
LINE
  5
346C
330
1F
100
AcDbEntity
  8
KANAMONO_SCREW
370
    -3
100
AcDbLine
 10
294.6296026900392
 20
125.8225591664125
 30
0.0
 11
294.6296026900392
 21
122.8725591664125
 31
0.0
  0
LINE
  5
346D
330
1F
100
AcDbEntity
  8
KANAMONO_SCREW
370
    -3
100
AcDbLine
 10
297.7296026900391
 20
131.2725591664126
 30
0.0
 11
297.7296026900391
 21
126.6725591664127
 31
0.0
  0
LINE
  5
346E
330
1F
100
AcDbEntity
  8
KANAMONO_SCREW
370
    -3
100
AcDbLine
 10
294.6296026900392
 20
131.2725591664126
 30
0.0
 11
294.6296026900392
 21
126.6725591664127
 31
0.0
  0
ARC
  5
346F
330
1F
100
AcDbEntity
  8
KANAMONO_SCREW
370
    -3
100
AcDbCircle
 10
296.1796026900391
 20
122.8725591664125
 30
0.0
 40
1.55
100
AcDbArc
 50
180.0
 51
0.0
  0
ARC
  5
3470
330
1F
100
AcDbEntity
  8
KANAMONO_SCREW
370
    -3
100
AcDbCircle
 10
296.1796026900391
 20
131.2725591664126
 30
0.0
 40
1.55
100
AcDbArc
 50
0.0
 51
180.0
  0
LINE
  5
3471
330
1F
100
AcDbEntity
  8
KANAMONO_SCREW
370
    -3
100
AcDbLine
 10
289.6796026900391
 20
134.3225591664125
 30
0.0
 11
291.6296026900392
 21
135.8225591664125
 31
0.0
  0
LINE
  5
3472
330
1F
100
AcDbEntity
  8
KANAMONO_SCREW
370
    -3
100
AcDbLine
 10
300.7296026900391
 20
135.8225591664125
 30
0.0
 11
302.6796026900391
 21
134.3225591664125
 31
0.0
  0
LINE
  5
3473
330
1F
100
AcDbEntity
  8
KANAMONO_SCREW
370
    -3
100
AcDbLine
 10
291.6296026900392
 20
135.8225591664125
 30
0.0
 11
300.7296026900391
 21
135.8225591664125
 31
0.0
  0
LINE
  5
3474
330
1F
100
AcDbEntity
  8
KANAMONO_SCREW
370
    -3
100
AcDbLine
 10
302.6796026900391
 20
134.3225591664125
 30
0.0
 11
302.6796026900391
 21
133.3225591664125
 31
0.0
  0
LINE
  5
3475
330
1F
100
AcDbEntity
  8
KANAMONO_SCREW
370
    -3
100
AcDbLine
 10
289.6796026900391
 20
134.3225591664125
 30
0.0
 11
302.6796026900391
 21
134.3225591664125
 31
0.0
  0
LINE
  5
3476
330
1F
100
AcDbEntity
  8
KANAMONO_SCREW
370
    -3
100
AcDbLine
 10
289.6796026900391
 20
134.3225591664125
 30
0.0
 11
289.6796026900391
 21
133.3225591664125
 31
0.0
  0
LINE
  5
3477
330
1F
100
AcDbEntity
  8
KANAMONO_SCREW
370
    -3
100
AcDbLine
 10
289.6796026900391
 20
133.3225591664125
 30
0.0
 11
302.6796026900391
 21
133.3225591664125
 31
0.0
  0
LINE
  5
3478
330
1F
100
AcDbEntity
  8
KANAMONO_SCREW
370
    -3
100
AcDbLine
 10
292.3341508310244
 20
135.8856082700777
 30
0.0
 11
300.0250545490538
 21
135.8856082700777
 31
0.0
  0
ARC
  5
3479
330
1F
100
AcDbEntity
  8
KANAMONO_SCREW
370
    -3
100
AcDbCircle
 10
296.1796026900391
 20
135.2356082700779
 30
0.0
 40
3.900000000000005
100
AcDbArc
 50
170.4059317731384
 51
171.344083287269
  0
ARC
  5
347A
330
1F
100
AcDbEntity
  8
KANAMONO_SCREW
370
    -3
100
AcDbCircle
 10
296.1796026900391
 20
135.2356082700779
 30
0.0
 40
3.900000000000005
100
AcDbArc
 50
8.655916712730974
 51
9.594068226861594
  0
LINE
  5
347B
330
1F
100
AcDbEntity
  8
KANAMONO_SCREW
370
    -3
100
AcDbLine
 10
296.1796026900391
 20
87.58560827007782
 30
0.0
 11
296.1796026900391
 21
95.04221273585889
 31
0.0
  0
LINE
  5
347C
330
1F
100
AcDbEntity
  8
KANAMONO_SCREW
370
    -3
100
AcDbLine
 10
297.935841001051
 20
95.58560827007781
 30
0.0
 11
294.4153169757536
 21
95.58560827007781
 31
0.0
  0
LINE
  5
347D
330
1F
100
AcDbEntity
  8
KANAMONO_SCREW
370
    -3
100
AcDbLine
 10
294.4296026900391
 20
95.58560827007781
 30
0.0
 11
294.4296026900391
 21
92.58560827007782
 31
0.0
  0
LINE
  5
347E
330
1F
100
AcDbEntity
  8
KANAMONO_SCREW
370
    -3
100
AcDbLine
 10
297.9296026900391
 20
95.58560827007781
 30
0.0
 11
297.9296026900391
 21
92.58560827007782
 31
0.0
  0
LINE
  5
347F
330
1F
100
AcDbEntity
  8
KANAMONO_SCREW
370
    -3
100
AcDbLine
 10
294.4296026900391
 20
92.58560827007782
 30
0.0
 11
297.9296026900391
 21
92.58560827007782
 31
0.0
  0
ELLIPSE
  5
3480
330
1F
100
AcDbEntity
  8
KANAMONO_SCREW
370
    -3
100
AcDbEllipse
 10
294.9296026900391
 20
92.58560827007782
 30
0.0
 11
0.0000000000000027
 21
1.700000000000017
 31
0.0
210
0.0
220
0.0
230
1.0
 40
0.2941176470588373
 41
0.0
 42
1.570796326794863
  0
ELLIPSE
  5
3481
330
1F
100
AcDbEntity
  8
KANAMONO_SCREW
370
    -3
100
AcDbEllipse
 10
297.4296026900391
 20
92.58560827007782
 30
0.0
 11
0.0000000000000027
 21
1.700000000000017
 31
0.0
210
0.0
220
0.0
230
1.0
 40
0.2941176470588038
 41
-1.570796326794896
 42
0.0
  0
ELLIPSE
  5
3482
330
1F
100
AcDbEntity
  8
KANAMONO_SCREW
370
    -3
100
AcDbEllipse
 10
297.4296026900391
 20
92.58560827007782
 30
0.0
 11
0.0000000000000027
 21
1.700000000000017
 31
0.0
210
0.0
220
0.0
230
1.0
 40
0.7353489374659476
 41
0.0
 42
1.570796326794895
  0
ELLIPSE
  5
3483
330
1F
100
AcDbEntity
  8
KANAMONO_SCREW
370
    -3
100
AcDbEllipse
 10
294.9296026900391
 20
92.58560827007782
 30
0.0
 11
0.0000000000000027
 21
1.700000000000017
 31
0.0
210
0.0
220
0.0
230
1.0
 40
0.7352941176470348
 41
-1.559108661948553
 42
0.0
  0
LINE
  5
3484
330
1F
100
AcDbEntity
  8
KANAMONO_SCREW
370
    -3
100
AcDbLine
 10
297.9296026900391
 20
92.58560827007782
 30
0.0
 11
296.1796026900391
 21
87.58560827007782
 31
0.0
  0
LINE
  5
3485
330
1F
100
AcDbEntity
  8
KANAMONO_SCREW
370
    -3
100
AcDbLine
 10
296.1796026900391
 20
87.58560827007782
 30
0.0
 11
294.4296026900391
 21
92.58560827007782
 31
0.0
  0
LINE
  5
3486
330
1F
100
AcDbEntity
  8
KANAMONO_SCREW
370
    -3
100
AcDbLine
 10
299.1770678170059
 20
113.9591526929565
 30
0.0
 11
299.1767642931392
 21
113.9574195899905
 31
0.0
  0
LINE
  5
3487
330
1F
100
AcDbEntity
  8
KANAMONO_SCREW
370
    -3
100
AcDbLine
 10
298.4296026900391
 20
111.9970463507558
 30
0.0
 11
298.4296026900391
 21
110.2407715799716
 31
0.0
  0
LINE
  5
3488
330
1F
100
AcDbEntity
  8
KANAMONO_SCREW
370
    -3
100
AcDbLine
 10
298.4296026900391
 20
108.2786651210279
 30
0.0
 11
298.4296026900391
 21
106.5223904669868
 31
0.0
  0
LINE
  5
3489
330
1F
100
AcDbEntity
  8
KANAMONO_SCREW
370
    -3
100
AcDbLine
 10
298.4296026900391
 20
104.5602838913003
 30
0.0
 11
298.4296026900391
 21
102.804009354002
 31
0.0
  0
LINE
  5
348A
330
1F
100
AcDbEntity
  8
KANAMONO_SCREW
370
    -3
100
AcDbLine
 10
298.4296026900391
 20
100.9177881071521
 30
0.0
 11
298.4296026900391
 21
99.16151356985356
 31
0.0
  0
LINE
  5
348B
330
1F
100
AcDbEntity
  8
KANAMONO_SCREW
370
    -3
100
AcDbLine
 10
297.3876549396626
 20
111.1760458021632
 30
0.0
 11
297.3876549396626
 21
110.6960836183519
 31
0.0
  0
LINE
  5
348C
330
1F
100
AcDbEntity
  8
KANAMONO_SCREW
370
    -3
100
AcDbLine
 10
297.9796026900382
 20
95.83560827007792
 30
0.0
 11
297.9438884043247
 21
95.58560827007781
 31
0.0
  0
LINE
  5
348D
330
1F
100
AcDbEntity
  8
KANAMONO_SCREW
370
    -3
100
AcDbLine
 10
297.9796026900382
 20
95.83560827007792
 30
0.0
 11
297.8450420025687
 21
95.85290892989538
 31
0.0
  0
LWPOLYLINE
  5
348E
330
1F
100
AcDbEntity
  8
KANAMONO_SCREW
370
    -3
100
AcDbPolyline
 90
       39
 70
     0
 43
0.0
 10
299.1770725550253
 20
117.3722601043576
 10
298.9305930014619
 20
115.976226512479
 10
297.6679728398536
 20
115.3189480590173
 42
0.2592004735663025
 10
297.3876549396626
 20
114.8944269151478
 10
297.3876549396626
 20
114.4144647313368
 42
0.2036136011950793
 10
297.5193384317678
 20
114.1045048576046
 42
0.1982842753974383
 10
297.8877000141634
 20
113.9591526929565
 10
299.1770738031306
 20
113.9591526929565
 10
298.8716549853653
 20
112.2271642103233
 10
297.6702116765178
 20
111.6017324106314
 42
0.257920399275152
 10
297.3876549396626
 20
111.1760458021632
 10
297.3876549396626
 20
110.6960836183519
 42
0.2036139203470236
 10
297.5193386560285
 20
110.3861237446198
 42
0.1982836950201352
 10
297.8877003559622
 20
110.2407715799716
 10
299.1770680412666
 20
110.2407715799716
 10
298.871655209626
 20
108.5087830973385
 10
297.6702119007788
 20
107.8833512976466
 42
0.2579203992749133
 10
297.3876551639234
 20
107.4576646891783
 10
297.3876551639234
 20
106.9777025053671
 42
0.2036139203458012
 10
297.5193388802867
 20
106.6677426316388
 42
0.1982836950192671
 10
297.887700580223
 20
106.5223904669868
 10
299.1770682655273
 20
106.5223904669868
 10
298.871655433887
 20
104.7904019843536
 10
297.6702121250395
 20
104.1649701846617
 42
0.257920399274954
 10
297.387655388184
 20
103.7392835761935
 10
297.3876553359458
 20
103.2593213270205
 42
0.2036275691502115
 10
297.5193556222447
 20
102.949344933074
 42
0.1982685003745556
 10
297.887700181593
 20
102.804009354002
 10
299.1770684897882
 20
102.804009354002
 10
298.8863881166766
 20
101.1555755494317
 10
297.6696347525307
 20
100.5221738394094
 42
0.2582492780404442
 10
297.3876553359458
 20
100.0967878921579
 10
297.387655388184
 20
99.61682560823383
 42
0.1922719400571094
 10
297.5058692869465
 20
99.32077702111165
 42
0.2110160733286848
 10
297.8878223048404
 20
99.16151356985356
 10
299.1770688096107
 20
99.16151356985356
 10
298.9221898682751
 20
97.71961197570007
 10
297.8275193399332
 20
95.82255910105081
 10
296.1796027778045
 20
95.82255916641257
  0
LINE
  5
348F
330
1F
100
AcDbEntity
  8
KANAMONO_SCREW
370
    -3
100
AcDbLine
 10
296.4831440053848
 20
97.71969238732332
 30
0.0
 11
298.9221898682751
 21
97.71961197570007
 31
0.0
  0
LWPOLYLINE
  5
3490
330
1F
100
AcDbEntity
  8
KANAMONO_SCREW
370
    -3
100
AcDbPolyline
 90
        4
 70
     0
 43
0.0
 10
298.2329806985159
 20
113.9591527899247
 42
-0.4141897041352463
 10
297.7731941470826
 20
114.4144647313368
 10
297.7731941502701
 20
115.09512591986
 42
-0.279432028215579
 10
298.0227411055667
 20
115.50362849147
 42
-3.4148491111701
  0
LWPOLYLINE
  5
3491
330
1F
100
AcDbEntity
  8
KANAMONO_SCREW
370
    -3
100
AcDbPolyline
 90
        4
 70
     0
 43
0.0
 10
298.2329806985159
 20
110.2407719141988
 42
-0.4141897041352463
 10
297.7731941470826
 20
110.6960838556109
 10
297.7731941502701
 20
111.3767450441341
 42
-0.279432028215579
 10
298.0227411055667
 20
111.7852476157441
 42
-3.4148491111701
  0
LWPOLYLINE
  5
3492
330
1F
100
AcDbEntity
  8
KANAMONO_SCREW
370
    -3
100
AcDbPolyline
 90
        4
 70
     0
 43
0.0
 10
298.2329809227768
 20
106.522390563955
 42
-0.4141897041352463
 10
297.7731943713435
 20
106.9777025053671
 10
297.7731943745311
 20
107.6583636938903
 42
-0.279432028215579
 10
298.0227413298277
 20
108.0668662655003
 42
-3.4148491111701
  0
LWPOLYLINE
  5
3493
330
1F
100
AcDbEntity
  8
KANAMONO_SCREW
370
    -3
100
AcDbPolyline
 90
        4
 70
     0
 43
0.0
 10
298.2329811470378
 20
102.8040094509701
 42
-0.4141897041352463
 10
297.7731945956044
 20
103.2593213923822
 10
297.773194598792
 20
103.9399825809055
 42
-0.279432028215579
 10
298.0227415540886
 20
104.3484851525155
 42
-3.4148491111701
  0
LWPOLYLINE
  5
3494
330
1F
100
AcDbEntity
  8
KANAMONO_SCREW
370
    -3
100
AcDbPolyline
 90
        4
 70
     0
 43
0.0
 10
298.2329811470378
 20
99.16151366682171
 42
-0.4141897041352463
 10
297.7731945956044
 20
99.61682560823383
 10
297.773194598792
 20
100.297486796757
 42
-0.279432028215579
 10
298.0227415540886
 20
100.705989368367
 42
-3.4148491111701
  0
LWPOLYLINE
  5
3495
330
1F
100
AcDbEntity
  8
KANAMONO_SCREW
370
    -3
100
AcDbPolyline
 90
        3
 70
     0
 43
0.0
 10
297.3876553359461
 20
95.82255911849742
 10
297.3876553359458
 20
99.33193195741191
 10
297.5058692869465
 20
99.32077702111165
  0
LWPOLYLINE
  5
3496
330
1F
100
AcDbEntity
  8
KANAMONO_SCREW
370
    -3
100
AcDbPolyline
 90
        3
 70
     0
 43
0.0
 10
297.3876553359458
 20
100.0967878931138
 10
297.3876553359872
 20
102.960574745375
 10
297.5193556222447
 20
102.949344933074
  0
LWPOLYLINE
  5
3497
330
1F
100
AcDbEntity
  8
KANAMONO_SCREW
370
    -3
100
AcDbPolyline
 90
        3
 70
     0
 43
0.0
 10
297.3876553359458
 20
103.7392836763064
 10
297.3876553359877
 20
106.6789645868515
 10
297.5193388802867
 20
106.6677426316388
  0
LWPOLYLINE
  5
3498
330
1F
100
AcDbEntity
  8
KANAMONO_SCREW
370
    -3
100
AcDbPolyline
 90
        3
 70
     0
 43
0.0
 10
297.3876551116851
 20
107.4576647892912
 10
297.3876551117265
 20
110.3973456998362
 10
297.5193386560285
 20
110.3861237446198
  0
LWPOLYLINE
  5
3499
330
1F
100
AcDbEntity
  8
KANAMONO_SCREW
370
    -3
100
AcDbPolyline
 90
        3
 70
     0
 43
0.0
 10
297.3876548874244
 20
111.176045902276
 10
297.3876548874244
 20
114.1157268128243
 10
297.5193384317678
 20
114.1045048576046
  0
LINE
  5
349A
330
1F
100
AcDbEntity
  8
KANAMONO_SCREW
370
    -3
100
AcDbLine
 10
293.1821375630724
 20
113.9591526929565
 30
0.0
 11
293.1824410869391
 21
113.9574195899905
 31
0.0
  0
LINE
  5
349B
330
1F
100
AcDbEntity
  8
KANAMONO_SCREW
370
    -3
100
AcDbLine
 10
293.9296026900391
 20
111.9970463507558
 30
0.0
 11
293.9296026900391
 21
110.2407715799716
 31
0.0
  0
LINE
  5
349C
330
1F
100
AcDbEntity
  8
KANAMONO_SCREW
370
    -3
100
AcDbLine
 10
293.9296026900391
 20
108.2786651210279
 30
0.0
 11
293.9296026900391
 21
106.5223904669868
 31
0.0
  0
LINE
  5
349D
330
1F
100
AcDbEntity
  8
KANAMONO_SCREW
370
    -3
100
AcDbLine
 10
293.9296026900391
 20
104.5602838913003
 30
0.0
 11
293.9296026900391
 21
102.804009354002
 31
0.0
  0
LINE
  5
349E
330
1F
100
AcDbEntity
  8
KANAMONO_SCREW
370
    -3
100
AcDbLine
 10
293.9296026900391
 20
100.9177881071521
 30
0.0
 11
293.9296026900391
 21
99.16151356985356
 31
0.0
  0
LINE
  5
349F
330
1F
100
AcDbEntity
  8
KANAMONO_SCREW
370
    -3
100
AcDbLine
 10
294.9715504404156
 20
111.1760458021632
 30
0.0
 11
294.9715504404156
 21
110.6960836183519
 31
0.0
  0
LINE
  5
34A0
330
1F
100
AcDbEntity
  8
KANAMONO_SCREW
370
    -3
100
AcDbLine
 10
294.3796026900401
 20
95.83560827007792
 30
0.0
 11
294.4153169757536
 21
95.58560827007781
 31
0.0
  0
LINE
  5
34A1
330
1F
100
AcDbEntity
  8
KANAMONO_SCREW
370
    -3
100
AcDbLine
 10
294.3796026900401
 20
95.83560827007792
 30
0.0
 11
294.5141633775096
 21
95.85290892989538
 31
0.0
  0
LINE
  5
34A2
330
1F
100
AcDbEntity
  8
KANAMONO_SCREW
370
    -3
100
AcDbLine
 10
295.8760613746934
 20
97.71969238732332
 30
0.0
 11
293.4370155118032
 21
97.71961197570007
 31
0.0
  0
LWPOLYLINE
  5
34A3
330
1F
100
AcDbEntity
  8
KANAMONO_SCREW
370
    -3
100
AcDbPolyline
 90
        4
 70
     0
 43
0.0
 10
294.1262246815623
 20
113.9591527899247
 42
0.4141897041352463
 10
294.5860112329957
 20
114.4144647313368
 10
294.5860112298082
 20
115.09512591986
 42
0.279432028215579
 10
294.3364642745115
 20
115.50362849147
 42
3.4148491111701
  0
LWPOLYLINE
  5
34A4
330
1F
100
AcDbEntity
  8
KANAMONO_SCREW
370
    -3
100
AcDbPolyline
 90
        4
 70
     0
 43
0.0
 10
294.1262246815623
 20
110.2407719141988
 42
0.4141897041352463
 10
294.5860112329957
 20
110.6960838556109
 10
294.5860112298082
 20
111.3767450441341
 42
0.279432028215579
 10
294.3364642745115
 20
111.7852476157441
 42
3.4148491111701
  0
LWPOLYLINE
  5
34A5
330
1F
100
AcDbEntity
  8
KANAMONO_SCREW
370
    -3
100
AcDbPolyline
 90
        4
 70
     0
 43
0.0
 10
294.1262244573014
 20
106.522390563955
 42
0.4141897041352463
 10
294.5860110087348
 20
106.9777025053671
 10
294.5860110055472
 20
107.6583636938903
 42
0.279432028215579
 10
294.3364640502506
 20
108.0668662655003
 42
3.4148491111701
  0
LWPOLYLINE
  5
34A6
330
1F
100
AcDbEntity
  8
KANAMONO_SCREW
370
    -3
100
AcDbPolyline
 90
        4
 70
     0
 43
0.0
 10
294.1262242330405
 20
102.8040094509701
 42
0.4141897041352463
 10
294.5860107844739
 20
103.2593213923822
 10
294.5860107812863
 20
103.9399825809055
 42
0.279432028215579
 10
294.3364638259897
 20
104.3484851525155
 42
3.4148491111701
  0
LWPOLYLINE
  5
34A7
330
1F
100
AcDbEntity
  8
KANAMONO_SCREW
370
    -3
100
AcDbPolyline
 90
        4
 70
     0
 43
0.0
 10
294.1262242330405
 20
99.16151366682171
 42
0.4141897041352463
 10
294.5860107844739
 20
99.61682560823383
 10
294.5860107812863
 20
100.297486796757
 42
0.279432028215579
 10
294.3364638259897
 20
100.705989368367
 42
3.4148491111701
  0
LWPOLYLINE
  5
34A8
330
1F
100
AcDbEntity
  8
KANAMONO_SCREW
370
    -3
100
AcDbPolyline
 90
        3
 70
     0
 43
0.0
 10
294.9715500441322
 20
95.82255911849742
 10
294.9715500441324
 20
99.33193195741191
 10
294.8533360931318
 20
99.32077702111165
  0
LWPOLYLINE
  5
34A9
330
1F
100
AcDbEntity
  8
KANAMONO_SCREW
370
    -3
100
AcDbPolyline
 90
        3
 70
     0
 43
0.0
 10
294.9715500441324
 20
100.0967878931138
 10
294.971550044091
 20
102.960574745375
 10
294.8398497578336
 20
102.949344933074
  0
LWPOLYLINE
  5
34AA
330
1F
100
AcDbEntity
  8
KANAMONO_SCREW
370
    -3
100
AcDbPolyline
 90
        3
 70
     0
 43
0.0
 10
294.9715500441324
 20
103.7392836763064
 10
294.9715500440906
 20
106.6789645868515
 10
294.8398664997916
 20
106.6677426316388
  0
LWPOLYLINE
  5
34AB
330
1F
100
AcDbEntity
  8
KANAMONO_SCREW
370
    -3
100
AcDbPolyline
 90
        3
 70
     0
 43
0.0
 10
294.9715502683931
 20
107.4576647892912
 10
294.9715502683517
 20
110.3973456998362
 10
294.8398667240498
 20
110.3861237446198
  0
LWPOLYLINE
  5
34AC
330
1F
100
AcDbEntity
  8
KANAMONO_SCREW
370
    -3
100
AcDbPolyline
 90
        3
 70
     0
 43
0.0
 10
294.9715504926538
 20
111.176045902276
 10
294.9715504926538
 20
114.1157268128243
 10
294.8398669483105
 20
114.1045048576046
  0
LWPOLYLINE
  5
34AD
330
1F
100
AcDbEntity
  8
KANAMONO_SCREW
370
    -3
100
AcDbPolyline
 90
       39
 70
     0
 43
0.0
 10
293.1821378479605
 20
117.3722607786061
 10
293.4286170875008
 20
115.9762271312845
 10
294.6912371012615
 20
115.3189483938098
 42
-0.2592004735663025
 10
294.9715549059609
 20
114.8944271868857
 10
294.9715547979985
 20
114.4144650030747
 42
-0.2036136011950793
 10
294.8398712361712
 20
114.1045051589634
 42
-0.1982842753974383
 10
294.4715096210801
 20
113.9591530771743
 10
293.182135832113
 20
113.9591533672054
 10
293.4875542602857
 20
112.2271648158715
 10
294.688997428449
 20
111.6017327459277
 42
-0.257920399275152
 10
294.9715540695505
 20
111.1760460739012
 10
294.971553961588
 20
110.6960838900899
 42
-0.2036139203470236
 10
294.8398701755001
 20
110.3861240459786
 42
-0.1982836950201352
 10
294.4715084428709
 20
110.2407719641896
 10
293.1821407575666
 20
110.2407722542192
 10
293.4875531996146
 20
108.5087837028868
 10
294.6889963677776
 20
107.883351632943
 42
-0.2579203992749133
 10
294.9715530088793
 20
107.4576649609166
 10
294.9715529009169
 20
106.9777027771053
 42
-0.2036139203458012
 10
294.8398691148315
 20
106.6677429329978
 42
-0.1982836950192671
 10
294.4715073821998
 20
106.5223908512049
 10
293.1821396968954
 20
106.5223911412346
 10
293.4875521389432
 20
104.7904025899022
 10
294.6889953071064
 20
104.1649705199582
 42
-0.257920399274954
 10
294.9715519482083
 20
103.7392838479319
 10
294.9715518924839
 20
103.2593215987589
 42
-0.2036275691502115
 10
294.8398515364591
 20
102.949345234437
 42
-0.1982685003745556
 10
294.4715069444193
 20
102.8040097382201
 10
293.1821386362241
 20
102.8040100282498
 10
293.4728186385379
 20
101.1555761582942
 10
294.6895718602069
 20
100.5221741745762
 42
-0.2582492780404442
 10
294.9715511811056
 20
100.0967881638964
 10
294.9715510209049
 20
99.61682587997231
 42
-0.1922719400571094
 10
294.8533370555495
 20
99.32077731944113
 42
-0.2110160733286848
 10
294.4713840018311
 20
99.16151395409926
 10
293.1821374970608
 20
99.16151424410166
 10
293.4370161140559
 20
97.7196125926158
 10
294.5316862156757
 20
95.82255947173221
 10
296.1796027778042
 20
95.82255916641257
  0
ENDSEC
  0
SECTION
  2
OBJECTS
  0
DICTIONARY
  5
C
330
0
100
AcDbDictionary
281
     1
  3
ACAD_CIP_PREVIOUS_PRODUCT_INFO
350
2E42
  3
ACAD_COLOR
350
2D0B
  3
ACAD_DETAILVIEWSTYLE
350
2E3D
  3
ACAD_GROUP
350
D
  3
ACAD_LAYOUT
350
1A
  3
ACAD_MATERIAL
350
2CDE
  3
ACAD_MLEADERSTYLE
350
2D20
  3
ACAD_MLINESTYLE
350
17
  3
ACAD_PLOTSETTINGS
350
19
  3
ACAD_PLOTSTYLENAME
350
E
  3
ACAD_SCALELIST
350
2D0E
  3
ACAD_SECTIONVIEWSTYLE
350
2E3B
  3
ACAD_TABLESTYLE
350
2D0C
  3
ACAD_VISUALSTYLE
350
2CF7
  3
ACDB_RECOMPOSE_DATA
350
34B0
  3
AcDbVariableDictionary
350
1835
  3
AEC_PROPERTY_SET_DEFS
350
2D52
  3
DWGPROPS
350
34B1
  0
DICTIONARY
  5
2D8C
330
8
100
AcDbDictionary
280
     1
281
     1
  0
DICTIONARY
  5
2D
330
2
100
AcDbDictionary
280
     1
281
     1
  3
ACAD_LAYERFILTERS
360
2E
  3
ACAD_LAYERSTATES
360
918
  0
DICTIONARY
  5
2D7E
330
10
100
AcDbDictionary
280
     1
281
     1
  3
ADSK_XREC_LAYER_RECONCILED
360
2D7F
  0
DICTIONARY
  5
2D80
330
2388
100
AcDbDictionary
280
     1
281
     1
  3
ADSK_XREC_LAYER_RECONCILED
360
2D81
  0
DICTIONARY
  5
2D82
330
238A
100
AcDbDictionary
280
     1
281
     1
  3
ADSK_XREC_LAYER_RECONCILED
360
2D83
  0
DICTIONARY
  5
2D84
330
2757
100
AcDbDictionary
280
     1
281
     1
  3
ADSK_XREC_LAYER_RECONCILED
360
2D85
  0
DICTIONARY
  5
2D86
330
2758
100
AcDbDictionary
280
     1
281
     1
  3
ADSK_XREC_LAYER_RECONCILED
360
2D87
  0
DICTIONARY
  5
2E44
330
2E43
100
AcDbDictionary
280
     1
281
     1
  0
DICTIONARY
  5
33BC
330
33BB
100
AcDbDictionary
280
     1
281
     1
  0
DICTIONARY
  5
1C62
330
1F
100
AcDbDictionary
280
     1
281
     1
  3
ACAD_SORTENTS
360
1C63
  0
DICTIONARY
  5
3351
330
3350
100
AcDbDictionary
280
     1
281
     1
  0
XRECORD
  5
2E42
102
{ACAD_REACTORS
330
C
102
}
330
C
100
AcDbXrecord
280
     1
300
ACD
300
2022
300

  0
DICTIONARY
  5
2D0B
102
{ACAD_REACTORS
330
C
102
}
330
C
100
AcDbDictionary
281
     1
  0
DICTIONARY
  5
2E3D
102
{ACAD_REACTORS
330
C
102
}
330
C
100
AcDbDictionary
281
     1
  3
Metric50
350
2E3E
  0
DICTIONARY
  5
D
102
{ACAD_REACTORS
330
C
102
}
330
C
100
AcDbDictionary
281
     1
  0
DICTIONARY
  5
1A
102
{ACAD_REACTORS
330
C
102
}
330
C
100
AcDbDictionary
281
     1
  3
Model
350
22
  3
\U+FF9A\U+FF72\U+FF71\U+FF73\U+FF841
350
1CD1
  0
DICTIONARY
  5
2CDE
102
{ACAD_REACTORS
330
C
102
}
330
C
100
AcDbDictionary
281
     1
  3
ByBlock
350
2CE7
  3
ByLayer
350
2CDF
  3
Global
350
2CEF
  0
DICTIONARY
  5
2D20
102
{ACAD_REACTORS
330
C
102
}
330
C
100
AcDbDictionary
281
     1
  3
Standard
350
2D21
  0
DICTIONARY
  5
17
102
{ACAD_REACTORS
330
C
102
}
330
C
100
AcDbDictionary
281
     1
  3
Standard
350
18
  0
DICTIONARY
  5
19
102
{ACAD_REACTORS
330
C
102
}
330
C
100
AcDbDictionary
281
     1
  0
ACDBDICTIONARYWDFLT
  5
E
102
{ACAD_REACTORS
330
C
102
}
330
C
100
AcDbDictionary
281
     1
  3
Normal
350
F
  3
通常
350
29
100
AcDbDictionaryWithDefault
340
F
  0
DICTIONARY
  5
2D0E
102
{ACAD_REACTORS
330
C
102
}
330
C
100
AcDbDictionary
281
     1
  3
A0
350
2D0F
  3
A1
350
2D10
  3
A2
350
2D11
  3
A3
350
2D12
  3
A4
350
2D13
  3
A5
350
2D14
  3
A6
350
2D15
  3
A7
350
2D16
  3
A8
350
2D17
  3
A9
350
2D18
  3
B0
350
2D19
  3
B1
350
2D1A
  3
B2
350
2D1B
  3
B3
350
2D1C
  3
B4
350
2D1D
  3
B5
350
2D1E
  3
B6
350
2D1F
  0
DICTIONARY
  5
2E3B
102
{ACAD_REACTORS
330
C
102
}
330
C
100
AcDbDictionary
281
     1
  3
Metric50
350
2E3C
  0
DICTIONARY
  5
2D0C
102
{ACAD_REACTORS
330
C
102
}
330
C
100
AcDbDictionary
281
     1
  3
Standard
350
2D0D
  0
DICTIONARY
  5
2CF7
102
{ACAD_REACTORS
330
C
102
}
330
C
100
AcDbDictionary
281
     1
  3
2dWireframe
350
2CFD
  3
3D Hidden
350
2CFF
  3
3dWireframe
350
2CFE
  3
Basic
350
2CFC
  3
Brighten
350
2D03
  3
ColorChange
350
2D07
  3
Conceptual
350
2D00
  3
Dim
350
2D02
  3
EdgeColorOff
350
2D0A
  3
Facepattern
350
2D06
  3
Flat
350
2CF8
  3
FlatWithEdges
350
2CF9
  3
Gouraud
350
2CFA
  3
GouraudWithEdges
350
2CFB
  3
Hidden
350
2E35
  3
JitterOff
350
2D08
  3
Linepattern
350
2D05
  3
OverhangOff
350
2D09
  3
Realistic
350
2D01
  3
Shaded
350
2E3A
  3
Shaded with edges
350
2E39
  3
Shades of Gray
350
2E36
  3
Sketchy
350
2E37
  3
Thicken
350
2D04
  3
Wireframe
350
2E34
  3
X-Ray
350
2E38
  0
XRECORD
  5
34B0
102
{ACAD_REACTORS
330
C
102
}
330
C
100
AcDbXrecord
280
     1
 90
        1
330
2D0D
  0
DICTIONARY
  5
1835
102
{ACAD_REACTORS
330
C
102
}
330
C
100
AcDbDictionary
281
     1
  3
CANNOSCALE
350
2DBF
  3
CMLEADERSTYLE
350
2DBE
  3
CTABLESTYLE
350
2DBD
  3
CVIEWDETAILSTYLE
350
2F1A
  3
CVIEWSECTIONSTYLE
350
2F1B
  3
DIMASSOC
350
2DC1
  3
INDEXCTL
350
2DC0
  3
SORTENTS
350
1836
  3
XCLIPFRAME
350
34AE
  0
DICTIONARY
  5
2D52
102
{ACAD_REACTORS
330
C
102
}
330
C
100
AcDbDictionary
281
     1
  0
XRECORD
  5
34B1
102
{ACAD_REACTORS
330
C
102
}
330
C
100
AcDbXrecord
280
     1
  1
DWGPROPS COOKIE
  2

  3

  4

  6

  7

  8
2020009
  9

300
=
301
=
302
=
303
=
304
=
305
=
306
=
307
=
308
=
309
=
 40
0.2601269560185186
 41
2453276.413761574
 42
2459986.615694444
  1

 90
        0
  0
DICTIONARY
  5
2E
102
{ACAD_REACTORS
330
2D
102
}
330
2D
100
AcDbDictionary
280
     1
281
     1
  0
DICTIONARY
  5
918
102
{ACAD_REACTORS
330
2D
102
}
330
2D
100
AcDbDictionary
281
     1
  0
XRECORD
  5
2D7F
102
{ACAD_REACTORS
330
2D7E
102
}
330
2D7E
100
AcDbXrecord
280
     1
290
     1
  0
XRECORD
  5
2D81
102
{ACAD_REACTORS
330
2D80
102
}
330
2D80
100
AcDbXrecord
280
     1
290
     1
  0
XRECORD
  5
2D83
102
{ACAD_REACTORS
330
2D82
102
}
330
2D82
100
AcDbXrecord
280
     1
290
     1
  0
XRECORD
  5
2D85
102
{ACAD_REACTORS
330
2D84
102
}
330
2D84
100
AcDbXrecord
280
     1
290
     1
  0
XRECORD
  5
2D87
102
{ACAD_REACTORS
330
2D86
102
}
330
2D86
100
AcDbXrecord
280
     1
290
     1
  0
SORTENTSTABLE
  5
1C63
102
{ACAD_REACTORS
330
1C62
102
}
330
1C62
100
AcDbSortentsTable
330
1F
331
29C1
  5
29C6
331
29C2
  5
29C7
331
29C3
  5
29C8
331
29C5
  5
29C9
331
29C6
  5
29CB
331
29C7
  5
29CC
331
29C8
  5
29CD
331
29C9
  5
29CE
331
29CB
  5
29CF
331
29CC
  5
29D0
331
29CD
  5
29D1
331
29CE
  5
29D2
331
29CF
  5
29D3
331
29D0
  5
29D4
331
29D1
  5
29D5
331
29D2
  5
29D6
331
29D3
  5
29D7
331
29D4
  5
29D8
331
29D5
  5
29D9
331
29D6
  5
29DA
331
29D7
  5
29DB
331
29D8
  5
29DC
331
29D9
  5
29DD
331
29DA
  5
29DE
331
29DB
  5
29DF
331
29DC
  5
29E0
331
29DD
  5
29E1
331
29DE
  5
29E2
331
29DF
  5
2D7D
331
29E0
  5
2E5A
331
29E1
  5
2E5B
331
29E2
  5
2E5D
331
2D7D
  5
3439
331
2E5A
  5
343E
331
2E5B
  5
343F
331
2E5D
  5
3444
331
2E5E
  5
3445
331
2E5F
  5
3446
331
340B
  5
29C1
331
340C
  5
29C2
331
340D
  5
29C3
331
340E
  5
29C5
331
340F
  5
2E5E
331
3410
  5
2E5F
331
3411
  5
340B
331
3412
  5
340C
331
3413
  5
340D
331
3414
  5
340E
331
3415
  5
340F
331
3416
  5
3410
331
3417
  5
3411
331
3418
  5
3412
331
3419
  5
3413
331
341A
  5
3414
331
341B
  5
3415
331
341C
  5
3416
331
341D
  5
3417
331
341E
  5
3418
331
341F
  5
3419
331
3420
  5
341A
331
3421
  5
341B
331
3422
  5
341C
331
3423
  5
341D
331
3424
  5
341E
331
3425
  5
341F
331
3426
  5
3420
331
3427
  5
3421
331
3428
  5
3422
331
3429
  5
3423
331
342A
  5
3424
331
342B
  5
3425
331
342C
  5
3426
331
342D
  5
3427
331
342E
  5
3428
331
342F
  5
3429
331
3430
  5
342A
331
3431
  5
342B
331
3432
  5
342C
331
3433
  5
342D
331
3434
  5
342E
331
3435
  5
342F
331
3436
  5
3430
331
3437
  5
3431
331
3438
  5
3432
331
3439
  5
3433
331
343A
  5
3434
331
343B
  5
3435
331
343C
  5
3436
331
343D
  5
3437
331
343E
  5
3438
331
343F
  5
343A
331
3440
  5
343B
331
3441
  5
343C
331
3442
  5
343D
331
3443
  5
3440
331
3444
  5
3441
331
3445
  5
3442
331
3446
  5
3443
  0
ACDBDETAILVIEWSTYLE
  5
2E3E
102
{ACAD_XDICTIONARY
360
34F0
102
}
102
{ACAD_REACTORS
330
2E3D
102
}
330
2E3D
100
AcDbModelDocViewStyle
 70
     0
  3
Metric50
290
     0
100
AcDbDetailViewStyle
 70
     0
 71
     0
 90
        3
 71
     1
340
11
 40
5.0
340
0
 40
5.0
300

 40
0.0
280
     1
 71
     2
340
16
 90
       25
 71
     3
340
11
 40
5.0
 90
        0
 40
15.0
 90
        1
300
%<\AcVar ViewDetailId>% (%<\AcVar ViewScale \f "%sn">%)
 71
     4
340
16
 90
       25
340
16
 90
       25
280
     0
1001
ACAD
1000
AcRTDxfName
1000
ACDBDETAILVIEWSTYLE
  0
LAYOUT
  5
22
102
{ACAD_XDICTIONARY
360
34B2
102
}
102
{ACAD_REACTORS
330
1A
102
}
330
1A
100
AcDbPlotSettings
  1

  2
Canon LBP3800 LIPSLX
  4
A4
  6

 40
5.873749732971191
 41
5.873747825622558
 42
5.873748779296875
 43
5.873748779296875
 44
209.9733276367187
 45
296.9259948730469
 46
0.61
 47
0.59
 48
444.9983463649091
 49
-1090.000000918417
140
2395.001653364909
141
1659.999999081583
142
1.0
143
10.0
 70
 11940
 72
     1
 73
     1
 74
     2
  7
monochrome.ctb
 75
     0
147
0.1
148
0.0
149
0.0
100
AcDbLayout
  1
Model
 70
     1
 71
     0
 10
0.0
 20
0.0
 11
12.0
 21
9.0
 12
0.0
 22
0.0
 32
0.0
 14
0.0
 24
0.0
 34
0.0
 15
0.0
 25
0.0
 35
0.0
146
0.0
 13
0.0
 23
0.0
 33
0.0
 16
1.0
 26
0.0
 36
0.0
 17
0.0
 27
1.0
 37
0.0
 76
     0
330
1F
331
2CDC
  0
LAYOUT
  5
1CD1
102
{ACAD_XDICTIONARY
360
34B4
102
}
102
{ACAD_REACTORS
330
1A
102
}
330
1A
100
AcDbPlotSettings
  1

  2
\\ek_srv\Canon LBP-880 LIPS4
  4

  6

 40
0.0
 41
0.0
 42
0.0
 43
0.0
 44
0.0
 45
0.0
 46
0.0
 47
0.0
 48
0.0
 49
0.0
140
0.0
141
0.0
142
1.0
143
1.0
 70
   688
 72
     0
 73
     0
 74
     5
  7
monochrome.ctb
 75
    16
147
1.0
148
0.0
149
0.0
100
AcDbLayout
  1
\U+FF9A\U+FF72\U+FF71\U+FF73\U+FF841
 70
     1
 71
     1
 10
0.0
 20
0.0
 11
12.0
 21
9.0
 12
0.0
 22
0.0
 32
0.0
 14
0.0
 24
0.0
 34
0.0
 15
0.0
 25
0.0
 35
0.0
146
0.0
 13
0.0
 23
0.0
 33
0.0
 16
1.0
 26
0.0
 36
0.0
 17
0.0
 27
1.0
 37
0.0
 76
     0
330
1CD0
  0
MATERIAL
  5
2CE7
102
{ACAD_XDICTIONARY
360
2CE8
102
}
102
{ACAD_REACTORS
330
2CDE
102
}
330
2CDE
100
AcDbMaterial
  1
ByBlock
 72
     0
 43
0.0008202099737533
 43
0.0
 43
0.0
 43
0.0
 43
0.0
 43
0.0008202099737533
 43
0.0
 43
0.0
 43
0.0
 43
0.0
 43
1.0
 43
0.0
 43
0.0
 43
0.0
 43
0.0
 43
1.0
 77
     0
 47
0.0008202099737533
 47
0.0
 47
0.0
 47
0.0
 47
0.0
 47
0.0008202099737533
 47
0.0
 47
0.0
 47
0.0
 47
0.0
 47
1.0
 47
0.0
 47
0.0
 47
0.0
 47
0.0
 47
1.0
171
     0
 49
0.0008202099737533
 49
0.0
 49
0.0
 49
0.0
 49
0.0
 49
0.0008202099737533
 49
0.0
 49
0.0
 49
0.0
 49
0.0
 49
1.0
 49
0.0
 49
0.0
 49
0.0
 49
0.0
 49
1.0
175
     0
142
0.0008202099737533
142
0.0
142
0.0
142
0.0
142
0.0
142
0.0008202099737533
142
0.0
142
0.0
142
0.0
142
0.0
142
1.0
142
0.0
142
0.0
142
0.0
142
0.0
142
1.0
179
     0
144
0.0008202099737533
144
0.0
144
0.0
144
0.0
144
0.0
144
0.0008202099737533
144
0.0
144
0.0
144
0.0
144
0.0
144
1.0
144
0.0
144
0.0
144
0.0
144
0.0
144
1.0
147
0.0008202099737533
147
0.0
147
0.0
147
0.0
147
0.0
147
0.0008202099737533
147
0.0
147
0.0
147
0.0
147
0.0
147
1.0
147
0.0
147
0.0
147
0.0
147
0.0
147
1.0
  0
MATERIAL
  5
2CDF
102
{ACAD_XDICTIONARY
360
2CE0
102
}
102
{ACAD_REACTORS
330
2CDE
102
}
330
2CDE
100
AcDbMaterial
  1
ByLayer
 72
     0
 43
0.0008202099737533
 43
0.0
 43
0.0
 43
0.0
 43
0.0
 43
0.0008202099737533
 43
0.0
 43
0.0
 43
0.0
 43
0.0
 43
1.0
 43
0.0
 43
0.0
 43
0.0
 43
0.0
 43
1.0
 77
     0
 47
0.0008202099737533
 47
0.0
 47
0.0
 47
0.0
 47
0.0
 47
0.0008202099737533
 47
0.0
 47
0.0
 47
0.0
 47
0.0
 47
1.0
 47
0.0
 47
0.0
 47
0.0
 47
0.0
 47
1.0
171
     0
 49
0.0008202099737533
 49
0.0
 49
0.0
 49
0.0
 49
0.0
 49
0.0008202099737533
 49
0.0
 49
0.0
 49
0.0
 49
0.0
 49
1.0
 49
0.0
 49
0.0
 49
0.0
 49
0.0
 49
1.0
175
     0
142
0.0008202099737533
142
0.0
142
0.0
142
0.0
142
0.0
142
0.0008202099737533
142
0.0
142
0.0
142
0.0
142
0.0
142
1.0
142
0.0
142
0.0
142
0.0
142
0.0
142
1.0
179
     0
144
0.0008202099737533
144
0.0
144
0.0
144
0.0
144
0.0
144
0.0008202099737533
144
0.0
144
0.0
144
0.0
144
0.0
144
1.0
144
0.0
144
0.0
144
0.0
144
0.0
144
1.0
147
0.0008202099737533
147
0.0
147
0.0
147
0.0
147
0.0
147
0.0008202099737533
147
0.0
147
0.0
147
0.0
147
0.0
147
1.0
147
0.0
147
0.0
147
0.0
147
0.0
147
1.0
  0
MATERIAL
  5
2CEF
102
{ACAD_XDICTIONARY
360
2CF0
102
}
102
{ACAD_REACTORS
330
2CDE
102
}
330
2CDE
100
AcDbMaterial
  1
Global
 72
     0
 43
0.0008202099737533
 43
0.0
 43
0.0
 43
0.0
 43
0.0
 43
0.0008202099737533
 43
0.0
 43
0.0
 43
0.0
 43
0.0
 43
1.0
 43
0.0
 43
0.0
 43
0.0
 43
0.0
 43
1.0
 77
     0
 47
0.0008202099737533
 47
0.0
 47
0.0
 47
0.0
 47
0.0
 47
0.0008202099737533
 47
0.0
 47
0.0
 47
0.0
 47
0.0
 47
1.0
 47
0.0
 47
0.0
 47
0.0
 47
0.0
 47
1.0
171
     0
 49
0.0008202099737533
 49
0.0
 49
0.0
 49
0.0
 49
0.0
 49
0.0008202099737533
 49
0.0
 49
0.0
 49
0.0
 49
0.0
 49
1.0
 49
0.0
 49
0.0
 49
0.0
 49
0.0
 49
1.0
175
     0
142
0.0008202099737533
142
0.0
142
0.0
142
0.0
142
0.0
142
0.0008202099737533
142
0.0
142
0.0
142
0.0
142
0.0
142
1.0
142
0.0
142
0.0
142
0.0
142
0.0
142
1.0
179
     0
144
0.0008202099737533
144
0.0
144
0.0
144
0.0
144
0.0
144
0.0008202099737533
144
0.0
144
0.0
144
0.0
144
0.0
144
1.0
144
0.0
144
0.0
144
0.0
144
0.0
144
1.0
147
0.0008202099737533
147
0.0
147
0.0
147
0.0
147
0.0
147
0.0008202099737533
147
0.0
147
0.0
147
0.0
147
0.0
147
1.0
147
0.0
147
0.0
147
0.0
147
0.0
147
1.0
  0
MLEADERSTYLE
  5
2D21
102
{ACAD_REACTORS
330
2D20
102
}
330
2D20
100
AcDbMLeaderStyle
170
     2
171
     1
172
     0
 90
        2
 40
0.0
 41
0.0
173
     1
 91
-1056964608
340
14
 92
       -2
290
     1
 42
2.0
291
     1
 43
0.36
  3
Standard
 44
4.0
300

342
11
174
     1
178
     6
175
     1
176
     0
 93
-1056964608
 45
4.0
292
     0
297
     0
 46
4.0
 94
-1056964608
 47
1.0
 49
1.0
140
1.0
293
     1
141
0.0
294
     1
177
     0
142
1.0
295
     0
296
     0
143
0.125
1001
ACAD_MLEADERVER
1070
     2
  0
MLINESTYLE
  5
18
102
{ACAD_REACTORS
330
17
102
}
330
17
100
AcDbMlineStyle
  2
STANDARD
 70
     0
  3

 62
   256
 51
90.0
 52
90.0
 71
     2
 49
0.5
 62
   256
  6
BYLAYER
 49
-0.5
 62
   256
  6
BYLAYER
  0
ACDBPLACEHOLDER
  5
F
102
{ACAD_REACTORS
330
E
102
}
330
E
  0
ACDBPLACEHOLDER
  5
29
102
{ACAD_REACTORS
330
E
102
}
330
E
  0
SCALE
  5
2D0F
102
{ACAD_REACTORS
330
2D0E
102
}
330
2D0E
100
AcDbScale
 70
     0
300
1:1
140
1.0
141
1.0
290
     1
  0
SCALE
  5
2D10
102
{ACAD_REACTORS
330
2D0E
102
}
330
2D0E
100
AcDbScale
 70
     0
300
1:2
140
1.0
141
2.0
290
     0
  0
SCALE
  5
2D11
102
{ACAD_REACTORS
330
2D0E
102
}
330
2D0E
100
AcDbScale
 70
     0
300
1:4
140
1.0
141
4.0
290
     0
  0
SCALE
  5
2D12
102
{ACAD_REACTORS
330
2D0E
102
}
330
2D0E
100
AcDbScale
 70
     0
300
1:5
140
1.0
141
5.0
290
     0
  0
SCALE
  5
2D13
102
{ACAD_REACTORS
330
2D0E
102
}
330
2D0E
100
AcDbScale
 70
     0
300
1:8
140
1.0
141
8.0
290
     0
  0
SCALE
  5
2D14
102
{ACAD_REACTORS
330
2D0E
102
}
330
2D0E
100
AcDbScale
 70
     0
300
1:10
140
1.0
141
10.0
290
     0
  0
SCALE
  5
2D15
102
{ACAD_REACTORS
330
2D0E
102
}
330
2D0E
100
AcDbScale
 70
     0
300
1:16
140
1.0
141
16.0
290
     0
  0
SCALE
  5
2D16
102
{ACAD_REACTORS
330
2D0E
102
}
330
2D0E
100
AcDbScale
 70
     0
300
1:20
140
1.0
141
20.0
290
     0
  0
SCALE
  5
2D17
102
{ACAD_REACTORS
330
2D0E
102
}
330
2D0E
100
AcDbScale
 70
     0
300
1:30
140
1.0
141
30.0
290
     0
  0
SCALE
  5
2D18
102
{ACAD_REACTORS
330
2D0E
102
}
330
2D0E
100
AcDbScale
 70
     0
300
1:40
140
1.0
141
40.0
290
     0
  0
SCALE
  5
2D19
102
{ACAD_REACTORS
330
2D0E
102
}
330
2D0E
100
AcDbScale
 70
     0
300
1:50
140
1.0
141
50.0
290
     0
  0
SCALE
  5
2D1A
102
{ACAD_REACTORS
330
2D0E
102
}
330
2D0E
100
AcDbScale
 70
     0
300
1:100
140
1.0
141
100.0
290
     0
  0
SCALE
  5
2D1B
102
{ACAD_REACTORS
330
2D0E
102
}
330
2D0E
100
AcDbScale
 70
     0
300
2:1
140
2.0
141
1.0
290
     0
  0
SCALE
  5
2D1C
102
{ACAD_REACTORS
330
2D0E
102
}
330
2D0E
100
AcDbScale
 70
     0
300
4:1
140
4.0
141
1.0
290
     0
  0
SCALE
  5
2D1D
102
{ACAD_REACTORS
330
2D0E
102
}
330
2D0E
100
AcDbScale
 70
     0
300
8:1
140
8.0
141
1.0
290
     0
  0
SCALE
  5
2D1E
102
{ACAD_REACTORS
330
2D0E
102
}
330
2D0E
100
AcDbScale
 70
     0
300
10:1
140
10.0
141
1.0
290
     0
  0
SCALE
  5
2D1F
102
{ACAD_REACTORS
330
2D0E
102
}
330
2D0E
100
AcDbScale
 70
     0
300
100:1
140
100.0
141
1.0
290
     0
  0
ACDBSECTIONVIEWSTYLE
  5
2E3C
102
{ACAD_XDICTIONARY
360
34EE
102
}
102
{ACAD_REACTORS
330
2E3B
102
}
330
2E3B
100
AcDbModelDocViewStyle
 70
     0
  3
Metric50
290
     0
100
AcDbSectionViewStyle
 70
     0
 71
     0
 90
      102
 71
     1
340
11
 40
5.0
340
0
340
0
 40
5.0
300
I, O, Q, S, X, Z
 40
10.0
 90
        0
 40
2.5
 90
        0
 71
     2
340
16
 90
       25
340
16
 90
       50
 40
5.0
 40
2.5
 40
5.0
 71
     3
340
11
 40
5.0
 90
        0
 40
15.0
 90
        1
300
%<\AcVar ViewSectionStartId>%-%<\AcVar ViewSectionEndId>% (%<\AcVar ViewScale \f "%sn">%)
 71
     4
300
ANSI31
 40
1.0
 90
        0
290
     0
290
     0
 90
        6
 40
0.0
 40
1.570796326794896
 40
0.2617993877991494
 40
1.308996938995747
 40
-0.2617993877991494
 40
1.832595714594046
1001
ACAD
1000
AcRTDxfName
1000
ACDBSECTIONVIEWSTYLE
  0
TABLESTYLE
  5
2D0D
102
{ACAD_XDICTIONARY
360
2D88
102
}
102
{ACAD_REACTORS
330
2D0C
102
}
330
2D0C
100
AcDbTableStyle
  3
Standard
 70
     0
 71
     0
 40
1.5
 41
1.5
280
     0
281
     0
  7
Standard
140
4.5
170
     2
 62
     0
 63
     7
283
     0
274
    -2
284
     1
 64
     0
275
    -2
285
     1
 65
     0
276
    -2
286
     1
 66
     0
277
    -2
287
     1
 67
     0
278
    -2
288
     1
 68
     0
279
    -2
289
     1
 69
     0
  7
Standard
140
6.0
170
     5
 62
     0
 63
     7
283
     0
274
    -2
284
     1
 64
     0
275
    -2
285
     1
 65
     0
276
    -2
286
     1
 66
     0
277
    -2
287
     1
 67
     0
278
    -2
288
     1
 68
     0
279
    -2
289
     1
 69
     0
  7
Standard
140
4.5
170
     5
 62
     0
 63
     7
283
     0
274
    -2
284
     1
 64
     0
275
    -2
285
     1
 65
     0
276
    -2
286
     1
 66
     0
277
    -2
287
     1
 67
     0
278
    -2
288
     1
 68
     0
279
    -2
289
     1
 69
     0
  0
VISUALSTYLE
  5
2CFD
102
{ACAD_XDICTIONARY
360
34C3
102
}
102
{ACAD_REACTORS
330
2CF7
102
}
330
2CF7
100
AcDbVisualStyle
  2
2dWireframe
 70
     4
 71
     0
 72
     2
 73
     0
 90
        0
 40
-0.6
 41
-30.0
 62
     5
 63
     7
 74
     1
 91
        4
 64
     7
 65
   257
 75
     1
175
     1
 42
1.0
 92
        0
 66
   257
 43
1.0
 76
     1
 77
     6
 78
     2
 67
     7
 79
     5
170
     0
171
     0
290
     0
174
     0
 93
        1
 44
0.0
173
     0
291
     0
 45
0.0
1001
ACAD
1000
AcDbSavedByObjectVersion
1070
     0
  0
VISUALSTYLE
  5
2CFF
102
{ACAD_XDICTIONARY
360
34C7
102
}
102
{ACAD_REACTORS
330
2CF7
102
}
330
2CF7
100
AcDbVisualStyle
  2
3D Hidden
 70
     6
 71
     1
 72
     2
 73
     2
 90
        0
 40
-0.6
 41
-30.0
 62
     5
 63
     7
 74
     2
 91
        2
 64
     7
 65
   257
 75
     2
175
     1
 42
179.0
 92
        0
 66
   257
 43
1.0
 76
     1
 77
     6
 78
     2
 67
     7
 79
     3
170
     0
171
     0
290
     0
174
     0
 93
        1
 44
0.0
173
     0
291
     0
 45
0.0
1001
ACAD
1000
AcDbSavedByObjectVersion
1070
     0
  0
VISUALSTYLE
  5
2CFE
102
{ACAD_XDICTIONARY
360
34C5
102
}
102
{ACAD_REACTORS
330
2CF7
102
}
330
2CF7
100
AcDbVisualStyle
  2
3dWireframe
 70
     5
 71
     0
 72
     2
 73
     0
 90
        0
 40
-0.6
 41
-30.0
 62
     5
 63
     7
 74
     1
 91
        4
 64
     7
 65
   257
 75
     1
175
     1
 42
1.0
 92
        0
 66
   257
 43
1.0
 76
     1
 77
     6
 78
     2
 67
     7
 79
     5
170
     0
171
     0
290
     0
174
     0
 93
        1
 44
0.0
173
     0
291
     0
 45
0.0
1001
ACAD
1000
AcDbSavedByObjectVersion
1070
     0
  0
VISUALSTYLE
  5
2CFC
102
{ACAD_XDICTIONARY
360
34C1
102
}
102
{ACAD_REACTORS
330
2CF7
102
}
330
2CF7
100
AcDbVisualStyle
  2
Basic
 70
     7
 71
     1
 72
     0
 73
     1
 90
        0
 40
-0.6
 41
-30.0
 62
     5
 63
     7
 74
     0
 91
        4
 64
     7
 65
   257
 75
     1
175
     1
 42
1.0
 92
        8
 66
     7
 43
1.0
 76
     1
 77
     6
 78
     2
 67
     7
 79
     5
170
     0
171
     0
290
     0
174
     0
 93
        1
 44
0.0
173
     0
291
     1
 45
0.0
1001
ACAD
1000
AcDbSavedByObjectVersion
1070
     0
  0
VISUALSTYLE
  5
2D03
102
{ACAD_XDICTIONARY
360
34CF
102
}
102
{ACAD_REACTORS
330
2CF7
102
}
330
2CF7
100
AcDbVisualStyle
  2
Brighten
 70
    12
 71
     2
 72
     2
 73
     0
 90
        0
 40
-0.6
 41
-30.0
 62
     5
 63
     7
 74
     1
 91
        4
 64
     7
 65
   257
 75
     1
175
     1
 42
1.0
 92
        8
 66
     7
 43
1.0
 76
     1
 77
     6
 78
     2
 67
     7
 79
     5
170
     0
171
     0
290
     0
174
     0
 93
        1
 44
50.0
173
     0
291
     1
 45
0.0
1001
ACAD
1000
AcDbSavedByObjectVersion
1070
     0
  0
VISUALSTYLE
  5
2D07
102
{ACAD_XDICTIONARY
360
34D7
102
}
102
{ACAD_REACTORS
330
2CF7
102
}
330
2CF7
100
AcDbVisualStyle
  2
ColorChange
 70
    16
 71
     2
 72
     2
 73
     3
 90
        0
 40
-0.6
 41
-30.0
 62
     5
 63
     8
 74
     1
 91
        4
 64
     7
 65
   257
 75
     1
175
     1
 42
1.0
 92
        8
 66
     8
 43
1.0
 76
     1
 77
     6
 78
     2
 67
     7
 79
     5
170
     0
171
     0
290
     0
174
     0
 93
        1
 44
0.0
173
     0
291
     1
 45
0.0
1001
ACAD
1000
AcDbSavedByObjectVersion
1070
     0
  0
VISUALSTYLE
  5
2D00
102
{ACAD_XDICTIONARY
360
34C9
102
}
102
{ACAD_REACTORS
330
2CF7
102
}
330
2CF7
100
AcDbVisualStyle
  2
Conceptual
 70
     9
 71
     3
 72
     2
 73
     0
 90
        0
 40
-0.6
 41
-30.0
 62
     5
 63
     7
 74
     2
 91
        2
 64
     7
 65
   257
 75
     1
175
     1
 42
179.0
 92
        8
 66
     7
 43
1.0
 76
     1
 77
     6
 78
     2
 67
     7
 79
     3
170
     0
171
     0
290
     0
174
     0
 93
        1
 44
0.0
173
     0
291
     0
 45
0.0
1001
ACAD
1000
AcDbSavedByObjectVersion
1070
     0
  0
VISUALSTYLE
  5
2D02
102
{ACAD_XDICTIONARY
360
34CD
102
}
102
{ACAD_REACTORS
330
2CF7
102
}
330
2CF7
100
AcDbVisualStyle
  2
Dim
 70
    11
 71
     2
 72
     2
 73
     0
 90
        0
 40
-0.6
 41
-30.0
 62
     5
 63
     7
 74
     1
 91
        4
 64
     7
 65
   257
 75
     1
175
     1
 42
1.0
 92
        8
 66
     7
 43
1.0
 76
     1
 77
     6
 78
     2
 67
     7
 79
     5
170
     0
171
     0
290
     0
174
     0
 93
        1
 44
-50.0
173
     0
291
     1
 45
0.0
1001
ACAD
1000
AcDbSavedByObjectVersion
1070
     0
  0
VISUALSTYLE
  5
2D0A
102
{ACAD_XDICTIONARY
360
34DD
102
}
102
{ACAD_REACTORS
330
2CF7
102
}
330
2CF7
100
AcDbVisualStyle
  2
EdgeColorOff
 70
    22
 71
     2
 72
     2
 73
     0
 90
        0
 40
-0.6
 41
-30.0
 62
     5
 63
     7
 74
     1
 91
        4
 64
     7
 65
   257
 75
     1
175
     1
 42
1.0
 92
        8
 66
     7
 43
1.0
 76
     1
 77
     6
 78
     2
 67
     7
 79
     5
170
     0
171
     0
290
     0
174
     0
 93
        1
 44
0.0
173
     0
291
     1
 45
0.0
1001
ACAD
1000
AcDbSavedByObjectVersion
1070
     0
  0
VISUALSTYLE
  5
2D06
102
{ACAD_XDICTIONARY
360
34D5
102
}
102
{ACAD_REACTORS
330
2CF7
102
}
330
2CF7
100
AcDbVisualStyle
  2
Facepattern
 70
    15
 71
     2
 72
     2
 73
     0
 90
        0
 40
-0.6
 41
-30.0
 62
     5
 63
     7
 74
     1
 91
        4
 64
     7
 65
   257
 75
     1
175
     1
 42
1.0
 92
        8
 66
     7
 43
1.0
 76
     1
 77
     6
 78
     2
 67
     7
 79
     5
170
     0
171
     0
290
     0
174
     0
 93
        1
 44
0.0
173
     0
291
     1
 45
0.0
1001
ACAD
1000
AcDbSavedByObjectVersion
1070
     0
  0
VISUALSTYLE
  5
2CF8
102
{ACAD_XDICTIONARY
360
34B9
102
}
102
{ACAD_REACTORS
330
2CF7
102
}
330
2CF7
100
AcDbVisualStyle
  2
Flat
 70
     0
 71
     2
 72
     1
 73
     1
 90
        2
 40
-0.6
 41
30.0
 62
     5
 63
     7
 74
     0
 91
        4
 64
     7
 65
   257
 75
     1
175
     1
 42
1.0
 92
        8
 66
     7
 43
1.0
 76
     1
 77
     6
 78
     2
 67
     7
 79
     5
170
     0
171
     0
290
     0
174
     0
 93
       13
 44
0.0
173
     0
291
     1
 45
0.0
1001
ACAD
1000
AcDbSavedByObjectVersion
1070
     0
  0
VISUALSTYLE
  5
2CF9
102
{ACAD_XDICTIONARY
360
34BB
102
}
102
{ACAD_REACTORS
330
2CF7
102
}
330
2CF7
100
AcDbVisualStyle
  2
FlatWithEdges
 70
     1
 71
     2
 72
     1
 73
     1
 90
        2
 40
-0.6
 41
30.0
 62
     5
 63
     7
 74
     1
 91
        4
 64
     7
 65
   257
 75
     1
175
     1
 42
1.0
 92
        0
 66
   257
 43
1.0
 76
     1
 77
     6
 78
     2
 67
     7
 79
     5
170
     0
171
     0
290
     0
174
     0
 93
       13
 44
0.0
173
     0
291
     1
 45
0.0
1001
ACAD
1000
AcDbSavedByObjectVersion
1070
     0
  0
VISUALSTYLE
  5
2CFA
102
{ACAD_XDICTIONARY
360
34BD
102
}
102
{ACAD_REACTORS
330
2CF7
102
}
330
2CF7
100
AcDbVisualStyle
  2
Gouraud
 70
     2
 71
     2
 72
     2
 73
     1
 90
        2
 40
-0.6
 41
30.0
 62
     5
 63
     7
 74
     0
 91
        4
 64
     7
 65
   257
 75
     1
175
     1
 42
1.0
 92
        0
 66
     7
 43
1.0
 76
     1
 77
     6
 78
     2
 67
     7
 79
     5
170
     0
171
     0
290
     0
174
     0
 93
       13
 44
0.0
173
     0
291
     1
 45
0.0
1001
ACAD
1000
AcDbSavedByObjectVersion
1070
     0
  0
VISUALSTYLE
  5
2CFB
102
{ACAD_XDICTIONARY
360
34BF
102
}
102
{ACAD_REACTORS
330
2CF7
102
}
330
2CF7
100
AcDbVisualStyle
  2
GouraudWithEdges
 70
     3
 71
     2
 72
     2
 73
     1
 90
        2
 40
-0.6
 41
30.0
 62
     5
 63
     7
 74
     1
 91
        4
 64
     7
 65
   257
 75
     1
175
     1
 42
1.0
 92
        0
 66
   257
 43
1.0
 76
     1
 77
     6
 78
     2
 67
     7
 79
     5
170
     0
171
     0
290
     0
174
     0
 93
       13
 44
0.0
173
     0
291
     1
 45
0.0
1001
ACAD
1000
AcDbSavedByObjectVersion
1070
     0
  0
VISUALSTYLE
  5
2E35
102
{ACAD_XDICTIONARY
360
34E2
102
}
102
{ACAD_REACTORS
330
2CF7
102
}
330
2CF7
100
AcDbVisualStyle
  2
Hidden
 70
     6
 71
     1
 72
     2
 73
     2
 90
        0
 40
-0.6
 41
-30.0
 62
     5
 63
     7
 74
     2
 91
        2
 64
     7
 65
   257
 75
     2
175
     1
 42
40.0
 92
        0
 66
   257
 43
1.0
 76
     1
 77
     6
 78
     2
 67
     7
 79
     3
170
     0
171
     0
290
     0
174
     0
 93
        1
 44
0.0
173
     0
291
     0
 45
0.0
1001
ACAD
1000
AcDbSavedByObjectVersion
1070
     0
  0
VISUALSTYLE
  5
2D08
102
{ACAD_XDICTIONARY
360
34D9
102
}
102
{ACAD_REACTORS
330
2CF7
102
}
330
2CF7
100
AcDbVisualStyle
  2
JitterOff
 70
    20
 71
     2
 72
     2
 73
     0
 90
        0
 40
-0.6
 41
-30.0
 62
     5
 63
     7
 74
     1
 91
        4
 64
     7
 65
   257
 75
     1
175
     1
 42
1.0
 92
       10
 66
     7
 43
1.0
 76
     1
 77
     6
 78
     2
 67
     7
 79
     5
170
     0
171
     0
290
     0
174
     0
 93
        1
 44
0.0
173
     0
291
     1
 45
0.0
1001
ACAD
1000
AcDbSavedByObjectVersion
1070
     0
  0
VISUALSTYLE
  5
2D05
102
{ACAD_XDICTIONARY
360
34D3
102
}
102
{ACAD_REACTORS
330
2CF7
102
}
330
2CF7
100
AcDbVisualStyle
  2
Linepattern
 70
    14
 71
     2
 72
     2
 73
     0
 90
        0
 40
-0.6
 41
-30.0
 62
     5
 63
     7
 74
     1
 91
        4
 64
     7
 65
   257
 75
     7
175
     7
 42
1.0
 92
        8
 66
     7
 43
1.0
 76
     1
 77
     6
 78
     2
 67
     7
 79
     5
170
     0
171
     0
290
     0
174
     0
 93
        1
 44
0.0
173
     0
291
     1
 45
0.0
1001
ACAD
1000
AcDbSavedByObjectVersion
1070
     0
  0
VISUALSTYLE
  5
2D09
102
{ACAD_XDICTIONARY
360
34DB
102
}
102
{ACAD_REACTORS
330
2CF7
102
}
330
2CF7
100
AcDbVisualStyle
  2
OverhangOff
 70
    21
 71
     2
 72
     2
 73
     0
 90
        0
 40
-0.6
 41
-30.0
 62
     5
 63
     7
 74
     1
 91
        4
 64
     7
 65
   257
 75
     1
175
     1
 42
1.0
 92
        9
 66
     7
 43
1.0
 76
     1
 77
     6
 78
     2
 67
     7
 79
     5
170
     0
171
     0
290
     0
174
     0
 93
        1
 44
0.0
173
     0
291
     1
 45
0.0
1001
ACAD
1000
AcDbSavedByObjectVersion
1070
     0
  0
VISUALSTYLE
  5
2D01
102
{ACAD_XDICTIONARY
360
34CB
102
}
102
{ACAD_REACTORS
330
2CF7
102
}
330
2CF7
100
AcDbVisualStyle
  2
Realistic
 70
     8
 71
     2
 72
     2
 73
     0
 90
        0
 40
-0.6
 41
-30.0
 62
     5
 63
     7
 74
     1
 91
        0
 64
     7
 65
   257
 75
     1
175
     1
 42
1.0
 92
        8
 66
     8
 43
1.0
 76
     1
 77
     6
 78
     2
 67
     7
 79
     5
170
     0
171
     0
290
     0
174
     0
 93
       13
 44
0.0
173
     0
291
     0
 45
0.0
1001
ACAD
1000
AcDbSavedByObjectVersion
1070
     0
  0
VISUALSTYLE
  5
2E3A
102
{ACAD_XDICTIONARY
360
34EC
102
}
102
{ACAD_REACTORS
330
2CF7
102
}
330
2CF7
100
AcDbVisualStyle
  2
Shaded
 70
    27
 71
     2
 72
     2
 73
     1
 90
        2
 40
-0.6
 41
30.0
 62
     5
 63
     7
 74
     0
 91
        4
 64
     7
 65
   257
 75
     1
175
     1
 42
1.0
 92
        8
 66
   257
 43
1.0
 76
     1
 77
     6
 78
     2
 67
     8
 79
     3
170
     0
171
     0
290
     0
174
     0
 93
        5
 44
0.0
173
     0
291
     0
 45
0.0
1001
ACAD
1000
AcDbSavedByObjectVersion
1070
     0
  0
VISUALSTYLE
  5
2E39
102
{ACAD_XDICTIONARY
360
34EA
102
}
102
{ACAD_REACTORS
330
2CF7
102
}
330
2CF7
100
AcDbVisualStyle
  2
Shaded with edges
 70
    26
 71
     2
 72
     2
 73
     1
 90
        2
 40
-0.6
 41
30.0
 62
     5
 63
     7
 74
     1
 91
        2
 64
     7
 65
   257
 75
     2
175
     1
 42
1.0
 92
        8
 66
   257
 43
1.0
 76
     1
 77
     6
 78
     2
 67
     7
 79
     3
170
     0
171
     0
290
     0
174
     0
 93
        5
 44
0.0
173
     0
291
     0
 45
0.0
1001
ACAD
1000
AcDbSavedByObjectVersion
1070
     0
  0
VISUALSTYLE
  5
2E36
102
{ACAD_XDICTIONARY
360
34E4
102
}
102
{ACAD_REACTORS
330
2CF7
102
}
330
2CF7
100
AcDbVisualStyle
  2
Shades of Gray
 70
    23
 71
     2
 72
     2
 73
     3
 90
        0
 40
-0.6
 41
-30.0
 62
     5
 63
     7
 74
     2
 91
        2
 64
     7
 65
     7
 75
     1
175
     1
 42
40.0
 92
        8
 66
     7
 43
1.0
 76
     1
 77
     6
 78
     2
 67
     7
 79
     3
170
     0
171
     0
290
     0
174
     0
 93
        1
 44
0.0
173
     0
291
     0
 45
0.0
1001
ACAD
1000
AcDbSavedByObjectVersion
1070
     0
  0
VISUALSTYLE
  5
2E37
102
{ACAD_XDICTIONARY
360
34E6
102
}
102
{ACAD_REACTORS
330
2CF7
102
}
330
2CF7
100
AcDbVisualStyle
  2
Sketchy
 70
    24
 71
     1
 72
     2
 73
     2
 90
        0
 40
-0.6
 41
-30.0
 62
     5
 63
     7
 74
     2
 91
        2
 64
     7
 65
     7
 75
     1
175
     1
 42
40.0
 92
       11
 66
     7
 43
1.0
 76
     1
 77
     6
 78
     2
 67
     7
 79
     6
170
     0
171
     0
290
     0
174
     0
 93
        1
 44
0.0
173
     0
291
     0
 45
0.0
1001
ACAD
1000
AcDbSavedByObjectVersion
1070
     0
  0
VISUALSTYLE
  5
2D04
102
{ACAD_XDICTIONARY
360
34D1
102
}
102
{ACAD_REACTORS
330
2CF7
102
}
330
2CF7
100
AcDbVisualStyle
  2
Thicken
 70
    13
 71
     2
 72
     2
 73
     0
 90
        0
 40
-0.6
 41
-30.0
 62
     5
 63
     7
 74
     1
 91
        4
 64
     7
 65
   257
 75
     1
175
     1
 42
1.0
 92
       12
 66
     7
 43
1.0
 76
     1
 77
     6
 78
     2
 67
     7
 79
     5
170
     0
171
     0
290
     0
174
     0
 93
        1
 44
0.0
173
     0
291
     1
 45
0.0
1001
ACAD
1000
AcDbSavedByObjectVersion
1070
     0
  0
VISUALSTYLE
  5
2E34
102
{ACAD_XDICTIONARY
360
34E0
102
}
102
{ACAD_REACTORS
330
2CF7
102
}
330
2CF7
100
AcDbVisualStyle
  2
Wireframe
 70
     5
 71
     0
 72
     2
 73
     0
 90
        0
 40
-0.6
 41
-30.0
 62
     5
 63
     7
 74
     1
 91
        4
 64
     7
 65
   257
 75
     1
175
     1
 42
1.0
 92
        0
 66
   257
 43
1.0
 76
     1
 77
     6
 78
     2
 67
     7
 79
     3
170
     0
171
     0
290
     0
174
     0
 93
        1
 44
0.0
173
     0
291
     0
 45
0.0
1001
ACAD
1000
AcDbSavedByObjectVersion
1070
     0
  0
VISUALSTYLE
  5
2E38
102
{ACAD_XDICTIONARY
360
34E8
102
}
102
{ACAD_REACTORS
330
2CF7
102
}
330
2CF7
100
AcDbVisualStyle
  2
X-Ray
 70
    25
 71
     2
 72
     2
 73
     1
 90
        1
 40
0.5
 41
-30.0
 62
     5
 63
     7
 74
     1
 91
        0
 64
     7
 65
   257
 75
     1
175
     1
 42
1.0
 92
        8
 66
     7
 43
1.0
 76
     1
 77
     6
 78
     2
 67
     7
 79
     3
170
     0
171
     0
290
     0
174
     0
 93
       13
 44
0.0
173
     0
291
     0
 45
0.0
1001
ACAD
1000
AcDbSavedByObjectVersion
1070
     0
  0
DICTIONARYVAR
  5
2DBF
102
{ACAD_REACTORS
330
1835
102
}
330
1835
100
DictionaryVariables
280
     0
  1
1:1
  0
DICTIONARYVAR
  5
2DBE
102
{ACAD_REACTORS
330
1835
102
}
330
1835
100
DictionaryVariables
280
     0
  1
STANDARD
  0
DICTIONARYVAR
  5
2DBD
102
{ACAD_REACTORS
330
1835
102
}
330
1835
100
DictionaryVariables
280
     0
  1
STANDARD
  0
DICTIONARYVAR
  5
2F1A
102
{ACAD_REACTORS
330
1835
102
}
330
1835
100
DictionaryVariables
280
     0
  1
Metric50
  0
DICTIONARYVAR
  5
2F1B
102
{ACAD_REACTORS
330
1835
102
}
330
1835
100
DictionaryVariables
280
     0
  1
Metric50
  0
DICTIONARYVAR
  5
2DC1
102
{ACAD_REACTORS
330
1835
102
}
330
1835
100
DictionaryVariables
280
     0
  1
1
  0
DICTIONARYVAR
  5
2DC0
102
{ACAD_REACTORS
330
1835
102
}
330
1835
100
DictionaryVariables
280
     0
  1
0
  0
DICTIONARYVAR
  5
1836
102
{ACAD_REACTORS
330
1835
102
}
330
1835
100
DictionaryVariables
280
     0
  1
127
  0
DICTIONARYVAR
  5
34AE
102
{ACAD_REACTORS
330
1835
102
}
330
1835
100
DictionaryVariables
280
     0
  1
2
  0
DICTIONARY
  5
34F0
330
2E3E
100
AcDbDictionary
280
     1
281
     1
  3
ACAD_XREC_ROUNDTRIP
360
34F1
  0
DICTIONARY
  5
34B2
330
22
100
AcDbDictionary
280
     1
281
     1
  3
ACAD_XREC_ROUNDTRIP
360
34B3
  0
DICTIONARY
  5
34B4
330
1CD1
100
AcDbDictionary
280
     1
281
     1
  3
ACAD_XREC_ROUNDTRIP
360
34B5
  0
DICTIONARY
  5
2CE8
330
2CE7
100
AcDbDictionary
280
     1
281
     1
  3
ACAD_XREC_ROUNDTRIP
360
34B7
  3
BUMPTILE
360
2CEA
  3
DIFFUSETILE
360
2CE9
  3
OPACITYTILE
360
2CED
  3
REFLECTIONTILE
360
2CEC
  3
REFRACTIONTILE
360
2CEE
  3
SPECULARTILE
360
2CEB
  0
DICTIONARY
  5
2CE0
330
2CDF
100
AcDbDictionary
280
     1
281
     1
  3
ACAD_XREC_ROUNDTRIP
360
34B6
  3
BUMPTILE
360
2CE2
  3
DIFFUSETILE
360
2CE1
  3
OPACITYTILE
360
2CE5
  3
REFLECTIONTILE
360
2CE4
  3
REFRACTIONTILE
360
2CE6
  3
SPECULARTILE
360
2CE3
  0
DICTIONARY
  5
2CF0
330
2CEF
100
AcDbDictionary
280
     1
281
     1
  3
ACAD_XREC_ROUNDTRIP
360
34B8
  3
BUMPTILE
360
2CF2
  3
DIFFUSETILE
360
2CF1
  3
OPACITYTILE
360
2CF5
  3
REFLECTIONTILE
360
2CF4
  3
REFRACTIONTILE
360
2CF6
  3
SPECULARTILE
360
2CF3
  0
DICTIONARY
  5
34EE
330
2E3C
100
AcDbDictionary
280
     1
281
     1
  3
ACAD_XREC_ROUNDTRIP
360
34EF
  0
DICTIONARY
  5
2D88
330
2D0D
100
AcDbDictionary
280
     1
281
     1
  3
ACAD_ROUNDTRIP_2008_TABLESTYLE_CELLSTYLEMAP
360
34AF
  3
ACAD_XREC_ROUNDTRIP
360
34DF
  0
DICTIONARY
  5
34C3
330
2CFD
100
AcDbDictionary
280
     1
281
     1
  3
ACAD_XREC_ROUNDTRIP
360
34C4
  0
DICTIONARY
  5
34C7
330
2CFF
100
AcDbDictionary
280
     1
281
     1
  3
ACAD_XREC_ROUNDTRIP
360
34C8
  0
DICTIONARY
  5
34C5
330
2CFE
100
AcDbDictionary
280
     1
281
     1
  3
ACAD_XREC_ROUNDTRIP
360
34C6
  0
DICTIONARY
  5
34C1
330
2CFC
100
AcDbDictionary
280
     1
281
     1
  3
ACAD_XREC_ROUNDTRIP
360
34C2
  0
DICTIONARY
  5
34CF
330
2D03
100
AcDbDictionary
280
     1
281
     1
  3
ACAD_XREC_ROUNDTRIP
360
34D0
  0
DICTIONARY
  5
34D7
330
2D07
100
AcDbDictionary
280
     1
281
     1
  3
ACAD_XREC_ROUNDTRIP
360
34D8
  0
DICTIONARY
  5
34C9
330
2D00
100
AcDbDictionary
280
     1
281
     1
  3
ACAD_XREC_ROUNDTRIP
360
34CA
  0
DICTIONARY
  5
34CD
330
2D02
100
AcDbDictionary
280
     1
281
     1
  3
ACAD_XREC_ROUNDTRIP
360
34CE
  0
DICTIONARY
  5
34DD
330
2D0A
100
AcDbDictionary
280
     1
281
     1
  3
ACAD_XREC_ROUNDTRIP
360
34DE
  0
DICTIONARY
  5
34D5
330
2D06
100
AcDbDictionary
280
     1
281
     1
  3
ACAD_XREC_ROUNDTRIP
360
34D6
  0
DICTIONARY
  5
34B9
330
2CF8
100
AcDbDictionary
280
     1
281
     1
  3
ACAD_XREC_ROUNDTRIP
360
34BA
  0
DICTIONARY
  5
34BB
330
2CF9
100
AcDbDictionary
280
     1
281
     1
  3
ACAD_XREC_ROUNDTRIP
360
34BC
  0
DICTIONARY
  5
34BD
330
2CFA
100
AcDbDictionary
280
     1
281
     1
  3
ACAD_XREC_ROUNDTRIP
360
34BE
  0
DICTIONARY
  5
34BF
330
2CFB
100
AcDbDictionary
280
     1
281
     1
  3
ACAD_XREC_ROUNDTRIP
360
34C0
  0
DICTIONARY
  5
34E2
330
2E35
100
AcDbDictionary
280
     1
281
     1
  3
ACAD_XREC_ROUNDTRIP
360
34E3
  0
DICTIONARY
  5
34D9
330
2D08
100
AcDbDictionary
280
     1
281
     1
  3
ACAD_XREC_ROUNDTRIP
360
34DA
  0
DICTIONARY
  5
34D3
330
2D05
100
AcDbDictionary
280
     1
281
     1
  3
ACAD_XREC_ROUNDTRIP
360
34D4
  0
DICTIONARY
  5
34DB
330
2D09
100
AcDbDictionary
280
     1
281
     1
  3
ACAD_XREC_ROUNDTRIP
360
34DC
  0
DICTIONARY
  5
34CB
330
2D01
100
AcDbDictionary
280
     1
281
     1
  3
ACAD_XREC_ROUNDTRIP
360
34CC
  0
DICTIONARY
  5
34EC
330
2E3A
100
AcDbDictionary
280
     1
281
     1
  3
ACAD_XREC_ROUNDTRIP
360
34ED
  0
DICTIONARY
  5
34EA
330
2E39
100
AcDbDictionary
280
     1
281
     1
  3
ACAD_XREC_ROUNDTRIP
360
34EB
  0
DICTIONARY
  5
34E4
330
2E36
100
AcDbDictionary
280
     1
281
     1
  3
ACAD_XREC_ROUNDTRIP
360
34E5
  0
DICTIONARY
  5
34E6
330
2E37
100
AcDbDictionary
280
     1
281
     1
  3
ACAD_XREC_ROUNDTRIP
360
34E7
  0
DICTIONARY
  5
34D1
330
2D04
100
AcDbDictionary
280
     1
281
     1
  3
ACAD_XREC_ROUNDTRIP
360
34D2
  0
DICTIONARY
  5
34E0
330
2E34
100
AcDbDictionary
280
     1
281
     1
  3
ACAD_XREC_ROUNDTRIP
360
34E1
  0
DICTIONARY
  5
34E8
330
2E38
100
AcDbDictionary
280
     1
281
     1
  3
ACAD_XREC_ROUNDTRIP
360
34E9
  0
XRECORD
  5
34F1
102
{ACAD_REACTORS
330
34F0
102
}
330
34F0
100
AcDbXrecord
280
     1
102
DISPLAYNAME
  1
Metric50
102
FLAGS
 90
        0
  0
XRECORD
  5
34B3
102
{ACAD_REACTORS
330
34B2
102
}
330
34B2
100
AcDbXrecord
280
     1
102
SHADEPLOT
 70
     0
102
SHADEPLOTRESLEVEL
 70
     2
102
SHADEPLOTCUSTOMDPI
 70
   300
  0
XRECORD
  5
34B5
102
{ACAD_REACTORS
330
34B4
102
}
330
34B4
100
AcDbXrecord
280
     1
102
SHADEPLOT
 70
     0
102
SHADEPLOTRESLEVEL
 70
     2
102
SHADEPLOTCUSTOMDPI
 70
   300
  0
XRECORD
  5
34B7
102
{ACAD_REACTORS
330
2CE8
102
}
330
2CE8
100
AcDbXrecord
280
     1
102
MATERIAL
148
0.0
149
0.0
149
0.0
 93
        0
 94
      127
282
     0
 72
     0
 77
     0
171
     0
175
     0
179
     0
273
     0
  0
XRECORD
  5
2CEA
102
{ACAD_REACTORS
330
2CE8
102
}
330
2CE8
100
AcDbXrecord
280
     1
270
     1
271
     1
  0
XRECORD
  5
2CE9
102
{ACAD_REACTORS
330
2CE8
102
}
330
2CE8
100
AcDbXrecord
280
     1
270
     1
271
     1
  0
XRECORD
  5
2CED
102
{ACAD_REACTORS
330
2CE8
102
}
330
2CE8
100
AcDbXrecord
280
     1
270
     1
271
     1
  0
XRECORD
  5
2CEC
102
{ACAD_REACTORS
330
2CE8
102
}
330
2CE8
100
AcDbXrecord
280
     1
270
     1
271
     1
  0
XRECORD
  5
2CEE
102
{ACAD_REACTORS
330
2CE8
102
}
330
2CE8
100
AcDbXrecord
280
     1
270
     1
271
     1
  0
XRECORD
  5
2CEB
102
{ACAD_REACTORS
330
2CE8
102
}
330
2CE8
100
AcDbXrecord
280
     1
270
     1
271
     1
  0
XRECORD
  5
34B6
102
{ACAD_REACTORS
330
2CE0
102
}
330
2CE0
100
AcDbXrecord
280
     1
102
MATERIAL
148
0.0
149
0.0
149
0.0
 93
        0
 94
      127
282
     0
 72
     0
 77
     0
171
     0
175
     0
179
     0
273
     0
  0
XRECORD
  5
2CE2
102
{ACAD_REACTORS
330
2CE0
102
}
330
2CE0
100
AcDbXrecord
280
     1
270
     1
271
     1
  0
XRECORD
  5
2CE1
102
{ACAD_REACTORS
330
2CE0
102
}
330
2CE0
100
AcDbXrecord
280
     1
270
     1
271
     1
  0
XRECORD
  5
2CE5
102
{ACAD_REACTORS
330
2CE0
102
}
330
2CE0
100
AcDbXrecord
280
     1
270
     1
271
     1
  0
XRECORD
  5
2CE4
102
{ACAD_REACTORS
330
2CE0
102
}
330
2CE0
100
AcDbXrecord
280
     1
270
     1
271
     1
  0
XRECORD
  5
2CE6
102
{ACAD_REACTORS
330
2CE0
102
}
330
2CE0
100
AcDbXrecord
280
     1
270
     1
271
     1
  0
XRECORD
  5
2CE3
102
{ACAD_REACTORS
330
2CE0
102
}
330
2CE0
100
AcDbXrecord
280
     1
270
     1
271
     1
  0
XRECORD
  5
34B8
102
{ACAD_REACTORS
330
2CF0
102
}
330
2CF0
100
AcDbXrecord
280
     1
102
MATERIAL
148
0.0
149
0.0
149
0.0
 93
        0
 94
      127
282
     0
 72
     0
 77
     0
171
     0
175
     0
179
     0
273
     0
  0
XRECORD
  5
2CF2
102
{ACAD_REACTORS
330
2CF0
102
}
330
2CF0
100
AcDbXrecord
280
     1
270
     1
271
     1
  0
XRECORD
  5
2CF1
102
{ACAD_REACTORS
330
2CF0
102
}
330
2CF0
100
AcDbXrecord
280
     1
270
     1
271
     1
  0
XRECORD
  5
2CF5
102
{ACAD_REACTORS
330
2CF0
102
}
330
2CF0
100
AcDbXrecord
280
     1
270
     1
271
     1
  0
XRECORD
  5
2CF4
102
{ACAD_REACTORS
330
2CF0
102
}
330
2CF0
100
AcDbXrecord
280
     1
270
     1
271
     1
  0
XRECORD
  5
2CF6
102
{ACAD_REACTORS
330
2CF0
102
}
330
2CF0
100
AcDbXrecord
280
     1
270
     1
271
     1
  0
XRECORD
  5
2CF3
102
{ACAD_REACTORS
330
2CF0
102
}
330
2CF0
100
AcDbXrecord
280
     1
270
     1
271
     1
  0
XRECORD
  5
34EF
102
{ACAD_REACTORS
330
34EE
102
}
330
34EE
100
AcDbXrecord
280
     1
102
DISPLAYNAME
  1
Metric50
102
FLAGS
 90
        0
  0
CELLSTYLEMAP
  5
34AF
102
{ACAD_REACTORS
330
2D88
102
}
330
2D88
100
AcDbCellStyleMap
 90
        3
300
CELLSTYLE
  1
TABLEFORMAT_BEGIN
 90
        5
170
     1
 91
        0
 92
    32768
 62
   257
 93
        1
300
CONTENTFORMAT
  1
CONTENTFORMAT_BEGIN
 90
        0
 91
        0
 92
      512
 93
        0
300

 40
0.0
140
1.0
 94
        5
 62
     0
340
11
144
6.0
309
CONTENTFORMAT_END
171
     1
301
MARGIN
  1
CELLMARGIN_BEGIN
 40
1.5
 40
1.5
 40
1.5
 40
1.5
 40
4.5
 40
4.5
309
CELLMARGIN_END
 94
        6
 95
        1
302
GRIDFORMAT
  1
GRIDFORMAT_BEGIN
 90
        0
 91
        1
 62
     0
 92
       -2
340
0
 93
        0
 40
1.125
309
GRIDFORMAT_END
 95
        2
302
GRIDFORMAT
  1
GRIDFORMAT_BEGIN
 90
        0
 91
        1
 62
     0
 92
       -2
340
0
 93
        0
 40
1.125
309
GRIDFORMAT_END
 95
        4
302
GRIDFORMAT
  1
GRIDFORMAT_BEGIN
 90
        0
 91
        1
 62
     0
 92
       -2
340
0
 93
        0
 40
1.125
309
GRIDFORMAT_END
 95
        8
302
GRIDFORMAT
  1
GRIDFORMAT_BEGIN
 90
        0
 91
        1
 62
     0
 92
       -2
340
0
 93
        0
 40
1.125
309
GRIDFORMAT_END
 95
       16
302
GRIDFORMAT
  1
GRIDFORMAT_BEGIN
 90
        0
 91
        1
 62
     0
 92
       -2
340
0
 93
        0
 40
1.125
309
GRIDFORMAT_END
 95
       32
302
GRIDFORMAT
  1
GRIDFORMAT_BEGIN
 90
        0
 91
        1
 62
     0
 92
       -2
340
0
 93
        0
 40
1.125
309
GRIDFORMAT_END
309
TABLEFORMAT_END
  1
CELLSTYLE_BEGIN
 90
        1
 91
        1
300
_TITLE
309
CELLSTYLE_END
300
CELLSTYLE
  1
TABLEFORMAT_BEGIN
 90
        5
170
     1
 91
        0
 92
        0
 62
   257
 93
        1
300
CONTENTFORMAT
  1
CONTENTFORMAT_BEGIN
 90
        0
 91
        0
 92
      512
 93
        0
300

 40
0.0
140
1.0
 94
        5
 62
     0
340
11
144
4.5
309
CONTENTFORMAT_END
171
     1
301
MARGIN
  1
CELLMARGIN_BEGIN
 40
1.5
 40
1.5
 40
1.5
 40
1.5
 40
4.5
 40
4.5
309
CELLMARGIN_END
 94
        6
 95
        1
302
GRIDFORMAT
  1
GRIDFORMAT_BEGIN
 90
        0
 91
        1
 62
     0
 92
       -2
340
0
 93
        0
 40
1.125
309
GRIDFORMAT_END
 95
        2
302
GRIDFORMAT
  1
GRIDFORMAT_BEGIN
 90
        0
 91
        1
 62
     0
 92
       -2
340
0
 93
        0
 40
1.125
309
GRIDFORMAT_END
 95
        4
302
GRIDFORMAT
  1
GRIDFORMAT_BEGIN
 90
        0
 91
        1
 62
     0
 92
       -2
340
0
 93
        0
 40
1.125
309
GRIDFORMAT_END
 95
        8
302
GRIDFORMAT
  1
GRIDFORMAT_BEGIN
 90
        0
 91
        1
 62
     0
 92
       -2
340
0
 93
        0
 40
1.125
309
GRIDFORMAT_END
 95
       16
302
GRIDFORMAT
  1
GRIDFORMAT_BEGIN
 90
        0
 91
        1
 62
     0
 92
       -2
340
0
 93
        0
 40
1.125
309
GRIDFORMAT_END
 95
       32
302
GRIDFORMAT
  1
GRIDFORMAT_BEGIN
 90
        0
 91
        1
 62
     0
 92
       -2
340
0
 93
        0
 40
1.125
309
GRIDFORMAT_END
309
TABLEFORMAT_END
  1
CELLSTYLE_BEGIN
 90
        2
 91
        1
300
_HEADER
309
CELLSTYLE_END
300
CELLSTYLE
  1
TABLEFORMAT_BEGIN
 90
        5
170
     1
 91
        0
 92
        0
 62
   257
 93
        1
300
CONTENTFORMAT
  1
CONTENTFORMAT_BEGIN
 90
        0
 91
        0
 92
      512
 93
        0
300

 40
0.0
140
1.0
 94
        2
 62
     0
340
11
144
4.5
309
CONTENTFORMAT_END
171
     1
301
MARGIN
  1
CELLMARGIN_BEGIN
 40
1.5
 40
1.5
 40
1.5
 40
1.5
 40
4.5
 40
4.5
309
CELLMARGIN_END
 94
        6
 95
        1
302
GRIDFORMAT
  1
GRIDFORMAT_BEGIN
 90
        0
 91
        1
 62
     0
 92
       -2
340
0
 93
        0
 40
1.125
309
GRIDFORMAT_END
 95
        2
302
GRIDFORMAT
  1
GRIDFORMAT_BEGIN
 90
        0
 91
        1
 62
     0
 92
       -2
340
0
 93
        0
 40
1.125
309
GRIDFORMAT_END
 95
        4
302
GRIDFORMAT
  1
GRIDFORMAT_BEGIN
 90
        0
 91
        1
 62
     0
 92
       -2
340
0
 93
        0
 40
1.125
309
GRIDFORMAT_END
 95
        8
302
GRIDFORMAT
  1
GRIDFORMAT_BEGIN
 90
        0
 91
        1
 62
     0
 92
       -2
340
0
 93
        0
 40
1.125
309
GRIDFORMAT_END
 95
       16
302
GRIDFORMAT
  1
GRIDFORMAT_BEGIN
 90
        0
 91
        1
 62
     0
 92
       -2
340
0
 93
        0
 40
1.125
309
GRIDFORMAT_END
 95
       32
302
GRIDFORMAT
  1
GRIDFORMAT_BEGIN
 90
        0
 91
        1
 62
     0
 92
       -2
340
0
 93
        0
 40
1.125
309
GRIDFORMAT_END
309
TABLEFORMAT_END
  1
CELLSTYLE_BEGIN
 90
        3
 91
        2
300
_DATA
309
CELLSTYLE_END
  0
XRECORD
  5
34DF
102
{ACAD_REACTORS
330
2D88
102
}
330
2D88
100
AcDbXrecord
280
     1
102
ACAD_ROUNDTRIP_PRE2007_TABLESTYLE
 90
      512
 91
        0
  1

 92
      512
 93
        0
  2

 94
      512
 95
        0
  3

  0
XRECORD
  5
34C4
102
{ACAD_REACTORS
330
34C3
102
}
330
34C3
100
AcDbXrecord
280
     1
102
RTVSPost2010Prop28
280
     1
102
RTVSPost2010PropOp28
 70
     1
102
RTVSPost2010Prop29
280
     1
102
RTVSPost2010PropOp29
 70
     1
102
RTVSPost2010Prop30
280
     0
102
RTVSPost2010PropOp30
 70
     1
102
RTVSPost2010Prop31
280
     0
102
RTVSPost2010PropOp31
 70
     1
102
RTVSPost2010Prop32
280
     0
102
RTVSPost2010PropOp32
 70
     1
102
RTVSPost2010Prop33
280
     0
102
RTVSPost2010PropOp33
 70
     1
102
RTVSPost2010Prop34
280
     0
102
RTVSPost2010PropOp34
 70
     1
102
RTVSPost2010Prop35
280
     0
102
RTVSPost2010PropOp35
 70
     1
102
RTVSPost2010Prop36
280
     0
102
RTVSPost2010PropOp36
 70
     1
102
RTVSPost2010Prop37
 90
       50
102
RTVSPost2010PropOp37
 70
     1
102
RTVSPost2010Prop38
140
0.0
102
RTVSPost2010PropOp38
 70
     1
102
RTVSPost2010Prop39
140
1.0
102
RTVSPost2010PropOp39
 70
     1
102
RTVSPost2010Prop40
 90
        0
102
RTVSPost2010PropOp40
 70
     1
102
RTVSPost2010Prop41ColorIndex
 90
       18
102
RTVSPost2010Prop41ColorRGB
 90
        0
102
RTVSPost2010PropOp41
 70
     1
102
RTVSPost2010Prop42
 90
       50
102
RTVSPost2010PropOp42
 70
     1
102
RTVSPost2010Prop43
 90
        3
102
RTVSPost2010PropOp43
 70
     1
102
RTVSPost2010Prop44ColorIndex
 90
        5
102
RTVSPost2010Prop44ColorRGB
 90
      255
102
RTVSPost2010PropOp44
 70
     1
102
RTVSPost2010Prop45
280
     0
102
RTVSPost2010PropOp45
 70
     1
102
RTVSPost2010Prop46
 90
       50
102
RTVSPost2010PropOp46
 70
     1
102
RTVSPost2010Prop47
 90
       50
102
RTVSPost2010PropOp47
 70
     1
102
RTVSPost2010Prop48
 90
       50
102
RTVSPost2010PropOp48
 70
     1
102
RTVSPost2010Prop49
280
     0
102
RTVSPost2010PropOp49
 70
     1
102
RTVSPost2010Prop50
 90
       50
102
RTVSPost2010PropOp50
 70
     1
102
RTVSPost2010Prop51ColorIndex
 90
      256
102
RTVSPost2010Prop51ColorRGB
 90
-16777216
102
RTVSPost2010PropOp51
 70
     0
102
RTVSPost2010Prop52
140
1.0
102
RTVSPost2010PropOp52
 70
     0
102
RTVSPost2010Prop53
 90
        2
102
RTVSPost2010PropOp53
 70
     1
102
RTVSPost2010Prop54
  1
strokes_ogs.tif
102
RTVSPost2010PropOp54
 70
     1
102
RTVSPost2010Prop55
280
     0
102
RTVSPost2010PropOp55
 70
     1
102
RTVSPost2010Prop56
140
1.0
102
RTVSPost2010PropOp56
 70
     1
102
RTVSPost2010Prop57
140
1.0
102
RTVSPost2010PropOp57
 70
     1
102
RTVSPropertyOp0
 70
     1
102
RTVSPropertyOp1
 70
     1
102
RTVSPropertyOp2
 70
     1
102
RTVSPropertyOp3
 70
     1
102
RTVSPropertyOp4
 70
     1
102
RTVSPropertyOp5
 70
     1
102
RTVSPropertyOp6
 70
     1
102
RTVSPropertyOp7
 70
     1
102
RTVSPropertyOp8
 70
     1
102
RTVSPropertyOp9
 70
     1
102
RTVSPropertyOp10
 70
     1
102
RTVSPropertyOp11
 70
     1
102
RTVSPropertyOp12
 70
     1
102
RTVSPropertyOp13
 70
     1
102
RTVSPropertyOp14
 70
     1
102
RTVSPropertyOp15
 70
     1
102
RTVSPropertyOp16
 70
     1
102
RTVSPropertyOp17
 70
     1
102
RTVSPropertyOp18
 70
     1
102
RTVSPropertyOp19
 70
     1
102
RTVSPropertyOp20
 70
     1
102
RTVSPropertyOp21
 70
     1
102
RTVSPropertyOp22
 70
     1
102
RTVSPropertyOp23
 70
     1
102
RTVSPropertyOp24
 70
     1
102
RTVSPropertyOp25
 70
     1
102
RTVSPropertyOp26
 70
     1
102
RTVSPropertyOp27
 70
     1
102
RTVSPropertyOp28
 70
     1
102
RTVSPropertyOp29
 70
     1
102
RTVSPropertyOp30
 70
     1
102
RTVSPropertyOp31
 70
     1
102
RTVSPropertyOp32
 70
     1
102
RTVSPropertyOp33
 70
     1
102
RTVSPropertyOp34
 70
     1
102
RTVSPropertyOp35
 70
     1
102
RTVSPropertyOp36
 70
     1
102
RTVSPropertyOp37
 70
     1
102
RTVSPropertyOp38
 70
     1
102
RTVSPropertyOp39
 70
     1
102
RTVSPropertyOp40
 70
     1
102
RTVSPropertyOp41
 70
     1
102
RTVSPropertyOp42
 70
     1
102
RTVSPropertyOp43
 70
     1
102
RTVSPropertyOp44
 70
     1
102
RTVSPropertyOp45
 70
     1
102
RTVSPropertyOp46
 70
     1
102
RTVSPropertyOp47
 70
     1
102
RTVSPropertyOp48
 70
     1
102
RTVSPropertyOp49
 70
     1
102
RTVSPropertyOp50
 70
     1
102
RTVSPropertyOp51
 70
     0
102
RTVSPropertyOp52
 70
     0
102
RTVSPropertyOp53
 70
     1
102
RTVSPropertyOp54
 70
     1
102
RTVSPropertyOp55
 70
     1
102
RTVSPropertyOp56
 70
     1
102
RTVSPropertyOp57
 70
     1
102
RTVSPropertyOp58
 70
     1
102
RTVSPropertyOp59
 70
     1
102
RTVSPropertyOp60
 70
     1
102
RTVSPropertyOp61
 70
     1
102
RTVSPropertyOp62
 70
     1
  0
XRECORD
  5
34C8
102
{ACAD_REACTORS
330
34C7
102
}
330
34C7
100
AcDbXrecord
280
     1
102
RTVSPost2010Prop28
280
     0
102
RTVSPost2010PropOp28
 70
     1
102
RTVSPost2010Prop29
280
     1
102
RTVSPost2010PropOp29
 70
     1
102
RTVSPost2010Prop30
280
     1
102
RTVSPost2010PropOp30
 70
     1
102
RTVSPost2010Prop31
280
     0
102
RTVSPost2010PropOp31
 70
     1
102
RTVSPost2010Prop32
280
     0
102
RTVSPost2010PropOp32
 70
     1
102
RTVSPost2010Prop33
280
     0
102
RTVSPost2010PropOp33
 70
     1
102
RTVSPost2010Prop34
280
     0
102
RTVSPost2010PropOp34
 70
     1
102
RTVSPost2010Prop35
280
     0
102
RTVSPost2010PropOp35
 70
     1
102
RTVSPost2010Prop36
280
     0
102
RTVSPost2010PropOp36
 70
     1
102
RTVSPost2010Prop37
 90
       50
102
RTVSPost2010PropOp37
 70
     1
102
RTVSPost2010Prop38
140
0.0
102
RTVSPost2010PropOp38
 70
     1
102
RTVSPost2010Prop39
140
1.0
102
RTVSPost2010PropOp39
 70
     1
102
RTVSPost2010Prop40
 90
        0
102
RTVSPost2010PropOp40
 70
     1
102
RTVSPost2010Prop41ColorIndex
 90
       18
102
RTVSPost2010Prop41ColorRGB
 90
        0
102
RTVSPost2010PropOp41
 70
     1
102
RTVSPost2010Prop42
 90
       50
102
RTVSPost2010PropOp42
 70
     1
102
RTVSPost2010Prop43
 90
        3
102
RTVSPost2010PropOp43
 70
     1
102
RTVSPost2010Prop44ColorIndex
 90
        5
102
RTVSPost2010Prop44ColorRGB
 90
      255
102
RTVSPost2010PropOp44
 70
     1
102
RTVSPost2010Prop45
280
     0
102
RTVSPost2010PropOp45
 70
     1
102
RTVSPost2010Prop46
 90
       50
102
RTVSPost2010PropOp46
 70
     1
102
RTVSPost2010Prop47
 90
       50
102
RTVSPost2010PropOp47
 70
     1
102
RTVSPost2010Prop48
 90
       50
102
RTVSPost2010PropOp48
 70
     1
102
RTVSPost2010Prop49
280
     0
102
RTVSPost2010PropOp49
 70
     1
102
RTVSPost2010Prop50
 90
       50
102
RTVSPost2010PropOp50
 70
     1
102
RTVSPost2010Prop51ColorIndex
 90
      256
102
RTVSPost2010Prop51ColorRGB
 90
-16777216
102
RTVSPost2010PropOp51
 70
     0
102
RTVSPost2010Prop52
140
1.0
102
RTVSPost2010PropOp52
 70
     0
102
RTVSPost2010Prop53
 90
        2
102
RTVSPost2010PropOp53
 70
     1
102
RTVSPost2010Prop54
  1
strokes_ogs.tif
102
RTVSPost2010PropOp54
 70
     1
102
RTVSPost2010Prop55
280
     0
102
RTVSPost2010PropOp55
 70
     1
102
RTVSPost2010Prop56
140
1.0
102
RTVSPost2010PropOp56
 70
     1
102
RTVSPost2010Prop57
140
1.0
102
RTVSPost2010PropOp57
 70
     1
102
RTVSPropertyOp0
 70
     1
102
RTVSPropertyOp1
 70
     1
102
RTVSPropertyOp2
 70
     1
102
RTVSPropertyOp3
 70
     1
102
RTVSPropertyOp4
 70
     1
102
RTVSPropertyOp5
 70
     1
102
RTVSPropertyOp6
 70
     1
102
RTVSPropertyOp7
 70
     1
102
RTVSPropertyOp8
 70
     1
102
RTVSPropertyOp9
 70
     1
102
RTVSPropertyOp10
 70
     1
102
RTVSPropertyOp11
 70
     1
102
RTVSPropertyOp12
 70
     1
102
RTVSPropertyOp13
 70
     1
102
RTVSPropertyOp14
 70
     1
102
RTVSPropertyOp15
 70
     1
102
RTVSPropertyOp16
 70
     1
102
RTVSPropertyOp17
 70
     1
102
RTVSPropertyOp18
 70
     1
102
RTVSPropertyOp19
 70
     1
102
RTVSPropertyOp20
 70
     1
102
RTVSPropertyOp21
 70
     1
102
RTVSPropertyOp22
 70
     1
102
RTVSPropertyOp23
 70
     1
102
RTVSPropertyOp24
 70
     1
102
RTVSPropertyOp25
 70
     1
102
RTVSPropertyOp26
 70
     1
102
RTVSPropertyOp27
 70
     1
102
RTVSPropertyOp28
 70
     1
102
RTVSPropertyOp29
 70
     1
102
RTVSPropertyOp30
 70
     1
102
RTVSPropertyOp31
 70
     1
102
RTVSPropertyOp32
 70
     1
102
RTVSPropertyOp33
 70
     1
102
RTVSPropertyOp34
 70
     1
102
RTVSPropertyOp35
 70
     1
102
RTVSPropertyOp36
 70
     1
102
RTVSPropertyOp37
 70
     1
102
RTVSPropertyOp38
 70
     1
102
RTVSPropertyOp39
 70
     1
102
RTVSPropertyOp40
 70
     1
102
RTVSPropertyOp41
 70
     1
102
RTVSPropertyOp42
 70
     1
102
RTVSPropertyOp43
 70
     1
102
RTVSPropertyOp44
 70
     1
102
RTVSPropertyOp45
 70
     1
102
RTVSPropertyOp46
 70
     1
102
RTVSPropertyOp47
 70
     1
102
RTVSPropertyOp48
 70
     1
102
RTVSPropertyOp49
 70
     1
102
RTVSPropertyOp50
 70
     1
102
RTVSPropertyOp51
 70
     0
102
RTVSPropertyOp52
 70
     0
102
RTVSPropertyOp53
 70
     1
102
RTVSPropertyOp54
 70
     1
102
RTVSPropertyOp55
 70
     1
102
RTVSPropertyOp56
 70
     1
102
RTVSPropertyOp57
 70
     1
102
RTVSPropertyOp58
 70
     1
102
RTVSPropertyOp59
 70
     1
102
RTVSPropertyOp60
 70
     1
102
RTVSPropertyOp61
 70
     1
102
RTVSPropertyOp62
 70
     1
  0
XRECORD
  5
34C6
102
{ACAD_REACTORS
330
34C5
102
}
330
34C5
100
AcDbXrecord
280
     1
102
RTVSPost2010Prop28
280
     0
102
RTVSPost2010PropOp28
 70
     1
102
RTVSPost2010Prop29
280
     1
102
RTVSPost2010PropOp29
 70
     1
102
RTVSPost2010Prop30
280
     1
102
RTVSPost2010PropOp30
 70
     1
102
RTVSPost2010Prop31
280
     0
102
RTVSPost2010PropOp31
 70
     1
102
RTVSPost2010Prop32
280
     0
102
RTVSPost2010PropOp32
 70
     1
102
RTVSPost2010Prop33
280
     0
102
RTVSPost2010PropOp33
 70
     1
102
RTVSPost2010Prop34
280
     0
102
RTVSPost2010PropOp34
 70
     1
102
RTVSPost2010Prop35
280
     0
102
RTVSPost2010PropOp35
 70
     1
102
RTVSPost2010Prop36
280
     0
102
RTVSPost2010PropOp36
 70
     1
102
RTVSPost2010Prop37
 90
       50
102
RTVSPost2010PropOp37
 70
     1
102
RTVSPost2010Prop38
140
0.0
102
RTVSPost2010PropOp38
 70
     1
102
RTVSPost2010Prop39
140
1.0
102
RTVSPost2010PropOp39
 70
     1
102
RTVSPost2010Prop40
 90
        0
102
RTVSPost2010PropOp40
 70
     1
102
RTVSPost2010Prop41ColorIndex
 90
       18
102
RTVSPost2010Prop41ColorRGB
 90
        0
102
RTVSPost2010PropOp41
 70
     1
102
RTVSPost2010Prop42
 90
       50
102
RTVSPost2010PropOp42
 70
     1
102
RTVSPost2010Prop43
 90
        3
102
RTVSPost2010PropOp43
 70
     1
102
RTVSPost2010Prop44ColorIndex
 90
        5
102
RTVSPost2010Prop44ColorRGB
 90
      255
102
RTVSPost2010PropOp44
 70
     1
102
RTVSPost2010Prop45
280
     0
102
RTVSPost2010PropOp45
 70
     1
102
RTVSPost2010Prop46
 90
       50
102
RTVSPost2010PropOp46
 70
     1
102
RTVSPost2010Prop47
 90
       50
102
RTVSPost2010PropOp47
 70
     1
102
RTVSPost2010Prop48
 90
       50
102
RTVSPost2010PropOp48
 70
     1
102
RTVSPost2010Prop49
280
     0
102
RTVSPost2010PropOp49
 70
     1
102
RTVSPost2010Prop50
 90
       50
102
RTVSPost2010PropOp50
 70
     1
102
RTVSPost2010Prop51ColorIndex
 90
      256
102
RTVSPost2010Prop51ColorRGB
 90
-16777216
102
RTVSPost2010PropOp51
 70
     0
102
RTVSPost2010Prop52
140
1.0
102
RTVSPost2010PropOp52
 70
     0
102
RTVSPost2010Prop53
 90
        2
102
RTVSPost2010PropOp53
 70
     1
102
RTVSPost2010Prop54
  1
strokes_ogs.tif
102
RTVSPost2010PropOp54
 70
     1
102
RTVSPost2010Prop55
280
     0
102
RTVSPost2010PropOp55
 70
     1
102
RTVSPost2010Prop56
140
1.0
102
RTVSPost2010PropOp56
 70
     1
102
RTVSPost2010Prop57
140
1.0
102
RTVSPost2010PropOp57
 70
     1
102
RTVSPropertyOp0
 70
     1
102
RTVSPropertyOp1
 70
     1
102
RTVSPropertyOp2
 70
     1
102
RTVSPropertyOp3
 70
     1
102
RTVSPropertyOp4
 70
     1
102
RTVSPropertyOp5
 70
     1
102
RTVSPropertyOp6
 70
     1
102
RTVSPropertyOp7
 70
     1
102
RTVSPropertyOp8
 70
     1
102
RTVSPropertyOp9
 70
     1
102
RTVSPropertyOp10
 70
     1
102
RTVSPropertyOp11
 70
     1
102
RTVSPropertyOp12
 70
     1
102
RTVSPropertyOp13
 70
     1
102
RTVSPropertyOp14
 70
     1
102
RTVSPropertyOp15
 70
     1
102
RTVSPropertyOp16
 70
     1
102
RTVSPropertyOp17
 70
     1
102
RTVSPropertyOp18
 70
     1
102
RTVSPropertyOp19
 70
     1
102
RTVSPropertyOp20
 70
     1
102
RTVSPropertyOp21
 70
     1
102
RTVSPropertyOp22
 70
     1
102
RTVSPropertyOp23
 70
     1
102
RTVSPropertyOp24
 70
     1
102
RTVSPropertyOp25
 70
     1
102
RTVSPropertyOp26
 70
     1
102
RTVSPropertyOp27
 70
     1
102
RTVSPropertyOp28
 70
     1
102
RTVSPropertyOp29
 70
     1
102
RTVSPropertyOp30
 70
     1
102
RTVSPropertyOp31
 70
     1
102
RTVSPropertyOp32
 70
     1
102
RTVSPropertyOp33
 70
     1
102
RTVSPropertyOp34
 70
     1
102
RTVSPropertyOp35
 70
     1
102
RTVSPropertyOp36
 70
     1
102
RTVSPropertyOp37
 70
     1
102
RTVSPropertyOp38
 70
     1
102
RTVSPropertyOp39
 70
     1
102
RTVSPropertyOp40
 70
     1
102
RTVSPropertyOp41
 70
     1
102
RTVSPropertyOp42
 70
     1
102
RTVSPropertyOp43
 70
     1
102
RTVSPropertyOp44
 70
     1
102
RTVSPropertyOp45
 70
     1
102
RTVSPropertyOp46
 70
     1
102
RTVSPropertyOp47
 70
     1
102
RTVSPropertyOp48
 70
     1
102
RTVSPropertyOp49
 70
     1
102
RTVSPropertyOp50
 70
     1
102
RTVSPropertyOp51
 70
     0
102
RTVSPropertyOp52
 70
     0
102
RTVSPropertyOp53
 70
     1
102
RTVSPropertyOp54
 70
     1
102
RTVSPropertyOp55
 70
     1
102
RTVSPropertyOp56
 70
     1
102
RTVSPropertyOp57
 70
     1
102
RTVSPropertyOp58
 70
     1
102
RTVSPropertyOp59
 70
     1
102
RTVSPropertyOp60
 70
     1
102
RTVSPropertyOp61
 70
     1
102
RTVSPropertyOp62
 70
     1
  0
XRECORD
  5
34C2
102
{ACAD_REACTORS
330
34C1
102
}
330
34C1
100
AcDbXrecord
280
     1
102
RTVSPost2010Prop28
280
     0
102
RTVSPost2010PropOp28
 70
     1
102
RTVSPost2010Prop29
280
     1
102
RTVSPost2010PropOp29
 70
     1
102
RTVSPost2010Prop30
280
     1
102
RTVSPost2010PropOp30
 70
     1
102
RTVSPost2010Prop31
280
     0
102
RTVSPost2010PropOp31
 70
     1
102
RTVSPost2010Prop32
280
     0
102
RTVSPost2010PropOp32
 70
     1
102
RTVSPost2010Prop33
280
     0
102
RTVSPost2010PropOp33
 70
     1
102
RTVSPost2010Prop34
280
     0
102
RTVSPost2010PropOp34
 70
     1
102
RTVSPost2010Prop35
280
     0
102
RTVSPost2010PropOp35
 70
     1
102
RTVSPost2010Prop36
280
     0
102
RTVSPost2010PropOp36
 70
     1
102
RTVSPost2010Prop37
 90
       50
102
RTVSPost2010PropOp37
 70
     1
102
RTVSPost2010Prop38
140
0.0
102
RTVSPost2010PropOp38
 70
     1
102
RTVSPost2010Prop39
140
1.0
102
RTVSPost2010PropOp39
 70
     1
102
RTVSPost2010Prop40
 90
        0
102
RTVSPost2010PropOp40
 70
     1
102
RTVSPost2010Prop41ColorIndex
 90
       18
102
RTVSPost2010Prop41ColorRGB
 90
        0
102
RTVSPost2010PropOp41
 70
     1
102
RTVSPost2010Prop42
 90
       50
102
RTVSPost2010PropOp42
 70
     1
102
RTVSPost2010Prop43
 90
        3
102
RTVSPost2010PropOp43
 70
     1
102
RTVSPost2010Prop44ColorIndex
 90
        5
102
RTVSPost2010Prop44ColorRGB
 90
      255
102
RTVSPost2010PropOp44
 70
     1
102
RTVSPost2010Prop45
280
     0
102
RTVSPost2010PropOp45
 70
     1
102
RTVSPost2010Prop46
 90
       50
102
RTVSPost2010PropOp46
 70
     1
102
RTVSPost2010Prop47
 90
       50
102
RTVSPost2010PropOp47
 70
     1
102
RTVSPost2010Prop48
 90
       50
102
RTVSPost2010PropOp48
 70
     1
102
RTVSPost2010Prop49
280
     0
102
RTVSPost2010PropOp49
 70
     1
102
RTVSPost2010Prop50
 90
       50
102
RTVSPost2010PropOp50
 70
     1
102
RTVSPost2010Prop51ColorIndex
 90
      256
102
RTVSPost2010Prop51ColorRGB
 90
-16777216
102
RTVSPost2010PropOp51
 70
     0
102
RTVSPost2010Prop52
140
1.0
102
RTVSPost2010PropOp52
 70
     0
102
RTVSPost2010Prop53
 90
        2
102
RTVSPost2010PropOp53
 70
     1
102
RTVSPost2010Prop54
  1
strokes_ogs.tif
102
RTVSPost2010PropOp54
 70
     1
102
RTVSPost2010Prop55
280
     0
102
RTVSPost2010PropOp55
 70
     1
102
RTVSPost2010Prop56
140
1.0
102
RTVSPost2010PropOp56
 70
     1
102
RTVSPost2010Prop57
140
1.0
102
RTVSPost2010PropOp57
 70
     1
102
RTVSPropertyOp0
 70
     1
102
RTVSPropertyOp1
 70
     1
102
RTVSPropertyOp2
 70
     1
102
RTVSPropertyOp3
 70
     1
102
RTVSPropertyOp4
 70
     1
102
RTVSPropertyOp5
 70
     1
102
RTVSPropertyOp6
 70
     1
102
RTVSPropertyOp7
 70
     1
102
RTVSPropertyOp8
 70
     1
102
RTVSPropertyOp9
 70
     1
102
RTVSPropertyOp10
 70
     1
102
RTVSPropertyOp11
 70
     1
102
RTVSPropertyOp12
 70
     1
102
RTVSPropertyOp13
 70
     1
102
RTVSPropertyOp14
 70
     1
102
RTVSPropertyOp15
 70
     1
102
RTVSPropertyOp16
 70
     1
102
RTVSPropertyOp17
 70
     1
102
RTVSPropertyOp18
 70
     1
102
RTVSPropertyOp19
 70
     1
102
RTVSPropertyOp20
 70
     1
102
RTVSPropertyOp21
 70
     1
102
RTVSPropertyOp22
 70
     1
102
RTVSPropertyOp23
 70
     1
102
RTVSPropertyOp24
 70
     1
102
RTVSPropertyOp25
 70
     1
102
RTVSPropertyOp26
 70
     1
102
RTVSPropertyOp27
 70
     1
102
RTVSPropertyOp28
 70
     1
102
RTVSPropertyOp29
 70
     1
102
RTVSPropertyOp30
 70
     1
102
RTVSPropertyOp31
 70
     1
102
RTVSPropertyOp32
 70
     1
102
RTVSPropertyOp33
 70
     1
102
RTVSPropertyOp34
 70
     1
102
RTVSPropertyOp35
 70
     1
102
RTVSPropertyOp36
 70
     1
102
RTVSPropertyOp37
 70
     1
102
RTVSPropertyOp38
 70
     1
102
RTVSPropertyOp39
 70
     1
102
RTVSPropertyOp40
 70
     1
102
RTVSPropertyOp41
 70
     1
102
RTVSPropertyOp42
 70
     1
102
RTVSPropertyOp43
 70
     1
102
RTVSPropertyOp44
 70
     1
102
RTVSPropertyOp45
 70
     1
102
RTVSPropertyOp46
 70
     1
102
RTVSPropertyOp47
 70
     1
102
RTVSPropertyOp48
 70
     1
102
RTVSPropertyOp49
 70
     1
102
RTVSPropertyOp50
 70
     1
102
RTVSPropertyOp51
 70
     0
102
RTVSPropertyOp52
 70
     0
102
RTVSPropertyOp53
 70
     1
102
RTVSPropertyOp54
 70
     1
102
RTVSPropertyOp55
 70
     1
102
RTVSPropertyOp56
 70
     1
102
RTVSPropertyOp57
 70
     1
102
RTVSPropertyOp58
 70
     1
102
RTVSPropertyOp59
 70
     1
102
RTVSPropertyOp60
 70
     1
102
RTVSPropertyOp61
 70
     1
102
RTVSPropertyOp62
 70
     1
  0
XRECORD
  5
34D0
102
{ACAD_REACTORS
330
34CF
102
}
330
34CF
100
AcDbXrecord
280
     1
102
RTVSPost2010Prop28
280
     0
102
RTVSPost2010PropOp28
 70
     1
102
RTVSPost2010Prop29
280
     1
102
RTVSPost2010PropOp29
 70
     1
102
RTVSPost2010Prop30
280
     1
102
RTVSPost2010PropOp30
 70
     1
102
RTVSPost2010Prop31
280
     0
102
RTVSPost2010PropOp31
 70
     1
102
RTVSPost2010Prop32
280
     0
102
RTVSPost2010PropOp32
 70
     1
102
RTVSPost2010Prop33
280
     0
102
RTVSPost2010PropOp33
 70
     1
102
RTVSPost2010Prop34
280
     0
102
RTVSPost2010PropOp34
 70
     1
102
RTVSPost2010Prop35
280
     0
102
RTVSPost2010PropOp35
 70
     1
102
RTVSPost2010Prop36
280
     0
102
RTVSPost2010PropOp36
 70
     1
102
RTVSPost2010Prop37
 90
       50
102
RTVSPost2010PropOp37
 70
     1
102
RTVSPost2010Prop38
140
0.0
102
RTVSPost2010PropOp38
 70
     1
102
RTVSPost2010Prop39
140
1.0
102
RTVSPost2010PropOp39
 70
     1
102
RTVSPost2010Prop40
 90
        0
102
RTVSPost2010PropOp40
 70
     1
102
RTVSPost2010Prop41ColorIndex
 90
       18
102
RTVSPost2010Prop41ColorRGB
 90
        0
102
RTVSPost2010PropOp41
 70
     1
102
RTVSPost2010Prop42
 90
       50
102
RTVSPost2010PropOp42
 70
     1
102
RTVSPost2010Prop43
 90
        3
102
RTVSPost2010PropOp43
 70
     1
102
RTVSPost2010Prop44ColorIndex
 90
        5
102
RTVSPost2010Prop44ColorRGB
 90
      255
102
RTVSPost2010PropOp44
 70
     1
102
RTVSPost2010Prop45
280
     0
102
RTVSPost2010PropOp45
 70
     1
102
RTVSPost2010Prop46
 90
       50
102
RTVSPost2010PropOp46
 70
     1
102
RTVSPost2010Prop47
 90
       50
102
RTVSPost2010PropOp47
 70
     1
102
RTVSPost2010Prop48
 90
       50
102
RTVSPost2010PropOp48
 70
     1
102
RTVSPost2010Prop49
280
     0
102
RTVSPost2010PropOp49
 70
     1
102
RTVSPost2010Prop50
 90
       50
102
RTVSPost2010PropOp50
 70
     1
102
RTVSPost2010Prop51ColorIndex
 90
      256
102
RTVSPost2010Prop51ColorRGB
 90
-16777216
102
RTVSPost2010PropOp51
 70
     0
102
RTVSPost2010Prop52
140
1.0
102
RTVSPost2010PropOp52
 70
     0
102
RTVSPost2010Prop53
 90
        2
102
RTVSPost2010PropOp53
 70
     1
102
RTVSPost2010Prop54
  1
strokes_ogs.tif
102
RTVSPost2010PropOp54
 70
     1
102
RTVSPost2010Prop55
280
     0
102
RTVSPost2010PropOp55
 70
     1
102
RTVSPost2010Prop56
140
1.0
102
RTVSPost2010PropOp56
 70
     1
102
RTVSPost2010Prop57
140
1.0
102
RTVSPost2010PropOp57
 70
     1
102
RTVSPropertyOp0
 70
     1
102
RTVSPropertyOp1
 70
     1
102
RTVSPropertyOp2
 70
     1
102
RTVSPropertyOp3
 70
     1
102
RTVSPropertyOp4
 70
     1
102
RTVSPropertyOp5
 70
     1
102
RTVSPropertyOp6
 70
     1
102
RTVSPropertyOp7
 70
     1
102
RTVSPropertyOp8
 70
     1
102
RTVSPropertyOp9
 70
     1
102
RTVSPropertyOp10
 70
     1
102
RTVSPropertyOp11
 70
     1
102
RTVSPropertyOp12
 70
     1
102
RTVSPropertyOp13
 70
     1
102
RTVSPropertyOp14
 70
     1
102
RTVSPropertyOp15
 70
     1
102
RTVSPropertyOp16
 70
     1
102
RTVSPropertyOp17
 70
     1
102
RTVSPropertyOp18
 70
     1
102
RTVSPropertyOp19
 70
     1
102
RTVSPropertyOp20
 70
     1
102
RTVSPropertyOp21
 70
     1
102
RTVSPropertyOp22
 70
     1
102
RTVSPropertyOp23
 70
     1
102
RTVSPropertyOp24
 70
     1
102
RTVSPropertyOp25
 70
     1
102
RTVSPropertyOp26
 70
     1
102
RTVSPropertyOp27
 70
     1
102
RTVSPropertyOp28
 70
     1
102
RTVSPropertyOp29
 70
     1
102
RTVSPropertyOp30
 70
     1
102
RTVSPropertyOp31
 70
     1
102
RTVSPropertyOp32
 70
     1
102
RTVSPropertyOp33
 70
     1
102
RTVSPropertyOp34
 70
     1
102
RTVSPropertyOp35
 70
     1
102
RTVSPropertyOp36
 70
     1
102
RTVSPropertyOp37
 70
     1
102
RTVSPropertyOp38
 70
     1
102
RTVSPropertyOp39
 70
     1
102
RTVSPropertyOp40
 70
     1
102
RTVSPropertyOp41
 70
     1
102
RTVSPropertyOp42
 70
     1
102
RTVSPropertyOp43
 70
     1
102
RTVSPropertyOp44
 70
     1
102
RTVSPropertyOp45
 70
     1
102
RTVSPropertyOp46
 70
     1
102
RTVSPropertyOp47
 70
     1
102
RTVSPropertyOp48
 70
     1
102
RTVSPropertyOp49
 70
     1
102
RTVSPropertyOp50
 70
     1
102
RTVSPropertyOp51
 70
     0
102
RTVSPropertyOp52
 70
     0
102
RTVSPropertyOp53
 70
     1
102
RTVSPropertyOp54
 70
     1
102
RTVSPropertyOp55
 70
     1
102
RTVSPropertyOp56
 70
     1
102
RTVSPropertyOp57
 70
     1
102
RTVSPropertyOp58
 70
     1
102
RTVSPropertyOp59
 70
     1
102
RTVSPropertyOp60
 70
     1
102
RTVSPropertyOp61
 70
     1
102
RTVSPropertyOp62
 70
     1
  0
XRECORD
  5
34D8
102
{ACAD_REACTORS
330
34D7
102
}
330
34D7
100
AcDbXrecord
280
     1
102
RTVSPost2010Prop28
280
     0
102
RTVSPost2010PropOp28
 70
     1
102
RTVSPost2010Prop29
280
     1
102
RTVSPost2010PropOp29
 70
     1
102
RTVSPost2010Prop30
280
     1
102
RTVSPost2010PropOp30
 70
     1
102
RTVSPost2010Prop31
280
     0
102
RTVSPost2010PropOp31
 70
     1
102
RTVSPost2010Prop32
280
     0
102
RTVSPost2010PropOp32
 70
     1
102
RTVSPost2010Prop33
280
     0
102
RTVSPost2010PropOp33
 70
     1
102
RTVSPost2010Prop34
280
     0
102
RTVSPost2010PropOp34
 70
     1
102
RTVSPost2010Prop35
280
     0
102
RTVSPost2010PropOp35
 70
     1
102
RTVSPost2010Prop36
280
     0
102
RTVSPost2010PropOp36
 70
     1
102
RTVSPost2010Prop37
 90
       50
102
RTVSPost2010PropOp37
 70
     1
102
RTVSPost2010Prop38
140
0.0
102
RTVSPost2010PropOp38
 70
     1
102
RTVSPost2010Prop39
140
1.0
102
RTVSPost2010PropOp39
 70
     1
102
RTVSPost2010Prop40
 90
        0
102
RTVSPost2010PropOp40
 70
     1
102
RTVSPost2010Prop41ColorIndex
 90
       18
102
RTVSPost2010Prop41ColorRGB
 90
        0
102
RTVSPost2010PropOp41
 70
     1
102
RTVSPost2010Prop42
 90
       50
102
RTVSPost2010PropOp42
 70
     1
102
RTVSPost2010Prop43
 90
        3
102
RTVSPost2010PropOp43
 70
     1
102
RTVSPost2010Prop44ColorIndex
 90
        5
102
RTVSPost2010Prop44ColorRGB
 90
      255
102
RTVSPost2010PropOp44
 70
     1
102
RTVSPost2010Prop45
280
     0
102
RTVSPost2010PropOp45
 70
     1
102
RTVSPost2010Prop46
 90
       50
102
RTVSPost2010PropOp46
 70
     1
102
RTVSPost2010Prop47
 90
       50
102
RTVSPost2010PropOp47
 70
     1
102
RTVSPost2010Prop48
 90
       50
102
RTVSPost2010PropOp48
 70
     1
102
RTVSPost2010Prop49
280
     0
102
RTVSPost2010PropOp49
 70
     1
102
RTVSPost2010Prop50
 90
       50
102
RTVSPost2010PropOp50
 70
     1
102
RTVSPost2010Prop51ColorIndex
 90
      256
102
RTVSPost2010Prop51ColorRGB
 90
-16777216
102
RTVSPost2010PropOp51
 70
     0
102
RTVSPost2010Prop52
140
1.0
102
RTVSPost2010PropOp52
 70
     0
102
RTVSPost2010Prop53
 90
        2
102
RTVSPost2010PropOp53
 70
     1
102
RTVSPost2010Prop54
  1
strokes_ogs.tif
102
RTVSPost2010PropOp54
 70
     1
102
RTVSPost2010Prop55
280
     0
102
RTVSPost2010PropOp55
 70
     1
102
RTVSPost2010Prop56
140
1.0
102
RTVSPost2010PropOp56
 70
     1
102
RTVSPost2010Prop57
140
1.0
102
RTVSPost2010PropOp57
 70
     1
102
RTVSPropertyOp0
 70
     1
102
RTVSPropertyOp1
 70
     1
102
RTVSPropertyOp2
 70
     1
102
RTVSPropertyOp3
 70
     1
102
RTVSPropertyOp4
 70
     1
102
RTVSPropertyOp5
 70
     1
102
RTVSPropertyOp6
 70
     1
102
RTVSPropertyOp7
 70
     1
102
RTVSPropertyOp8
 70
     1
102
RTVSPropertyOp9
 70
     1
102
RTVSPropertyOp10
 70
     1
102
RTVSPropertyOp11
 70
     1
102
RTVSPropertyOp12
 70
     1
102
RTVSPropertyOp13
 70
     1
102
RTVSPropertyOp14
 70
     1
102
RTVSPropertyOp15
 70
     1
102
RTVSPropertyOp16
 70
     1
102
RTVSPropertyOp17
 70
     1
102
RTVSPropertyOp18
 70
     1
102
RTVSPropertyOp19
 70
     1
102
RTVSPropertyOp20
 70
     1
102
RTVSPropertyOp21
 70
     1
102
RTVSPropertyOp22
 70
     1
102
RTVSPropertyOp23
 70
     1
102
RTVSPropertyOp24
 70
     1
102
RTVSPropertyOp25
 70
     1
102
RTVSPropertyOp26
 70
     1
102
RTVSPropertyOp27
 70
     1
102
RTVSPropertyOp28
 70
     1
102
RTVSPropertyOp29
 70
     1
102
RTVSPropertyOp30
 70
     1
102
RTVSPropertyOp31
 70
     1
102
RTVSPropertyOp32
 70
     1
102
RTVSPropertyOp33
 70
     1
102
RTVSPropertyOp34
 70
     1
102
RTVSPropertyOp35
 70
     1
102
RTVSPropertyOp36
 70
     1
102
RTVSPropertyOp37
 70
     1
102
RTVSPropertyOp38
 70
     1
102
RTVSPropertyOp39
 70
     1
102
RTVSPropertyOp40
 70
     1
102
RTVSPropertyOp41
 70
     1
102
RTVSPropertyOp42
 70
     1
102
RTVSPropertyOp43
 70
     1
102
RTVSPropertyOp44
 70
     1
102
RTVSPropertyOp45
 70
     1
102
RTVSPropertyOp46
 70
     1
102
RTVSPropertyOp47
 70
     1
102
RTVSPropertyOp48
 70
     1
102
RTVSPropertyOp49
 70
     1
102
RTVSPropertyOp50
 70
     1
102
RTVSPropertyOp51
 70
     0
102
RTVSPropertyOp52
 70
     0
102
RTVSPropertyOp53
 70
     1
102
RTVSPropertyOp54
 70
     1
102
RTVSPropertyOp55
 70
     1
102
RTVSPropertyOp56
 70
     1
102
RTVSPropertyOp57
 70
     1
102
RTVSPropertyOp58
 70
     1
102
RTVSPropertyOp59
 70
     1
102
RTVSPropertyOp60
 70
     1
102
RTVSPropertyOp61
 70
     1
102
RTVSPropertyOp62
 70
     1
  0
XRECORD
  5
34CA
102
{ACAD_REACTORS
330
34C9
102
}
330
34C9
100
AcDbXrecord
280
     1
102
RTVSPost2010Prop28
280
     0
102
RTVSPost2010PropOp28
 70
     1
102
RTVSPost2010Prop29
280
     1
102
RTVSPost2010PropOp29
 70
     1
102
RTVSPost2010Prop30
280
     1
102
RTVSPost2010PropOp30
 70
     1
102
RTVSPost2010Prop31
280
     0
102
RTVSPost2010PropOp31
 70
     1
102
RTVSPost2010Prop32
280
     0
102
RTVSPost2010PropOp32
 70
     1
102
RTVSPost2010Prop33
280
     0
102
RTVSPost2010PropOp33
 70
     1
102
RTVSPost2010Prop34
280
     0
102
RTVSPost2010PropOp34
 70
     1
102
RTVSPost2010Prop35
280
     0
102
RTVSPost2010PropOp35
 70
     1
102
RTVSPost2010Prop36
280
     0
102
RTVSPost2010PropOp36
 70
     1
102
RTVSPost2010Prop37
 90
       50
102
RTVSPost2010PropOp37
 70
     1
102
RTVSPost2010Prop38
140
0.0
102
RTVSPost2010PropOp38
 70
     1
102
RTVSPost2010Prop39
140
1.0
102
RTVSPost2010PropOp39
 70
     1
102
RTVSPost2010Prop40
 90
        0
102
RTVSPost2010PropOp40
 70
     1
102
RTVSPost2010Prop41ColorIndex
 90
       18
102
RTVSPost2010Prop41ColorRGB
 90
        0
102
RTVSPost2010PropOp41
 70
     1
102
RTVSPost2010Prop42
 90
       50
102
RTVSPost2010PropOp42
 70
     1
102
RTVSPost2010Prop43
 90
        3
102
RTVSPost2010PropOp43
 70
     1
102
RTVSPost2010Prop44ColorIndex
 90
        5
102
RTVSPost2010Prop44ColorRGB
 90
      255
102
RTVSPost2010PropOp44
 70
     1
102
RTVSPost2010Prop45
280
     0
102
RTVSPost2010PropOp45
 70
     1
102
RTVSPost2010Prop46
 90
       50
102
RTVSPost2010PropOp46
 70
     1
102
RTVSPost2010Prop47
 90
       50
102
RTVSPost2010PropOp47
 70
     1
102
RTVSPost2010Prop48
 90
       50
102
RTVSPost2010PropOp48
 70
     1
102
RTVSPost2010Prop49
280
     0
102
RTVSPost2010PropOp49
 70
     1
102
RTVSPost2010Prop50
 90
       50
102
RTVSPost2010PropOp50
 70
     1
102
RTVSPost2010Prop51ColorIndex
 90
      256
102
RTVSPost2010Prop51ColorRGB
 90
-16777216
102
RTVSPost2010PropOp51
 70
     0
102
RTVSPost2010Prop52
140
1.0
102
RTVSPost2010PropOp52
 70
     0
102
RTVSPost2010Prop53
 90
        2
102
RTVSPost2010PropOp53
 70
     1
102
RTVSPost2010Prop54
  1
strokes_ogs.tif
102
RTVSPost2010PropOp54
 70
     1
102
RTVSPost2010Prop55
280
     0
102
RTVSPost2010PropOp55
 70
     1
102
RTVSPost2010Prop56
140
1.0
102
RTVSPost2010PropOp56
 70
     1
102
RTVSPost2010Prop57
140
1.0
102
RTVSPost2010PropOp57
 70
     1
102
RTVSPropertyOp0
 70
     1
102
RTVSPropertyOp1
 70
     1
102
RTVSPropertyOp2
 70
     1
102
RTVSPropertyOp3
 70
     1
102
RTVSPropertyOp4
 70
     1
102
RTVSPropertyOp5
 70
     1
102
RTVSPropertyOp6
 70
     1
102
RTVSPropertyOp7
 70
     1
102
RTVSPropertyOp8
 70
     1
102
RTVSPropertyOp9
 70
     1
102
RTVSPropertyOp10
 70
     1
102
RTVSPropertyOp11
 70
     1
102
RTVSPropertyOp12
 70
     1
102
RTVSPropertyOp13
 70
     1
102
RTVSPropertyOp14
 70
     1
102
RTVSPropertyOp15
 70
     1
102
RTVSPropertyOp16
 70
     1
102
RTVSPropertyOp17
 70
     1
102
RTVSPropertyOp18
 70
     1
102
RTVSPropertyOp19
 70
     1
102
RTVSPropertyOp20
 70
     1
102
RTVSPropertyOp21
 70
     1
102
RTVSPropertyOp22
 70
     1
102
RTVSPropertyOp23
 70
     1
102
RTVSPropertyOp24
 70
     1
102
RTVSPropertyOp25
 70
     1
102
RTVSPropertyOp26
 70
     1
102
RTVSPropertyOp27
 70
     1
102
RTVSPropertyOp28
 70
     1
102
RTVSPropertyOp29
 70
     1
102
RTVSPropertyOp30
 70
     1
102
RTVSPropertyOp31
 70
     1
102
RTVSPropertyOp32
 70
     1
102
RTVSPropertyOp33
 70
     1
102
RTVSPropertyOp34
 70
     1
102
RTVSPropertyOp35
 70
     1
102
RTVSPropertyOp36
 70
     1
102
RTVSPropertyOp37
 70
     1
102
RTVSPropertyOp38
 70
     1
102
RTVSPropertyOp39
 70
     1
102
RTVSPropertyOp40
 70
     1
102
RTVSPropertyOp41
 70
     1
102
RTVSPropertyOp42
 70
     1
102
RTVSPropertyOp43
 70
     1
102
RTVSPropertyOp44
 70
     1
102
RTVSPropertyOp45
 70
     1
102
RTVSPropertyOp46
 70
     1
102
RTVSPropertyOp47
 70
     1
102
RTVSPropertyOp48
 70
     1
102
RTVSPropertyOp49
 70
     1
102
RTVSPropertyOp50
 70
     1
102
RTVSPropertyOp51
 70
     0
102
RTVSPropertyOp52
 70
     0
102
RTVSPropertyOp53
 70
     1
102
RTVSPropertyOp54
 70
     1
102
RTVSPropertyOp55
 70
     1
102
RTVSPropertyOp56
 70
     1
102
RTVSPropertyOp57
 70
     1
102
RTVSPropertyOp58
 70
     1
102
RTVSPropertyOp59
 70
     1
102
RTVSPropertyOp60
 70
     1
102
RTVSPropertyOp61
 70
     1
102
RTVSPropertyOp62
 70
     1
  0
XRECORD
  5
34CE
102
{ACAD_REACTORS
330
34CD
102
}
330
34CD
100
AcDbXrecord
280
     1
102
RTVSPost2010Prop28
280
     0
102
RTVSPost2010PropOp28
 70
     1
102
RTVSPost2010Prop29
280
     1
102
RTVSPost2010PropOp29
 70
     1
102
RTVSPost2010Prop30
280
     1
102
RTVSPost2010PropOp30
 70
     1
102
RTVSPost2010Prop31
280
     0
102
RTVSPost2010PropOp31
 70
     1
102
RTVSPost2010Prop32
280
     0
102
RTVSPost2010PropOp32
 70
     1
102
RTVSPost2010Prop33
280
     0
102
RTVSPost2010PropOp33
 70
     1
102
RTVSPost2010Prop34
280
     0
102
RTVSPost2010PropOp34
 70
     1
102
RTVSPost2010Prop35
280
     0
102
RTVSPost2010PropOp35
 70
     1
102
RTVSPost2010Prop36
280
     0
102
RTVSPost2010PropOp36
 70
     1
102
RTVSPost2010Prop37
 90
       50
102
RTVSPost2010PropOp37
 70
     1
102
RTVSPost2010Prop38
140
0.0
102
RTVSPost2010PropOp38
 70
     1
102
RTVSPost2010Prop39
140
1.0
102
RTVSPost2010PropOp39
 70
     1
102
RTVSPost2010Prop40
 90
        0
102
RTVSPost2010PropOp40
 70
     1
102
RTVSPost2010Prop41ColorIndex
 90
       18
102
RTVSPost2010Prop41ColorRGB
 90
        0
102
RTVSPost2010PropOp41
 70
     1
102
RTVSPost2010Prop42
 90
       50
102
RTVSPost2010PropOp42
 70
     1
102
RTVSPost2010Prop43
 90
        3
102
RTVSPost2010PropOp43
 70
     1
102
RTVSPost2010Prop44ColorIndex
 90
        5
102
RTVSPost2010Prop44ColorRGB
 90
      255
102
RTVSPost2010PropOp44
 70
     1
102
RTVSPost2010Prop45
280
     0
102
RTVSPost2010PropOp45
 70
     1
102
RTVSPost2010Prop46
 90
       50
102
RTVSPost2010PropOp46
 70
     1
102
RTVSPost2010Prop47
 90
       50
102
RTVSPost2010PropOp47
 70
     1
102
RTVSPost2010Prop48
 90
       50
102
RTVSPost2010PropOp48
 70
     1
102
RTVSPost2010Prop49
280
     0
102
RTVSPost2010PropOp49
 70
     1
102
RTVSPost2010Prop50
 90
       50
102
RTVSPost2010PropOp50
 70
     1
102
RTVSPost2010Prop51ColorIndex
 90
      256
102
RTVSPost2010Prop51ColorRGB
 90
-16777216
102
RTVSPost2010PropOp51
 70
     0
102
RTVSPost2010Prop52
140
1.0
102
RTVSPost2010PropOp52
 70
     0
102
RTVSPost2010Prop53
 90
        2
102
RTVSPost2010PropOp53
 70
     1
102
RTVSPost2010Prop54
  1
strokes_ogs.tif
102
RTVSPost2010PropOp54
 70
     1
102
RTVSPost2010Prop55
280
     0
102
RTVSPost2010PropOp55
 70
     1
102
RTVSPost2010Prop56
140
1.0
102
RTVSPost2010PropOp56
 70
     1
102
RTVSPost2010Prop57
140
1.0
102
RTVSPost2010PropOp57
 70
     1
102
RTVSPropertyOp0
 70
     1
102
RTVSPropertyOp1
 70
     1
102
RTVSPropertyOp2
 70
     1
102
RTVSPropertyOp3
 70
     1
102
RTVSPropertyOp4
 70
     1
102
RTVSPropertyOp5
 70
     1
102
RTVSPropertyOp6
 70
     1
102
RTVSPropertyOp7
 70
     1
102
RTVSPropertyOp8
 70
     1
102
RTVSPropertyOp9
 70
     1
102
RTVSPropertyOp10
 70
     1
102
RTVSPropertyOp11
 70
     1
102
RTVSPropertyOp12
 70
     1
102
RTVSPropertyOp13
 70
     1
102
RTVSPropertyOp14
 70
     1
102
RTVSPropertyOp15
 70
     1
102
RTVSPropertyOp16
 70
     1
102
RTVSPropertyOp17
 70
     1
102
RTVSPropertyOp18
 70
     1
102
RTVSPropertyOp19
 70
     1
102
RTVSPropertyOp20
 70
     1
102
RTVSPropertyOp21
 70
     1
102
RTVSPropertyOp22
 70
     1
102
RTVSPropertyOp23
 70
     1
102
RTVSPropertyOp24
 70
     1
102
RTVSPropertyOp25
 70
     1
102
RTVSPropertyOp26
 70
     1
102
RTVSPropertyOp27
 70
     1
102
RTVSPropertyOp28
 70
     1
102
RTVSPropertyOp29
 70
     1
102
RTVSPropertyOp30
 70
     1
102
RTVSPropertyOp31
 70
     1
102
RTVSPropertyOp32
 70
     1
102
RTVSPropertyOp33
 70
     1
102
RTVSPropertyOp34
 70
     1
102
RTVSPropertyOp35
 70
     1
102
RTVSPropertyOp36
 70
     1
102
RTVSPropertyOp37
 70
     1
102
RTVSPropertyOp38
 70
     1
102
RTVSPropertyOp39
 70
     1
102
RTVSPropertyOp40
 70
     1
102
RTVSPropertyOp41
 70
     1
102
RTVSPropertyOp42
 70
     1
102
RTVSPropertyOp43
 70
     1
102
RTVSPropertyOp44
 70
     1
102
RTVSPropertyOp45
 70
     1
102
RTVSPropertyOp46
 70
     1
102
RTVSPropertyOp47
 70
     1
102
RTVSPropertyOp48
 70
     1
102
RTVSPropertyOp49
 70
     1
102
RTVSPropertyOp50
 70
     1
102
RTVSPropertyOp51
 70
     0
102
RTVSPropertyOp52
 70
     0
102
RTVSPropertyOp53
 70
     1
102
RTVSPropertyOp54
 70
     1
102
RTVSPropertyOp55
 70
     1
102
RTVSPropertyOp56
 70
     1
102
RTVSPropertyOp57
 70
     1
102
RTVSPropertyOp58
 70
     1
102
RTVSPropertyOp59
 70
     1
102
RTVSPropertyOp60
 70
     1
102
RTVSPropertyOp61
 70
     1
102
RTVSPropertyOp62
 70
     1
  0
XRECORD
  5
34DE
102
{ACAD_REACTORS
330
34DD
102
}
330
34DD
100
AcDbXrecord
280
     1
102
RTVSPost2010Prop28
280
     0
102
RTVSPost2010PropOp28
 70
     1
102
RTVSPost2010Prop29
280
     1
102
RTVSPost2010PropOp29
 70
     1
102
RTVSPost2010Prop30
280
     1
102
RTVSPost2010PropOp30
 70
     1
102
RTVSPost2010Prop31
280
     0
102
RTVSPost2010PropOp31
 70
     1
102
RTVSPost2010Prop32
280
     0
102
RTVSPost2010PropOp32
 70
     1
102
RTVSPost2010Prop33
280
     0
102
RTVSPost2010PropOp33
 70
     1
102
RTVSPost2010Prop34
280
     0
102
RTVSPost2010PropOp34
 70
     1
102
RTVSPost2010Prop35
280
     0
102
RTVSPost2010PropOp35
 70
     1
102
RTVSPost2010Prop36
280
     0
102
RTVSPost2010PropOp36
 70
     1
102
RTVSPost2010Prop37
 90
       50
102
RTVSPost2010PropOp37
 70
     1
102
RTVSPost2010Prop38
140
0.0
102
RTVSPost2010PropOp38
 70
     1
102
RTVSPost2010Prop39
140
1.0
102
RTVSPost2010PropOp39
 70
     1
102
RTVSPost2010Prop40
 90
        0
102
RTVSPost2010PropOp40
 70
     1
102
RTVSPost2010Prop41ColorIndex
 90
       18
102
RTVSPost2010Prop41ColorRGB
 90
        0
102
RTVSPost2010PropOp41
 70
     1
102
RTVSPost2010Prop42
 90
       50
102
RTVSPost2010PropOp42
 70
     1
102
RTVSPost2010Prop43
 90
        3
102
RTVSPost2010PropOp43
 70
     1
102
RTVSPost2010Prop44ColorIndex
 90
        5
102
RTVSPost2010Prop44ColorRGB
 90
      255
102
RTVSPost2010PropOp44
 70
     1
102
RTVSPost2010Prop45
280
     0
102
RTVSPost2010PropOp45
 70
     1
102
RTVSPost2010Prop46
 90
       50
102
RTVSPost2010PropOp46
 70
     1
102
RTVSPost2010Prop47
 90
       50
102
RTVSPost2010PropOp47
 70
     1
102
RTVSPost2010Prop48
 90
       50
102
RTVSPost2010PropOp48
 70
     1
102
RTVSPost2010Prop49
280
     0
102
RTVSPost2010PropOp49
 70
     1
102
RTVSPost2010Prop50
 90
       50
102
RTVSPost2010PropOp50
 70
     1
102
RTVSPost2010Prop51ColorIndex
 90
      256
102
RTVSPost2010Prop51ColorRGB
 90
-16777216
102
RTVSPost2010PropOp51
 70
     0
102
RTVSPost2010Prop52
140
1.0
102
RTVSPost2010PropOp52
 70
     0
102
RTVSPost2010Prop53
 90
        2
102
RTVSPost2010PropOp53
 70
     1
102
RTVSPost2010Prop54
  1
strokes_ogs.tif
102
RTVSPost2010PropOp54
 70
     1
102
RTVSPost2010Prop55
280
     0
102
RTVSPost2010PropOp55
 70
     1
102
RTVSPost2010Prop56
140
1.0
102
RTVSPost2010PropOp56
 70
     1
102
RTVSPost2010Prop57
140
1.0
102
RTVSPost2010PropOp57
 70
     1
102
RTVSPropertyOp0
 70
     0
102
RTVSPropertyOp1
 70
     0
102
RTVSPropertyOp2
 70
     0
102
RTVSPropertyOp3
 70
     0
102
RTVSPropertyOp4
 70
     0
102
RTVSPropertyOp5
 70
     0
102
RTVSPropertyOp6
 70
     0
102
RTVSPropertyOp7
 70
     0
102
RTVSPropertyOp8
 70
     0
102
RTVSPropertyOp9
 70
     0
102
RTVSPropertyOp10
 70
     0
102
RTVSPropertyOp11
 70
     0
102
RTVSPropertyOp12
 70
     0
102
RTVSPropertyOp13
 70
     0
102
RTVSPropertyOp14
 70
     2
102
RTVSPropertyOp15
 70
     0
102
RTVSPropertyOp16
 70
     0
102
RTVSPropertyOp17
 70
     0
102
RTVSPropertyOp18
 70
     0
102
RTVSPropertyOp19
 70
     0
102
RTVSPropertyOp20
 70
     0
102
RTVSPropertyOp21
 70
     0
102
RTVSPropertyOp22
 70
     0
102
RTVSPropertyOp23
 70
     0
102
RTVSPropertyOp24
 70
     0
102
RTVSPropertyOp25
 70
     0
102
RTVSPropertyOp26
 70
     0
102
RTVSPropertyOp27
 70
     0
102
RTVSPropertyOp28
 70
     1
102
RTVSPropertyOp29
 70
     1
102
RTVSPropertyOp30
 70
     1
102
RTVSPropertyOp31
 70
     1
102
RTVSPropertyOp32
 70
     1
102
RTVSPropertyOp33
 70
     1
102
RTVSPropertyOp34
 70
     1
102
RTVSPropertyOp35
 70
     1
102
RTVSPropertyOp36
 70
     1
102
RTVSPropertyOp37
 70
     1
102
RTVSPropertyOp38
 70
     1
102
RTVSPropertyOp39
 70
     1
102
RTVSPropertyOp40
 70
     1
102
RTVSPropertyOp41
 70
     1
102
RTVSPropertyOp42
 70
     1
102
RTVSPropertyOp43
 70
     1
102
RTVSPropertyOp44
 70
     1
102
RTVSPropertyOp45
 70
     1
102
RTVSPropertyOp46
 70
     1
102
RTVSPropertyOp47
 70
     1
102
RTVSPropertyOp48
 70
     1
102
RTVSPropertyOp49
 70
     1
102
RTVSPropertyOp50
 70
     1
102
RTVSPropertyOp51
 70
     0
102
RTVSPropertyOp52
 70
     0
102
RTVSPropertyOp53
 70
     1
102
RTVSPropertyOp54
 70
     1
102
RTVSPropertyOp55
 70
     1
102
RTVSPropertyOp56
 70
     1
102
RTVSPropertyOp57
 70
     1
102
RTVSPropertyOp58
 70
     1
102
RTVSPropertyOp59
 70
     1
102
RTVSPropertyOp60
 70
     1
102
RTVSPropertyOp61
 70
     1
102
RTVSPropertyOp62
 70
     1
  0
XRECORD
  5
34D6
102
{ACAD_REACTORS
330
34D5
102
}
330
34D5
100
AcDbXrecord
280
     1
102
RTVSPost2010Prop28
280
     0
102
RTVSPost2010PropOp28
 70
     1
102
RTVSPost2010Prop29
280
     1
102
RTVSPost2010PropOp29
 70
     1
102
RTVSPost2010Prop30
280
     1
102
RTVSPost2010PropOp30
 70
     1
102
RTVSPost2010Prop31
280
     0
102
RTVSPost2010PropOp31
 70
     1
102
RTVSPost2010Prop32
280
     0
102
RTVSPost2010PropOp32
 70
     1
102
RTVSPost2010Prop33
280
     0
102
RTVSPost2010PropOp33
 70
     1
102
RTVSPost2010Prop34
280
     0
102
RTVSPost2010PropOp34
 70
     1
102
RTVSPost2010Prop35
280
     0
102
RTVSPost2010PropOp35
 70
     1
102
RTVSPost2010Prop36
280
     0
102
RTVSPost2010PropOp36
 70
     1
102
RTVSPost2010Prop37
 90
       50
102
RTVSPost2010PropOp37
 70
     1
102
RTVSPost2010Prop38
140
0.0
102
RTVSPost2010PropOp38
 70
     1
102
RTVSPost2010Prop39
140
1.0
102
RTVSPost2010PropOp39
 70
     1
102
RTVSPost2010Prop40
 90
        0
102
RTVSPost2010PropOp40
 70
     1
102
RTVSPost2010Prop41ColorIndex
 90
       18
102
RTVSPost2010Prop41ColorRGB
 90
        0
102
RTVSPost2010PropOp41
 70
     1
102
RTVSPost2010Prop42
 90
       50
102
RTVSPost2010PropOp42
 70
     1
102
RTVSPost2010Prop43
 90
        3
102
RTVSPost2010PropOp43
 70
     1
102
RTVSPost2010Prop44ColorIndex
 90
        5
102
RTVSPost2010Prop44ColorRGB
 90
      255
102
RTVSPost2010PropOp44
 70
     1
102
RTVSPost2010Prop45
280
     0
102
RTVSPost2010PropOp45
 70
     1
102
RTVSPost2010Prop46
 90
       50
102
RTVSPost2010PropOp46
 70
     1
102
RTVSPost2010Prop47
 90
       50
102
RTVSPost2010PropOp47
 70
     1
102
RTVSPost2010Prop48
 90
       50
102
RTVSPost2010PropOp48
 70
     1
102
RTVSPost2010Prop49
280
     0
102
RTVSPost2010PropOp49
 70
     1
102
RTVSPost2010Prop50
 90
       50
102
RTVSPost2010PropOp50
 70
     1
102
RTVSPost2010Prop51ColorIndex
 90
      256
102
RTVSPost2010Prop51ColorRGB
 90
-16777216
102
RTVSPost2010PropOp51
 70
     0
102
RTVSPost2010Prop52
140
1.0
102
RTVSPost2010PropOp52
 70
     0
102
RTVSPost2010Prop53
 90
        2
102
RTVSPost2010PropOp53
 70
     1
102
RTVSPost2010Prop54
  1
strokes_ogs.tif
102
RTVSPost2010PropOp54
 70
     1
102
RTVSPost2010Prop55
280
     0
102
RTVSPost2010PropOp55
 70
     1
102
RTVSPost2010Prop56
140
1.0
102
RTVSPost2010PropOp56
 70
     1
102
RTVSPost2010Prop57
140
1.0
102
RTVSPost2010PropOp57
 70
     1
102
RTVSPropertyOp0
 70
     1
102
RTVSPropertyOp1
 70
     1
102
RTVSPropertyOp2
 70
     1
102
RTVSPropertyOp3
 70
     1
102
RTVSPropertyOp4
 70
     1
102
RTVSPropertyOp5
 70
     1
102
RTVSPropertyOp6
 70
     1
102
RTVSPropertyOp7
 70
     1
102
RTVSPropertyOp8
 70
     1
102
RTVSPropertyOp9
 70
     1
102
RTVSPropertyOp10
 70
     1
102
RTVSPropertyOp11
 70
     1
102
RTVSPropertyOp12
 70
     1
102
RTVSPropertyOp13
 70
     1
102
RTVSPropertyOp14
 70
     1
102
RTVSPropertyOp15
 70
     1
102
RTVSPropertyOp16
 70
     1
102
RTVSPropertyOp17
 70
     1
102
RTVSPropertyOp18
 70
     1
102
RTVSPropertyOp19
 70
     1
102
RTVSPropertyOp20
 70
     1
102
RTVSPropertyOp21
 70
     1
102
RTVSPropertyOp22
 70
     1
102
RTVSPropertyOp23
 70
     1
102
RTVSPropertyOp24
 70
     1
102
RTVSPropertyOp25
 70
     1
102
RTVSPropertyOp26
 70
     1
102
RTVSPropertyOp27
 70
     1
102
RTVSPropertyOp28
 70
     1
102
RTVSPropertyOp29
 70
     1
102
RTVSPropertyOp30
 70
     1
102
RTVSPropertyOp31
 70
     1
102
RTVSPropertyOp32
 70
     1
102
RTVSPropertyOp33
 70
     1
102
RTVSPropertyOp34
 70
     1
102
RTVSPropertyOp35
 70
     1
102
RTVSPropertyOp36
 70
     1
102
RTVSPropertyOp37
 70
     1
102
RTVSPropertyOp38
 70
     1
102
RTVSPropertyOp39
 70
     1
102
RTVSPropertyOp40
 70
     1
102
RTVSPropertyOp41
 70
     1
102
RTVSPropertyOp42
 70
     1
102
RTVSPropertyOp43
 70
     1
102
RTVSPropertyOp44
 70
     1
102
RTVSPropertyOp45
 70
     1
102
RTVSPropertyOp46
 70
     1
102
RTVSPropertyOp47
 70
     1
102
RTVSPropertyOp48
 70
     1
102
RTVSPropertyOp49
 70
     1
102
RTVSPropertyOp50
 70
     1
102
RTVSPropertyOp51
 70
     0
102
RTVSPropertyOp52
 70
     0
102
RTVSPropertyOp53
 70
     1
102
RTVSPropertyOp54
 70
     1
102
RTVSPropertyOp55
 70
     1
102
RTVSPropertyOp56
 70
     1
102
RTVSPropertyOp57
 70
     1
102
RTVSPropertyOp58
 70
     1
102
RTVSPropertyOp59
 70
     1
102
RTVSPropertyOp60
 70
     1
102
RTVSPropertyOp61
 70
     1
102
RTVSPropertyOp62
 70
     1
  0
XRECORD
  5
34BA
102
{ACAD_REACTORS
330
34B9
102
}
330
34B9
100
AcDbXrecord
280
     1
102
RTVSPost2010Prop28
280
     0
102
RTVSPost2010PropOp28
 70
     1
102
RTVSPost2010Prop29
280
     1
102
RTVSPost2010PropOp29
 70
     1
102
RTVSPost2010Prop30
280
     1
102
RTVSPost2010PropOp30
 70
     1
102
RTVSPost2010Prop31
280
     0
102
RTVSPost2010PropOp31
 70
     1
102
RTVSPost2010Prop32
280
     0
102
RTVSPost2010PropOp32
 70
     1
102
RTVSPost2010Prop33
280
     0
102
RTVSPost2010PropOp33
 70
     1
102
RTVSPost2010Prop34
280
     0
102
RTVSPost2010PropOp34
 70
     1
102
RTVSPost2010Prop35
280
     0
102
RTVSPost2010PropOp35
 70
     1
102
RTVSPost2010Prop36
280
     0
102
RTVSPost2010PropOp36
 70
     1
102
RTVSPost2010Prop37
 90
       50
102
RTVSPost2010PropOp37
 70
     1
102
RTVSPost2010Prop38
140
0.0
102
RTVSPost2010PropOp38
 70
     1
102
RTVSPost2010Prop39
140
1.0
102
RTVSPost2010PropOp39
 70
     1
102
RTVSPost2010Prop40
 90
        0
102
RTVSPost2010PropOp40
 70
     1
102
RTVSPost2010Prop41ColorIndex
 90
       18
102
RTVSPost2010Prop41ColorRGB
 90
        0
102
RTVSPost2010PropOp41
 70
     1
102
RTVSPost2010Prop42
 90
       50
102
RTVSPost2010PropOp42
 70
     1
102
RTVSPost2010Prop43
 90
        3
102
RTVSPost2010PropOp43
 70
     1
102
RTVSPost2010Prop44ColorIndex
 90
        5
102
RTVSPost2010Prop44ColorRGB
 90
      255
102
RTVSPost2010PropOp44
 70
     1
102
RTVSPost2010Prop45
280
     0
102
RTVSPost2010PropOp45
 70
     1
102
RTVSPost2010Prop46
 90
       50
102
RTVSPost2010PropOp46
 70
     1
102
RTVSPost2010Prop47
 90
       50
102
RTVSPost2010PropOp47
 70
     1
102
RTVSPost2010Prop48
 90
       50
102
RTVSPost2010PropOp48
 70
     1
102
RTVSPost2010Prop49
280
     0
102
RTVSPost2010PropOp49
 70
     1
102
RTVSPost2010Prop50
 90
       50
102
RTVSPost2010PropOp50
 70
     1
102
RTVSPost2010Prop51ColorIndex
 90
      256
102
RTVSPost2010Prop51ColorRGB
 90
-16777216
102
RTVSPost2010PropOp51
 70
     0
102
RTVSPost2010Prop52
140
1.0
102
RTVSPost2010PropOp52
 70
     0
102
RTVSPost2010Prop53
 90
        2
102
RTVSPost2010PropOp53
 70
     1
102
RTVSPost2010Prop54
  1
strokes_ogs.tif
102
RTVSPost2010PropOp54
 70
     1
102
RTVSPost2010Prop55
280
     0
102
RTVSPost2010PropOp55
 70
     1
102
RTVSPost2010Prop56
140
1.0
102
RTVSPost2010PropOp56
 70
     1
102
RTVSPost2010Prop57
140
1.0
102
RTVSPost2010PropOp57
 70
     1
102
RTVSPropertyOp0
 70
     1
102
RTVSPropertyOp1
 70
     1
102
RTVSPropertyOp2
 70
     1
102
RTVSPropertyOp3
 70
     1
102
RTVSPropertyOp4
 70
     1
102
RTVSPropertyOp5
 70
     1
102
RTVSPropertyOp6
 70
     1
102
RTVSPropertyOp7
 70
     1
102
RTVSPropertyOp8
 70
     1
102
RTVSPropertyOp9
 70
     1
102
RTVSPropertyOp10
 70
     1
102
RTVSPropertyOp11
 70
     1
102
RTVSPropertyOp12
 70
     1
102
RTVSPropertyOp13
 70
     1
102
RTVSPropertyOp14
 70
     1
102
RTVSPropertyOp15
 70
     1
102
RTVSPropertyOp16
 70
     1
102
RTVSPropertyOp17
 70
     1
102
RTVSPropertyOp18
 70
     1
102
RTVSPropertyOp19
 70
     1
102
RTVSPropertyOp20
 70
     1
102
RTVSPropertyOp21
 70
     1
102
RTVSPropertyOp22
 70
     1
102
RTVSPropertyOp23
 70
     1
102
RTVSPropertyOp24
 70
     1
102
RTVSPropertyOp25
 70
     1
102
RTVSPropertyOp26
 70
     1
102
RTVSPropertyOp27
 70
     1
102
RTVSPropertyOp28
 70
     1
102
RTVSPropertyOp29
 70
     1
102
RTVSPropertyOp30
 70
     1
102
RTVSPropertyOp31
 70
     1
102
RTVSPropertyOp32
 70
     1
102
RTVSPropertyOp33
 70
     1
102
RTVSPropertyOp34
 70
     1
102
RTVSPropertyOp35
 70
     1
102
RTVSPropertyOp36
 70
     1
102
RTVSPropertyOp37
 70
     1
102
RTVSPropertyOp38
 70
     1
102
RTVSPropertyOp39
 70
     1
102
RTVSPropertyOp40
 70
     1
102
RTVSPropertyOp41
 70
     1
102
RTVSPropertyOp42
 70
     1
102
RTVSPropertyOp43
 70
     1
102
RTVSPropertyOp44
 70
     1
102
RTVSPropertyOp45
 70
     1
102
RTVSPropertyOp46
 70
     1
102
RTVSPropertyOp47
 70
     1
102
RTVSPropertyOp48
 70
     1
102
RTVSPropertyOp49
 70
     1
102
RTVSPropertyOp50
 70
     1
102
RTVSPropertyOp51
 70
     0
102
RTVSPropertyOp52
 70
     0
102
RTVSPropertyOp53
 70
     1
102
RTVSPropertyOp54
 70
     1
102
RTVSPropertyOp55
 70
     1
102
RTVSPropertyOp56
 70
     1
102
RTVSPropertyOp57
 70
     1
102
RTVSPropertyOp58
 70
     1
102
RTVSPropertyOp59
 70
     1
102
RTVSPropertyOp60
 70
     1
102
RTVSPropertyOp61
 70
     1
102
RTVSPropertyOp62
 70
     1
  0
XRECORD
  5
34BC
102
{ACAD_REACTORS
330
34BB
102
}
330
34BB
100
AcDbXrecord
280
     1
102
RTVSPost2010Prop28
280
     0
102
RTVSPost2010PropOp28
 70
     1
102
RTVSPost2010Prop29
280
     1
102
RTVSPost2010PropOp29
 70
     1
102
RTVSPost2010Prop30
280
     1
102
RTVSPost2010PropOp30
 70
     1
102
RTVSPost2010Prop31
280
     0
102
RTVSPost2010PropOp31
 70
     1
102
RTVSPost2010Prop32
280
     0
102
RTVSPost2010PropOp32
 70
     1
102
RTVSPost2010Prop33
280
     0
102
RTVSPost2010PropOp33
 70
     1
102
RTVSPost2010Prop34
280
     0
102
RTVSPost2010PropOp34
 70
     1
102
RTVSPost2010Prop35
280
     0
102
RTVSPost2010PropOp35
 70
     1
102
RTVSPost2010Prop36
280
     0
102
RTVSPost2010PropOp36
 70
     1
102
RTVSPost2010Prop37
 90
       50
102
RTVSPost2010PropOp37
 70
     1
102
RTVSPost2010Prop38
140
0.0
102
RTVSPost2010PropOp38
 70
     1
102
RTVSPost2010Prop39
140
1.0
102
RTVSPost2010PropOp39
 70
     1
102
RTVSPost2010Prop40
 90
        0
102
RTVSPost2010PropOp40
 70
     1
102
RTVSPost2010Prop41ColorIndex
 90
       18
102
RTVSPost2010Prop41ColorRGB
 90
        0
102
RTVSPost2010PropOp41
 70
     1
102
RTVSPost2010Prop42
 90
       50
102
RTVSPost2010PropOp42
 70
     1
102
RTVSPost2010Prop43
 90
        3
102
RTVSPost2010PropOp43
 70
     1
102
RTVSPost2010Prop44ColorIndex
 90
        5
102
RTVSPost2010Prop44ColorRGB
 90
      255
102
RTVSPost2010PropOp44
 70
     1
102
RTVSPost2010Prop45
280
     0
102
RTVSPost2010PropOp45
 70
     1
102
RTVSPost2010Prop46
 90
       50
102
RTVSPost2010PropOp46
 70
     1
102
RTVSPost2010Prop47
 90
       50
102
RTVSPost2010PropOp47
 70
     1
102
RTVSPost2010Prop48
 90
       50
102
RTVSPost2010PropOp48
 70
     1
102
RTVSPost2010Prop49
280
     0
102
RTVSPost2010PropOp49
 70
     1
102
RTVSPost2010Prop50
 90
       50
102
RTVSPost2010PropOp50
 70
     1
102
RTVSPost2010Prop51ColorIndex
 90
      256
102
RTVSPost2010Prop51ColorRGB
 90
-16777216
102
RTVSPost2010PropOp51
 70
     0
102
RTVSPost2010Prop52
140
1.0
102
RTVSPost2010PropOp52
 70
     0
102
RTVSPost2010Prop53
 90
        2
102
RTVSPost2010PropOp53
 70
     1
102
RTVSPost2010Prop54
  1
strokes_ogs.tif
102
RTVSPost2010PropOp54
 70
     1
102
RTVSPost2010Prop55
280
     0
102
RTVSPost2010PropOp55
 70
     1
102
RTVSPost2010Prop56
140
1.0
102
RTVSPost2010PropOp56
 70
     1
102
RTVSPost2010Prop57
140
1.0
102
RTVSPost2010PropOp57
 70
     1
102
RTVSPropertyOp0
 70
     1
102
RTVSPropertyOp1
 70
     1
102
RTVSPropertyOp2
 70
     1
102
RTVSPropertyOp3
 70
     1
102
RTVSPropertyOp4
 70
     1
102
RTVSPropertyOp5
 70
     1
102
RTVSPropertyOp6
 70
     1
102
RTVSPropertyOp7
 70
     1
102
RTVSPropertyOp8
 70
     1
102
RTVSPropertyOp9
 70
     1
102
RTVSPropertyOp10
 70
     1
102
RTVSPropertyOp11
 70
     1
102
RTVSPropertyOp12
 70
     1
102
RTVSPropertyOp13
 70
     1
102
RTVSPropertyOp14
 70
     1
102
RTVSPropertyOp15
 70
     1
102
RTVSPropertyOp16
 70
     1
102
RTVSPropertyOp17
 70
     1
102
RTVSPropertyOp18
 70
     1
102
RTVSPropertyOp19
 70
     1
102
RTVSPropertyOp20
 70
     1
102
RTVSPropertyOp21
 70
     1
102
RTVSPropertyOp22
 70
     1
102
RTVSPropertyOp23
 70
     1
102
RTVSPropertyOp24
 70
     1
102
RTVSPropertyOp25
 70
     1
102
RTVSPropertyOp26
 70
     1
102
RTVSPropertyOp27
 70
     1
102
RTVSPropertyOp28
 70
     1
102
RTVSPropertyOp29
 70
     1
102
RTVSPropertyOp30
 70
     1
102
RTVSPropertyOp31
 70
     1
102
RTVSPropertyOp32
 70
     1
102
RTVSPropertyOp33
 70
     1
102
RTVSPropertyOp34
 70
     1
102
RTVSPropertyOp35
 70
     1
102
RTVSPropertyOp36
 70
     1
102
RTVSPropertyOp37
 70
     1
102
RTVSPropertyOp38
 70
     1
102
RTVSPropertyOp39
 70
     1
102
RTVSPropertyOp40
 70
     1
102
RTVSPropertyOp41
 70
     1
102
RTVSPropertyOp42
 70
     1
102
RTVSPropertyOp43
 70
     1
102
RTVSPropertyOp44
 70
     1
102
RTVSPropertyOp45
 70
     1
102
RTVSPropertyOp46
 70
     1
102
RTVSPropertyOp47
 70
     1
102
RTVSPropertyOp48
 70
     1
102
RTVSPropertyOp49
 70
     1
102
RTVSPropertyOp50
 70
     1
102
RTVSPropertyOp51
 70
     0
102
RTVSPropertyOp52
 70
     0
102
RTVSPropertyOp53
 70
     1
102
RTVSPropertyOp54
 70
     1
102
RTVSPropertyOp55
 70
     1
102
RTVSPropertyOp56
 70
     1
102
RTVSPropertyOp57
 70
     1
102
RTVSPropertyOp58
 70
     1
102
RTVSPropertyOp59
 70
     1
102
RTVSPropertyOp60
 70
     1
102
RTVSPropertyOp61
 70
     1
102
RTVSPropertyOp62
 70
     1
  0
XRECORD
  5
34BE
102
{ACAD_REACTORS
330
34BD
102
}
330
34BD
100
AcDbXrecord
280
     1
102
RTVSPost2010Prop28
280
     0
102
RTVSPost2010PropOp28
 70
     1
102
RTVSPost2010Prop29
280
     1
102
RTVSPost2010PropOp29
 70
     1
102
RTVSPost2010Prop30
280
     1
102
RTVSPost2010PropOp30
 70
     1
102
RTVSPost2010Prop31
280
     0
102
RTVSPost2010PropOp31
 70
     1
102
RTVSPost2010Prop32
280
     0
102
RTVSPost2010PropOp32
 70
     1
102
RTVSPost2010Prop33
280
     0
102
RTVSPost2010PropOp33
 70
     1
102
RTVSPost2010Prop34
280
     0
102
RTVSPost2010PropOp34
 70
     1
102
RTVSPost2010Prop35
280
     0
102
RTVSPost2010PropOp35
 70
     1
102
RTVSPost2010Prop36
280
     0
102
RTVSPost2010PropOp36
 70
     1
102
RTVSPost2010Prop37
 90
       50
102
RTVSPost2010PropOp37
 70
     1
102
RTVSPost2010Prop38
140
0.0
102
RTVSPost2010PropOp38
 70
     1
102
RTVSPost2010Prop39
140
1.0
102
RTVSPost2010PropOp39
 70
     1
102
RTVSPost2010Prop40
 90
        0
102
RTVSPost2010PropOp40
 70
     1
102
RTVSPost2010Prop41ColorIndex
 90
       18
102
RTVSPost2010Prop41ColorRGB
 90
        0
102
RTVSPost2010PropOp41
 70
     1
102
RTVSPost2010Prop42
 90
       50
102
RTVSPost2010PropOp42
 70
     1
102
RTVSPost2010Prop43
 90
        3
102
RTVSPost2010PropOp43
 70
     1
102
RTVSPost2010Prop44ColorIndex
 90
        5
102
RTVSPost2010Prop44ColorRGB
 90
      255
102
RTVSPost2010PropOp44
 70
     1
102
RTVSPost2010Prop45
280
     0
102
RTVSPost2010PropOp45
 70
     1
102
RTVSPost2010Prop46
 90
       50
102
RTVSPost2010PropOp46
 70
     1
102
RTVSPost2010Prop47
 90
       50
102
RTVSPost2010PropOp47
 70
     1
102
RTVSPost2010Prop48
 90
       50
102
RTVSPost2010PropOp48
 70
     1
102
RTVSPost2010Prop49
280
     0
102
RTVSPost2010PropOp49
 70
     1
102
RTVSPost2010Prop50
 90
       50
102
RTVSPost2010PropOp50
 70
     1
102
RTVSPost2010Prop51ColorIndex
 90
      256
102
RTVSPost2010Prop51ColorRGB
 90
-16777216
102
RTVSPost2010PropOp51
 70
     0
102
RTVSPost2010Prop52
140
1.0
102
RTVSPost2010PropOp52
 70
     0
102
RTVSPost2010Prop53
 90
        2
102
RTVSPost2010PropOp53
 70
     1
102
RTVSPost2010Prop54
  1
strokes_ogs.tif
102
RTVSPost2010PropOp54
 70
     1
102
RTVSPost2010Prop55
280
     0
102
RTVSPost2010PropOp55
 70
     1
102
RTVSPost2010Prop56
140
1.0
102
RTVSPost2010PropOp56
 70
     1
102
RTVSPost2010Prop57
140
1.0
102
RTVSPost2010PropOp57
 70
     1
102
RTVSPropertyOp0
 70
     1
102
RTVSPropertyOp1
 70
     1
102
RTVSPropertyOp2
 70
     1
102
RTVSPropertyOp3
 70
     1
102
RTVSPropertyOp4
 70
     1
102
RTVSPropertyOp5
 70
     1
102
RTVSPropertyOp6
 70
     1
102
RTVSPropertyOp7
 70
     1
102
RTVSPropertyOp8
 70
     1
102
RTVSPropertyOp9
 70
     1
102
RTVSPropertyOp10
 70
     1
102
RTVSPropertyOp11
 70
     1
102
RTVSPropertyOp12
 70
     1
102
RTVSPropertyOp13
 70
     1
102
RTVSPropertyOp14
 70
     1
102
RTVSPropertyOp15
 70
     1
102
RTVSPropertyOp16
 70
     1
102
RTVSPropertyOp17
 70
     1
102
RTVSPropertyOp18
 70
     1
102
RTVSPropertyOp19
 70
     1
102
RTVSPropertyOp20
 70
     1
102
RTVSPropertyOp21
 70
     1
102
RTVSPropertyOp22
 70
     1
102
RTVSPropertyOp23
 70
     1
102
RTVSPropertyOp24
 70
     1
102
RTVSPropertyOp25
 70
     1
102
RTVSPropertyOp26
 70
     1
102
RTVSPropertyOp27
 70
     1
102
RTVSPropertyOp28
 70
     1
102
RTVSPropertyOp29
 70
     1
102
RTVSPropertyOp30
 70
     1
102
RTVSPropertyOp31
 70
     1
102
RTVSPropertyOp32
 70
     1
102
RTVSPropertyOp33
 70
     1
102
RTVSPropertyOp34
 70
     1
102
RTVSPropertyOp35
 70
     1
102
RTVSPropertyOp36
 70
     1
102
RTVSPropertyOp37
 70
     1
102
RTVSPropertyOp38
 70
     1
102
RTVSPropertyOp39
 70
     1
102
RTVSPropertyOp40
 70
     1
102
RTVSPropertyOp41
 70
     1
102
RTVSPropertyOp42
 70
     1
102
RTVSPropertyOp43
 70
     1
102
RTVSPropertyOp44
 70
     1
102
RTVSPropertyOp45
 70
     1
102
RTVSPropertyOp46
 70
     1
102
RTVSPropertyOp47
 70
     1
102
RTVSPropertyOp48
 70
     1
102
RTVSPropertyOp49
 70
     1
102
RTVSPropertyOp50
 70
     1
102
RTVSPropertyOp51
 70
     0
102
RTVSPropertyOp52
 70
     0
102
RTVSPropertyOp53
 70
     1
102
RTVSPropertyOp54
 70
     1
102
RTVSPropertyOp55
 70
     1
102
RTVSPropertyOp56
 70
     1
102
RTVSPropertyOp57
 70
     1
102
RTVSPropertyOp58
 70
     1
102
RTVSPropertyOp59
 70
     1
102
RTVSPropertyOp60
 70
     1
102
RTVSPropertyOp61
 70
     1
102
RTVSPropertyOp62
 70
     1
  0
XRECORD
  5
34C0
102
{ACAD_REACTORS
330
34BF
102
}
330
34BF
100
AcDbXrecord
280
     1
102
RTVSPost2010Prop28
280
     0
102
RTVSPost2010PropOp28
 70
     1
102
RTVSPost2010Prop29
280
     1
102
RTVSPost2010PropOp29
 70
     1
102
RTVSPost2010Prop30
280
     1
102
RTVSPost2010PropOp30
 70
     1
102
RTVSPost2010Prop31
280
     0
102
RTVSPost2010PropOp31
 70
     1
102
RTVSPost2010Prop32
280
     0
102
RTVSPost2010PropOp32
 70
     1
102
RTVSPost2010Prop33
280
     0
102
RTVSPost2010PropOp33
 70
     1
102
RTVSPost2010Prop34
280
     0
102
RTVSPost2010PropOp34
 70
     1
102
RTVSPost2010Prop35
280
     0
102
RTVSPost2010PropOp35
 70
     1
102
RTVSPost2010Prop36
280
     0
102
RTVSPost2010PropOp36
 70
     1
102
RTVSPost2010Prop37
 90
       50
102
RTVSPost2010PropOp37
 70
     1
102
RTVSPost2010Prop38
140
0.0
102
RTVSPost2010PropOp38
 70
     1
102
RTVSPost2010Prop39
140
1.0
102
RTVSPost2010PropOp39
 70
     1
102
RTVSPost2010Prop40
 90
        0
102
RTVSPost2010PropOp40
 70
     1
102
RTVSPost2010Prop41ColorIndex
 90
       18
102
RTVSPost2010Prop41ColorRGB
 90
        0
102
RTVSPost2010PropOp41
 70
     1
102
RTVSPost2010Prop42
 90
       50
102
RTVSPost2010PropOp42
 70
     1
102
RTVSPost2010Prop43
 90
        3
102
RTVSPost2010PropOp43
 70
     1
102
RTVSPost2010Prop44ColorIndex
 90
        5
102
RTVSPost2010Prop44ColorRGB
 90
      255
102
RTVSPost2010PropOp44
 70
     1
102
RTVSPost2010Prop45
280
     0
102
RTVSPost2010PropOp45
 70
     1
102
RTVSPost2010Prop46
 90
       50
102
RTVSPost2010PropOp46
 70
     1
102
RTVSPost2010Prop47
 90
       50
102
RTVSPost2010PropOp47
 70
     1
102
RTVSPost2010Prop48
 90
       50
102
RTVSPost2010PropOp48
 70
     1
102
RTVSPost2010Prop49
280
     0
102
RTVSPost2010PropOp49
 70
     1
102
RTVSPost2010Prop50
 90
       50
102
RTVSPost2010PropOp50
 70
     1
102
RTVSPost2010Prop51ColorIndex
 90
      256
102
RTVSPost2010Prop51ColorRGB
 90
-16777216
102
RTVSPost2010PropOp51
 70
     0
102
RTVSPost2010Prop52
140
1.0
102
RTVSPost2010PropOp52
 70
     0
102
RTVSPost2010Prop53
 90
        2
102
RTVSPost2010PropOp53
 70
     1
102
RTVSPost2010Prop54
  1
strokes_ogs.tif
102
RTVSPost2010PropOp54
 70
     1
102
RTVSPost2010Prop55
280
     0
102
RTVSPost2010PropOp55
 70
     1
102
RTVSPost2010Prop56
140
1.0
102
RTVSPost2010PropOp56
 70
     1
102
RTVSPost2010Prop57
140
1.0
102
RTVSPost2010PropOp57
 70
     1
102
RTVSPropertyOp0
 70
     1
102
RTVSPropertyOp1
 70
     1
102
RTVSPropertyOp2
 70
     1
102
RTVSPropertyOp3
 70
     1
102
RTVSPropertyOp4
 70
     1
102
RTVSPropertyOp5
 70
     1
102
RTVSPropertyOp6
 70
     1
102
RTVSPropertyOp7
 70
     1
102
RTVSPropertyOp8
 70
     1
102
RTVSPropertyOp9
 70
     1
102
RTVSPropertyOp10
 70
     1
102
RTVSPropertyOp11
 70
     1
102
RTVSPropertyOp12
 70
     1
102
RTVSPropertyOp13
 70
     1
102
RTVSPropertyOp14
 70
     1
102
RTVSPropertyOp15
 70
     1
102
RTVSPropertyOp16
 70
     1
102
RTVSPropertyOp17
 70
     1
102
RTVSPropertyOp18
 70
     1
102
RTVSPropertyOp19
 70
     1
102
RTVSPropertyOp20
 70
     1
102
RTVSPropertyOp21
 70
     1
102
RTVSPropertyOp22
 70
     1
102
RTVSPropertyOp23
 70
     1
102
RTVSPropertyOp24
 70
     1
102
RTVSPropertyOp25
 70
     1
102
RTVSPropertyOp26
 70
     1
102
RTVSPropertyOp27
 70
     1
102
RTVSPropertyOp28
 70
     1
102
RTVSPropertyOp29
 70
     1
102
RTVSPropertyOp30
 70
     1
102
RTVSPropertyOp31
 70
     1
102
RTVSPropertyOp32
 70
     1
102
RTVSPropertyOp33
 70
     1
102
RTVSPropertyOp34
 70
     1
102
RTVSPropertyOp35
 70
     1
102
RTVSPropertyOp36
 70
     1
102
RTVSPropertyOp37
 70
     1
102
RTVSPropertyOp38
 70
     1
102
RTVSPropertyOp39
 70
     1
102
RTVSPropertyOp40
 70
     1
102
RTVSPropertyOp41
 70
     1
102
RTVSPropertyOp42
 70
     1
102
RTVSPropertyOp43
 70
     1
102
RTVSPropertyOp44
 70
     1
102
RTVSPropertyOp45
 70
     1
102
RTVSPropertyOp46
 70
     1
102
RTVSPropertyOp47
 70
     1
102
RTVSPropertyOp48
 70
     1
102
RTVSPropertyOp49
 70
     1
102
RTVSPropertyOp50
 70
     1
102
RTVSPropertyOp51
 70
     0
102
RTVSPropertyOp52
 70
     0
102
RTVSPropertyOp53
 70
     1
102
RTVSPropertyOp54
 70
     1
102
RTVSPropertyOp55
 70
     1
102
RTVSPropertyOp56
 70
     1
102
RTVSPropertyOp57
 70
     1
102
RTVSPropertyOp58
 70
     1
102
RTVSPropertyOp59
 70
     1
102
RTVSPropertyOp60
 70
     1
102
RTVSPropertyOp61
 70
     1
102
RTVSPropertyOp62
 70
     1
  0
XRECORD
  5
34E3
102
{ACAD_REACTORS
330
34E2
102
}
330
34E2
100
AcDbXrecord
280
     1
102
RTVSPost2010Prop28
280
     0
102
RTVSPost2010PropOp28
 70
     1
102
RTVSPost2010Prop29
280
     1
102
RTVSPost2010PropOp29
 70
     1
102
RTVSPost2010Prop30
280
     1
102
RTVSPost2010PropOp30
 70
     1
102
RTVSPost2010Prop31
280
     0
102
RTVSPost2010PropOp31
 70
     1
102
RTVSPost2010Prop32
280
     0
102
RTVSPost2010PropOp32
 70
     1
102
RTVSPost2010Prop33
280
     0
102
RTVSPost2010PropOp33
 70
     1
102
RTVSPost2010Prop34
280
     0
102
RTVSPost2010PropOp34
 70
     1
102
RTVSPost2010Prop35
280
     0
102
RTVSPost2010PropOp35
 70
     1
102
RTVSPost2010Prop36
280
     0
102
RTVSPost2010PropOp36
 70
     1
102
RTVSPost2010Prop37
 90
       50
102
RTVSPost2010PropOp37
 70
     1
102
RTVSPost2010Prop38
140
0.0
102
RTVSPost2010PropOp38
 70
     1
102
RTVSPost2010Prop39
140
1.0
102
RTVSPost2010PropOp39
 70
     1
102
RTVSPost2010Prop40
 90
        0
102
RTVSPost2010PropOp40
 70
     1
102
RTVSPost2010Prop41ColorIndex
 90
       18
102
RTVSPost2010Prop41ColorRGB
 90
        0
102
RTVSPost2010PropOp41
 70
     1
102
RTVSPost2010Prop42
 90
       50
102
RTVSPost2010PropOp42
 70
     1
102
RTVSPost2010Prop43
 90
        3
102
RTVSPost2010PropOp43
 70
     1
102
RTVSPost2010Prop44ColorIndex
 90
        5
102
RTVSPost2010Prop44ColorRGB
 90
      255
102
RTVSPost2010PropOp44
 70
     1
102
RTVSPost2010Prop45
280
     0
102
RTVSPost2010PropOp45
 70
     1
102
RTVSPost2010Prop46
 90
       50
102
RTVSPost2010PropOp46
 70
     1
102
RTVSPost2010Prop47
 90
       50
102
RTVSPost2010PropOp47
 70
     1
102
RTVSPost2010Prop48
 90
       50
102
RTVSPost2010PropOp48
 70
     1
102
RTVSPost2010Prop49
280
     0
102
RTVSPost2010PropOp49
 70
     1
102
RTVSPost2010Prop50
 90
       50
102
RTVSPost2010PropOp50
 70
     1
102
RTVSPost2010Prop51ColorIndex
 90
      256
102
RTVSPost2010Prop51ColorRGB
 90
-16777216
102
RTVSPost2010PropOp51
 70
     0
102
RTVSPost2010Prop52
140
1.0
102
RTVSPost2010PropOp52
 70
     0
102
RTVSPost2010Prop53
 90
        2
102
RTVSPost2010PropOp53
 70
     1
102
RTVSPost2010Prop54
  1
strokes_ogs.tif
102
RTVSPost2010PropOp54
 70
     1
102
RTVSPost2010Prop55
280
     0
102
RTVSPost2010PropOp55
 70
     1
102
RTVSPost2010Prop56
140
1.0
102
RTVSPost2010PropOp56
 70
     1
102
RTVSPost2010Prop57
140
1.0
102
RTVSPost2010PropOp57
 70
     1
102
RTVSPropertyOp0
 70
     1
102
RTVSPropertyOp1
 70
     1
102
RTVSPropertyOp2
 70
     1
102
RTVSPropertyOp3
 70
     1
102
RTVSPropertyOp4
 70
     1
102
RTVSPropertyOp5
 70
     1
102
RTVSPropertyOp6
 70
     1
102
RTVSPropertyOp7
 70
     1
102
RTVSPropertyOp8
 70
     1
102
RTVSPropertyOp9
 70
     1
102
RTVSPropertyOp10
 70
     1
102
RTVSPropertyOp11
 70
     1
102
RTVSPropertyOp12
 70
     1
102
RTVSPropertyOp13
 70
     1
102
RTVSPropertyOp14
 70
     1
102
RTVSPropertyOp15
 70
     1
102
RTVSPropertyOp16
 70
     1
102
RTVSPropertyOp17
 70
     1
102
RTVSPropertyOp18
 70
     1
102
RTVSPropertyOp19
 70
     1
102
RTVSPropertyOp20
 70
     1
102
RTVSPropertyOp21
 70
     1
102
RTVSPropertyOp22
 70
     1
102
RTVSPropertyOp23
 70
     1
102
RTVSPropertyOp24
 70
     1
102
RTVSPropertyOp25
 70
     1
102
RTVSPropertyOp26
 70
     1
102
RTVSPropertyOp27
 70
     1
102
RTVSPropertyOp28
 70
     1
102
RTVSPropertyOp29
 70
     1
102
RTVSPropertyOp30
 70
     1
102
RTVSPropertyOp31
 70
     1
102
RTVSPropertyOp32
 70
     1
102
RTVSPropertyOp33
 70
     1
102
RTVSPropertyOp34
 70
     1
102
RTVSPropertyOp35
 70
     1
102
RTVSPropertyOp36
 70
     1
102
RTVSPropertyOp37
 70
     1
102
RTVSPropertyOp38
 70
     1
102
RTVSPropertyOp39
 70
     1
102
RTVSPropertyOp40
 70
     1
102
RTVSPropertyOp41
 70
     1
102
RTVSPropertyOp42
 70
     1
102
RTVSPropertyOp43
 70
     1
102
RTVSPropertyOp44
 70
     1
102
RTVSPropertyOp45
 70
     1
102
RTVSPropertyOp46
 70
     1
102
RTVSPropertyOp47
 70
     1
102
RTVSPropertyOp48
 70
     1
102
RTVSPropertyOp49
 70
     1
102
RTVSPropertyOp50
 70
     1
102
RTVSPropertyOp51
 70
     0
102
RTVSPropertyOp52
 70
     0
102
RTVSPropertyOp53
 70
     1
102
RTVSPropertyOp54
 70
     1
102
RTVSPropertyOp55
 70
     1
102
RTVSPropertyOp56
 70
     1
102
RTVSPropertyOp57
 70
     1
102
RTVSPropertyOp58
 70
     1
102
RTVSPropertyOp59
 70
     1
102
RTVSPropertyOp60
 70
     1
102
RTVSPropertyOp61
 70
     1
102
RTVSPropertyOp62
 70
     1
  0
XRECORD
  5
34DA
102
{ACAD_REACTORS
330
34D9
102
}
330
34D9
100
AcDbXrecord
280
     1
102
RTVSPost2010Prop28
280
     0
102
RTVSPost2010PropOp28
 70
     1
102
RTVSPost2010Prop29
280
     1
102
RTVSPost2010PropOp29
 70
     1
102
RTVSPost2010Prop30
280
     1
102
RTVSPost2010PropOp30
 70
     1
102
RTVSPost2010Prop31
280
     0
102
RTVSPost2010PropOp31
 70
     1
102
RTVSPost2010Prop32
280
     0
102
RTVSPost2010PropOp32
 70
     1
102
RTVSPost2010Prop33
280
     0
102
RTVSPost2010PropOp33
 70
     1
102
RTVSPost2010Prop34
280
     0
102
RTVSPost2010PropOp34
 70
     1
102
RTVSPost2010Prop35
280
     0
102
RTVSPost2010PropOp35
 70
     1
102
RTVSPost2010Prop36
280
     0
102
RTVSPost2010PropOp36
 70
     1
102
RTVSPost2010Prop37
 90
       50
102
RTVSPost2010PropOp37
 70
     1
102
RTVSPost2010Prop38
140
0.0
102
RTVSPost2010PropOp38
 70
     1
102
RTVSPost2010Prop39
140
1.0
102
RTVSPost2010PropOp39
 70
     1
102
RTVSPost2010Prop40
 90
        0
102
RTVSPost2010PropOp40
 70
     1
102
RTVSPost2010Prop41ColorIndex
 90
       18
102
RTVSPost2010Prop41ColorRGB
 90
        0
102
RTVSPost2010PropOp41
 70
     1
102
RTVSPost2010Prop42
 90
       50
102
RTVSPost2010PropOp42
 70
     1
102
RTVSPost2010Prop43
 90
        3
102
RTVSPost2010PropOp43
 70
     1
102
RTVSPost2010Prop44ColorIndex
 90
        5
102
RTVSPost2010Prop44ColorRGB
 90
      255
102
RTVSPost2010PropOp44
 70
     1
102
RTVSPost2010Prop45
280
     0
102
RTVSPost2010PropOp45
 70
     1
102
RTVSPost2010Prop46
 90
       50
102
RTVSPost2010PropOp46
 70
     1
102
RTVSPost2010Prop47
 90
       50
102
RTVSPost2010PropOp47
 70
     1
102
RTVSPost2010Prop48
 90
       50
102
RTVSPost2010PropOp48
 70
     1
102
RTVSPost2010Prop49
280
     0
102
RTVSPost2010PropOp49
 70
     1
102
RTVSPost2010Prop50
 90
       50
102
RTVSPost2010PropOp50
 70
     1
102
RTVSPost2010Prop51ColorIndex
 90
      256
102
RTVSPost2010Prop51ColorRGB
 90
-16777216
102
RTVSPost2010PropOp51
 70
     0
102
RTVSPost2010Prop52
140
1.0
102
RTVSPost2010PropOp52
 70
     0
102
RTVSPost2010Prop53
 90
        2
102
RTVSPost2010PropOp53
 70
     1
102
RTVSPost2010Prop54
  1
strokes_ogs.tif
102
RTVSPost2010PropOp54
 70
     1
102
RTVSPost2010Prop55
280
     0
102
RTVSPost2010PropOp55
 70
     1
102
RTVSPost2010Prop56
140
1.0
102
RTVSPost2010PropOp56
 70
     1
102
RTVSPost2010Prop57
140
1.0
102
RTVSPost2010PropOp57
 70
     1
102
RTVSPropertyOp0
 70
     0
102
RTVSPropertyOp1
 70
     0
102
RTVSPropertyOp2
 70
     0
102
RTVSPropertyOp3
 70
     0
102
RTVSPropertyOp4
 70
     0
102
RTVSPropertyOp5
 70
     0
102
RTVSPropertyOp6
 70
     0
102
RTVSPropertyOp7
 70
     0
102
RTVSPropertyOp8
 70
     0
102
RTVSPropertyOp9
 70
     0
102
RTVSPropertyOp10
 70
     0
102
RTVSPropertyOp11
 70
     0
102
RTVSPropertyOp12
 70
     0
102
RTVSPropertyOp13
 70
     0
102
RTVSPropertyOp14
 70
     2
102
RTVSPropertyOp15
 70
     0
102
RTVSPropertyOp16
 70
     0
102
RTVSPropertyOp17
 70
     0
102
RTVSPropertyOp18
 70
     0
102
RTVSPropertyOp19
 70
     0
102
RTVSPropertyOp20
 70
     0
102
RTVSPropertyOp21
 70
     0
102
RTVSPropertyOp22
 70
     0
102
RTVSPropertyOp23
 70
     0
102
RTVSPropertyOp24
 70
     0
102
RTVSPropertyOp25
 70
     0
102
RTVSPropertyOp26
 70
     0
102
RTVSPropertyOp27
 70
     0
102
RTVSPropertyOp28
 70
     1
102
RTVSPropertyOp29
 70
     1
102
RTVSPropertyOp30
 70
     1
102
RTVSPropertyOp31
 70
     1
102
RTVSPropertyOp32
 70
     1
102
RTVSPropertyOp33
 70
     1
102
RTVSPropertyOp34
 70
     1
102
RTVSPropertyOp35
 70
     1
102
RTVSPropertyOp36
 70
     1
102
RTVSPropertyOp37
 70
     1
102
RTVSPropertyOp38
 70
     1
102
RTVSPropertyOp39
 70
     1
102
RTVSPropertyOp40
 70
     1
102
RTVSPropertyOp41
 70
     1
102
RTVSPropertyOp42
 70
     1
102
RTVSPropertyOp43
 70
     1
102
RTVSPropertyOp44
 70
     1
102
RTVSPropertyOp45
 70
     1
102
RTVSPropertyOp46
 70
     1
102
RTVSPropertyOp47
 70
     1
102
RTVSPropertyOp48
 70
     1
102
RTVSPropertyOp49
 70
     1
102
RTVSPropertyOp50
 70
     1
102
RTVSPropertyOp51
 70
     0
102
RTVSPropertyOp52
 70
     0
102
RTVSPropertyOp53
 70
     1
102
RTVSPropertyOp54
 70
     1
102
RTVSPropertyOp55
 70
     1
102
RTVSPropertyOp56
 70
     1
102
RTVSPropertyOp57
 70
     1
102
RTVSPropertyOp58
 70
     1
102
RTVSPropertyOp59
 70
     1
102
RTVSPropertyOp60
 70
     1
102
RTVSPropertyOp61
 70
     1
102
RTVSPropertyOp62
 70
     1
  0
XRECORD
  5
34D4
102
{ACAD_REACTORS
330
34D3
102
}
330
34D3
100
AcDbXrecord
280
     1
102
RTVSPost2010Prop28
280
     0
102
RTVSPost2010PropOp28
 70
     1
102
RTVSPost2010Prop29
280
     1
102
RTVSPost2010PropOp29
 70
     1
102
RTVSPost2010Prop30
280
     1
102
RTVSPost2010PropOp30
 70
     1
102
RTVSPost2010Prop31
280
     0
102
RTVSPost2010PropOp31
 70
     1
102
RTVSPost2010Prop32
280
     0
102
RTVSPost2010PropOp32
 70
     1
102
RTVSPost2010Prop33
280
     0
102
RTVSPost2010PropOp33
 70
     1
102
RTVSPost2010Prop34
280
     0
102
RTVSPost2010PropOp34
 70
     1
102
RTVSPost2010Prop35
280
     0
102
RTVSPost2010PropOp35
 70
     1
102
RTVSPost2010Prop36
280
     0
102
RTVSPost2010PropOp36
 70
     1
102
RTVSPost2010Prop37
 90
       50
102
RTVSPost2010PropOp37
 70
     1
102
RTVSPost2010Prop38
140
0.0
102
RTVSPost2010PropOp38
 70
     1
102
RTVSPost2010Prop39
140
1.0
102
RTVSPost2010PropOp39
 70
     1
102
RTVSPost2010Prop40
 90
        0
102
RTVSPost2010PropOp40
 70
     1
102
RTVSPost2010Prop41ColorIndex
 90
       18
102
RTVSPost2010Prop41ColorRGB
 90
        0
102
RTVSPost2010PropOp41
 70
     1
102
RTVSPost2010Prop42
 90
       50
102
RTVSPost2010PropOp42
 70
     1
102
RTVSPost2010Prop43
 90
        3
102
RTVSPost2010PropOp43
 70
     1
102
RTVSPost2010Prop44ColorIndex
 90
        5
102
RTVSPost2010Prop44ColorRGB
 90
      255
102
RTVSPost2010PropOp44
 70
     1
102
RTVSPost2010Prop45
280
     0
102
RTVSPost2010PropOp45
 70
     1
102
RTVSPost2010Prop46
 90
       50
102
RTVSPost2010PropOp46
 70
     1
102
RTVSPost2010Prop47
 90
       50
102
RTVSPost2010PropOp47
 70
     1
102
RTVSPost2010Prop48
 90
       50
102
RTVSPost2010PropOp48
 70
     1
102
RTVSPost2010Prop49
280
     0
102
RTVSPost2010PropOp49
 70
     1
102
RTVSPost2010Prop50
 90
       50
102
RTVSPost2010PropOp50
 70
     1
102
RTVSPost2010Prop51ColorIndex
 90
      256
102
RTVSPost2010Prop51ColorRGB
 90
-16777216
102
RTVSPost2010PropOp51
 70
     0
102
RTVSPost2010Prop52
140
1.0
102
RTVSPost2010PropOp52
 70
     0
102
RTVSPost2010Prop53
 90
        2
102
RTVSPost2010PropOp53
 70
     1
102
RTVSPost2010Prop54
  1
strokes_ogs.tif
102
RTVSPost2010PropOp54
 70
     1
102
RTVSPost2010Prop55
280
     0
102
RTVSPost2010PropOp55
 70
     1
102
RTVSPost2010Prop56
140
1.0
102
RTVSPost2010PropOp56
 70
     1
102
RTVSPost2010Prop57
140
1.0
102
RTVSPost2010PropOp57
 70
     1
102
RTVSPropertyOp0
 70
     1
102
RTVSPropertyOp1
 70
     1
102
RTVSPropertyOp2
 70
     1
102
RTVSPropertyOp3
 70
     1
102
RTVSPropertyOp4
 70
     1
102
RTVSPropertyOp5
 70
     1
102
RTVSPropertyOp6
 70
     1
102
RTVSPropertyOp7
 70
     1
102
RTVSPropertyOp8
 70
     1
102
RTVSPropertyOp9
 70
     1
102
RTVSPropertyOp10
 70
     1
102
RTVSPropertyOp11
 70
     1
102
RTVSPropertyOp12
 70
     1
102
RTVSPropertyOp13
 70
     1
102
RTVSPropertyOp14
 70
     1
102
RTVSPropertyOp15
 70
     1
102
RTVSPropertyOp16
 70
     1
102
RTVSPropertyOp17
 70
     1
102
RTVSPropertyOp18
 70
     1
102
RTVSPropertyOp19
 70
     1
102
RTVSPropertyOp20
 70
     1
102
RTVSPropertyOp21
 70
     1
102
RTVSPropertyOp22
 70
     1
102
RTVSPropertyOp23
 70
     1
102
RTVSPropertyOp24
 70
     1
102
RTVSPropertyOp25
 70
     1
102
RTVSPropertyOp26
 70
     1
102
RTVSPropertyOp27
 70
     1
102
RTVSPropertyOp28
 70
     1
102
RTVSPropertyOp29
 70
     1
102
RTVSPropertyOp30
 70
     1
102
RTVSPropertyOp31
 70
     1
102
RTVSPropertyOp32
 70
     1
102
RTVSPropertyOp33
 70
     1
102
RTVSPropertyOp34
 70
     1
102
RTVSPropertyOp35
 70
     1
102
RTVSPropertyOp36
 70
     1
102
RTVSPropertyOp37
 70
     1
102
RTVSPropertyOp38
 70
     1
102
RTVSPropertyOp39
 70
     1
102
RTVSPropertyOp40
 70
     1
102
RTVSPropertyOp41
 70
     1
102
RTVSPropertyOp42
 70
     1
102
RTVSPropertyOp43
 70
     1
102
RTVSPropertyOp44
 70
     1
102
RTVSPropertyOp45
 70
     1
102
RTVSPropertyOp46
 70
     1
102
RTVSPropertyOp47
 70
     1
102
RTVSPropertyOp48
 70
     1
102
RTVSPropertyOp49
 70
     1
102
RTVSPropertyOp50
 70
     1
102
RTVSPropertyOp51
 70
     0
102
RTVSPropertyOp52
 70
     0
102
RTVSPropertyOp53
 70
     1
102
RTVSPropertyOp54
 70
     1
102
RTVSPropertyOp55
 70
     1
102
RTVSPropertyOp56
 70
     1
102
RTVSPropertyOp57
 70
     1
102
RTVSPropertyOp58
 70
     1
102
RTVSPropertyOp59
 70
     1
102
RTVSPropertyOp60
 70
     1
102
RTVSPropertyOp61
 70
     1
102
RTVSPropertyOp62
 70
     1
  0
XRECORD
  5
34DC
102
{ACAD_REACTORS
330
34DB
102
}
330
34DB
100
AcDbXrecord
280
     1
102
RTVSPost2010Prop28
280
     0
102
RTVSPost2010PropOp28
 70
     1
102
RTVSPost2010Prop29
280
     1
102
RTVSPost2010PropOp29
 70
     1
102
RTVSPost2010Prop30
280
     1
102
RTVSPost2010PropOp30
 70
     1
102
RTVSPost2010Prop31
280
     0
102
RTVSPost2010PropOp31
 70
     1
102
RTVSPost2010Prop32
280
     0
102
RTVSPost2010PropOp32
 70
     1
102
RTVSPost2010Prop33
280
     0
102
RTVSPost2010PropOp33
 70
     1
102
RTVSPost2010Prop34
280
     0
102
RTVSPost2010PropOp34
 70
     1
102
RTVSPost2010Prop35
280
     0
102
RTVSPost2010PropOp35
 70
     1
102
RTVSPost2010Prop36
280
     0
102
RTVSPost2010PropOp36
 70
     1
102
RTVSPost2010Prop37
 90
       50
102
RTVSPost2010PropOp37
 70
     1
102
RTVSPost2010Prop38
140
0.0
102
RTVSPost2010PropOp38
 70
     1
102
RTVSPost2010Prop39
140
1.0
102
RTVSPost2010PropOp39
 70
     1
102
RTVSPost2010Prop40
 90
        0
102
RTVSPost2010PropOp40
 70
     1
102
RTVSPost2010Prop41ColorIndex
 90
       18
102
RTVSPost2010Prop41ColorRGB
 90
        0
102
RTVSPost2010PropOp41
 70
     1
102
RTVSPost2010Prop42
 90
       50
102
RTVSPost2010PropOp42
 70
     1
102
RTVSPost2010Prop43
 90
        3
102
RTVSPost2010PropOp43
 70
     1
102
RTVSPost2010Prop44ColorIndex
 90
        5
102
RTVSPost2010Prop44ColorRGB
 90
      255
102
RTVSPost2010PropOp44
 70
     1
102
RTVSPost2010Prop45
280
     0
102
RTVSPost2010PropOp45
 70
     1
102
RTVSPost2010Prop46
 90
       50
102
RTVSPost2010PropOp46
 70
     1
102
RTVSPost2010Prop47
 90
       50
102
RTVSPost2010PropOp47
 70
     1
102
RTVSPost2010Prop48
 90
       50
102
RTVSPost2010PropOp48
 70
     1
102
RTVSPost2010Prop49
280
     0
102
RTVSPost2010PropOp49
 70
     1
102
RTVSPost2010Prop50
 90
       50
102
RTVSPost2010PropOp50
 70
     1
102
RTVSPost2010Prop51ColorIndex
 90
      256
102
RTVSPost2010Prop51ColorRGB
 90
-16777216
102
RTVSPost2010PropOp51
 70
     0
102
RTVSPost2010Prop52
140
1.0
102
RTVSPost2010PropOp52
 70
     0
102
RTVSPost2010Prop53
 90
        2
102
RTVSPost2010PropOp53
 70
     1
102
RTVSPost2010Prop54
  1
strokes_ogs.tif
102
RTVSPost2010PropOp54
 70
     1
102
RTVSPost2010Prop55
280
     0
102
RTVSPost2010PropOp55
 70
     1
102
RTVSPost2010Prop56
140
1.0
102
RTVSPost2010PropOp56
 70
     1
102
RTVSPost2010Prop57
140
1.0
102
RTVSPost2010PropOp57
 70
     1
102
RTVSPropertyOp0
 70
     0
102
RTVSPropertyOp1
 70
     0
102
RTVSPropertyOp2
 70
     0
102
RTVSPropertyOp3
 70
     0
102
RTVSPropertyOp4
 70
     0
102
RTVSPropertyOp5
 70
     0
102
RTVSPropertyOp6
 70
     0
102
RTVSPropertyOp7
 70
     0
102
RTVSPropertyOp8
 70
     0
102
RTVSPropertyOp9
 70
     0
102
RTVSPropertyOp10
 70
     0
102
RTVSPropertyOp11
 70
     0
102
RTVSPropertyOp12
 70
     0
102
RTVSPropertyOp13
 70
     0
102
RTVSPropertyOp14
 70
     2
102
RTVSPropertyOp15
 70
     0
102
RTVSPropertyOp16
 70
     0
102
RTVSPropertyOp17
 70
     0
102
RTVSPropertyOp18
 70
     0
102
RTVSPropertyOp19
 70
     0
102
RTVSPropertyOp20
 70
     0
102
RTVSPropertyOp21
 70
     0
102
RTVSPropertyOp22
 70
     0
102
RTVSPropertyOp23
 70
     0
102
RTVSPropertyOp24
 70
     0
102
RTVSPropertyOp25
 70
     0
102
RTVSPropertyOp26
 70
     0
102
RTVSPropertyOp27
 70
     0
102
RTVSPropertyOp28
 70
     1
102
RTVSPropertyOp29
 70
     1
102
RTVSPropertyOp30
 70
     1
102
RTVSPropertyOp31
 70
     1
102
RTVSPropertyOp32
 70
     1
102
RTVSPropertyOp33
 70
     1
102
RTVSPropertyOp34
 70
     1
102
RTVSPropertyOp35
 70
     1
102
RTVSPropertyOp36
 70
     1
102
RTVSPropertyOp37
 70
     1
102
RTVSPropertyOp38
 70
     1
102
RTVSPropertyOp39
 70
     1
102
RTVSPropertyOp40
 70
     1
102
RTVSPropertyOp41
 70
     1
102
RTVSPropertyOp42
 70
     1
102
RTVSPropertyOp43
 70
     1
102
RTVSPropertyOp44
 70
     1
102
RTVSPropertyOp45
 70
     1
102
RTVSPropertyOp46
 70
     1
102
RTVSPropertyOp47
 70
     1
102
RTVSPropertyOp48
 70
     1
102
RTVSPropertyOp49
 70
     1
102
RTVSPropertyOp50
 70
     1
102
RTVSPropertyOp51
 70
     0
102
RTVSPropertyOp52
 70
     0
102
RTVSPropertyOp53
 70
     1
102
RTVSPropertyOp54
 70
     1
102
RTVSPropertyOp55
 70
     1
102
RTVSPropertyOp56
 70
     1
102
RTVSPropertyOp57
 70
     1
102
RTVSPropertyOp58
 70
     1
102
RTVSPropertyOp59
 70
     1
102
RTVSPropertyOp60
 70
     1
102
RTVSPropertyOp61
 70
     1
102
RTVSPropertyOp62
 70
     1
  0
XRECORD
  5
34CC
102
{ACAD_REACTORS
330
34CB
102
}
330
34CB
100
AcDbXrecord
280
     1
102
RTVSPost2010Prop28
280
     0
102
RTVSPost2010PropOp28
 70
     1
102
RTVSPost2010Prop29
280
     1
102
RTVSPost2010PropOp29
 70
     1
102
RTVSPost2010Prop30
280
     1
102
RTVSPost2010PropOp30
 70
     1
102
RTVSPost2010Prop31
280
     0
102
RTVSPost2010PropOp31
 70
     1
102
RTVSPost2010Prop32
280
     0
102
RTVSPost2010PropOp32
 70
     1
102
RTVSPost2010Prop33
280
     0
102
RTVSPost2010PropOp33
 70
     1
102
RTVSPost2010Prop34
280
     0
102
RTVSPost2010PropOp34
 70
     1
102
RTVSPost2010Prop35
280
     0
102
RTVSPost2010PropOp35
 70
     1
102
RTVSPost2010Prop36
280
     0
102
RTVSPost2010PropOp36
 70
     1
102
RTVSPost2010Prop37
 90
       50
102
RTVSPost2010PropOp37
 70
     1
102
RTVSPost2010Prop38
140
0.0
102
RTVSPost2010PropOp38
 70
     1
102
RTVSPost2010Prop39
140
1.0
102
RTVSPost2010PropOp39
 70
     1
102
RTVSPost2010Prop40
 90
        0
102
RTVSPost2010PropOp40
 70
     1
102
RTVSPost2010Prop41ColorIndex
 90
       18
102
RTVSPost2010Prop41ColorRGB
 90
        0
102
RTVSPost2010PropOp41
 70
     1
102
RTVSPost2010Prop42
 90
       50
102
RTVSPost2010PropOp42
 70
     1
102
RTVSPost2010Prop43
 90
        3
102
RTVSPost2010PropOp43
 70
     1
102
RTVSPost2010Prop44ColorIndex
 90
        5
102
RTVSPost2010Prop44ColorRGB
 90
      255
102
RTVSPost2010PropOp44
 70
     1
102
RTVSPost2010Prop45
280
     0
102
RTVSPost2010PropOp45
 70
     1
102
RTVSPost2010Prop46
 90
       50
102
RTVSPost2010PropOp46
 70
     1
102
RTVSPost2010Prop47
 90
       50
102
RTVSPost2010PropOp47
 70
     1
102
RTVSPost2010Prop48
 90
       50
102
RTVSPost2010PropOp48
 70
     1
102
RTVSPost2010Prop49
280
     0
102
RTVSPost2010PropOp49
 70
     1
102
RTVSPost2010Prop50
 90
       50
102
RTVSPost2010PropOp50
 70
     1
102
RTVSPost2010Prop51ColorIndex
 90
      256
102
RTVSPost2010Prop51ColorRGB
 90
-16777216
102
RTVSPost2010PropOp51
 70
     0
102
RTVSPost2010Prop52
140
1.0
102
RTVSPost2010PropOp52
 70
     0
102
RTVSPost2010Prop53
 90
        2
102
RTVSPost2010PropOp53
 70
     1
102
RTVSPost2010Prop54
  1
strokes_ogs.tif
102
RTVSPost2010PropOp54
 70
     1
102
RTVSPost2010Prop55
280
     0
102
RTVSPost2010PropOp55
 70
     1
102
RTVSPost2010Prop56
140
1.0
102
RTVSPost2010PropOp56
 70
     1
102
RTVSPost2010Prop57
140
1.0
102
RTVSPost2010PropOp57
 70
     1
102
RTVSPropertyOp0
 70
     1
102
RTVSPropertyOp1
 70
     1
102
RTVSPropertyOp2
 70
     1
102
RTVSPropertyOp3
 70
     1
102
RTVSPropertyOp4
 70
     1
102
RTVSPropertyOp5
 70
     1
102
RTVSPropertyOp6
 70
     1
102
RTVSPropertyOp7
 70
     1
102
RTVSPropertyOp8
 70
     1
102
RTVSPropertyOp9
 70
     1
102
RTVSPropertyOp10
 70
     1
102
RTVSPropertyOp11
 70
     1
102
RTVSPropertyOp12
 70
     1
102
RTVSPropertyOp13
 70
     1
102
RTVSPropertyOp14
 70
     1
102
RTVSPropertyOp15
 70
     1
102
RTVSPropertyOp16
 70
     1
102
RTVSPropertyOp17
 70
     1
102
RTVSPropertyOp18
 70
     1
102
RTVSPropertyOp19
 70
     1
102
RTVSPropertyOp20
 70
     1
102
RTVSPropertyOp21
 70
     1
102
RTVSPropertyOp22
 70
     1
102
RTVSPropertyOp23
 70
     1
102
RTVSPropertyOp24
 70
     1
102
RTVSPropertyOp25
 70
     1
102
RTVSPropertyOp26
 70
     1
102
RTVSPropertyOp27
 70
     1
102
RTVSPropertyOp28
 70
     1
102
RTVSPropertyOp29
 70
     1
102
RTVSPropertyOp30
 70
     1
102
RTVSPropertyOp31
 70
     1
102
RTVSPropertyOp32
 70
     1
102
RTVSPropertyOp33
 70
     1
102
RTVSPropertyOp34
 70
     1
102
RTVSPropertyOp35
 70
     1
102
RTVSPropertyOp36
 70
     1
102
RTVSPropertyOp37
 70
     1
102
RTVSPropertyOp38
 70
     1
102
RTVSPropertyOp39
 70
     1
102
RTVSPropertyOp40
 70
     1
102
RTVSPropertyOp41
 70
     1
102
RTVSPropertyOp42
 70
     1
102
RTVSPropertyOp43
 70
     1
102
RTVSPropertyOp44
 70
     1
102
RTVSPropertyOp45
 70
     1
102
RTVSPropertyOp46
 70
     1
102
RTVSPropertyOp47
 70
     1
102
RTVSPropertyOp48
 70
     1
102
RTVSPropertyOp49
 70
     1
102
RTVSPropertyOp50
 70
     1
102
RTVSPropertyOp51
 70
     0
102
RTVSPropertyOp52
 70
     0
102
RTVSPropertyOp53
 70
     1
102
RTVSPropertyOp54
 70
     1
102
RTVSPropertyOp55
 70
     1
102
RTVSPropertyOp56
 70
     1
102
RTVSPropertyOp57
 70
     1
102
RTVSPropertyOp58
 70
     1
102
RTVSPropertyOp59
 70
     1
102
RTVSPropertyOp60
 70
     1
102
RTVSPropertyOp61
 70
     1
102
RTVSPropertyOp62
 70
     1
  0
XRECORD
  5
34ED
102
{ACAD_REACTORS
330
34EC
102
}
330
34EC
100
AcDbXrecord
280
     1
102
RTVSPost2010Prop28
280
     0
102
RTVSPost2010PropOp28
 70
     1
102
RTVSPost2010Prop29
280
     1
102
RTVSPost2010PropOp29
 70
     1
102
RTVSPost2010Prop30
280
     1
102
RTVSPost2010PropOp30
 70
     1
102
RTVSPost2010Prop31
280
     0
102
RTVSPost2010PropOp31
 70
     1
102
RTVSPost2010Prop32
280
     0
102
RTVSPost2010PropOp32
 70
     1
102
RTVSPost2010Prop33
280
     0
102
RTVSPost2010PropOp33
 70
     1
102
RTVSPost2010Prop34
280
     0
102
RTVSPost2010PropOp34
 70
     1
102
RTVSPost2010Prop35
280
     0
102
RTVSPost2010PropOp35
 70
     1
102
RTVSPost2010Prop36
280
     0
102
RTVSPost2010PropOp36
 70
     1
102
RTVSPost2010Prop37
 90
       50
102
RTVSPost2010PropOp37
 70
     1
102
RTVSPost2010Prop38
140
0.0
102
RTVSPost2010PropOp38
 70
     1
102
RTVSPost2010Prop39
140
1.0
102
RTVSPost2010PropOp39
 70
     1
102
RTVSPost2010Prop40
 90
        0
102
RTVSPost2010PropOp40
 70
     1
102
RTVSPost2010Prop41ColorIndex
 90
       18
102
RTVSPost2010Prop41ColorRGB
 90
        0
102
RTVSPost2010PropOp41
 70
     1
102
RTVSPost2010Prop42
 90
       50
102
RTVSPost2010PropOp42
 70
     1
102
RTVSPost2010Prop43
 90
        3
102
RTVSPost2010PropOp43
 70
     1
102
RTVSPost2010Prop44ColorIndex
 90
        5
102
RTVSPost2010Prop44ColorRGB
 90
      255
102
RTVSPost2010PropOp44
 70
     1
102
RTVSPost2010Prop45
280
     0
102
RTVSPost2010PropOp45
 70
     1
102
RTVSPost2010Prop46
 90
       50
102
RTVSPost2010PropOp46
 70
     1
102
RTVSPost2010Prop47
 90
       50
102
RTVSPost2010PropOp47
 70
     1
102
RTVSPost2010Prop48
 90
       50
102
RTVSPost2010PropOp48
 70
     1
102
RTVSPost2010Prop49
280
     0
102
RTVSPost2010PropOp49
 70
     1
102
RTVSPost2010Prop50
 90
       50
102
RTVSPost2010PropOp50
 70
     1
102
RTVSPost2010Prop51ColorIndex
 90
      256
102
RTVSPost2010Prop51ColorRGB
 90
-16777216
102
RTVSPost2010PropOp51
 70
     0
102
RTVSPost2010Prop52
140
1.0
102
RTVSPost2010PropOp52
 70
     0
102
RTVSPost2010Prop53
 90
        2
102
RTVSPost2010PropOp53
 70
     1
102
RTVSPost2010Prop54
  1
strokes_ogs.tif
102
RTVSPost2010PropOp54
 70
     1
102
RTVSPost2010Prop55
280
     0
102
RTVSPost2010PropOp55
 70
     1
102
RTVSPost2010Prop56
140
1.0
102
RTVSPost2010PropOp56
 70
     1
102
RTVSPost2010Prop57
140
1.0
102
RTVSPost2010PropOp57
 70
     1
102
RTVSPropertyOp0
 70
     1
102
RTVSPropertyOp1
 70
     1
102
RTVSPropertyOp2
 70
     1
102
RTVSPropertyOp3
 70
     1
102
RTVSPropertyOp4
 70
     1
102
RTVSPropertyOp5
 70
     1
102
RTVSPropertyOp6
 70
     1
102
RTVSPropertyOp7
 70
     1
102
RTVSPropertyOp8
 70
     1
102
RTVSPropertyOp9
 70
     1
102
RTVSPropertyOp10
 70
     1
102
RTVSPropertyOp11
 70
     1
102
RTVSPropertyOp12
 70
     1
102
RTVSPropertyOp13
 70
     1
102
RTVSPropertyOp14
 70
     1
102
RTVSPropertyOp15
 70
     1
102
RTVSPropertyOp16
 70
     1
102
RTVSPropertyOp17
 70
     1
102
RTVSPropertyOp18
 70
     1
102
RTVSPropertyOp19
 70
     1
102
RTVSPropertyOp20
 70
     1
102
RTVSPropertyOp21
 70
     1
102
RTVSPropertyOp22
 70
     1
102
RTVSPropertyOp23
 70
     1
102
RTVSPropertyOp24
 70
     1
102
RTVSPropertyOp25
 70
     1
102
RTVSPropertyOp26
 70
     1
102
RTVSPropertyOp27
 70
     1
102
RTVSPropertyOp28
 70
     1
102
RTVSPropertyOp29
 70
     1
102
RTVSPropertyOp30
 70
     1
102
RTVSPropertyOp31
 70
     1
102
RTVSPropertyOp32
 70
     1
102
RTVSPropertyOp33
 70
     1
102
RTVSPropertyOp34
 70
     1
102
RTVSPropertyOp35
 70
     1
102
RTVSPropertyOp36
 70
     1
102
RTVSPropertyOp37
 70
     1
102
RTVSPropertyOp38
 70
     1
102
RTVSPropertyOp39
 70
     1
102
RTVSPropertyOp40
 70
     1
102
RTVSPropertyOp41
 70
     1
102
RTVSPropertyOp42
 70
     1
102
RTVSPropertyOp43
 70
     1
102
RTVSPropertyOp44
 70
     1
102
RTVSPropertyOp45
 70
     1
102
RTVSPropertyOp46
 70
     1
102
RTVSPropertyOp47
 70
     1
102
RTVSPropertyOp48
 70
     1
102
RTVSPropertyOp49
 70
     1
102
RTVSPropertyOp50
 70
     1
102
RTVSPropertyOp51
 70
     0
102
RTVSPropertyOp52
 70
     0
102
RTVSPropertyOp53
 70
     1
102
RTVSPropertyOp54
 70
     1
102
RTVSPropertyOp55
 70
     1
102
RTVSPropertyOp56
 70
     1
102
RTVSPropertyOp57
 70
     1
102
RTVSPropertyOp58
 70
     1
102
RTVSPropertyOp59
 70
     1
102
RTVSPropertyOp60
 70
     1
102
RTVSPropertyOp61
 70
     1
102
RTVSPropertyOp62
 70
     1
  0
XRECORD
  5
34EB
102
{ACAD_REACTORS
330
34EA
102
}
330
34EA
100
AcDbXrecord
280
     1
102
RTVSPost2010Prop28
280
     0
102
RTVSPost2010PropOp28
 70
     1
102
RTVSPost2010Prop29
280
     1
102
RTVSPost2010PropOp29
 70
     1
102
RTVSPost2010Prop30
280
     1
102
RTVSPost2010PropOp30
 70
     1
102
RTVSPost2010Prop31
280
     0
102
RTVSPost2010PropOp31
 70
     1
102
RTVSPost2010Prop32
280
     0
102
RTVSPost2010PropOp32
 70
     1
102
RTVSPost2010Prop33
280
     0
102
RTVSPost2010PropOp33
 70
     1
102
RTVSPost2010Prop34
280
     0
102
RTVSPost2010PropOp34
 70
     1
102
RTVSPost2010Prop35
280
     0
102
RTVSPost2010PropOp35
 70
     1
102
RTVSPost2010Prop36
280
     0
102
RTVSPost2010PropOp36
 70
     1
102
RTVSPost2010Prop37
 90
       50
102
RTVSPost2010PropOp37
 70
     1
102
RTVSPost2010Prop38
140
0.0
102
RTVSPost2010PropOp38
 70
     1
102
RTVSPost2010Prop39
140
1.0
102
RTVSPost2010PropOp39
 70
     1
102
RTVSPost2010Prop40
 90
        0
102
RTVSPost2010PropOp40
 70
     1
102
RTVSPost2010Prop41ColorIndex
 90
       18
102
RTVSPost2010Prop41ColorRGB
 90
        0
102
RTVSPost2010PropOp41
 70
     1
102
RTVSPost2010Prop42
 90
       50
102
RTVSPost2010PropOp42
 70
     1
102
RTVSPost2010Prop43
 90
        3
102
RTVSPost2010PropOp43
 70
     1
102
RTVSPost2010Prop44ColorIndex
 90
        5
102
RTVSPost2010Prop44ColorRGB
 90
      255
102
RTVSPost2010PropOp44
 70
     1
102
RTVSPost2010Prop45
280
     0
102
RTVSPost2010PropOp45
 70
     1
102
RTVSPost2010Prop46
 90
       50
102
RTVSPost2010PropOp46
 70
     1
102
RTVSPost2010Prop47
 90
       50
102
RTVSPost2010PropOp47
 70
     1
102
RTVSPost2010Prop48
 90
       50
102
RTVSPost2010PropOp48
 70
     1
102
RTVSPost2010Prop49
280
     0
102
RTVSPost2010PropOp49
 70
     1
102
RTVSPost2010Prop50
 90
       50
102
RTVSPost2010PropOp50
 70
     1
102
RTVSPost2010Prop51ColorIndex
 90
      256
102
RTVSPost2010Prop51ColorRGB
 90
-16777216
102
RTVSPost2010PropOp51
 70
     0
102
RTVSPost2010Prop52
140
1.0
102
RTVSPost2010PropOp52
 70
     0
102
RTVSPost2010Prop53
 90
        2
102
RTVSPost2010PropOp53
 70
     1
102
RTVSPost2010Prop54
  1
strokes_ogs.tif
102
RTVSPost2010PropOp54
 70
     1
102
RTVSPost2010Prop55
280
     0
102
RTVSPost2010PropOp55
 70
     1
102
RTVSPost2010Prop56
140
1.0
102
RTVSPost2010PropOp56
 70
     1
102
RTVSPost2010Prop57
140
1.0
102
RTVSPost2010PropOp57
 70
     1
102
RTVSPropertyOp0
 70
     1
102
RTVSPropertyOp1
 70
     1
102
RTVSPropertyOp2
 70
     1
102
RTVSPropertyOp3
 70
     1
102
RTVSPropertyOp4
 70
     1
102
RTVSPropertyOp5
 70
     1
102
RTVSPropertyOp6
 70
     1
102
RTVSPropertyOp7
 70
     1
102
RTVSPropertyOp8
 70
     1
102
RTVSPropertyOp9
 70
     1
102
RTVSPropertyOp10
 70
     1
102
RTVSPropertyOp11
 70
     1
102
RTVSPropertyOp12
 70
     1
102
RTVSPropertyOp13
 70
     1
102
RTVSPropertyOp14
 70
     1
102
RTVSPropertyOp15
 70
     1
102
RTVSPropertyOp16
 70
     1
102
RTVSPropertyOp17
 70
     1
102
RTVSPropertyOp18
 70
     1
102
RTVSPropertyOp19
 70
     1
102
RTVSPropertyOp20
 70
     1
102
RTVSPropertyOp21
 70
     1
102
RTVSPropertyOp22
 70
     1
102
RTVSPropertyOp23
 70
     1
102
RTVSPropertyOp24
 70
     1
102
RTVSPropertyOp25
 70
     1
102
RTVSPropertyOp26
 70
     1
102
RTVSPropertyOp27
 70
     1
102
RTVSPropertyOp28
 70
     1
102
RTVSPropertyOp29
 70
     1
102
RTVSPropertyOp30
 70
     1
102
RTVSPropertyOp31
 70
     1
102
RTVSPropertyOp32
 70
     1
102
RTVSPropertyOp33
 70
     1
102
RTVSPropertyOp34
 70
     1
102
RTVSPropertyOp35
 70
     1
102
RTVSPropertyOp36
 70
     1
102
RTVSPropertyOp37
 70
     1
102
RTVSPropertyOp38
 70
     1
102
RTVSPropertyOp39
 70
     1
102
RTVSPropertyOp40
 70
     1
102
RTVSPropertyOp41
 70
     1
102
RTVSPropertyOp42
 70
     1
102
RTVSPropertyOp43
 70
     1
102
RTVSPropertyOp44
 70
     1
102
RTVSPropertyOp45
 70
     1
102
RTVSPropertyOp46
 70
     1
102
RTVSPropertyOp47
 70
     1
102
RTVSPropertyOp48
 70
     1
102
RTVSPropertyOp49
 70
     1
102
RTVSPropertyOp50
 70
     1
102
RTVSPropertyOp51
 70
     0
102
RTVSPropertyOp52
 70
     0
102
RTVSPropertyOp53
 70
     1
102
RTVSPropertyOp54
 70
     1
102
RTVSPropertyOp55
 70
     1
102
RTVSPropertyOp56
 70
     1
102
RTVSPropertyOp57
 70
     1
102
RTVSPropertyOp58
 70
     1
102
RTVSPropertyOp59
 70
     1
102
RTVSPropertyOp60
 70
     1
102
RTVSPropertyOp61
 70
     1
102
RTVSPropertyOp62
 70
     1
  0
XRECORD
  5
34E5
102
{ACAD_REACTORS
330
34E4
102
}
330
34E4
100
AcDbXrecord
280
     1
102
RTVSPost2010Prop28
280
     0
102
RTVSPost2010PropOp28
 70
     1
102
RTVSPost2010Prop29
280
     1
102
RTVSPost2010PropOp29
 70
     1
102
RTVSPost2010Prop30
280
     1
102
RTVSPost2010PropOp30
 70
     1
102
RTVSPost2010Prop31
280
     0
102
RTVSPost2010PropOp31
 70
     1
102
RTVSPost2010Prop32
280
     0
102
RTVSPost2010PropOp32
 70
     1
102
RTVSPost2010Prop33
280
     0
102
RTVSPost2010PropOp33
 70
     1
102
RTVSPost2010Prop34
280
     0
102
RTVSPost2010PropOp34
 70
     1
102
RTVSPost2010Prop35
280
     0
102
RTVSPost2010PropOp35
 70
     1
102
RTVSPost2010Prop36
280
     0
102
RTVSPost2010PropOp36
 70
     1
102
RTVSPost2010Prop37
 90
       50
102
RTVSPost2010PropOp37
 70
     1
102
RTVSPost2010Prop38
140
0.0
102
RTVSPost2010PropOp38
 70
     1
102
RTVSPost2010Prop39
140
1.0
102
RTVSPost2010PropOp39
 70
     1
102
RTVSPost2010Prop40
 90
        0
102
RTVSPost2010PropOp40
 70
     1
102
RTVSPost2010Prop41ColorIndex
 90
       18
102
RTVSPost2010Prop41ColorRGB
 90
        0
102
RTVSPost2010PropOp41
 70
     1
102
RTVSPost2010Prop42
 90
       50
102
RTVSPost2010PropOp42
 70
     1
102
RTVSPost2010Prop43
 90
        3
102
RTVSPost2010PropOp43
 70
     1
102
RTVSPost2010Prop44ColorIndex
 90
        5
102
RTVSPost2010Prop44ColorRGB
 90
      255
102
RTVSPost2010PropOp44
 70
     1
102
RTVSPost2010Prop45
280
     0
102
RTVSPost2010PropOp45
 70
     1
102
RTVSPost2010Prop46
 90
       50
102
RTVSPost2010PropOp46
 70
     1
102
RTVSPost2010Prop47
 90
       50
102
RTVSPost2010PropOp47
 70
     1
102
RTVSPost2010Prop48
 90
       50
102
RTVSPost2010PropOp48
 70
     1
102
RTVSPost2010Prop49
280
     0
102
RTVSPost2010PropOp49
 70
     1
102
RTVSPost2010Prop50
 90
       50
102
RTVSPost2010PropOp50
 70
     1
102
RTVSPost2010Prop51ColorIndex
 90
      256
102
RTVSPost2010Prop51ColorRGB
 90
-16777216
102
RTVSPost2010PropOp51
 70
     0
102
RTVSPost2010Prop52
140
1.0
102
RTVSPost2010PropOp52
 70
     0
102
RTVSPost2010Prop53
 90
        2
102
RTVSPost2010PropOp53
 70
     1
102
RTVSPost2010Prop54
  1
strokes_ogs.tif
102
RTVSPost2010PropOp54
 70
     1
102
RTVSPost2010Prop55
280
     0
102
RTVSPost2010PropOp55
 70
     1
102
RTVSPost2010Prop56
140
1.0
102
RTVSPost2010PropOp56
 70
     1
102
RTVSPost2010Prop57
140
1.0
102
RTVSPost2010PropOp57
 70
     1
102
RTVSPropertyOp0
 70
     1
102
RTVSPropertyOp1
 70
     1
102
RTVSPropertyOp2
 70
     1
102
RTVSPropertyOp3
 70
     1
102
RTVSPropertyOp4
 70
     1
102
RTVSPropertyOp5
 70
     1
102
RTVSPropertyOp6
 70
     1
102
RTVSPropertyOp7
 70
     1
102
RTVSPropertyOp8
 70
     1
102
RTVSPropertyOp9
 70
     1
102
RTVSPropertyOp10
 70
     1
102
RTVSPropertyOp11
 70
     1
102
RTVSPropertyOp12
 70
     1
102
RTVSPropertyOp13
 70
     1
102
RTVSPropertyOp14
 70
     1
102
RTVSPropertyOp15
 70
     1
102
RTVSPropertyOp16
 70
     1
102
RTVSPropertyOp17
 70
     1
102
RTVSPropertyOp18
 70
     1
102
RTVSPropertyOp19
 70
     1
102
RTVSPropertyOp20
 70
     1
102
RTVSPropertyOp21
 70
     1
102
RTVSPropertyOp22
 70
     1
102
RTVSPropertyOp23
 70
     1
102
RTVSPropertyOp24
 70
     1
102
RTVSPropertyOp25
 70
     1
102
RTVSPropertyOp26
 70
     1
102
RTVSPropertyOp27
 70
     1
102
RTVSPropertyOp28
 70
     1
102
RTVSPropertyOp29
 70
     1
102
RTVSPropertyOp30
 70
     1
102
RTVSPropertyOp31
 70
     1
102
RTVSPropertyOp32
 70
     1
102
RTVSPropertyOp33
 70
     1
102
RTVSPropertyOp34
 70
     1
102
RTVSPropertyOp35
 70
     1
102
RTVSPropertyOp36
 70
     1
102
RTVSPropertyOp37
 70
     1
102
RTVSPropertyOp38
 70
     1
102
RTVSPropertyOp39
 70
     1
102
RTVSPropertyOp40
 70
     1
102
RTVSPropertyOp41
 70
     1
102
RTVSPropertyOp42
 70
     1
102
RTVSPropertyOp43
 70
     1
102
RTVSPropertyOp44
 70
     1
102
RTVSPropertyOp45
 70
     1
102
RTVSPropertyOp46
 70
     1
102
RTVSPropertyOp47
 70
     1
102
RTVSPropertyOp48
 70
     1
102
RTVSPropertyOp49
 70
     1
102
RTVSPropertyOp50
 70
     1
102
RTVSPropertyOp51
 70
     0
102
RTVSPropertyOp52
 70
     0
102
RTVSPropertyOp53
 70
     1
102
RTVSPropertyOp54
 70
     1
102
RTVSPropertyOp55
 70
     1
102
RTVSPropertyOp56
 70
     1
102
RTVSPropertyOp57
 70
     1
102
RTVSPropertyOp58
 70
     1
102
RTVSPropertyOp59
 70
     1
102
RTVSPropertyOp60
 70
     1
102
RTVSPropertyOp61
 70
     1
102
RTVSPropertyOp62
 70
     1
  0
XRECORD
  5
34E7
102
{ACAD_REACTORS
330
34E6
102
}
330
34E6
100
AcDbXrecord
280
     1
102
RTVSPost2010Prop28
280
     0
102
RTVSPost2010PropOp28
 70
     1
102
RTVSPost2010Prop29
280
     1
102
RTVSPost2010PropOp29
 70
     1
102
RTVSPost2010Prop30
280
     1
102
RTVSPost2010PropOp30
 70
     1
102
RTVSPost2010Prop31
280
     0
102
RTVSPost2010PropOp31
 70
     1
102
RTVSPost2010Prop32
280
     0
102
RTVSPost2010PropOp32
 70
     1
102
RTVSPost2010Prop33
280
     0
102
RTVSPost2010PropOp33
 70
     1
102
RTVSPost2010Prop34
280
     0
102
RTVSPost2010PropOp34
 70
     1
102
RTVSPost2010Prop35
280
     0
102
RTVSPost2010PropOp35
 70
     1
102
RTVSPost2010Prop36
280
     0
102
RTVSPost2010PropOp36
 70
     1
102
RTVSPost2010Prop37
 90
       50
102
RTVSPost2010PropOp37
 70
     1
102
RTVSPost2010Prop38
140
0.0
102
RTVSPost2010PropOp38
 70
     1
102
RTVSPost2010Prop39
140
1.0
102
RTVSPost2010PropOp39
 70
     1
102
RTVSPost2010Prop40
 90
        0
102
RTVSPost2010PropOp40
 70
     1
102
RTVSPost2010Prop41ColorIndex
 90
       18
102
RTVSPost2010Prop41ColorRGB
 90
        0
102
RTVSPost2010PropOp41
 70
     1
102
RTVSPost2010Prop42
 90
       50
102
RTVSPost2010PropOp42
 70
     1
102
RTVSPost2010Prop43
 90
        3
102
RTVSPost2010PropOp43
 70
     1
102
RTVSPost2010Prop44ColorIndex
 90
        5
102
RTVSPost2010Prop44ColorRGB
 90
      255
102
RTVSPost2010PropOp44
 70
     1
102
RTVSPost2010Prop45
280
     0
102
RTVSPost2010PropOp45
 70
     1
102
RTVSPost2010Prop46
 90
       50
102
RTVSPost2010PropOp46
 70
     1
102
RTVSPost2010Prop47
 90
       50
102
RTVSPost2010PropOp47
 70
     1
102
RTVSPost2010Prop48
 90
       50
102
RTVSPost2010PropOp48
 70
     1
102
RTVSPost2010Prop49
280
     0
102
RTVSPost2010PropOp49
 70
     1
102
RTVSPost2010Prop50
 90
       50
102
RTVSPost2010PropOp50
 70
     1
102
RTVSPost2010Prop51ColorIndex
 90
      256
102
RTVSPost2010Prop51ColorRGB
 90
-16777216
102
RTVSPost2010PropOp51
 70
     0
102
RTVSPost2010Prop52
140
1.0
102
RTVSPost2010PropOp52
 70
     0
102
RTVSPost2010Prop53
 90
        2
102
RTVSPost2010PropOp53
 70
     1
102
RTVSPost2010Prop54
  1
strokes_ogs.tif
102
RTVSPost2010PropOp54
 70
     1
102
RTVSPost2010Prop55
280
     0
102
RTVSPost2010PropOp55
 70
     1
102
RTVSPost2010Prop56
140
1.0
102
RTVSPost2010PropOp56
 70
     1
102
RTVSPost2010Prop57
140
1.0
102
RTVSPost2010PropOp57
 70
     1
102
RTVSPropertyOp0
 70
     1
102
RTVSPropertyOp1
 70
     1
102
RTVSPropertyOp2
 70
     1
102
RTVSPropertyOp3
 70
     1
102
RTVSPropertyOp4
 70
     1
102
RTVSPropertyOp5
 70
     1
102
RTVSPropertyOp6
 70
     1
102
RTVSPropertyOp7
 70
     1
102
RTVSPropertyOp8
 70
     1
102
RTVSPropertyOp9
 70
     1
102
RTVSPropertyOp10
 70
     1
102
RTVSPropertyOp11
 70
     1
102
RTVSPropertyOp12
 70
     1
102
RTVSPropertyOp13
 70
     1
102
RTVSPropertyOp14
 70
     1
102
RTVSPropertyOp15
 70
     1
102
RTVSPropertyOp16
 70
     1
102
RTVSPropertyOp17
 70
     1
102
RTVSPropertyOp18
 70
     1
102
RTVSPropertyOp19
 70
     1
102
RTVSPropertyOp20
 70
     1
102
RTVSPropertyOp21
 70
     1
102
RTVSPropertyOp22
 70
     1
102
RTVSPropertyOp23
 70
     1
102
RTVSPropertyOp24
 70
     1
102
RTVSPropertyOp25
 70
     1
102
RTVSPropertyOp26
 70
     1
102
RTVSPropertyOp27
 70
     1
102
RTVSPropertyOp28
 70
     1
102
RTVSPropertyOp29
 70
     1
102
RTVSPropertyOp30
 70
     1
102
RTVSPropertyOp31
 70
     1
102
RTVSPropertyOp32
 70
     1
102
RTVSPropertyOp33
 70
     1
102
RTVSPropertyOp34
 70
     1
102
RTVSPropertyOp35
 70
     1
102
RTVSPropertyOp36
 70
     1
102
RTVSPropertyOp37
 70
     1
102
RTVSPropertyOp38
 70
     1
102
RTVSPropertyOp39
 70
     1
102
RTVSPropertyOp40
 70
     1
102
RTVSPropertyOp41
 70
     1
102
RTVSPropertyOp42
 70
     1
102
RTVSPropertyOp43
 70
     1
102
RTVSPropertyOp44
 70
     1
102
RTVSPropertyOp45
 70
     1
102
RTVSPropertyOp46
 70
     1
102
RTVSPropertyOp47
 70
     1
102
RTVSPropertyOp48
 70
     1
102
RTVSPropertyOp49
 70
     1
102
RTVSPropertyOp50
 70
     1
102
RTVSPropertyOp51
 70
     0
102
RTVSPropertyOp52
 70
     0
102
RTVSPropertyOp53
 70
     1
102
RTVSPropertyOp54
 70
     1
102
RTVSPropertyOp55
 70
     1
102
RTVSPropertyOp56
 70
     1
102
RTVSPropertyOp57
 70
     1
102
RTVSPropertyOp58
 70
     1
102
RTVSPropertyOp59
 70
     1
102
RTVSPropertyOp60
 70
     1
102
RTVSPropertyOp61
 70
     1
102
RTVSPropertyOp62
 70
     1
  0
XRECORD
  5
34D2
102
{ACAD_REACTORS
330
34D1
102
}
330
34D1
100
AcDbXrecord
280
     1
102
RTVSPost2010Prop28
280
     0
102
RTVSPost2010PropOp28
 70
     1
102
RTVSPost2010Prop29
280
     1
102
RTVSPost2010PropOp29
 70
     1
102
RTVSPost2010Prop30
280
     1
102
RTVSPost2010PropOp30
 70
     1
102
RTVSPost2010Prop31
280
     0
102
RTVSPost2010PropOp31
 70
     1
102
RTVSPost2010Prop32
280
     0
102
RTVSPost2010PropOp32
 70
     1
102
RTVSPost2010Prop33
280
     0
102
RTVSPost2010PropOp33
 70
     1
102
RTVSPost2010Prop34
280
     0
102
RTVSPost2010PropOp34
 70
     1
102
RTVSPost2010Prop35
280
     0
102
RTVSPost2010PropOp35
 70
     1
102
RTVSPost2010Prop36
280
     0
102
RTVSPost2010PropOp36
 70
     1
102
RTVSPost2010Prop37
 90
       50
102
RTVSPost2010PropOp37
 70
     1
102
RTVSPost2010Prop38
140
0.0
102
RTVSPost2010PropOp38
 70
     1
102
RTVSPost2010Prop39
140
1.0
102
RTVSPost2010PropOp39
 70
     1
102
RTVSPost2010Prop40
 90
        0
102
RTVSPost2010PropOp40
 70
     1
102
RTVSPost2010Prop41ColorIndex
 90
       18
102
RTVSPost2010Prop41ColorRGB
 90
        0
102
RTVSPost2010PropOp41
 70
     1
102
RTVSPost2010Prop42
 90
       50
102
RTVSPost2010PropOp42
 70
     1
102
RTVSPost2010Prop43
 90
        3
102
RTVSPost2010PropOp43
 70
     1
102
RTVSPost2010Prop44ColorIndex
 90
        5
102
RTVSPost2010Prop44ColorRGB
 90
      255
102
RTVSPost2010PropOp44
 70
     1
102
RTVSPost2010Prop45
280
     0
102
RTVSPost2010PropOp45
 70
     1
102
RTVSPost2010Prop46
 90
       50
102
RTVSPost2010PropOp46
 70
     1
102
RTVSPost2010Prop47
 90
       50
102
RTVSPost2010PropOp47
 70
     1
102
RTVSPost2010Prop48
 90
       50
102
RTVSPost2010PropOp48
 70
     1
102
RTVSPost2010Prop49
280
     0
102
RTVSPost2010PropOp49
 70
     1
102
RTVSPost2010Prop50
 90
       50
102
RTVSPost2010PropOp50
 70
     1
102
RTVSPost2010Prop51ColorIndex
 90
      256
102
RTVSPost2010Prop51ColorRGB
 90
-16777216
102
RTVSPost2010PropOp51
 70
     0
102
RTVSPost2010Prop52
140
1.0
102
RTVSPost2010PropOp52
 70
     0
102
RTVSPost2010Prop53
 90
        2
102
RTVSPost2010PropOp53
 70
     1
102
RTVSPost2010Prop54
  1
strokes_ogs.tif
102
RTVSPost2010PropOp54
 70
     1
102
RTVSPost2010Prop55
280
     0
102
RTVSPost2010PropOp55
 70
     1
102
RTVSPost2010Prop56
140
1.0
102
RTVSPost2010PropOp56
 70
     1
102
RTVSPost2010Prop57
140
1.0
102
RTVSPost2010PropOp57
 70
     1
102
RTVSPropertyOp0
 70
     1
102
RTVSPropertyOp1
 70
     1
102
RTVSPropertyOp2
 70
     1
102
RTVSPropertyOp3
 70
     1
102
RTVSPropertyOp4
 70
     1
102
RTVSPropertyOp5
 70
     1
102
RTVSPropertyOp6
 70
     1
102
RTVSPropertyOp7
 70
     1
102
RTVSPropertyOp8
 70
     1
102
RTVSPropertyOp9
 70
     1
102
RTVSPropertyOp10
 70
     1
102
RTVSPropertyOp11
 70
     1
102
RTVSPropertyOp12
 70
     1
102
RTVSPropertyOp13
 70
     1
102
RTVSPropertyOp14
 70
     1
102
RTVSPropertyOp15
 70
     1
102
RTVSPropertyOp16
 70
     1
102
RTVSPropertyOp17
 70
     1
102
RTVSPropertyOp18
 70
     1
102
RTVSPropertyOp19
 70
     1
102
RTVSPropertyOp20
 70
     1
102
RTVSPropertyOp21
 70
     1
102
RTVSPropertyOp22
 70
     1
102
RTVSPropertyOp23
 70
     1
102
RTVSPropertyOp24
 70
     1
102
RTVSPropertyOp25
 70
     1
102
RTVSPropertyOp26
 70
     1
102
RTVSPropertyOp27
 70
     1
102
RTVSPropertyOp28
 70
     1
102
RTVSPropertyOp29
 70
     1
102
RTVSPropertyOp30
 70
     1
102
RTVSPropertyOp31
 70
     1
102
RTVSPropertyOp32
 70
     1
102
RTVSPropertyOp33
 70
     1
102
RTVSPropertyOp34
 70
     1
102
RTVSPropertyOp35
 70
     1
102
RTVSPropertyOp36
 70
     1
102
RTVSPropertyOp37
 70
     1
102
RTVSPropertyOp38
 70
     1
102
RTVSPropertyOp39
 70
     1
102
RTVSPropertyOp40
 70
     1
102
RTVSPropertyOp41
 70
     1
102
RTVSPropertyOp42
 70
     1
102
RTVSPropertyOp43
 70
     1
102
RTVSPropertyOp44
 70
     1
102
RTVSPropertyOp45
 70
     1
102
RTVSPropertyOp46
 70
     1
102
RTVSPropertyOp47
 70
     1
102
RTVSPropertyOp48
 70
     1
102
RTVSPropertyOp49
 70
     1
102
RTVSPropertyOp50
 70
     1
102
RTVSPropertyOp51
 70
     0
102
RTVSPropertyOp52
 70
     0
102
RTVSPropertyOp53
 70
     1
102
RTVSPropertyOp54
 70
     1
102
RTVSPropertyOp55
 70
     1
102
RTVSPropertyOp56
 70
     1
102
RTVSPropertyOp57
 70
     1
102
RTVSPropertyOp58
 70
     1
102
RTVSPropertyOp59
 70
     1
102
RTVSPropertyOp60
 70
     1
102
RTVSPropertyOp61
 70
     1
102
RTVSPropertyOp62
 70
     1
  0
XRECORD
  5
34E1
102
{ACAD_REACTORS
330
34E0
102
}
330
34E0
100
AcDbXrecord
280
     1
102
RTVSPost2010Prop28
280
     0
102
RTVSPost2010PropOp28
 70
     1
102
RTVSPost2010Prop29
280
     1
102
RTVSPost2010PropOp29
 70
     1
102
RTVSPost2010Prop30
280
     1
102
RTVSPost2010PropOp30
 70
     1
102
RTVSPost2010Prop31
280
     0
102
RTVSPost2010PropOp31
 70
     1
102
RTVSPost2010Prop32
280
     0
102
RTVSPost2010PropOp32
 70
     1
102
RTVSPost2010Prop33
280
     0
102
RTVSPost2010PropOp33
 70
     1
102
RTVSPost2010Prop34
280
     0
102
RTVSPost2010PropOp34
 70
     1
102
RTVSPost2010Prop35
280
     0
102
RTVSPost2010PropOp35
 70
     1
102
RTVSPost2010Prop36
280
     0
102
RTVSPost2010PropOp36
 70
     1
102
RTVSPost2010Prop37
 90
       50
102
RTVSPost2010PropOp37
 70
     1
102
RTVSPost2010Prop38
140
0.0
102
RTVSPost2010PropOp38
 70
     1
102
RTVSPost2010Prop39
140
1.0
102
RTVSPost2010PropOp39
 70
     1
102
RTVSPost2010Prop40
 90
        0
102
RTVSPost2010PropOp40
 70
     1
102
RTVSPost2010Prop41ColorIndex
 90
       18
102
RTVSPost2010Prop41ColorRGB
 90
        0
102
RTVSPost2010PropOp41
 70
     1
102
RTVSPost2010Prop42
 90
       50
102
RTVSPost2010PropOp42
 70
     1
102
RTVSPost2010Prop43
 90
        3
102
RTVSPost2010PropOp43
 70
     1
102
RTVSPost2010Prop44ColorIndex
 90
        5
102
RTVSPost2010Prop44ColorRGB
 90
      255
102
RTVSPost2010PropOp44
 70
     1
102
RTVSPost2010Prop45
280
     0
102
RTVSPost2010PropOp45
 70
     1
102
RTVSPost2010Prop46
 90
       50
102
RTVSPost2010PropOp46
 70
     1
102
RTVSPost2010Prop47
 90
       50
102
RTVSPost2010PropOp47
 70
     1
102
RTVSPost2010Prop48
 90
       50
102
RTVSPost2010PropOp48
 70
     1
102
RTVSPost2010Prop49
280
     0
102
RTVSPost2010PropOp49
 70
     1
102
RTVSPost2010Prop50
 90
       50
102
RTVSPost2010PropOp50
 70
     1
102
RTVSPost2010Prop51ColorIndex
 90
      256
102
RTVSPost2010Prop51ColorRGB
 90
-16777216
102
RTVSPost2010PropOp51
 70
     0
102
RTVSPost2010Prop52
140
1.0
102
RTVSPost2010PropOp52
 70
     0
102
RTVSPost2010Prop53
 90
        2
102
RTVSPost2010PropOp53
 70
     1
102
RTVSPost2010Prop54
  1
strokes_ogs.tif
102
RTVSPost2010PropOp54
 70
     1
102
RTVSPost2010Prop55
280
     0
102
RTVSPost2010PropOp55
 70
     1
102
RTVSPost2010Prop56
140
1.0
102
RTVSPost2010PropOp56
 70
     1
102
RTVSPost2010Prop57
140
1.0
102
RTVSPost2010PropOp57
 70
     1
102
RTVSPropertyOp0
 70
     1
102
RTVSPropertyOp1
 70
     1
102
RTVSPropertyOp2
 70
     1
102
RTVSPropertyOp3
 70
     1
102
RTVSPropertyOp4
 70
     1
102
RTVSPropertyOp5
 70
     1
102
RTVSPropertyOp6
 70
     1
102
RTVSPropertyOp7
 70
     1
102
RTVSPropertyOp8
 70
     1
102
RTVSPropertyOp9
 70
     1
102
RTVSPropertyOp10
 70
     1
102
RTVSPropertyOp11
 70
     1
102
RTVSPropertyOp12
 70
     1
102
RTVSPropertyOp13
 70
     1
102
RTVSPropertyOp14
 70
     1
102
RTVSPropertyOp15
 70
     1
102
RTVSPropertyOp16
 70
     1
102
RTVSPropertyOp17
 70
     1
102
RTVSPropertyOp18
 70
     1
102
RTVSPropertyOp19
 70
     1
102
RTVSPropertyOp20
 70
     1
102
RTVSPropertyOp21
 70
     1
102
RTVSPropertyOp22
 70
     1
102
RTVSPropertyOp23
 70
     1
102
RTVSPropertyOp24
 70
     1
102
RTVSPropertyOp25
 70
     1
102
RTVSPropertyOp26
 70
     1
102
RTVSPropertyOp27
 70
     1
102
RTVSPropertyOp28
 70
     1
102
RTVSPropertyOp29
 70
     1
102
RTVSPropertyOp30
 70
     1
102
RTVSPropertyOp31
 70
     1
102
RTVSPropertyOp32
 70
     1
102
RTVSPropertyOp33
 70
     1
102
RTVSPropertyOp34
 70
     1
102
RTVSPropertyOp35
 70
     1
102
RTVSPropertyOp36
 70
     1
102
RTVSPropertyOp37
 70
     1
102
RTVSPropertyOp38
 70
     1
102
RTVSPropertyOp39
 70
     1
102
RTVSPropertyOp40
 70
     1
102
RTVSPropertyOp41
 70
     1
102
RTVSPropertyOp42
 70
     1
102
RTVSPropertyOp43
 70
     1
102
RTVSPropertyOp44
 70
     1
102
RTVSPropertyOp45
 70
     1
102
RTVSPropertyOp46
 70
     1
102
RTVSPropertyOp47
 70
     1
102
RTVSPropertyOp48
 70
     1
102
RTVSPropertyOp49
 70
     1
102
RTVSPropertyOp50
 70
     1
102
RTVSPropertyOp51
 70
     0
102
RTVSPropertyOp52
 70
     0
102
RTVSPropertyOp53
 70
     1
102
RTVSPropertyOp54
 70
     1
102
RTVSPropertyOp55
 70
     1
102
RTVSPropertyOp56
 70
     1
102
RTVSPropertyOp57
 70
     1
102
RTVSPropertyOp58
 70
     1
102
RTVSPropertyOp59
 70
     1
102
RTVSPropertyOp60
 70
     1
102
RTVSPropertyOp61
 70
     1
102
RTVSPropertyOp62
 70
     1
  0
XRECORD
  5
34E9
102
{ACAD_REACTORS
330
34E8
102
}
330
34E8
100
AcDbXrecord
280
     1
102
RTVSPost2010Prop28
280
     0
102
RTVSPost2010PropOp28
 70
     1
102
RTVSPost2010Prop29
280
     1
102
RTVSPost2010PropOp29
 70
     1
102
RTVSPost2010Prop30
280
     1
102
RTVSPost2010PropOp30
 70
     1
102
RTVSPost2010Prop31
280
     0
102
RTVSPost2010PropOp31
 70
     1
102
RTVSPost2010Prop32
280
     0
102
RTVSPost2010PropOp32
 70
     1
102
RTVSPost2010Prop33
280
     0
102
RTVSPost2010PropOp33
 70
     1
102
RTVSPost2010Prop34
280
     0
102
RTVSPost2010PropOp34
 70
     1
102
RTVSPost2010Prop35
280
     0
102
RTVSPost2010PropOp35
 70
     1
102
RTVSPost2010Prop36
280
     0
102
RTVSPost2010PropOp36
 70
     1
102
RTVSPost2010Prop37
 90
       50
102
RTVSPost2010PropOp37
 70
     1
102
RTVSPost2010Prop38
140
0.0
102
RTVSPost2010PropOp38
 70
     1
102
RTVSPost2010Prop39
140
1.0
102
RTVSPost2010PropOp39
 70
     1
102
RTVSPost2010Prop40
 90
        0
102
RTVSPost2010PropOp40
 70
     1
102
RTVSPost2010Prop41ColorIndex
 90
       18
102
RTVSPost2010Prop41ColorRGB
 90
        0
102
RTVSPost2010PropOp41
 70
     1
102
RTVSPost2010Prop42
 90
       50
102
RTVSPost2010PropOp42
 70
     1
102
RTVSPost2010Prop43
 90
        3
102
RTVSPost2010PropOp43
 70
     1
102
RTVSPost2010Prop44ColorIndex
 90
        5
102
RTVSPost2010Prop44ColorRGB
 90
      255
102
RTVSPost2010PropOp44
 70
     1
102
RTVSPost2010Prop45
280
     0
102
RTVSPost2010PropOp45
 70
     1
102
RTVSPost2010Prop46
 90
       50
102
RTVSPost2010PropOp46
 70
     1
102
RTVSPost2010Prop47
 90
       50
102
RTVSPost2010PropOp47
 70
     1
102
RTVSPost2010Prop48
 90
       50
102
RTVSPost2010PropOp48
 70
     1
102
RTVSPost2010Prop49
280
     0
102
RTVSPost2010PropOp49
 70
     1
102
RTVSPost2010Prop50
 90
       50
102
RTVSPost2010PropOp50
 70
     1
102
RTVSPost2010Prop51ColorIndex
 90
      256
102
RTVSPost2010Prop51ColorRGB
 90
-16777216
102
RTVSPost2010PropOp51
 70
     0
102
RTVSPost2010Prop52
140
1.0
102
RTVSPost2010PropOp52
 70
     0
102
RTVSPost2010Prop53
 90
        2
102
RTVSPost2010PropOp53
 70
     1
102
RTVSPost2010Prop54
  1
strokes_ogs.tif
102
RTVSPost2010PropOp54
 70
     1
102
RTVSPost2010Prop55
280
     0
102
RTVSPost2010PropOp55
 70
     1
102
RTVSPost2010Prop56
140
1.0
102
RTVSPost2010PropOp56
 70
     1
102
RTVSPost2010Prop57
140
1.0
102
RTVSPost2010PropOp57
 70
     1
102
RTVSPropertyOp0
 70
     1
102
RTVSPropertyOp1
 70
     1
102
RTVSPropertyOp2
 70
     1
102
RTVSPropertyOp3
 70
     1
102
RTVSPropertyOp4
 70
     1
102
RTVSPropertyOp5
 70
     1
102
RTVSPropertyOp6
 70
     1
102
RTVSPropertyOp7
 70
     1
102
RTVSPropertyOp8
 70
     1
102
RTVSPropertyOp9
 70
     1
102
RTVSPropertyOp10
 70
     1
102
RTVSPropertyOp11
 70
     1
102
RTVSPropertyOp12
 70
     1
102
RTVSPropertyOp13
 70
     1
102
RTVSPropertyOp14
 70
     1
102
RTVSPropertyOp15
 70
     1
102
RTVSPropertyOp16
 70
     1
102
RTVSPropertyOp17
 70
     1
102
RTVSPropertyOp18
 70
     1
102
RTVSPropertyOp19
 70
     1
102
RTVSPropertyOp20
 70
     1
102
RTVSPropertyOp21
 70
     1
102
RTVSPropertyOp22
 70
     1
102
RTVSPropertyOp23
 70
     1
102
RTVSPropertyOp24
 70
     1
102
RTVSPropertyOp25
 70
     1
102
RTVSPropertyOp26
 70
     1
102
RTVSPropertyOp27
 70
     1
102
RTVSPropertyOp28
 70
     1
102
RTVSPropertyOp29
 70
     1
102
RTVSPropertyOp30
 70
     1
102
RTVSPropertyOp31
 70
     1
102
RTVSPropertyOp32
 70
     1
102
RTVSPropertyOp33
 70
     1
102
RTVSPropertyOp34
 70
     1
102
RTVSPropertyOp35
 70
     1
102
RTVSPropertyOp36
 70
     1
102
RTVSPropertyOp37
 70
     1
102
RTVSPropertyOp38
 70
     1
102
RTVSPropertyOp39
 70
     1
102
RTVSPropertyOp40
 70
     1
102
RTVSPropertyOp41
 70
     1
102
RTVSPropertyOp42
 70
     1
102
RTVSPropertyOp43
 70
     1
102
RTVSPropertyOp44
 70
     1
102
RTVSPropertyOp45
 70
     1
102
RTVSPropertyOp46
 70
     1
102
RTVSPropertyOp47
 70
     1
102
RTVSPropertyOp48
 70
     1
102
RTVSPropertyOp49
 70
     1
102
RTVSPropertyOp50
 70
     1
102
RTVSPropertyOp51
 70
     0
102
RTVSPropertyOp52
 70
     0
102
RTVSPropertyOp53
 70
     1
102
RTVSPropertyOp54
 70
     1
102
RTVSPropertyOp55
 70
     1
102
RTVSPropertyOp56
 70
     1
102
RTVSPropertyOp57
 70
     1
102
RTVSPropertyOp58
 70
     1
102
RTVSPropertyOp59
 70
     1
102
RTVSPropertyOp60
 70
     1
102
RTVSPropertyOp61
 70
     1
102
RTVSPropertyOp62
 70
     1
  0
ENDSEC
  0
EOF
