  0
SECTION
  2
HEADER
  9
$ACADVER
  1
AC1015
  9
$ACADMAINTVER
 70
    20
  9
$DWGCODEPAGE
  3
ANSI_932
  9
$INSBASE
 10
0.0
 20
0.0
 30
0.0
  9
$EXTMIN
 10
-0.0866203276364104
 20
-0.0600852272691555
 30
-0.0000000349181948
  9
$EXTMAX
 10
2760.127581124284
 20
1910.086224299761
 30
0.0000000814935746
  9
$LIMMIN
 10
0.0
 20
0.0
  9
$LIMMAX
 10
2840.0
 20
1970.0
  9
$ORTHOMODE
 70
     0
  9
$REGENMODE
 70
     1
  9
$FILLMODE
 70
     1
  9
$QTEXTMODE
 70
     0
  9
$MIRRTEXT
 70
     1
  9
$LTSCALE
 40
1.0
  9
$ATTMODE
 70
     1
  9
$TEXTSIZE
 40
2.5
  9
$TRACEWID
 40
1.0
  9
$TEXTSTYLE
  7
Standard
  9
$CLAYER
  8
sunpo
  9
$CELTYPE
  6
ByLayer
  9
$CECOLOR
 62
   256
  9
$CELTSCALE
 40
1.0
  9
$DISPSILH
 70
     0
  9
$DIMSCALE
 40
10.0
  9
$DIMASZ
 40
0.8
  9
$DIMEXO
 40
1.0
  9
$DIMDLI
 40
0.0
  9
$DIMRND
 40
0.0
  9
$DIMDLE
 40
0.0
  9
$DIMEXE
 40
0.0
  9
$DIMTP
 40
0.0
  9
$DIMTM
 40
0.0
  9
$DIMTXT
 40
2.0
  9
$DIMCEN
 40
2.5
  9
$DIMTSZ
 40
0.0
  9
$DIMTOL
 70
     0
  9
$DIMLIM
 70
     0
  9
$DIMTIH
 70
     0
  9
$DIMTOH
 70
     0
  9
$DIMSE1
 70
     0
  9
$DIMSE2
 70
     0
  9
$DIMTAD
 70
     2
  9
$DIMZIN
 70
     8
  9
$DIMBLK
  1

  9
$DIMASO
 70
     1
  9
$DIMSHO
 70
     1
  9
$DIMPOST
  1

  9
$DIMAPOST
  1

  9
$DIMALT
 70
     0
  9
$DIMALTD
 70
     4
  9
$DIMALTF
 40
0.0394
  9
$DIMLFAC
 40
1.0
  9
$DIMTOFL
 70
     1
  9
$DIMTVP
 40
0.0
  9
$DIMTIX
 70
     0
  9
$DIMSOXD
 70
     0
  9
$DIMSAH
 70
     1
  9
$DIMBLK1
  1
DOT
  9
$DIMBLK2
  1
DOT
  9
$DIMSTYLE
  2
STANDARD
  9
$DIMCLRD
 70
     0
  9
$DIMCLRE
 70
     0
  9
$DIMCLRT
 70
     0
  9
$DIMTFAC
 40
1.0
  9
$DIMGAP
 40
0.1
  9
$DIMJUST
 70
     0
  9
$DIMSD1
 70
     0
  9
$DIMSD2
 70
     0
  9
$DIMTOLJ
 70
     1
  9
$DIMTZIN
 70
     0
  9
$DIMALTZ
 70
     0
  9
$DIMALTTZ
 70
     0
  9
$DIMUPT
 70
     0
  9
$DIMDEC
 70
     8
  9
$DIMTDEC
 70
     8
  9
$DIMALTU
 70
     8
  9
$DIMALTTD
 70
     4
  9
$DIMTXSTY
  7
Standard
  9
$DIMAUNIT
 70
     0
  9
$DIMADEC
 70
     0
  9
$DIMALTRND
 40
0.0
  9
$DIMAZIN
 70
     0
  9
$DIMDSEP
 70
    46
  9
$DIMATFIT
 70
     3
  9
$DIMFRAC
 70
     0
  9
$DIMLDRBLK
  1
DOT
  9
$DIMLUNIT
 70
     2
  9
$DIMLWD
 70
    -2
  9
$DIMLWE
 70
    -2
  9
$DIMTMOVE
 70
     1
  9
$LUNITS
 70
     2
  9
$LUPREC
 70
     8
  9
$SKETCHINC
 40
1.0
  9
$FILLETRAD
 40
0.0
  9
$AUNITS
 70
     0
  9
$AUPREC
 70
     8
  9
$MENU
  1
.
  9
$ELEVATION
 40
0.0
  9
$PELEVATION
 40
0.0
  9
$THICKNESS
 40
0.0
  9
$LIMCHECK
 70
     0
  9
$CHAMFERA
 40
5.0
  9
$CHAMFERB
 40
5.0
  9
$CHAMFERC
 40
20.0
  9
$CHAMFERD
 40
0.0
  9
$SKPOLY
 70
     0
  9
$TDCREATE
 40
2453276.413761574
  9
$TDUCREATE
 40
2453276.038766620
  9
$TDUPDATE
 40
2459978.493310185
  9
$TDUUPDATE
 40
2459978.118310186
  9
$TDINDWG
 40
0.3461133333
  9
$TDUSRTIMER
 40
0.3461133333
  9
$USRTIMER
 70
     1
  9
$ANGBASE
 50
0.0
  9
$ANGDIR
 70
     0
  9
$PDMODE
 70
     0
  9
$PDSIZE
 40
0.0
  9
$PLINEWID
 40
0.0
  9
$SPLFRAME
 70
     0
  9
$SPLINETYPE
 70
     6
  9
$SPLINESEGS
 70
     8
  9
$HANDSEED
  5
6434
  9
$SURFTAB1
 70
     6
  9
$SURFTAB2
 70
     6
  9
$SURFTYPE
 70
     6
  9
$SURFU
 70
     6
  9
$SURFV
 70
     6
  9
$UCSBASE
  2

  9
$UCSNAME
  2

  9
$UCSORG
 10
0.0
 20
0.0
 30
0.0
  9
$UCSXDIR
 10
1.0
 20
0.0
 30
0.0
  9
$UCSYDIR
 10
0.0
 20
1.0
 30
0.0
  9
$UCSORTHOREF
  2

  9
$UCSORTHOVIEW
 70
     0
  9
$UCSORGTOP
 10
0.0
 20
0.0
 30
0.0
  9
$UCSORGBOTTOM
 10
0.0
 20
0.0
 30
0.0
  9
$UCSORGLEFT
 10
0.0
 20
0.0
 30
0.0
  9
$UCSORGRIGHT
 10
0.0
 20
0.0
 30
0.0
  9
$UCSORGFRONT
 10
0.0
 20
0.0
 30
0.0
  9
$UCSORGBACK
 10
0.0
 20
0.0
 30
0.0
  9
$PUCSBASE
  2

  9
$PUCSNAME
  2

  9
$PUCSORG
 10
0.0
 20
0.0
 30
0.0
  9
$PUCSXDIR
 10
1.0
 20
0.0
 30
0.0
  9
$PUCSYDIR
 10
0.0
 20
1.0
 30
0.0
  9
$PUCSORTHOREF
  2

  9
$PUCSORTHOVIEW
 70
     0
  9
$PUCSORGTOP
 10
0.0
 20
0.0
 30
0.0
  9
$PUCSORGBOTTOM
 10
0.0
 20
0.0
 30
0.0
  9
$PUCSORGLEFT
 10
0.0
 20
0.0
 30
0.0
  9
$PUCSORGRIGHT
 10
0.0
 20
0.0
 30
0.0
  9
$PUCSORGFRONT
 10
0.0
 20
0.0
 30
0.0
  9
$PUCSORGBACK
 10
0.0
 20
0.0
 30
0.0
  9
$USERI1
 70
     0
  9
$USERI2
 70
     0
  9
$USERI3
 70
     0
  9
$USERI4
 70
     0
  9
$USERI5
 70
     0
  9
$USERR1
 40
0.0
  9
$USERR2
 40
0.0
  9
$USERR3
 40
0.0
  9
$USERR4
 40
0.0
  9
$USERR5
 40
0.0
  9
$WORLDVIEW
 70
     1
  9
$SHADEDGE
 70
     2
  9
$SHADEDIF
 70
    70
  9
$TILEMODE
 70
     1
  9
$MAXACTVP
 70
    64
  9
$PINSBASE
 10
0.0
 20
0.0
 30
0.0
  9
$PLIMCHECK
 70
     0
  9
$PEXTMIN
 10
0.0
 20
0.0
 30
0.0
  9
$PEXTMAX
 10
0.0
 20
0.0
 30
0.0
  9
$PLIMMIN
 10
0.0
 20
0.0
  9
$PLIMMAX
 10
12.0
 20
9.0
  9
$UNITMODE
 70
     0
  9
$VISRETAIN
 70
     1
  9
$PLINEGEN
 70
     0
  9
$PSLTSCALE
 70
     1
  9
$TREEDEPTH
 70
  3020
  9
$CMLSTYLE
  2
Standard
  9
$CMLJUST
 70
     0
  9
$CMLSCALE
 40
20.0
  9
$PROXYGRAPHICS
 70
     1
  9
$MEASUREMENT
 70
     1
  9
$CELWEIGHT
370
    -1
  9
$ENDCAPS
280
     0
  9
$JOINSTYLE
280
     0
  9
$LWDISPLAY
290
     0
  9
$INSUNITS
 70
     4
  9
$HYPERLINKBASE
  1

  9
$STYLESHEET
  1
monochrome.stb
  9
$XEDIT
290
     1
  9
$CEPSNTYPE
380
     0
  9
$PSTYLEMODE
290
     1
  9
$FINGERPRINTGUID
  2
{B4E61C12-08AD-407D-A83C-7C7812CA1D8B}
  9
$VERSIONGUID
  2
{A4B4AA75-38BC-0244-AC8A-87F8DF3338E4}
  9
$EXTNAMES
290
     1
  9
$PSVPSCALE
 40
0.0
  9
$OLESTARTUP
290
     0
  0
ENDSEC
  0
SECTION
  2
CLASSES
  0
CLASS
  1
ACDBDICTIONARYWDFLT
  2
AcDbDictionaryWithDefault
  3
ObjectDBX Classes
 90
        0
280
     0
281
     0
  0
CLASS
  1
ACDBPLACEHOLDER
  2
AcDbPlaceHolder
  3
ObjectDBX Classes
 90
        0
280
     0
281
     0
  0
CLASS
  1
LAYOUT
  2
AcDbLayout
  3
ObjectDBX Classes
 90
        0
280
     0
281
     0
  0
CLASS
  1
DICTIONARYVAR
  2
AcDbDictionaryVar
  3
ObjectDBX Classes
 90
        0
280
     0
281
     0
  0
CLASS
  1
SORTENTSTABLE
  2
AcDbSortentsTable
  3
ObjectDBX Classes
 90
        0
280
     0
281
     0
  0
CLASS
  1
MATERIAL
  2
AcDbMaterial
  3
ObjectDBX Classes
 90
     1153
280
     0
281
     0
  0
CLASS
  1
VISUALSTYLE
  2
AcDbVisualStyle
  3
ObjectDBX Classes
 90
     4095
280
     0
281
     0
  0
CLASS
  1
TABLESTYLE
  2
AcDbTableStyle
  3
ObjectDBX Classes
 90
     4095
280
     0
281
     0
  0
CLASS
  1
SCALE
  2
AcDbScale
  3
ObjectDBX Classes
 90
     1153
280
     0
281
     0
  0
CLASS
  1
MLEADERSTYLE
  2
AcDbMLeaderStyle
  3
ACDB_MLEADERSTYLE_CLASS
 90
     4095
280
     0
281
     0
  0
CLASS
  1
AEC_REFEDIT_STATUS_TRACKER
  2
AecDbRefEditStatusTracker
  3
AecArchBase60|Product Desc: Autodesk Architectural Desktop 2007 |Company: Autodesk,Inc. |WEB Address: www.autodesk.com
 90
    32897
280
     0
281
     0
  0
CLASS
  1
NPOCOLLECTION
  2
AcDbImpNonPersistentObjectsCollection
  3
ObjectDBX Classes
 90
    33921
280
     0
281
     0
  0
CLASS
  1
CELLSTYLEMAP
  2
AcDbCellStyleMap
  3
ObjectDBX Classes
 90
     1152
280
     0
281
     0
  0
CLASS
  1
ACDBSECTIONVIEWSTYLE
  2
AcDbSectionViewStyle
  3
ObjectDBX Classes
 90
     1025
280
     0
281
     0
  0
CLASS
  1
ACDBDETAILVIEWSTYLE
  2
AcDbDetailViewStyle
  3
ObjectDBX Classes
 90
     1025
280
     0
281
     0
  0
ENDSEC
  0
SECTION
  2
TABLES
  0
TABLE
  2
VPORT
  5
8
102
{ACAD_XDICTIONARY
360
556D
102
}
330
0
100
AcDbSymbolTable
 70
     1
  0
VPORT
  5
54F5
330
8
100
AcDbSymbolTableRecord
100
AcDbViewportTableRecord
  2
*Active
 70
     0
 10
0.0
 20
0.0
 11
1.0
 21
1.0
 12
1380.020480398324
 22
955.013069536246
 13
0.0
 23
0.0
 14
10.0
 24
10.0
 15
10.0
 25
10.0
 16
0.0
 26
0.0
 36
1.0
 17
0.0
 27
0.0
 37
0.0
 40
1960.19381108669
 41
1.780701754385964
 42
50.0
 43
0.0
 44
0.0
 50
0.0
 51
0.0
 71
     0
 72
   100
 73
     1
 74
     3
 75
     0
 76
     0
 77
     0
 78
     0
281
     0
 65
     1
110
0.0
120
0.0
130
0.0
111
1.0
121
0.0
131
0.0
112
0.0
122
1.0
132
0.0
 79
     0
146
0.0
1001
ACAD_NAV_VCDISPLAY
1070
     3
  0
ENDTAB
  0
TABLE
  2
LTYPE
  5
5
330
0
100
AcDbSymbolTable
 70
     4
  0
LTYPE
  5
14
330
5
100
AcDbSymbolTableRecord
100
AcDbLinetypeTableRecord
  2
ByBlock
 70
     0
  3

 72
    65
 73
     0
 40
0.0
  0
LTYPE
  5
15
330
5
100
AcDbSymbolTableRecord
100
AcDbLinetypeTableRecord
  2
ByLayer
 70
     0
  3

 72
    65
 73
     0
 40
0.0
  0
LTYPE
  5
16
330
5
100
AcDbSymbolTableRecord
100
AcDbLinetypeTableRecord
  2
Continuous
 70
     0
  3
Solid line
 72
    65
 73
     0
 40
0.0
  0
LTYPE
  5
255D
330
5
100
AcDbSymbolTableRecord
100
AcDbLinetypeTableRecord
  2
DASHED
 70
     0
  3
Dashed __ __ __ __ __ __ __ __ __ __ __ __ __ _
 72
    65
 73
     2
 40
19.05
 49
12.7
 74
     0
 49
-6.349999999999999
 74
     0
  0
LTYPE
  5
3EDB
330
5
100
AcDbSymbolTableRecord
100
AcDbLinetypeTableRecord
  2
CENTER
 70
     0
  3
Center ____ _ ____ _ ____ _ ____ _ ____ _ ____
 72
    65
 73
     4
 40
50.8
 49
31.75
 74
     0
 49
-6.349999999999999
 74
     0
 49
6.349999999999999
 74
     0
 49
-6.349999999999999
 74
     0
  0
ENDTAB
  0
TABLE
  2
LAYER
  5
2
102
{ACAD_XDICTIONARY
360
2D
102
}
330
0
100
AcDbSymbolTable
 70
     9
  0
LAYER
  5
10
102
{ACAD_XDICTIONARY
360
5559
102
}
330
2
100
AcDbSymbolTableRecord
100
AcDbLayerTableRecord
  2
0
 70
     0
 62
     7
  6
Continuous
290
     0
370
    -3
390
29
  0
LAYER
  5
2294
102
{ACAD_XDICTIONARY
360
555B
102
}
330
2
100
AcDbSymbolTableRecord
100
AcDbLayerTableRecord
  2
HATCH
 70
     0
 62
     9
  6
Continuous
370
    -3
390
29
  0
LAYER
  5
235F
102
{ACAD_XDICTIONARY
360
555D
102
}
330
2
100
AcDbSymbolTableRecord
100
AcDbLayerTableRecord
  2
KUTAI
 70
     0
 62
     3
  6
Continuous
370
    -3
390
29
  0
LAYER
  5
2360
102
{ACAD_XDICTIONARY
360
555F
102
}
330
2
100
AcDbSymbolTableRecord
100
AcDbLayerTableRecord
  2
BOUSUI
 70
     0
 62
     1
  6
Continuous
370
    -3
390
29
  0
LAYER
  5
2361
102
{ACAD_XDICTIONARY
360
5561
102
}
330
2
100
AcDbSymbolTableRecord
100
AcDbLayerTableRecord
  2
MOJI
 70
     0
 62
     7
  6
Continuous
370
    -3
390
29
  0
LAYER
  5
2363
102
{ACAD_XDICTIONARY
360
5563
102
}
330
2
100
AcDbSymbolTableRecord
100
AcDbLayerTableRecord
  2
sunpo
 70
     0
 62
     7
  6
Continuous
370
    -3
390
29
  0
LAYER
  5
2501
102
{ACAD_XDICTIONARY
360
5565
102
}
330
2
100
AcDbSymbolTableRecord
100
AcDbLayerTableRecord
  2
dannnetu
 70
     0
 62
     6
  6
Continuous
370
    -3
390
F
  0
LAYER
  5
3EDC
102
{ACAD_XDICTIONARY
360
5567
102
}
330
2
100
AcDbSymbolTableRecord
100
AcDbLayerTableRecord
  2
ZATU
 70
     0
 62
     6
  6
Continuous
370
    -3
390
29
  0
LAYER
  5
56A2
102
{ACAD_XDICTIONARY
360
56A3
102
}
330
2
100
AcDbSymbolTableRecord
100
AcDbLayerTableRecord
  2
WAKU
 70
     0
 62
     7
  6
Continuous
370
    -3
390
29
  0
ENDTAB
  0
TABLE
  2
STYLE
  5
3
330
0
100
AcDbSymbolTable
 70
     2
  0
STYLE
  5
11
330
3
100
AcDbSymbolTableRecord
100
AcDbTextStyleTableRecord
  2
Standard
 70
     0
 40
0.0
 41
1.0
 50
0.0
 71
     0
 42
2.5
  3

  4

1001
ACAD
1000
MS Gothic
1071
    32817
  0
STYLE
  5
56A4
330
3
100
AcDbSymbolTableRecord
100
AcDbTextStyleTableRecord
  2
MSゴシック
 70
     0
 40
0.0
 41
1.0
 50
0.0
 71
     0
 42
2.5
  3

  4

1001
ACAD
1000
MS Gothic
1071
    32817
  0
ENDTAB
  0
TABLE
  2
VIEW
  5
6
330
0
100
AcDbSymbolTable
 70
     0
  0
ENDTAB
  0
TABLE
  2
UCS
  5
7
330
0
100
AcDbSymbolTable
 70
     0
  0
ENDTAB
  0
TABLE
  2
APPID
  5
9
330
0
100
AcDbSymbolTable
 70
     9
  0
APPID
  5
12
330
9
100
AcDbSymbolTableRecord
100
AcDbRegAppTableRecord
  2
ACAD
 70
     0
  0
APPID
  5
553E
330
9
100
AcDbSymbolTableRecord
100
AcDbRegAppTableRecord
  2
ACAD_EXEMPT_FROM_CAD_STANDARDS
 70
     0
  0
APPID
  5
559D
330
9
100
AcDbSymbolTableRecord
100
AcDbRegAppTableRecord
  2
ACAD_MLEADERVER
 70
     0
  0
APPID
  5
5658
330
9
100
AcDbSymbolTableRecord
100
AcDbRegAppTableRecord
  2
ACAD_NAV_VCDISPLAY
 70
     0
  0
APPID
  5
56A6
330
9
100
AcDbSymbolTableRecord
100
AcDbRegAppTableRecord
  2
ACAD_PSEXT
 70
     0
  0
APPID
  5
56A7
330
9
100
AcDbSymbolTableRecord
100
AcDbRegAppTableRecord
  2
ACAD_DSTYLE_DIMJAG
 70
     0
  0
APPID
  5
56A8
330
9
100
AcDbSymbolTableRecord
100
AcDbRegAppTableRecord
  2
ACAD_DSTYLE_DIMTALN
 70
     0
  0
APPID
  5
58EA
330
9
100
AcDbSymbolTableRecord
100
AcDbRegAppTableRecord
  2
AcAecLayerStandard
 70
     0
  0
APPID
  5
6205
330
9
100
AcDbSymbolTableRecord
100
AcDbRegAppTableRecord
  2
AcadAnnoPO
 70
     0
  0
ENDTAB
  0
TABLE
  2
DIMSTYLE
  5
A
330
0
100
AcDbSymbolTable
 70
     2
100
AcDbDimStyleTable
 71
     1
340
22E4
  0
DIMSTYLE
105
22E4
330
A
100
AcDbSymbolTableRecord
100
AcDbDimStyleTableRecord
  2
STANDARD
 70
     0
 40
10.0
 41
0.8
 42
1.0
 43
0.0
 44
0.0
 73
     0
 74
     0
 77
     2
 78
     8
140
2.0
141
2.5
143
0.0394
147
0.1
171
     4
172
     1
173
     1
271
     8
272
     8
273
     8
274
     4
279
     1
340
11
341
903
343
903
344
903
  0
ENDTAB
  0
TABLE
  2
BLOCK_RECORD
  5
1
330
0
100
AcDbSymbolTable
 70
     2
  0
BLOCK_RECORD
  5
1F
102
{ACAD_XDICTIONARY
360
1C62
102
}
330
1
100
AcDbSymbolTableRecord
100
AcDbBlockTableRecord
  2
*Model_Space
340
22
  0
BLOCK_RECORD
  5
1CD0
330
1
100
AcDbSymbolTableRecord
100
AcDbBlockTableRecord
  2
*Paper_Space
340
1CD1
  0
BLOCK_RECORD
  5
903
330
1
100
AcDbSymbolTableRecord
100
AcDbBlockTableRecord
  2
_DOT
340
0
  0
ENDTAB
  0
ENDSEC
  0
SECTION
  2
BLOCKS
  0
BLOCK
  5
20
330
1F
100
AcDbEntity
  8
0
100
AcDbBlockBegin
  2
*Model_Space
 70
     0
 10
0.0
 20
0.0
 30
0.0
  3
*Model_Space
  1

  0
ENDBLK
  5
21
330
1F
100
AcDbEntity
  8
0
100
AcDbBlockEnd
  0
BLOCK
  5
1CD2
330
1CD0
100
AcDbEntity
 67
     1
  8
0
100
AcDbBlockBegin
  2
*Paper_Space
 70
     0
 10
0.0
 20
0.0
 30
0.0
  3
*Paper_Space
  1

  0
ENDBLK
  5
1CD3
330
1CD0
100
AcDbEntity
 67
     1
  8
0
100
AcDbBlockEnd
  0
BLOCK
  5
906
330
903
100
AcDbEntity
  8
0
100
AcDbBlockBegin
  2
_DOT
 70
     0
 10
0.0
 20
0.0
 30
0.0
  3
_DOT
  1

  0
LWPOLYLINE
  5
904
330
903
100
AcDbEntity
  8
0
  6
ByBlock
 62
     0
100
AcDbPolyline
 90
        2
 70
     1
 43
0.5
 10
-0.25
 20
0.0
 42
1.0
 10
0.25
 20
0.0
 42
1.0
  0
LINE
  5
905
330
903
100
AcDbEntity
  8
0
  6
ByBlock
 62
     0
100
AcDbLine
 10
-0.5
 20
0.0
 30
0.0
 11
-1.0
 21
0.0
 31
0.0
  0
ENDBLK
  5
907
330
903
100
AcDbEntity
  8
0
100
AcDbBlockEnd
  0
ENDSEC
  0
SECTION
  2
ENTITIES
  0
LINE
  5
24F1
330
1F
100
AcDbEntity
  8
KUTAI
100
AcDbLine
 10
2280.0
 20
545.0
 30
0.0
 11
980.0000000000002
 21
545.0
 31
0.0
  0
LINE
  5
24F2
330
1F
100
AcDbEntity
  8
KUTAI
100
AcDbLine
 10
980.0000000000002
 20
545.0
 30
0.0
 11
980.0000000000002
 21
837.0000000000004
 31
0.0
  0
LINE
  5
24F4
330
1F
100
AcDbEntity
  8
KUTAI
100
AcDbLine
 10
800.0000000000001
 20
860.0
 30
0.0
 11
800.0000000000001
 21
695.0000000000002
 31
0.0
  0
LINE
  5
24F5
330
1F
100
AcDbEntity
  8
KUTAI
100
AcDbLine
 10
2280.0
 20
395.0
 30
0.0
 11
980.0000000000002
 21
394.9999999999999
 31
0.0
  0
TEXT
  5
28CA
330
1F
100
AcDbEntity
  8
MOJI
100
AcDbText
 10
586.0081213952368
 20
1176.989624453799
 30
0.0
 40
20.0
  1
（室内）
  7
MSゴシック
100
AcDbText
  0
LINE
  5
2A0D
330
1F
100
AcDbEntity
  8
KUTAI
100
AcDbLine
 10
580.0000000000002
 20
545.0000000000001
 30
0.0
 11
580.0000000000001
 21
295.0
 31
0.0
  0
LINE
  5
2A0E
330
1F
100
AcDbEntity
  8
KUTAI
100
AcDbLine
 10
980.0000000000002
 20
394.9999999999999
 30
0.0
 11
980.0000000000002
 21
294.9999999999999
 31
0.0
  0
LINE
  5
2A0F
330
1F
100
AcDbEntity
  8
KUTAI
100
AcDbLine
 10
580.0000000000002
 20
545.0000000000001
 30
0.0
 11
480.0
 21
545.0000000000001
 31
0.0
  0
LINE
  5
2A10
330
1F
100
AcDbEntity
  8
KUTAI
100
AcDbLine
 10
800.0000000000001
 20
695.0000000000002
 30
0.0
 11
480.0
 21
695.0000000000002
 31
0.0
  0
LINE
  5
2DF6
330
1F
100
AcDbEntity
  8
HATCH
100
AcDbLine
 10
845.0000009119914
 20
295.0
 30
0.0
 11
1095.000000911991
 21
545.0
 31
0.0
  0
LINE
  5
2DF7
330
1F
100
AcDbEntity
  8
HATCH
100
AcDbLine
 10
855.0000009119914
 20
295.0
 30
0.0
 11
1105.000000911991
 21
545.0
 31
0.0
  0
LINE
  5
2DF8
330
1F
100
AcDbEntity
  8
HATCH
100
AcDbLine
 10
865.0000009119915
 20
295.0
 30
0.0
 11
1115.000000911991
 21
545.0
 31
0.0
  0
LINE
  5
2E02
330
1F
100
AcDbEntity
  8
HATCH
100
AcDbLine
 10
800.0000000000001
 20
749.9999990880086
 30
0.0
 11
900.0000008290838
 21
849.9999999170919
 31
0.0
  0
LINE
  5
2E03
330
1F
100
AcDbEntity
  8
HATCH
100
AcDbLine
 10
800.0000000000001
 20
729.9999990880086
 30
0.0
 11
918.1818190109019
 21
848.1818180989101
 31
0.0
  0
LINE
  5
2E04
330
1F
100
AcDbEntity
  8
HATCH
100
AcDbLine
 10
800.0000000000001
 20
739.9999990880086
 30
0.0
 11
909.0909099199929
 21
849.0909090080009
 31
0.0
  0
LINE
  5
2E05
330
1F
100
AcDbEntity
  8
HATCH
100
AcDbLine
 10
580.0000000000002
 20
519.9999990880087
 30
0.0
 11
755.0000009119918
 21
695.0000000000002
 31
0.0
  0
LINE
  5
2E06
330
1F
100
AcDbEntity
  8
HATCH
100
AcDbLine
 10
580.0000000000002
 20
529.9999990880087
 30
0.0
 11
745.0000009119918
 21
695.0000000000002
 31
0.0
  0
LINE
  5
2E07
330
1F
100
AcDbEntity
  8
HATCH
100
AcDbLine
 10
580.0000000000002
 20
509.9999990880087
 30
0.0
 11
765.0000009119918
 21
695.0000000000002
 31
0.0
  0
LINE
  5
2E08
330
1F
100
AcDbEntity
  8
HATCH
100
AcDbLine
 10
1465.000000911991
 20
394.9999999999998
 30
0.0
 11
1615.000000911991
 21
545.0
 31
0.0
  0
LINE
  5
2E09
330
1F
100
AcDbEntity
  8
HATCH
100
AcDbLine
 10
1445.000000911991
 20
394.9999999999998
 30
0.0
 11
1595.000000911991
 21
545.0
 31
0.0
  0
LINE
  5
2E0A
330
1F
100
AcDbEntity
  8
HATCH
100
AcDbLine
 10
1455.000000911991
 20
394.9999999999998
 30
0.0
 11
1605.000000911991
 21
545.0
 31
0.0
  0
LINE
  5
2E0B
330
1F
100
AcDbEntity
  8
HATCH
100
AcDbLine
 10
1965.000000911991
 20
394.9999999999999
 30
0.0
 11
2115.000000911992
 21
545.0
 31
0.0
  0
LINE
  5
2E0C
330
1F
100
AcDbEntity
  8
HATCH
100
AcDbLine
 10
1955.000000911991
 20
394.9999999999999
 30
0.0
 11
2105.000000911991
 21
545.0
 31
0.0
  0
LINE
  5
2E0D
330
1F
100
AcDbEntity
  8
HATCH
100
AcDbLine
 10
1945.000000911991
 20
394.9999999999999
 30
0.0
 11
2095.000000911992
 21
545.0
 31
0.0
  0
LINE
  5
41EB
330
1F
100
AcDbEntity
  8
ZATU
100
AcDbLine
 10
780.0000000000002
 20
859.9999999999999
 30
0.0
 11
780.0000000000002
 21
695.0000000000002
 31
0.0
  0
LINE
  5
41EC
330
1F
100
AcDbEntity
  8
ZATU
100
AcDbLine
 10
735.0000000000002
 20
859.9999999999999
 30
0.0
 11
735.0000000000003
 21
695.0000000000002
 31
0.0
  0
LINE
  5
41ED
330
1F
100
AcDbEntity
  8
ZATU
100
AcDbLine
 10
780.0000000000002
 20
695.0000000000002
 30
0.0
 11
735.0000000000002
 21
859.9999999999999
 31
0.0
  0
LINE
  5
41EE
330
1F
100
AcDbEntity
  8
ZATU
100
AcDbLine
 10
800.0000000000001
 20
695.0000000000002
 30
0.0
 11
800.0000000000001
 21
859.9999999999999
 31
0.0
  0
LINE
  5
4202
330
1F
100
AcDbEntity
  8
ZATU
100
AcDbLine
 10
629.6433859999999
 20
859.9999999999999
 30
0.0
 11
619.6433859999999
 21
869.9999999999999
 31
0.0
  0
LINE
  5
4203
330
1F
100
AcDbEntity
  8
ZATU
100
AcDbLine
 10
480.0
 20
869.9999999999999
 30
0.0
 11
745.0000000000003
 21
870.0
 31
0.0
  0
LINE
  5
4204
330
1F
100
AcDbEntity
  8
ZATU
100
AcDbLine
 10
780.0000000000002
 20
859.9999999999999
 30
0.0
 11
480.0
 21
859.9999999999999
 31
0.0
  0
LINE
  5
4207
330
1F
100
AcDbEntity
  8
ZATU
100
AcDbLine
 10
502.3641640000002
 20
859.9999999999999
 30
0.0
 11
492.3641640000003
 21
869.9999999999999
 31
0.0
  0
LINE
  5
4208
330
1F
100
AcDbEntity
  8
ZATU
100
AcDbLine
 10
544.7905710000002
 20
859.9999999999999
 30
0.0
 11
534.7905710000002
 21
869.9999999999999
 31
0.0
  0
LINE
  5
4209
330
1F
100
AcDbEntity
  8
ZATU
100
AcDbLine
 10
523.5773680000004
 20
859.9999999999999
 30
0.0
 11
513.5773680000004
 21
869.9999999999999
 31
0.0
  0
LINE
  5
420A
330
1F
100
AcDbEntity
  8
ZATU
100
AcDbLine
 10
566.0037750000003
 20
859.9999999999999
 30
0.0
 11
556.0037750000003
 21
869.9999999999999
 31
0.0
  0
LINE
  5
420B
330
1F
100
AcDbEntity
  8
ZATU
100
AcDbLine
 10
587.216979
 20
859.9999999999999
 30
0.0
 11
577.216979
 21
869.9999999999999
 31
0.0
  0
LINE
  5
420C
330
1F
100
AcDbEntity
  8
ZATU
100
AcDbLine
 10
587.216979
 20
859.9999999999999
 30
0.0
 11
582.216979
 21
864.9999999999998
 31
0.0
  0
LINE
  5
420D
330
1F
100
AcDbEntity
  8
ZATU
100
AcDbLine
 10
608.4301830000002
 20
859.9999999999999
 30
0.0
 11
598.4301830000001
 21
869.9999999999999
 31
0.0
  0
LINE
  5
4216
330
1F
100
AcDbEntity
  8
ZATU
100
AcDbLine
 10
757.5000000000002
 20
860.4895940621902
 30
0.0
 11
757.5000000000001
 21
974.4828329634028
 31
0.0
  0
LINE
  5
4217
330
1F
100
AcDbEntity
  8
ZATU
100
AcDbLine
 10
745.0000000000002
 20
974.4828329634028
 30
0.0
 11
745.0000000000002
 21
860.4895940621902
 31
0.0
  0
LINE
  5
4218
330
1F
100
AcDbEntity
  8
ZATU
100
AcDbLine
 10
754.0000000000003
 20
974.4828329634028
 30
0.0
 11
754.0000000000002
 21
860.4895940621902
 31
0.0
  0
LINE
  5
4219
330
1F
100
AcDbEntity
  8
ZATU
100
AcDbLine
 10
751.0000000000002
 20
974.4828329634028
 30
0.0
 11
751.0000000000002
 21
860.4895940621902
 31
0.0
  0
LINE
  5
421F
330
1F
100
AcDbEntity
  8
ZATU
100
AcDbLine
 10
693.2829970000004
 20
859.9999999999999
 30
0.0
 11
683.2829970000005
 21
869.9999999999999
 31
0.0
  0
LINE
  5
4220
330
1F
100
AcDbEntity
  8
ZATU
100
AcDbLine
 10
650.85659
 20
859.9999999999999
 30
0.0
 11
640.8565900000001
 21
869.9999999999999
 31
0.0
  0
LINE
  5
4221
330
1F
100
AcDbEntity
  8
ZATU
100
AcDbLine
 10
672.0697929999999
 20
859.9999999999999
 30
0.0
 11
662.0697929999998
 21
869.9999999999999
 31
0.0
  0
LINE
  5
4222
330
1F
100
AcDbEntity
  8
ZATU
100
AcDbLine
 10
714.4962010000001
 20
859.9999999999999
 30
0.0
 11
704.4962010000001
 21
869.9999999999999
 31
0.0
  0
LINE
  5
4223
330
1F
100
AcDbEntity
  8
ZATU
100
AcDbLine
 10
735.7094040000004
 20
859.9999999999999
 30
0.0
 11
725.7094040000004
 21
869.9999999999999
 31
0.0
  0
LINE
  5
422B
330
1F
100
AcDbEntity
  8
ZATU
100
AcDbLine
 10
855.7141914871586
 20
987.4246769634028
 30
0.0
 11
853.2141914871585
 21
989.9246769634029
 31
0.0
  0
LINE
  5
422C
330
1F
100
AcDbEntity
  8
ZATU
100
AcDbLine
 10
853.2141914871585
 20
987.874551963403
 30
0.0
 11
855.3224724871583
 21
989.9828329634029
 31
0.0
  0
LINE
  5
422D
330
1F
100
AcDbEntity
  8
ZATU
100
AcDbLine
 10
855.2141914871585
 20
989.9828329634029
 30
0.0
 11
853.2141914871585
 21
989.9828329634029
 31
0.0
  0
LINE
  5
422E
330
1F
100
AcDbEntity
  8
ZATU
100
AcDbLine
 10
853.094791487158
 20
957.8848919634028
 30
0.0
 11
854.2141914871585
 21
957.9828289634024
 31
0.0
  0
LINE
  5
422F
330
1F
100
AcDbEntity
  8
ZATU
100
AcDbLine
 10
853.094791487158
 20
951.0807829634032
 30
0.0
 11
854.2141914871585
 21
950.9828429634026
 31
0.0
  0
LINE
  5
4230
330
1F
100
AcDbEntity
  8
ZATU
  6
DASHED
100
AcDbLine
 10
854.1629044871584
 20
954.482838963403
 30
0.0
 11
853.5540914871585
 21
955.6278229634026
 31
0.0
  0
LINE
  5
4231
330
1F
100
AcDbEntity
  8
ZATU
  6
DASHED
100
AcDbLine
 10
854.1629044871584
 20
954.482838963403
 30
0.0
 11
853.5540914871585
 21
953.337842963403
 31
0.0
  0
LINE
  5
4232
330
1F
100
AcDbEntity
  8
ZATU
100
AcDbLine
 10
854.2141914871585
 20
985.4828329634029
 30
0.0
 11
852.9141914871583
 21
985.4828329634029
 31
0.0
  0
LINE
  5
4233
330
1F
100
AcDbEntity
  8
ZATU
100
AcDbLine
 10
855.7141914871586
 20
986.9828329634028
 30
0.0
 11
853.2141914871585
 21
986.9828329634028
 31
0.0
  0
LINE
  5
4234
330
1F
100
AcDbEntity
  8
ZATU
100
AcDbLine
 10
854.7418214871582
 20
986.9828329634028
 30
0.0
 11
853.2141914871585
 21
988.5104629634025
 31
0.0
  0
LINE
  5
4235
330
1F
100
AcDbEntity
  8
ZATU
100
AcDbLine
 10
853.7366854871583
 20
986.9828329634028
 30
0.0
 11
855.7141914871586
 21
988.960338963403
 31
0.0
  0
LINE
  5
4236
330
1F
100
AcDbEntity
  8
ZATU
  6
CENTER
100
AcDbLine
 10
849.1141844871586
 20
954.4828329634029
 30
0.0
 11
864.7141914871586
 21
954.4828329634029
 31
0.0
  0
LINE
  5
4237
330
1F
100
AcDbEntity
  8
ZATU
100
AcDbLine
 10
855.7141914871586
 20
991.4828329634028
 30
0.0
 11
837.2141914871585
 21
991.4828329634028
 31
0.0
  0
LINE
  5
4238
330
1F
100
AcDbEntity
  8
ZATU
100
AcDbLine
 10
855.7141914871586
 20
933.9828429634026
 30
0.0
 11
800.0000000000001
 21
859.9999999999999
 31
0.0
  0
LINE
  5
423A
330
1F
100
AcDbEntity
  8
ZATU
100
AcDbLine
 10
800.0000000000001
 20
860.0
 30
0.0
 11
780.0000000000002
 21
860.0
 31
0.0
  0
CIRCLE
  5
423B
330
1F
100
AcDbEntity
  8
ZATU
100
AcDbCircle
 10
822.8988790152975
 20
870.7090880674059
 30
0.0
 40
0.3
  0
CIRCLE
  5
423C
330
1F
100
AcDbEntity
  8
ZATU
100
AcDbCircle
 10
822.8988790152975
 20
870.7090880674059
 30
0.0
 40
0.3
  0
CIRCLE
  5
423D
330
1F
100
AcDbEntity
  8
ZATU
100
AcDbCircle
 10
822.8988790152975
 20
885.7090880674059
 30
0.0
 40
0.3
  0
CIRCLE
  5
423E
330
1F
100
AcDbEntity
  8
ZATU
100
AcDbCircle
 10
822.8988790152975
 20
885.7090880674059
 30
0.0
 40
0.3
  0
CIRCLE
  5
423F
330
1F
100
AcDbEntity
  8
ZATU
100
AcDbCircle
 10
814.1042397476244
 20
875.2718413282108
 30
0.0
 40
0.3
  0
CIRCLE
  5
4240
330
1F
100
AcDbEntity
  8
ZATU
100
AcDbCircle
 10
814.1042397476244
 20
875.2718413282108
 30
0.0
 40
0.3
  0
CIRCLE
  5
4241
330
1F
100
AcDbEntity
  8
ZATU
100
AcDbCircle
 10
808.2140914871583
 20
863.2193689748646
 30
0.0
 40
0.3
  0
CIRCLE
  5
4242
330
1F
100
AcDbEntity
  8
ZATU
100
AcDbCircle
 10
808.2140914871583
 20
863.2193689748646
 30
0.0
 40
0.3
  0
CIRCLE
  5
4243
330
1F
100
AcDbEntity
  8
ZATU
100
AcDbCircle
 10
816.5026033941263
 20
861.7353263029972
 30
0.0
 40
0.3
  0
CIRCLE
  5
4244
330
1F
100
AcDbEntity
  8
ZATU
100
AcDbCircle
 10
816.5026033941263
 20
861.7353263029972
 30
0.0
 40
0.3
  0
CIRCLE
  5
4249
330
1F
100
AcDbEntity
  8
ZATU
100
AcDbCircle
 10
835.7140914871584
 20
870.4828619634026
 30
0.0
 40
0.3
  0
CIRCLE
  5
424A
330
1F
100
AcDbEntity
  8
ZATU
100
AcDbCircle
 10
835.7140914871584
 20
870.4828619634026
 30
0.0
 40
0.3
  0
CIRCLE
  5
424B
330
1F
100
AcDbEntity
  8
ZATU
100
AcDbCircle
 10
843.2140914871583
 20
877.9828619634027
 30
0.0
 40
0.3
  0
CIRCLE
  5
424C
330
1F
100
AcDbEntity
  8
ZATU
100
AcDbCircle
 10
843.2140914871583
 20
877.9828619634027
 30
0.0
 40
0.3
  0
CIRCLE
  5
424D
330
1F
100
AcDbEntity
  8
ZATU
100
AcDbCircle
 10
835.7140914871584
 20
885.4828619634027
 30
0.0
 40
0.3
  0
CIRCLE
  5
424E
330
1F
100
AcDbEntity
  8
ZATU
100
AcDbCircle
 10
835.7140914871584
 20
885.4828619634027
 30
0.0
 40
0.3
  0
CIRCLE
  5
424F
330
1F
100
AcDbEntity
  8
ZATU
100
AcDbCircle
 10
843.2140914871583
 20
892.9828619634026
 30
0.0
 40
0.3
  0
CIRCLE
  5
4250
330
1F
100
AcDbEntity
  8
ZATU
100
AcDbCircle
 10
843.2140914871583
 20
892.9828619634026
 30
0.0
 40
0.3
  0
CIRCLE
  5
4251
330
1F
100
AcDbEntity
  8
ZATU
100
AcDbCircle
 10
830.046318086805
 20
877.0173356664754
 30
0.0
 40
0.3
  0
CIRCLE
  5
4252
330
1F
100
AcDbEntity
  8
ZATU
100
AcDbCircle
 10
830.046318086805
 20
877.0173356664754
 30
0.0
 40
0.3
  0
CIRCLE
  5
4253
330
1F
100
AcDbEntity
  8
ZATU
100
AcDbCircle
 10
830.046318086805
 20
892.0173356664754
 30
0.0
 40
0.3
  0
CIRCLE
  5
4254
330
1F
100
AcDbEntity
  8
ZATU
100
AcDbCircle
 10
830.046318086805
 20
892.0173356664754
 30
0.0
 40
0.3
  0
CIRCLE
  5
4255
330
1F
100
AcDbEntity
  8
ZATU
100
AcDbCircle
 10
830.046318086805
 20
862.0173356664754
 30
0.0
 40
0.3
  0
CIRCLE
  5
4256
330
1F
100
AcDbEntity
  8
ZATU
100
AcDbCircle
 10
830.046318086805
 20
862.0173356664754
 30
0.0
 40
0.3
  0
CIRCLE
  5
4257
330
1F
100
AcDbEntity
  8
ZATU
100
AcDbCircle
 10
844.4365184051525
 20
861.3123106183229
 30
0.0
 40
0.3
  0
CIRCLE
  5
4258
330
1F
100
AcDbEntity
  8
ZATU
100
AcDbCircle
 10
844.4365184051525
 20
861.3123106183229
 30
0.0
 40
0.3
  0
CIRCLE
  5
425B
330
1F
100
AcDbEntity
  8
ZATU
100
AcDbCircle
 10
850.7140914871584
 20
870.4828619634026
 30
0.0
 40
0.3
  0
CIRCLE
  5
425C
330
1F
100
AcDbEntity
  8
ZATU
100
AcDbCircle
 10
850.7140914871584
 20
870.4828619634026
 30
0.0
 40
0.3
  0
CIRCLE
  5
425D
330
1F
100
AcDbEntity
  8
ZATU
100
AcDbCircle
 10
850.7140914871584
 20
885.4828619634027
 30
0.0
 40
0.3
  0
CIRCLE
  5
425E
330
1F
100
AcDbEntity
  8
ZATU
100
AcDbCircle
 10
850.7140914871584
 20
885.4828619634027
 30
0.0
 40
0.3
  0
CIRCLE
  5
425F
330
1F
100
AcDbEntity
  8
ZATU
100
AcDbCircle
 10
843.2140914871583
 20
907.9828619634026
 30
0.0
 40
0.3
  0
CIRCLE
  5
4260
330
1F
100
AcDbEntity
  8
ZATU
100
AcDbCircle
 10
843.2140914871583
 20
907.9828619634026
 30
0.0
 40
0.3
  0
CIRCLE
  5
4261
330
1F
100
AcDbEntity
  8
ZATU
100
AcDbCircle
 10
835.7140914871584
 20
900.4828619634027
 30
0.0
 40
0.3
  0
CIRCLE
  5
4262
330
1F
100
AcDbEntity
  8
ZATU
100
AcDbCircle
 10
835.7140914871584
 20
900.4828619634027
 30
0.0
 40
0.3
  0
CIRCLE
  5
4263
330
1F
100
AcDbEntity
  8
ZATU
100
AcDbCircle
 10
850.7140914871584
 20
900.4828619634027
 30
0.0
 40
0.3
  0
CIRCLE
  5
4264
330
1F
100
AcDbEntity
  8
ZATU
100
AcDbCircle
 10
850.7140914871584
 20
900.4828619634027
 30
0.0
 40
0.3
  0
CIRCLE
  5
4265
330
1F
100
AcDbEntity
  8
ZATU
100
AcDbCircle
 10
850.7140914871584
 20
915.4828619634027
 30
0.0
 40
0.3
  0
CIRCLE
  5
4266
330
1F
100
AcDbEntity
  8
ZATU
100
AcDbCircle
 10
850.7140914871584
 20
915.4828619634027
 30
0.0
 40
0.3
  0
LINE
  5
4268
330
1F
100
AcDbEntity
  8
ZATU
100
AcDbLine
 10
835.7141014871581
 20
1495.0
 30
0.0
 11
835.7141014871581
 21
994.4828329634029
 31
0.0
  0
LINE
  5
4269
330
1F
100
AcDbEntity
  8
ZATU
100
AcDbLine
 10
835.7141914871586
 20
994.4828329634029
 30
0.0
 11
735.0022149322877
 21
994.4828329634029
 31
0.0
  0
LINE
  5
426A
330
1F
100
AcDbEntity
  8
ZATU
100
AcDbLine
 10
850.7141914871585
 20
969.4828329634029
 30
0.0
 11
757.5000000000001
 21
969.4828329634029
 31
0.0
  0
LINE
  5
426B
330
1F
100
AcDbEntity
  8
ZATU
100
AcDbLine
 10
812.8448514871584
 20
969.4828329634029
 30
0.0
 11
767.8448514871583
 21
994.4828329634029
 31
0.0
  0
LINE
  5
426C
330
1F
100
AcDbEntity
  8
ZATU
100
AcDbLine
 10
753.8487039322878
 20
974.4828329634028
 30
0.0
 11
735.0022149322877
 21
993.3293219634023
 31
0.0
  0
LINE
  5
426D
330
1F
100
AcDbEntity
  8
ZATU
100
AcDbLine
 10
735.0022149322877
 20
969.4828329634029
 30
0.0
 11
735.0022149322877
 21
994.4828329634029
 31
0.0
  0
LINE
  5
426E
330
1F
100
AcDbEntity
  8
ZATU
100
AcDbLine
 10
745.0000000000001
 20
974.4828329634028
 30
0.0
 11
757.5000000000001
 21
974.4828329634028
 31
0.0
  0
LINE
  5
426F
330
1F
100
AcDbEntity
  8
ZATU
100
AcDbLine
 10
735.0022149322877
 20
969.4828329634029
 30
0.0
 11
745.0000000000001
 21
969.4828329634029
 31
0.0
  0
LINE
  5
4270
330
1F
100
AcDbEntity
  8
ZATU
100
AcDbLine
 10
758.8464890000001
 20
969.4828329634029
 30
0.0
 11
757.5000000000001
 21
970.8293219634024
 31
0.0
  0
LINE
  5
4271
330
1F
100
AcDbEntity
  8
ZATU
  6
DASHED
100
AcDbLine
 10
843.6637584871583
 20
978.2161659634029
 30
0.0
 11
841.7637584871586
 21
976.0161659634032
 31
0.0
  0
LINE
  5
4272
330
1F
100
AcDbEntity
  8
ZATU
100
AcDbLine
 10
841.1291234871582
 20
969.4828329634029
 30
0.0
 11
816.1291234871582
 21
994.4828329634029
 31
0.0
  0
LINE
  5
4273
330
1F
100
AcDbEntity
  8
ZATU
  6
CENTER
100
AcDbLine
 10
842.7137584871584
 20
993.5422619634028
 30
0.0
 11
842.7137584871584
 21
969.3569329634028
 31
0.0
  0
LINE
  5
4274
330
1F
100
AcDbEntity
  8
ZATU
100
AcDbLine
 10
850.7141914871585
 20
969.4828329634029
 30
0.0
 11
850.7141914871585
 21
988.6828329634026
 31
0.0
  0
ARC
  5
4275
330
1F
100
AcDbEntity
  8
ZATU
100
AcDbCircle
 10
853.2080914871581
 20
956.5898429634026
 30
0.0
 40
1.300016999999999
100
AcDbArc
 50
95.004274999984
 51
164.119319999994
  0
ARC
  5
4276
330
1F
100
AcDbEntity
  8
ZATU
100
AcDbCircle
 10
853.2080914871581
 20
952.3758229634031
 30
0.0
 40
1.299996999999999
100
AcDbArc
 50
195.8802559999951
 51
265.000095999988
  0
LINE
  5
4277
330
1F
100
AcDbEntity
  8
ZATU
  6
DASHED
100
AcDbLine
 10
851.8391914871585
 20
956.4828329634028
 30
0.0
 11
853.5540914871585
 21
955.6278329634023
 31
0.0
  0
LINE
  5
4278
330
1F
100
AcDbEntity
  8
ZATU
  6
DASHED
100
AcDbLine
 10
851.8391914871585
 20
952.4828429634025
 30
0.0
 11
853.5540914871585
 21
953.337842963403
 31
0.0
  0
ARC
  5
4279
330
1F
100
AcDbEntity
  8
ZATU
100
AcDbCircle
 10
860.6141974871585
 20
954.4828699634026
 30
0.0
 40
9.0
100
AcDbArc
 50
164.1193939999967
 51
195.8809979999972
  0
LINE
  5
427A
330
1F
100
AcDbEntity
  8
ZATU
  6
DASHED
100
AcDbLine
 10
841.7637584871586
 20
976.0161659634032
 30
0.0
 11
843.3637584871581
 21
973.8161659634025
 31
0.0
  0
LINE
  5
427B
330
1F
100
AcDbEntity
  8
ZATU
  6
DASHED
100
AcDbLine
 10
843.3637584871581
 20
973.8161659634025
 30
0.0
 11
842.7137584871584
 21
971.4828329634029
 31
0.0
  0
LINE
  5
427C
330
1F
100
AcDbEntity
  8
ZATU
100
AcDbLine
 10
853.2141914871585
 20
989.2887659634025
 30
0.0
 11
853.9082584871584
 21
989.9828329634029
 31
0.0
  0
LINE
  5
427D
330
1F
100
AcDbEntity
  8
ZATU
100
AcDbLine
 10
853.3276084871582
 20
986.9828329634028
 30
0.0
 11
853.2141914871585
 21
987.0962499634025
 31
0.0
  0
ARC
  5
427E
330
1F
100
AcDbEntity
  8
ZATU
100
AcDbCircle
 10
852.9141914871583
 20
986.4828329634029
 30
0.0
 40
1.0
100
AcDbArc
 50
180.0
 51
270.0
  0
LINE
  5
427F
330
1F
100
AcDbEntity
  8
ZATU
100
AcDbLine
 10
853.2141914871585
 20
989.9828329634029
 30
0.0
 11
853.2141914871585
 21
986.9828329634028
 31
0.0
  0
LINE
  5
4280
330
1F
100
AcDbEntity
  8
ZATU
100
AcDbLine
 10
851.9141914871584
 20
990.3828329634025
 30
0.0
 11
851.9141914871584
 21
986.4828329634029
 31
0.0
  0
LINE
  5
4281
330
1F
100
AcDbEntity
  8
ZATU
100
AcDbLine
 10
835.7141914871586
 20
994.4828329634029
 30
0.0
 11
835.7141914871586
 21
988.6828329634026
 31
0.0
  0
LINE
  5
4282
330
1F
100
AcDbEntity
  8
ZATU
100
AcDbLine
 10
835.7141914871586
 20
993.9414329634027
 30
0.0
 11
835.7141914871586
 21
989.1828329634027
 31
0.0
  0
LINE
  5
4283
330
1F
100
AcDbEntity
  8
ZATU
100
AcDbLine
 10
837.2141914871585
 20
991.4828329634028
 30
0.0
 11
836.7895914871583
 21
994.0304329634027
 31
0.0
  0
LINE
  5
4284
330
1F
100
AcDbEntity
  8
ZATU
  6
DASHED
100
AcDbLine
 10
840.9637584871584
 20
989.4828329634028
 30
0.0
 11
839.2137584871584
 21
991.4828329634028
 31
0.0
  0
LINE
  5
4285
330
1F
100
AcDbEntity
  8
ZATU
100
AcDbLine
 10
835.7141914871586
 20
988.6828329634026
 30
0.0
 11
850.7141914871585
 21
988.6828329634026
 31
0.0
  0
LINE
  5
4286
330
1F
100
AcDbEntity
  8
ZATU
  6
DASHED
100
AcDbLine
 10
839.2137584871584
 20
991.4828329634028
 30
0.0
 11
846.2137584871584
 21
991.4828329634028
 31
0.0
  0
LINE
  5
4287
330
1F
100
AcDbEntity
  8
ZATU
100
AcDbLine
 10
836.7141914871586
 20
990.3828329634025
 30
0.0
 11
836.7141914871586
 21
989.1828329634027
 31
0.0
  0
ARC
  5
4288
330
1F
100
AcDbEntity
  8
ZATU
100
AcDbCircle
 10
836.2141914871585
 20
989.1828329634027
 30
0.0
 40
0.5
100
AcDbArc
 50
180.0
 51
0.0
  0
LINE
  5
4289
330
1F
100
AcDbEntity
  8
ZATU
100
AcDbLine
 10
850.7141914871585
 20
988.182035963403
 30
0.0
 11
850.2133944871584
 21
988.6828329634026
 31
0.0
  0
LINE
  5
428A
330
1F
100
AcDbEntity
  8
ZATU
  6
DASHED
100
AcDbLine
 10
844.4637584871584
 20
989.4828329634028
 30
0.0
 11
846.2137584871584
 21
991.4828329634028
 31
0.0
  0
LINE
  5
428B
330
1F
100
AcDbEntity
  8
ZATU
  6
DASHED
100
AcDbLine
 10
840.9637584871584
 20
989.4828329634028
 30
0.0
 11
844.4637584871584
 21
989.4828329634028
 31
0.0
  0
ARC
  5
428C
330
1F
100
AcDbEntity
  8
ZATU
100
AcDbCircle
 10
836.2555914871586
 20
993.9414329634027
 30
0.0
 40
0.5413660000000001
100
AcDbArc
 50
9.462322000006665
 51
180.0
  0
LINE
  5
428D
330
1F
100
AcDbEntity
  8
ZATU
  6
DASHED
100
AcDbLine
 10
841.4637584871584
 20
980.4161659634027
 30
0.0
 11
843.6637584871583
 21
978.2161659634029
 31
0.0
  0
LINE
  5
428E
330
1F
100
AcDbEntity
  8
ZATU
  6
DASHED
100
AcDbLine
 10
844.4637584871584
 20
984.8161659634024
 30
0.0
 11
840.9637584871584
 21
984.8161659634024
 31
0.0
  0
LINE
  5
428F
330
1F
100
AcDbEntity
  8
ZATU
  6
DASHED
100
AcDbLine
 10
840.9637584871584
 20
984.8161659634024
 30
0.0
 11
843.9637584871585
 21
982.6161659634026
 31
0.0
  0
LINE
  5
4290
330
1F
100
AcDbEntity
  8
ZATU
  6
DASHED
100
AcDbLine
 10
843.9637584871585
 20
982.6161659634026
 30
0.0
 11
841.4637584871584
 21
980.4161659634027
 31
0.0
  0
LINE
  5
4291
330
1F
100
AcDbEntity
  8
ZATU
  6
DASHED
100
AcDbLine
 10
840.9637584871584
 20
984.8161659634024
 30
0.0
 11
840.9637584871584
 21
989.4828329634028
 31
0.0
  0
LINE
  5
4292
330
1F
100
AcDbEntity
  8
ZATU
  6
DASHED
100
AcDbLine
 10
844.4637584871584
 20
984.8161659634024
 30
0.0
 11
844.4637584871584
 21
989.4828329634028
 31
0.0
  0
LINE
  5
4293
330
1F
100
AcDbEntity
  8
ZATU
100
AcDbLine
 10
851.9141914871584
 20
990.3828329634025
 30
0.0
 11
836.7141914871586
 21
990.3828329634025
 31
0.0
  0
LINE
  5
4294
330
1F
100
AcDbEntity
  8
ZATU
100
AcDbLine
 10
970.7140914871583
 20
898.4275839634028
 30
0.0
 11
970.7140914871583
 21
1495.0
 31
0.0
  0
LINE
  5
4295
330
1F
100
AcDbEntity
  8
ZATU
100
AcDbLine
 10
1015.714091487158
 20
892.9023129634025
 30
0.0
 11
1015.714091487158
 21
1495.0
 31
0.0
  0
LINE
  5
4296
330
1F
100
AcDbEntity
  8
ZATU
100
AcDbLine
 10
887.7141914871586
 20
945.1828329634027
 30
0.0
 11
887.7141914871586
 21
927.6315479634032
 31
0.0
  0
LINE
  5
4297
330
1F
100
AcDbEntity
  8
ZATU
  6
DASHED
100
AcDbLine
 10
859.4766614871582
 20
937.2328329634028
 30
0.0
 11
871.6698664871582
 21
936.2802389634024
 31
0.0
  0
LINE
  5
4298
330
1F
100
AcDbEntity
  8
ZATU
  6
DASHED
100
AcDbLine
 10
858.7140914871584
 20
934.2328329634028
 30
0.0
 11
859.4766614871582
 21
937.2328329634028
 31
0.0
  0
LINE
  5
4299
330
1F
100
AcDbEntity
  8
ZATU
100
AcDbLine
 10
955.7140914871583
 20
900.0126729634031
 30
0.0
 11
955.7140914871583
 21
1495.0
 31
0.0
  0
LINE
  5
429A
330
1F
100
AcDbEntity
  8
ZATU
100
AcDbLine
 10
855.7141914871586
 20
990.9828329634029
 30
0.0
 11
855.7141914871586
 21
933.9828429634026
 31
0.0
  0
LINE
  5
429B
330
1F
100
AcDbEntity
  8
ZATU
100
AcDbLine
 10
857.3641914871583
 20
956.782832963403
 30
0.0
 11
857.3641914871583
 21
935.1328329634025
 31
0.0
  0
LINE
  5
429C
330
1F
100
AcDbEntity
  8
ZATU
100
AcDbLine
 10
886.0141914871583
 20
957.782832963403
 30
0.0
 11
886.0141914871583
 21
927.6315479634032
 31
0.0
  0
ARC
  5
429D
330
1F
100
AcDbEntity
  8
ZATU
100
AcDbCircle
 10
971.7845744871583
 20
864.8918709634026
 30
0.0
 40
3.0
100
AcDbArc
 50
18.16085400000238
 51
128.0000000000099
  0
LINE
  5
429E
330
1F
100
AcDbEntity
  8
ZATU
  6
DASHED
100
AcDbLine
 10
974.1104124871585
 20
859.3161049634026
 30
0.0
 11
968.5694594871584
 21
866.408200963403
 31
0.0
  0
LINE
  5
429F
330
1F
100
AcDbEntity
  8
ZATU
  6
DASHED
100
AcDbLine
 10
975.0018334871583
 20
860.7739689634026
 30
0.0
 11
969.8302764871582
 21
867.3932599634026
 31
0.0
  0
LINE
  5
42A0
330
1F
100
AcDbEntity
  8
ZATU
  6
DASHED
100
AcDbLine
 10
978.8074804871584
 20
865.3970029634029
 30
0.0
 11
893.1035314871582
 21
875.5209289634031
 31
0.0
  0
LINE
  5
42A1
330
1F
100
AcDbEntity
  8
ZATU
  6
DASHED
100
AcDbLine
 10
977.7516804871584
 20
856.459145963403
 30
0.0
 11
892.0477314871583
 21
866.5830719634032
 31
0.0
  0
LINE
  5
42A2
330
1F
100
AcDbEntity
  8
ZATU
  6
DASHED
100
AcDbLine
 10
943.7140914871584
 20
896.0173999634026
 30
0.0
 11
1005.514091487158
 21
888.4293609634024
 31
0.0
  0
LINE
  5
42A3
330
1F
100
AcDbEntity
  8
ZATU
  6
DASHED
100
AcDbLine
 10
943.7140914871584
 20
875.8672049634023
 30
0.0
 11
1005.514091487158
 21
868.2791669634026
 31
0.0
  0
LINE
  5
42A4
330
1F
100
AcDbEntity
  8
ZATU
100
AcDbLine
 10
1025.477091487158
 20
876.1542419634023
 30
0.0
 11
945.3505914871584
 21
886.4268719634027
 31
0.0
  0
LINE
  5
42A5
330
1F
100
AcDbEntity
  8
ZATU
100
AcDbLine
 10
976.9141914871584
 20
881.0696219634028
 30
0.0
 11
944.5869914871583
 21
885.2141349634029
 31
0.0
  0
LINE
  5
42A6
330
1F
100
AcDbEntity
  8
ZATU
  6
DASHED
100
AcDbLine
 10
918.1478304871584
 20
905.8007949634029
 30
0.0
 11
918.1478304871584
 21
813.0519810980811
 31
0.0
  0
LINE
  5
42A7
330
1F
100
AcDbEntity
  8
ZATU
  6
DASHED
100
AcDbLine
 10
909.1478304871584
 20
905.8007949634029
 30
0.0
 11
909.1478304871584
 21
813.0519810980811
 31
0.0
  0
ARC
  5
42A8
330
1F
100
AcDbEntity
  8
ZATU
  6
DASHED
100
AcDbCircle
 10
911.3978304871585
 20
818.6141299634027
 30
0.0
 40
6.0
100
AcDbArc
 50
247.975686999993
 51
292.0243130000066
  0
ARC
  5
42A9
330
1F
100
AcDbEntity
  8
ZATU
  6
DASHED
100
AcDbCircle
 10
911.3978304871585
 20
807.489831963403
 30
0.0
 40
6.0
100
AcDbArc
 50
67.975686999993
 51
112.0243130000066
  0
ARC
  5
42AA
330
1F
100
AcDbEntity
  8
ZATU
  6
DASHED
100
AcDbCircle
 10
915.8978304871585
 20
818.6141299634027
 30
0.0
 40
6.0
100
AcDbArc
 50
247.975686999993
 51
292.0243130000066
  0
ARC
  5
42AB
330
1F
100
AcDbEntity
  8
ZATU
  6
DASHED
100
AcDbCircle
 10
911.3978304871585
 20
900.2386459634026
 30
0.0
 40
6.0
100
AcDbArc
 50
67.975686999993
 51
112.0243130000066
  0
ARC
  5
42AC
330
1F
100
AcDbEntity
  8
ZATU
100
AcDbCircle
 10
912.9133044871583
 20
873.5352449634028
 30
0.0
 40
3.0
100
AcDbArc
 50
55.8950829999991
 51
173.263058000006
  0
LINE
  5
42AD
330
1F
100
AcDbEntity
  8
ZATU
100
AcDbLine
 10
900.1874714871583
 20
919.4532229634024
 30
0.0
 11
927.2140914871583
 21
917.7640329634023
 31
0.0
  0
LINE
  5
42AE
330
1F
100
AcDbEntity
  8
ZATU
100
AcDbLine
 10
900.0814314871581
 20
917.7565329634026
 30
0.0
 11
921.3367914871582
 21
916.428032963403
 31
0.0
  0
LINE
  5
42AF
330
1F
100
AcDbEntity
  8
ZATU
  6
DASHED
100
AcDbLine
 10
873.5140914871585
 20
900.1328329634025
 30
0.0
 11
954.0140914871585
 21
900.1328329634025
 31
0.0
  0
LINE
  5
42B0
330
1F
100
AcDbEntity
  8
ZATU
  6
DASHED
100
AcDbLine
 10
877.6140914871584
 20
898.1328329634024
 30
0.0
 11
923.6140914871585
 21
898.1328329634024
 31
0.0
  0
ARC
  5
42B1
330
1F
100
AcDbEntity
  8
ZATU
100
AcDbCircle
 10
910.9715514871581
 20
898.1328329634024
 30
0.0
 40
3.0
100
AcDbArc
 50
180.0
 51
0.0
  0
ARC
  5
42B2
330
1F
100
AcDbEntity
  8
ZATU
100
AcDbCircle
 10
913.1997514871587
 20
864.4388329634029
 30
0.0
 40
3.0
100
AcDbArc
 50
240.5800700000026
 51
353.263058000006
  0
ARC
  5
42B3
330
1F
100
AcDbEntity
  8
ZATU
100
AcDbCircle
 10
910.9019344871581
 20
864.7102669634023
 30
0.0
 40
3.0
100
AcDbArc
 50
173.263058000006
 51
353.263058000006
  0
LINE
  5
42B4
330
1F
100
AcDbEntity
  8
ZATU
  6
DASHED
100
AcDbLine
 10
875.6140914871584
 20
898.1328329634024
 30
0.0
 11
875.6140914871584
 21
883.1328329634025
 31
0.0
  0
LINE
  5
42B5
330
1F
100
AcDbEntity
  8
ZATU
  6
DASHED
100
AcDbLine
 10
877.6140914871584
 20
898.1328329634024
 30
0.0
 11
877.6140914871584
 21
883.1328329634025
 31
0.0
  0
CIRCLE
  5
42B6
330
1F
100
AcDbEntity
  8
ZATU
100
AcDbCircle
 10
880.7140914871583
 20
870.4828619634026
 30
0.0
 40
0.3
  0
CIRCLE
  5
42B7
330
1F
100
AcDbEntity
  8
ZATU
100
AcDbCircle
 10
880.7140914871583
 20
885.4828619634027
 30
0.0
 40
0.3
  0
CIRCLE
  5
42B8
330
1F
100
AcDbEntity
  8
ZATU
100
AcDbCircle
 10
858.2140914871583
 20
877.9828619634027
 30
0.0
 40
0.3
  0
CIRCLE
  5
42B9
330
1F
100
AcDbEntity
  8
ZATU
100
AcDbCircle
 10
858.2140914871583
 20
877.9828619634027
 30
0.0
 40
0.3
  0
CIRCLE
  5
42BA
330
1F
100
AcDbEntity
  8
ZATU
100
AcDbCircle
 10
858.2140914871583
 20
892.9828619634026
 30
0.0
 40
0.3
  0
CIRCLE
  5
42BB
330
1F
100
AcDbEntity
  8
ZATU
100
AcDbCircle
 10
873.2140914871584
 20
877.9828619634027
 30
0.0
 40
0.3
  0
CIRCLE
  5
42BC
330
1F
100
AcDbEntity
  8
ZATU
100
AcDbCircle
 10
865.7140914871584
 20
870.4828619634026
 30
0.0
 40
0.3
  0
CIRCLE
  5
42BD
330
1F
100
AcDbEntity
  8
ZATU
100
AcDbCircle
 10
865.7140914871584
 20
870.4828619634026
 30
0.0
 40
0.3
  0
CIRCLE
  5
42BE
330
1F
100
AcDbEntity
  8
ZATU
100
AcDbCircle
 10
873.2140914871584
 20
892.9828619634026
 30
0.0
 40
0.3
  0
CIRCLE
  5
42BF
330
1F
100
AcDbEntity
  8
ZATU
100
AcDbCircle
 10
865.7140914871584
 20
885.4828619634027
 30
0.0
 40
0.3
  0
LINE
  5
42C0
330
1F
100
AcDbEntity
  8
ZATU
  6
DASHED
100
AcDbLine
 10
875.6140914871584
 20
883.1328329634025
 30
0.0
 11
877.6140914871584
 21
883.1328329634025
 31
0.0
  0
CIRCLE
  5
42C1
330
1F
100
AcDbEntity
  8
ZATU
100
AcDbCircle
 10
857.2748314829983
 20
864.6964393746266
 30
0.0
 40
0.3
  0
CIRCLE
  5
42C2
330
1F
100
AcDbEntity
  8
ZATU
100
AcDbCircle
 10
857.2748314829983
 20
864.6964393746266
 30
0.0
 40
0.3
  0
CIRCLE
  5
42C3
330
1F
100
AcDbEntity
  8
ZATU
100
AcDbCircle
 10
871.9471859935097
 20
861.8763326241923
 30
0.0
 40
0.3
  0
CIRCLE
  5
42C4
330
1F
100
AcDbEntity
  8
ZATU
100
AcDbCircle
 10
871.9471859935097
 20
861.8763326241923
 30
0.0
 40
0.3
  0
CIRCLE
  5
42C5
330
1F
100
AcDbEntity
  8
ZATU
100
AcDbCircle
 10
910.7140914871584
 20
870.4828619634026
 30
0.0
 40
0.3
  0
CIRCLE
  5
42C6
330
1F
100
AcDbEntity
  8
ZATU
100
AcDbCircle
 10
910.7140914871584
 20
885.4828619634027
 30
0.0
 40
0.3
  0
CIRCLE
  5
42C7
330
1F
100
AcDbEntity
  8
ZATU
100
AcDbCircle
 10
895.7140914871583
 20
870.4828619634026
 30
0.0
 40
0.3
  0
ARC
  5
42C8
330
1F
100
AcDbEntity
  8
ZATU
  6
DASHED
100
AcDbCircle
 10
898.3633254871584
 20
872.6339629634031
 30
0.0
 40
6.0
100
AcDbArc
 50
151.2387449999932
 51
195.2873709999988
  0
ARC
  5
42C9
330
1F
100
AcDbEntity
  8
ZATU
  6
DASHED
100
AcDbCircle
 10
887.3158384871581
 20
873.9389659634026
 30
0.0
 40
6.0
100
AcDbArc
 50
331.2387449999931
 51
15.28737099999878
  0
ARC
  5
42CA
330
1F
100
AcDbEntity
  8
ZATU
  6
DASHED
100
AcDbCircle
 10
897.8354254871582
 20
868.1650339634025
 30
0.0
 40
6.0
100
AcDbArc
 50
151.2387449999932
 51
195.2873709999988
  0
CIRCLE
  5
42CB
330
1F
100
AcDbEntity
  8
ZATU
100
AcDbCircle
 10
888.2140914871584
 20
877.9828619634027
 30
0.0
 40
0.3
  0
CIRCLE
  5
42CC
330
1F
100
AcDbEntity
  8
ZATU
100
AcDbCircle
 10
903.2140914871584
 20
877.9828619634027
 30
0.0
 40
0.3
  0
CIRCLE
  5
42CD
330
1F
100
AcDbEntity
  8
ZATU
100
AcDbCircle
 10
895.7140914871583
 20
885.4828619634027
 30
0.0
 40
0.3
  0
CIRCLE
  5
42CE
330
1F
100
AcDbEntity
  8
ZATU
100
AcDbCircle
 10
888.2140914871584
 20
892.9828619634026
 30
0.0
 40
0.3
  0
CIRCLE
  5
42CF
330
1F
100
AcDbEntity
  8
ZATU
100
AcDbCircle
 10
903.2140914871584
 20
892.9828619634026
 30
0.0
 40
0.3
  0
ARC
  5
42D0
330
1F
100
AcDbEntity
  8
ZATU
100
AcDbCircle
 10
910.1741284871582
 20
873.8588149634024
 30
0.0
 40
3.0
100
AcDbArc
 50
55.8950829999991
 51
173.263058000006
  0
CIRCLE
  5
42D1
330
1F
100
AcDbEntity
  8
ZATU
100
AcDbCircle
 10
888.2140914871584
 20
862.9828619634027
 30
0.0
 40
0.3
  0
CIRCLE
  5
42D2
330
1F
100
AcDbEntity
  8
ZATU
100
AcDbCircle
 10
903.2140914871584
 20
862.9828619634027
 30
0.0
 40
0.3
  0
CIRCLE
  5
42D3
330
1F
100
AcDbEntity
  8
ZATU
100
AcDbCircle
 10
858.2140914871583
 20
907.9828619634026
 30
0.0
 40
0.3
  0
CIRCLE
  5
42D4
330
1F
100
AcDbEntity
  8
ZATU
100
AcDbCircle
 10
858.2140914871583
 20
907.9828619634026
 30
0.0
 40
0.3
  0
CIRCLE
  5
42D5
330
1F
100
AcDbEntity
  8
ZATU
100
AcDbCircle
 10
873.2140914871584
 20
907.9828619634026
 30
0.0
 40
0.3
  0
ARC
  5
42D6
330
1F
100
AcDbEntity
  8
ZATU
100
AcDbCircle
 10
862.2141914871585
 20
934.6328329634024
 30
0.0
 40
0.5
100
AcDbArc
 50
0.0
 51
90.0
  0
ARC
  5
42D7
330
1F
100
AcDbEntity
  8
ZATU
100
AcDbCircle
 10
862.2141914871585
 20
933.9828429634026
 30
0.0
 40
0.5
100
AcDbArc
 50
270.0
 51
359.998853999994
  0
LINE
  5
42D8
330
1F
100
AcDbEntity
  8
ZATU
  6
DASHED
100
AcDbLine
 10
857.5140914871585
 20
933.2328329634028
 30
0.0
 11
871.5140914871586
 21
933.2328329634028
 31
0.0
  0
LINE
  5
42D9
330
1F
100
AcDbEntity
  8
ZATU
  6
DASHED
100
AcDbLine
 10
858.7140914871584
 20
934.2328329634028
 30
0.0
 11
871.5140914871586
 21
933.2328329634028
 31
0.0
  0
LINE
  5
42DA
330
1F
100
AcDbEntity
  8
ZATU
  6
DASHED
100
AcDbLine
 10
857.5140914871585
 20
931.2328329634029
 30
0.0
 11
871.5140914871586
 21
931.2328329634029
 31
0.0
  0
LINE
  5
42DB
330
1F
100
AcDbEntity
  8
ZATU
100
AcDbLine
 10
862.2141914871585
 20
935.1328329634025
 30
0.0
 11
857.3641914871583
 21
935.1328329634025
 31
0.0
  0
LINE
  5
42DC
330
1F
100
AcDbEntity
  8
ZATU
100
AcDbLine
 10
862.2141914871585
 20
933.4828429634026
 30
0.0
 11
856.2141914871586
 21
933.4828429634026
 31
0.0
  0
ARC
  5
42DD
330
1F
100
AcDbEntity
  8
ZATU
100
AcDbCircle
 10
856.2141914871586
 20
933.9828429634026
 30
0.0
 40
0.5
100
AcDbArc
 50
180.0
 51
270.0
  0
CIRCLE
  5
42DE
330
1F
100
AcDbEntity
  8
ZATU
100
AcDbCircle
 10
858.2140914871583
 20
922.9828619634027
 30
0.0
 40
0.3
  0
LINE
  5
42DF
330
1F
100
AcDbEntity
  8
ZATU
  6
DASHED
100
AcDbLine
 10
857.5140914871585
 20
931.2328329634029
 30
0.0
 11
857.5140914871585
 21
933.2328329634028
 31
0.0
  0
CIRCLE
  5
42E0
330
1F
100
AcDbEntity
  8
ZATU
100
AcDbCircle
 10
865.7140914871584
 20
915.4828619634027
 30
0.0
 40
0.3
  0
CIRCLE
  5
42E1
330
1F
100
AcDbEntity
  8
ZATU
100
AcDbCircle
 10
873.2140914871584
 20
922.9828619634027
 30
0.0
 40
0.3
  0
ARC
  5
42E2
330
1F
100
AcDbEntity
  8
ZATU
  6
DASHED
100
AcDbCircle
 10
871.5140914871586
 20
934.286314963403
 30
0.0
 40
2.0
100
AcDbArc
 50
0.0
 51
85.53284100002173
  0
LINE
  5
42E3
330
1F
100
AcDbEntity
  8
ZATU
  6
DASHED
100
AcDbLine
 10
871.5140914871586
 20
931.2328329634029
 30
0.0
 11
873.5140914871585
 21
931.2328329634029
 31
0.0
  0
ARC
  5
42E4
330
1F
100
AcDbEntity
  8
ZATU
  6
DASHED
100
AcDbCircle
 10
871.5140914871586
 20
931.2328329634029
 30
0.0
 40
2.0
100
AcDbArc
 50
0.0
 51
90.0
  0
LINE
  5
42E5
330
1F
100
AcDbEntity
  8
ZATU
100
AcDbLine
 10
862.7141914871586
 20
934.6328329634024
 30
0.0
 11
862.7141914871586
 21
933.9828429634026
 31
0.0
  0
ARC
  5
42E6
330
1F
100
AcDbEntity
  8
ZATU
  6
DASHED
100
AcDbCircle
 10
873.5140914871585
 20
900.1328329634025
 30
0.0
 40
2.0
100
AcDbArc
 50
180.0
 51
270.0
  0
CIRCLE
  5
42E7
330
1F
100
AcDbEntity
  8
ZATU
100
AcDbCircle
 10
865.7140914871584
 20
900.4828619634027
 30
0.0
 40
0.3
  0
LINE
  5
42E8
330
1F
100
AcDbEntity
  8
ZATU
  6
DASHED
100
AcDbLine
 10
873.5140914871585
 20
898.1328329634024
 30
0.0
 11
875.6140914871584
 21
898.1328329634024
 31
0.0
  0
LINE
  5
42E9
330
1F
100
AcDbEntity
  8
ZATU
  6
DASHED
100
AcDbLine
 10
873.5140914871585
 20
934.286314963403
 30
0.0
 11
873.5140914871585
 21
900.1328329634025
 31
0.0
  0
LINE
  5
42EA
330
1F
100
AcDbEntity
  8
ZATU
  6
DASHED
100
AcDbLine
 10
871.5140914871586
 20
900.1328329634025
 30
0.0
 11
871.5140914871586
 21
933.2328329634028
 31
0.0
  0
LINE
  5
42EB
330
1F
100
AcDbEntity
  8
ZATU
100
AcDbLine
 10
888.7063914871582
 20
925.9039929634027
 30
0.0
 11
899.3044914871584
 21
919.7217729634031
 31
0.0
  0
ARC
  5
42EC
330
1F
100
AcDbEntity
  8
ZATU
100
AcDbCircle
 10
889.4199914871583
 20
922.3619429634027
 30
0.0
 40
1.000018
100
AcDbArc
 50
329.744223000001
 51
59.742160999992
  0
LINE
  5
42ED
330
1F
100
AcDbEntity
  8
ZATU
100
AcDbLine
 10
894.1354914871585
 20
913.3779329634025
 30
0.0
 11
896.8484914871583
 21
918.0286329634027
 31
0.0
  0
LINE
  5
42EE
330
1F
100
AcDbEntity
  8
ZATU
100
AcDbLine
 10
890.2837914871584
 20
921.8580729634032
 30
0.0
 11
889.028691487158
 21
919.7065229634027
 31
0.0
  0
ARC
  5
42EF
330
1F
100
AcDbEntity
  8
ZATU
100
AcDbCircle
 10
890.7562914871583
 20
918.6987829634027
 30
0.0
 40
2.000035
100
AcDbArc
 50
149.7442230000009
 51
239.7420160000015
  0
ARC
  5
42F0
330
1F
100
AcDbEntity
  8
ZATU
100
AcDbCircle
 10
890.0003914871581
 20
917.4031329634026
 30
0.0
 40
0.499991
100
AcDbArc
 50
239.7476869999973
 51
329.7377890000031
  0
LINE
  5
42F1
330
1F
100
AcDbEntity
  8
ZATU
100
AcDbLine
 10
890.6926914871583
 20
917.5975329634029
 30
0.0
 11
890.4322914871587
 21
917.1512329634024
 31
0.0
  0
ARC
  5
42F2
330
1F
100
AcDbEntity
  8
ZATU
100
AcDbCircle
 10
890.5199914871586
 20
917.6983329634031
 30
0.0
 40
0.199965
100
AcDbArc
 50
329.7291249999951
 51
50.17242199999479
  0
ARC
  5
42F3
330
1F
100
AcDbEntity
  8
ZATU
100
AcDbCircle
 10
891.2888914871583
 20
918.6196029634029
 30
0.0
 40
1.000018
100
AcDbArc
 50
149.7442230000009
 51
230.1471110000074
  0
LINE
  5
42F4
330
1F
100
AcDbEntity
  8
ZATU
100
AcDbLine
 10
891.3824914871584
 20
920.7646529634031
 30
0.0
 11
890.4250914871585
 21
919.1234729634025
 31
0.0
  0
ARC
  5
42F5
330
1F
100
AcDbEntity
  8
ZATU
100
AcDbCircle
 10
892.2462914871585
 20
920.2607829634025
 30
0.0
 40
0.9999649999999999
100
AcDbArc
 50
59.74710999999075
 51
149.7442230000009
  0
LINE
  5
42F6
330
1F
100
AcDbEntity
  8
ZATU
100
AcDbLine
 10
894.9958914871581
 20
919.8144929634027
 30
0.0
 11
892.7500914871584
 21
921.1245629634031
 31
0.0
  0
ARC
  5
42F7
330
1F
100
AcDbEntity
  8
ZATU
100
AcDbCircle
 10
894.4920914871586
 20
918.9507229634028
 30
0.0
 40
1.000028
100
AcDbArc
 50
329.7432329999945
 51
59.742160999992
  0
LINE
  5
42F8
330
1F
100
AcDbEntity
  8
ZATU
100
AcDbLine
 10
894.3984914871585
 20
916.8056329634028
 30
0.0
 11
895.3558914871582
 21
918.4468329634027
 31
0.0
  0
ARC
  5
42F9
330
1F
100
AcDbEntity
  8
ZATU
100
AcDbCircle
 10
893.5346914871583
 20
917.3095329634024
 30
0.0
 40
1.000000999999999
100
AcDbArc
 50
249.3413540000088
 51
329.7427380000199
  0
ARC
  5
42FA
330
1F
100
AcDbEntity
  8
ZATU
100
AcDbCircle
 10
893.1112914871583
 20
916.1867329634024
 30
0.0
 40
0.199977
100
AcDbArc
 50
69.32658699998899
 51
149.7435629999842
  0
LINE
  5
42FB
330
1F
100
AcDbEntity
  8
ZATU
100
AcDbLine
 10
892.6781914871584
 20
915.8411329634027
 30
0.0
 11
892.9384914871585
 21
916.2875329634026
 31
0.0
  0
ARC
  5
42FC
330
1F
100
AcDbEntity
  8
ZATU
100
AcDbCircle
 10
893.1099914871584
 20
915.5891329634023
 30
0.0
 40
0.4999550000000001
100
AcDbArc
 50
149.7320140000053
 51
239.741913000014
  0
LINE
  5
42FD
330
1F
100
AcDbEntity
  8
ZATU
100
AcDbLine
 10
892.8580914871586
 20
915.1573329634029
 30
0.0
 11
893.2899914871581
 21
914.9053329634025
 31
0.0
  0
LINE
  5
42FE
330
1F
100
AcDbEntity
  8
ZATU
100
AcDbLine
 10
892.8398914871582
 20
914.1337329634025
 30
0.0
 11
893.2899914871581
 21
914.9053329634025
 31
0.0
  0
ARC
  5
42FF
330
1F
100
AcDbEntity
  8
ZATU
100
AcDbCircle
 10
893.2717914871586
 20
913.8817329634029
 30
0.0
 40
0.500042
100
AcDbArc
 50
149.7377890000031
 51
239.7377890000147
  0
LINE
  5
4300
330
1F
100
AcDbEntity
  8
ZATU
100
AcDbLine
 10
893.4516914871583
 20
913.1979329634022
 30
0.0
 11
893.0197914871582
 21
913.4499329634026
 31
0.0
  0
ARC
  5
4301
330
1F
100
AcDbEntity
  8
ZATU
100
AcDbCircle
 10
893.7035914871584
 20
913.6298329634028
 30
0.0
 40
0.499991
100
AcDbArc
 50
239.7476869999973
 51
329.7476870000056
  0
ARC
  5
4302
330
1F
100
AcDbEntity
  8
ZATU
100
AcDbCircle
 10
897.7121914871581
 20
917.5248329634023
 30
0.0
 40
0.9999459999999999
100
AcDbArc
 50
59.73985100000883
 51
149.7448000000054
  0
LINE
  5
4303
330
1F
100
AcDbEntity
  8
ZATU
100
AcDbLine
 10
898.2160914871583
 20
918.3885329634032
 30
0.0
 11
898.4478914871584
 21
918.2533329634024
 31
0.0
  0
ARC
  5
4304
330
1F
100
AcDbEntity
  8
ZATU
100
AcDbCircle
 10
900.3122314871584
 20
921.4493329634024
 30
0.0
 40
2.000000999999999
100
AcDbArc
 50
239.7436449999915
 51
266.4235759999989
  0
ARC
  5
4305
330
1F
100
AcDbEntity
  8
ZATU
100
AcDbCircle
 10
900.3122314871584
 20
921.4493329634024
 30
0.0
 40
3.700023999999999
100
AcDbArc
 50
239.7434740000019
 51
266.4236659999799
  0
ARC
  5
4306
330
1F
100
AcDbEntity
  8
ZATU
100
AcDbCircle
 10
889.7141914871586
 20
927.6315479634032
 30
0.0
 40
3.7
100
AcDbArc
 50
180.0
 51
239.7425539999992
  0
ARC
  5
4307
330
1F
100
AcDbEntity
  8
ZATU
100
AcDbCircle
 10
889.7141914871586
 20
927.6315479634032
 30
0.0
 40
2.0
100
AcDbArc
 50
180.0
 51
239.7420880000012
  0
LINE
  5
4308
330
1F
100
AcDbEntity
  8
ZATU
100
AcDbLine
 10
887.8497914871582
 20
924.4355629634029
 30
0.0
 11
889.9238914871585
 21
923.2257229634024
 31
0.0
  0
LINE
  5
4309
330
1F
100
AcDbEntity
  8
ZATU
100
AcDbLine
 10
947.7140914871583
 20
890.4747339634031
 30
0.0
 11
953.7221904871584
 21
896.4828329634029
 31
0.0
  0
LINE
  5
430A
330
1F
100
AcDbEntity
  8
ZATU
100
AcDbLine
 10
954.7140914871583
 20
889.2661999634029
 30
0.0
 11
947.7140914871583
 21
896.2661999634029
 31
0.0
  0
LINE
  5
430B
330
1F
100
AcDbEntity
  8
ZATU
100
AcDbLine
 10
954.7140914871583
 20
892.0946279634026
 30
0.0
 11
950.3258854871583
 21
896.4828329634029
 31
0.0
  0
LINE
  5
430C
330
1F
100
AcDbEntity
  8
ZATU
  6
DASHED
100
AcDbLine
 10
943.7140914871584
 20
875.8672049634023
 30
0.0
 11
943.7140914871584
 21
895.9828619634027
 31
0.0
  0
LINE
  5
430D
330
1F
100
AcDbEntity
  8
ZATU
100
AcDbLine
 10
947.7140914871583
 20
893.3031609634026
 30
0.0
 11
950.8937634871585
 21
896.4828329634029
 31
0.0
  0
LINE
  5
430E
330
1F
100
AcDbEntity
  8
ZATU
100
AcDbLine
 10
947.7140914871583
 20
886.1389649634029
 30
0.0
 11
947.7140914871583
 21
896.4828329634029
 31
0.0
  0
LINE
  5
430F
330
1F
100
AcDbEntity
  8
ZATU
100
AcDbLine
 10
944.9140914871582
 20
895.9828619634027
 30
0.0
 11
944.9140914871582
 21
886.922831963403
 31
0.0
  0
LINE
  5
4310
330
1F
100
AcDbEntity
  8
ZATU
100
AcDbLine
 10
943.7140914871584
 20
895.9828619634027
 30
0.0
 11
943.7140914871584
 21
886.2060119634024
 31
0.0
  0
LINE
  5
4311
330
1F
100
AcDbEntity
  8
ZATU
100
AcDbLine
 10
942.2140914871583
 20
897.1328329634024
 30
0.0
 11
942.2140914871583
 21
886.9828329634028
 31
0.0
  0
LINE
  5
4312
330
1F
100
AcDbEntity
  8
ZATU
100
AcDbLine
 10
943.7140914871584
 20
896.4828329634029
 30
0.0
 11
943.7140914871584
 21
886.9828329634028
 31
0.0
  0
LINE
  5
4313
330
1F
100
AcDbEntity
  8
ZATU
100
AcDbLine
 10
955.7140914871583
 20
896.4828329634029
 30
0.0
 11
954.7140914871583
 21
895.4828329634029
 31
0.0
  0
LINE
  5
4314
330
1F
100
AcDbEntity
  8
ZATU
100
AcDbLine
 10
954.7140914871583
 20
894.923054963403
 30
0.0
 11
953.1543124871582
 21
896.4828329634029
 31
0.0
  0
LINE
  5
4315
330
1F
100
AcDbEntity
  8
ZATU
  6
DASHED
100
AcDbLine
 10
923.6140914871585
 20
898.1328329634024
 30
0.0
 11
923.6140914871585
 21
883.1328329634025
 31
0.0
  0
LINE
  5
4316
330
1F
100
AcDbEntity
  8
ZATU
  6
DASHED
100
AcDbLine
 10
925.6140914871584
 20
898.1328329634024
 30
0.0
 11
925.6140914871584
 21
883.1328329634025
 31
0.0
  0
ARC
  5
4317
330
1F
100
AcDbEntity
  8
ZATU
100
AcDbCircle
 10
916.8133744871584
 20
898.1328329634024
 30
0.0
 40
3.0
100
AcDbArc
 50
240.8683129999944
 51
0.0
  0
ARC
  5
4318
330
1F
100
AcDbEntity
  8
ZATU
100
AcDbCircle
 10
913.8924634871587
 20
898.1328329634024
 30
0.0
 40
3.0
100
AcDbArc
 50
240.8683129999944
 51
0.0
  0
LINE
  5
4319
330
1F
100
AcDbEntity
  8
ZATU
  6
DASHED
100
AcDbLine
 10
944.9140914871582
 20
893.4540329634028
 30
0.0
 11
936.9140914871582
 21
893.4540329634028
 31
0.0
  0
LINE
  5
431A
330
1F
100
AcDbEntity
  8
ZATU
  6
DASHED
100
AcDbLine
 10
944.9140914871582
 20
889.4540429634025
 30
0.0
 11
936.9140914871582
 21
889.4540429634025
 31
0.0
  0
LINE
  5
431B
330
1F
100
AcDbEntity
  8
ZATU
  6
CENTER
100
AcDbLine
 10
950.0140984871581
 20
891.4540329634029
 30
0.0
 11
934.4140914871582
 21
891.4540329634029
 31
0.0
  0
CIRCLE
  5
431C
330
1F
100
AcDbEntity
  8
ZATU
100
AcDbCircle
 10
940.7140914871584
 20
870.4828619634026
 30
0.0
 40
0.3
  0
CIRCLE
  5
431D
330
1F
100
AcDbEntity
  8
ZATU
100
AcDbCircle
 10
940.7140914871584
 20
885.4828619634027
 30
0.0
 40
0.3
  0
ARC
  5
431E
330
1F
100
AcDbEntity
  8
ZATU
100
AcDbCircle
 10
915.6524804871583
 20
873.2116759634028
 30
0.0
 40
3.0
100
AcDbArc
 50
353.263058000006
 51
173.263058000006
  0
CIRCLE
  5
431F
330
1F
100
AcDbEntity
  8
ZATU
100
AcDbCircle
 10
918.2140914871583
 20
877.9828619634027
 30
0.0
 40
0.3
  0
CIRCLE
  5
4320
330
1F
100
AcDbEntity
  8
ZATU
100
AcDbCircle
 10
925.7140914871584
 20
870.4828619634026
 30
0.0
 40
0.3
  0
CIRCLE
  5
4321
330
1F
100
AcDbEntity
  8
ZATU
100
AcDbCircle
 10
933.2140914871583
 20
877.9828619634027
 30
0.0
 40
0.3
  0
CIRCLE
  5
4322
330
1F
100
AcDbEntity
  8
ZATU
100
AcDbCircle
 10
918.2140914871583
 20
892.9828619634026
 30
0.0
 40
0.3
  0
CIRCLE
  5
4323
330
1F
100
AcDbEntity
  8
ZATU
100
AcDbCircle
 10
925.7140914871584
 20
885.4828619634027
 30
0.0
 40
0.3
  0
LINE
  5
4324
330
1F
100
AcDbEntity
  8
ZATU
  6
DASHED
100
AcDbLine
 10
923.6140914871585
 20
883.1328329634025
 30
0.0
 11
925.6140914871584
 21
883.1328329634025
 31
0.0
  0
CIRCLE
  5
4325
330
1F
100
AcDbEntity
  8
ZATU
100
AcDbCircle
 10
933.2140914871583
 20
892.9828619634026
 30
0.0
 40
0.3
  0
LINE
  5
4326
330
1F
100
AcDbEntity
  8
ZATU
  6
DASHED
100
AcDbLine
 10
936.9140914871582
 20
893.4540329634028
 30
0.0
 11
936.9140914871582
 21
889.4540429634025
 31
0.0
  0
CIRCLE
  5
4327
330
1F
100
AcDbEntity
  8
ZATU
100
AcDbCircle
 10
940.7140914871584
 20
855.4828619634026
 30
0.0
 40
0.3
  0
ARC
  5
4328
330
1F
100
AcDbEntity
  8
ZATU
100
AcDbCircle
 10
915.4975674871584
 20
864.1673999634031
 30
0.0
 40
3.0
100
AcDbArc
 50
240.5800700000026
 51
353.263058000006
  0
CIRCLE
  5
4329
330
1F
100
AcDbEntity
  8
ZATU
100
AcDbCircle
 10
918.2140914871583
 20
862.9828619634027
 30
0.0
 40
0.3
  0
CIRCLE
  5
432A
330
1F
100
AcDbEntity
  8
ZATU
100
AcDbCircle
 10
933.2140914871583
 20
862.9828619634027
 30
0.0
 40
0.3
  0
LINE
  5
432B
330
1F
100
AcDbEntity
  8
ZATU
  6
DASHED
100
AcDbLine
 10
968.5694594871584
 20
866.408200963403
 30
0.0
 11
969.8302764871582
 21
867.3932599634026
 31
0.0
  0
LINE
  5
432C
330
1F
100
AcDbEntity
  8
ZATU
100
AcDbLine
 10
952.8101904871583
 20
885.5132469634027
 30
0.0
 11
947.7140914871583
 21
890.609345963403
 31
0.0
  0
LINE
  5
432D
330
1F
100
AcDbEntity
  8
ZATU
100
AcDbLine
 10
948.8907074871582
 20
885.9944959634031
 30
0.0
 11
954.7140914871583
 21
891.8178799634024
 31
0.0
  0
LINE
  5
432E
330
1F
100
AcDbEntity
  8
ZATU
100
AcDbLine
 10
947.7140914871583
 20
887.6463069634027
 30
0.0
 11
954.7140914871583
 21
894.6463069634027
 31
0.0
  0
LINE
  5
432F
330
1F
100
AcDbEntity
  8
ZATU
100
AcDbLine
 10
954.7140914871583
 20
886.4377729634025
 30
0.0
 11
947.7140914871583
 21
893.4377729634025
 31
0.0
  0
LINE
  5
4330
330
1F
100
AcDbEntity
  8
ZATU
100
AcDbLine
 10
944.9140914871582
 20
894.9540349634025
 30
0.0
 11
944.9140914871582
 21
887.9540429634026
 31
0.0
  0
ARC
  5
4331
330
1F
100
AcDbEntity
  8
ZATU
100
AcDbCircle
 10
945.9201914871583
 20
893.5610429634024
 30
0.0
 40
1.300016999999999
100
AcDbArc
 50
15.88068000000599
 51
84.9957250000156
  0
ARC
  5
4332
330
1F
100
AcDbEntity
  8
ZATU
100
AcDbCircle
 10
942.7140914871584
 20
886.9828329634028
 30
0.0
 40
0.5
100
AcDbArc
 50
180.0
 51
270.0
  0
LINE
  5
4333
330
1F
100
AcDbEntity
  8
ZATU
100
AcDbLine
 10
943.2140914871583
 20
886.4828329634029
 30
0.0
 11
942.7140914871584
 21
886.4828329634029
 31
0.0
  0
LINE
  5
4334
330
1F
100
AcDbEntity
  8
ZATU
100
AcDbLine
 10
949.5858694871586
 20
885.9091409634029
 30
0.0
 11
947.7140914871583
 21
887.7809189634026
 31
0.0
  0
ARC
  5
4335
330
1F
100
AcDbEntity
  8
ZATU
100
AcDbCircle
 10
945.4140914871581
 20
886.922831963403
 30
0.0
 40
0.4999000000000001
100
AcDbArc
 50
180.0022919999994
 51
262.7035670000056
  0
ARC
  5
4336
330
1F
100
AcDbEntity
  8
ZATU
100
AcDbCircle
 10
944.7140914871583
 20
886.2060119634024
 30
0.0
 40
0.9999
100
AcDbArc
 50
180.0005730000029
 51
262.6978620000049
  0
LINE
  5
4337
330
1F
100
AcDbEntity
  8
ZATU
100
AcDbLine
 10
946.0334914871582
 20
888.0519829634032
 30
0.0
 11
944.9140914871582
 21
887.9540429634026
 31
0.0
  0
ARC
  5
4338
330
1F
100
AcDbEntity
  8
ZATU
100
AcDbCircle
 10
938.5140914871586
 20
891.4540429634026
 30
0.0
 40
9.000007
100
AcDbArc
 50
344.1190960000028
 51
15.88078200000269
  0
ARC
  5
4339
330
1F
100
AcDbEntity
  8
ZATU
100
AcDbCircle
 10
945.9201914871583
 20
889.3470229634031
 30
0.0
 40
1.299996999999999
100
AcDbArc
 50
274.9999040000116
 51
344.1197440000049
  0
LINE
  5
433A
330
1F
100
AcDbEntity
  8
ZATU
  6
DASHED
100
AcDbLine
 10
947.2890914871582
 20
893.4540329634028
 30
0.0
 11
945.5741914871582
 21
892.5990329634023
 31
0.0
  0
LINE
  5
433B
330
1F
100
AcDbEntity
  8
ZATU
  6
DASHED
100
AcDbLine
 10
947.2890914871582
 20
889.4540429634025
 30
0.0
 11
945.5741914871582
 21
890.309042963403
 31
0.0
  0
LINE
  5
433C
330
1F
100
AcDbEntity
  8
ZATU
  6
DASHED
100
AcDbLine
 10
944.9653784871584
 20
891.454038963403
 30
0.0
 11
945.5741914871582
 21
892.5990229634026
 31
0.0
  0
LINE
  5
433D
330
1F
100
AcDbEntity
  8
ZATU
  6
DASHED
100
AcDbLine
 10
944.9653784871584
 20
891.454038963403
 30
0.0
 11
945.5741914871582
 21
890.309042963403
 31
0.0
  0
ARC
  5
433E
330
1F
100
AcDbEntity
  8
ZATU
100
AcDbCircle
 10
943.2140914871583
 20
886.9828329634028
 30
0.0
 40
0.5
100
AcDbArc
 50
270.0
 51
0.0
  0
LINE
  5
433F
330
1F
100
AcDbEntity
  8
ZATU
100
AcDbLine
 10
946.0334914871582
 20
894.8560919634028
 30
0.0
 11
944.9140914871582
 21
894.9540289634024
 31
0.0
  0
CIRCLE
  5
4340
330
1F
100
AcDbEntity
  8
ZATU
100
AcDbCircle
 10
955.7140914871583
 20
870.4828619634026
 30
0.0
 40
0.3
  0
LINE
  5
4341
330
1F
100
AcDbEntity
  8
ZATU
100
AcDbLine
 10
954.7140914871583
 20
895.4828329634029
 30
0.0
 11
954.7140914871583
 21
886.1566949634024
 31
0.0
  0
LINE
  5
4342
330
1F
100
AcDbEntity
  8
ZATU
100
AcDbLine
 10
954.7140914871583
 20
886.1566949634024
 30
0.0
 11
955.7140914871583
 21
885.1566949634024
 31
0.0
  0
LINE
  5
4343
330
1F
100
AcDbEntity
  8
ZATU
100
AcDbLine
 10
953.9289474871583
 20
885.3758809634028
 30
0.0
 11
954.7140914871583
 21
886.1610259634026
 31
0.0
  0
LINE
  5
4344
330
1F
100
AcDbEntity
  8
ZATU
100
AcDbLine
 10
951.4098274871585
 20
885.6851889634027
 30
0.0
 11
954.7140914871583
 21
888.989452963403
 31
0.0
  0
CIRCLE
  5
4345
330
1F
100
AcDbEntity
  8
ZATU
100
AcDbCircle
 10
948.2140914871584
 20
862.9828619634027
 30
0.0
 40
0.3
  0
CIRCLE
  5
4346
330
1F
100
AcDbEntity
  8
ZATU
100
AcDbCircle
 10
955.7140914871583
 20
855.4828619634026
 30
0.0
 40
0.3
  0
CIRCLE
  5
4347
330
1F
100
AcDbEntity
  8
ZATU
100
AcDbCircle
 10
963.2140914871584
 20
862.9828619634027
 30
0.0
 40
0.3
  0
LINE
  5
4348
330
1F
100
AcDbEntity
  8
ZATU
100
AcDbLine
 10
938.5764914871584
 20
915.3506329634028
 30
0.0
 11
946.0140914871585
 21
914.8857329634029
 31
0.0
  0
LINE
  5
4349
330
1F
100
AcDbEntity
  8
ZATU
100
AcDbLine
 10
929.7140914871583
 20
917.6078329634028
 30
0.0
 11
946.7764914871581
 21
916.5414329634032
 31
0.0
  0
LINE
  5
434A
330
1F
100
AcDbEntity
  8
ZATU
  6
DASHED
100
AcDbLine
 10
954.0140914871585
 20
898.1328329634024
 30
0.0
 11
925.6140914871584
 21
898.1328329634024
 31
0.0
  0
ARC
  5
434B
330
1F
100
AcDbEntity
  8
ZATU
  6
DASHED
100
AcDbCircle
 10
915.8978304871585
 20
900.2386459634026
 30
0.0
 40
6.0
100
AcDbArc
 50
67.975686999993
 51
112.0243130000066
  0
ARC
  5
434C
330
1F
100
AcDbEntity
  8
ZATU
  6
DASHED
100
AcDbCircle
 10
915.8978304871585
 20
911.3629439634022
 30
0.0
 40
6.0
100
AcDbArc
 50
247.975686999993
 51
292.0243130000066
  0
ARC
  5
434D
330
1F
100
AcDbEntity
  8
ZATU
100
AcDbCircle
 10
929.7141914871586
 20
929.482838963403
 30
0.0
 40
3.999992999999999
100
AcDbArc
 50
59.99994499999794
 51
120.0012949999914
  0
ARC
  5
434E
330
1F
100
AcDbEntity
  8
ZATU
100
AcDbCircle
 10
928.9140914871582
 20
914.3513329634025
 30
0.0
 40
1.0
100
AcDbArc
 50
0.0
 51
86.42259300000116
  0
LINE
  5
434F
330
1F
100
AcDbEntity
  8
ZATU
100
AcDbLine
 10
927.2141914871586
 20
932.0809029634029
 30
0.0
 11
927.2141914871586
 21
917.7640329634023
 31
0.0
  0
LINE
  5
4350
330
1F
100
AcDbEntity
  8
ZATU
100
AcDbLine
 10
922.2140914871584
 20
915.7720329634029
 30
0.0
 11
928.9764914871584
 21
915.3494329634032
 31
0.0
  0
ARC
  5
4351
330
1F
100
AcDbEntity
  8
ZATU
100
AcDbCircle
 10
921.2744914871587
 20
915.4300329634024
 30
0.0
 40
0.999906
100
AcDbArc
 50
20.00073100000482
 51
86.42795500000024
  0
ARC
  5
4352
330
1F
100
AcDbEntity
  8
ZATU
100
AcDbCircle
 10
928.2141914871585
 20
932.0809029634029
 30
0.0
 40
1.000004
100
AcDbArc
 50
119.9998679999862
 51
180.0
  0
LINE
  5
4353
330
1F
100
AcDbEntity
  8
ZATU
100
AcDbLine
 10
929.7141914871586
 20
930.4828429634026
 30
0.0
 11
929.7141914871586
 21
917.6078329634028
 31
0.0
  0
LINE
  5
4354
330
1F
100
AcDbEntity
  8
ZATU
100
AcDbLine
 10
929.9140914871582
 20
914.3513329634025
 30
0.0
 11
929.9140914871582
 21
912.1828329634027
 31
0.0
  0
ARC
  5
4355
330
1F
100
AcDbEntity
  8
ZATU
100
AcDbCircle
 10
931.9140914871582
 20
912.1828329634027
 30
0.0
 40
2.0
100
AcDbArc
 50
180.0
 51
270.0
  0
ARC
  5
4356
330
1F
100
AcDbEntity
  8
ZATU
100
AcDbCircle
 10
932.4140914871582
 20
912.3828329634024
 30
0.0
 40
1.0
100
AcDbArc
 50
180.0
 51
260.409571000014
  0
LINE
  5
4357
330
1F
100
AcDbEntity
  8
ZATU
100
AcDbLine
 10
931.4140914871583
 20
914.282832963403
 30
0.0
 11
931.4140914871583
 21
912.3828329634024
 31
0.0
  0
LINE
  5
4358
330
1F
100
AcDbEntity
  8
ZATU
100
AcDbLine
 10
932.4140914871582
 20
911.1996329634029
 30
0.0
 11
932.4140914871582
 21
910.6828329634026
 31
0.0
  0
LINE
  5
4359
330
1F
100
AcDbEntity
  8
ZATU
100
AcDbLine
 10
935.0140914871586
 20
915.2828329634031
 30
0.0
 11
932.4140914871582
 21
915.2828329634031
 31
0.0
  0
ARC
  5
435A
330
1F
100
AcDbEntity
  8
ZATU
100
AcDbCircle
 10
935.0140914871586
 20
914.282832963403
 30
0.0
 40
1.0
100
AcDbArc
 50
0.0
 51
90.0
  0
LINE
  5
435B
330
1F
100
AcDbEntity
  8
ZATU
100
AcDbLine
 10
936.0140914871585
 20
912.3828329634024
 30
0.0
 11
936.0140914871585
 21
914.282832963403
 31
0.0
  0
ARC
  5
435C
330
1F
100
AcDbEntity
  8
ZATU
100
AcDbCircle
 10
935.0140914871586
 20
912.3828329634024
 30
0.0
 40
0.9999919999999999
100
AcDbArc
 50
279.5960780000011
 51
0.0
  0
ARC
  5
435D
330
1F
100
AcDbEntity
  8
ZATU
100
AcDbCircle
 10
935.2140914871583
 20
911.1996329634029
 30
0.0
 40
0.199992
100
AcDbArc
 50
99.58477899999113
 51
180.0
  0
LINE
  5
435E
330
1F
100
AcDbEntity
  8
ZATU
100
AcDbLine
 10
935.0140914871586
 20
910.6828329634026
 30
0.0
 11
935.0140914871586
 21
911.1996329634029
 31
0.0
  0
ARC
  5
435F
330
1F
100
AcDbEntity
  8
ZATU
100
AcDbCircle
 10
935.5140914871585
 20
910.6828329634026
 30
0.0
 40
0.5
100
AcDbArc
 50
180.0
 51
270.0
  0
ARC
  5
4360
330
1F
100
AcDbEntity
  8
ZATU
100
AcDbCircle
 10
935.5140914871585
 20
912.1828329634027
 30
0.0
 40
2.0
100
AcDbArc
 50
270.0
 51
0.0
  0
LINE
  5
4361
330
1F
100
AcDbEntity
  8
ZATU
100
AcDbLine
 10
937.5140914871586
 20
912.1828329634027
 30
0.0
 11
937.5140914871586
 21
914.352532963403
 31
0.0
  0
ARC
  5
4362
330
1F
100
AcDbEntity
  8
ZATU
100
AcDbCircle
 10
931.9140914871582
 20
910.6828329634026
 30
0.0
 40
0.5
100
AcDbArc
 50
270.0
 51
0.0
  0
ARC
  5
4363
330
1F
100
AcDbEntity
  8
ZATU
100
AcDbCircle
 10
932.2140914871583
 20
911.1996329634029
 30
0.0
 40
0.2
100
AcDbArc
 50
0.0
 51
80.38697399999511
  0
ARC
  5
4364
330
1F
100
AcDbEntity
  8
ZATU
100
AcDbCircle
 10
932.4140914871582
 20
914.282832963403
 30
0.0
 40
1.0
100
AcDbArc
 50
90.0
 51
180.0
  0
ARC
  5
4365
330
1F
100
AcDbEntity
  8
ZATU
100
AcDbCircle
 10
931.2141914871586
 20
932.0809029634029
 30
0.0
 40
0.9999
100
AcDbArc
 50
0.0
 51
59.99984499999532
  0
LINE
  5
4366
330
1F
100
AcDbEntity
  8
ZATU
100
AcDbLine
 10
932.2141914871586
 20
932.0809029634029
 30
0.0
 11
932.2141914871586
 21
931.4828429634026
 31
0.0
  0
LINE
  5
4367
330
1F
100
AcDbEntity
  8
ZATU
100
AcDbLine
 10
931.2141914871586
 20
930.4828429634026
 30
0.0
 11
929.7141914871586
 21
930.4828429634026
 31
0.0
  0
ARC
  5
4368
330
1F
100
AcDbEntity
  8
ZATU
100
AcDbCircle
 10
931.2141914871586
 20
931.4828429634026
 30
0.0
 40
1.0
100
AcDbArc
 50
269.994269999987
 51
359.9994269999971
  0
ARC
  5
4369
330
1F
100
AcDbEntity
  8
ZATU
100
AcDbCircle
 10
938.5140914871586
 20
914.352532963403
 30
0.0
 40
1.000048999999999
100
AcDbArc
 50
86.42259300000116
 51
180.0
  0
LINE
  5
436A
330
1F
100
AcDbEntity
  8
ZATU
100
AcDbLine
 10
947.7140914871583
 20
915.5433329634025
 30
0.0
 11
947.7140914871583
 21
905.4828329634029
 31
0.0
  0
LINE
  5
436B
330
1F
100
AcDbEntity
  8
ZATU
100
AcDbLine
 10
946.0140914871585
 20
914.8857329634029
 30
0.0
 11
946.0140914871585
 21
905.4828329634029
 31
0.0
  0
ARC
  5
436C
330
1F
100
AcDbEntity
  8
ZATU
100
AcDbCircle
 10
946.7140914871583
 20
915.5433329634025
 30
0.0
 40
1.0
100
AcDbArc
 50
0.0
 51
86.42259300000116
  0
ARC
  5
436D
330
1F
100
AcDbEntity
  8
ZATU
100
AcDbCircle
 10
957.1140914871584
 20
910.7328329634029
 30
0.0
 40
0.75
100
AcDbArc
 50
0.0
 51
180.0
  0
LINE
  5
436E
330
1F
100
AcDbEntity
  8
ZATU
100
AcDbLine
 10
951.5140914871585
 20
900.6328329634024
 30
0.0
 11
950.5140914871585
 21
900.6328329634024
 31
0.0
  0
LINE
  5
436F
330
1F
100
AcDbEntity
  8
ZATU
100
AcDbLine
 10
954.0140914871585
 20
898.1328329634024
 30
0.0
 11
943.2140914871583
 21
898.1328329634024
 31
0.0
  0
LINE
  5
4370
330
1F
100
AcDbEntity
  8
ZATU
100
AcDbLine
 10
955.2140914871584
 20
896.4828329634029
 30
0.0
 11
943.7140914871584
 21
896.4828329634029
 31
0.0
  0
LINE
  5
4371
330
1F
100
AcDbEntity
  8
ZATU
100
AcDbLine
 10
956.3640914871584
 20
903.9828329634028
 30
0.0
 11
949.2140914871583
 21
903.9828329634028
 31
0.0
  0
ARC
  5
4372
330
1F
100
AcDbEntity
  8
ZATU
100
AcDbCircle
 10
943.2140914871583
 20
897.1328329634024
 30
0.0
 40
1.0
100
AcDbArc
 50
90.0
 51
180.0
  0
LINE
  5
4373
330
1F
100
AcDbEntity
  8
ZATU
100
AcDbLine
 10
947.7140914871583
 20
896.131587963403
 30
0.0
 11
948.0653364871582
 21
896.4828329634029
 31
0.0
  0
LINE
  5
4374
330
1F
100
AcDbEntity
  8
ZATU
100
AcDbLine
 10
944.4140914871582
 20
896.4828619634026
 30
0.0
 11
944.2140914871584
 21
896.4828619634026
 31
0.0
  0
ARC
  5
4375
330
1F
100
AcDbEntity
  8
ZATU
100
AcDbCircle
 10
944.4140914871582
 20
895.9828619634027
 30
0.0
 40
0.5
100
AcDbArc
 50
0.0
 51
90.0
  0
ARC
  5
4376
330
1F
100
AcDbEntity
  8
ZATU
100
AcDbCircle
 10
944.2140914871584
 20
895.9828619634027
 30
0.0
 40
0.5
100
AcDbArc
 50
90.0
 51
180.0
  0
LINE
  5
4377
330
1F
100
AcDbEntity
  8
ZATU
100
AcDbLine
 10
950.0140914871586
 20
902.282832963403
 30
0.0
 11
949.2140914871583
 21
902.282832963403
 31
0.0
  0
LINE
  5
4378
330
1F
100
AcDbEntity
  8
ZATU
100
AcDbLine
 10
950.0140914871586
 20
902.282832963403
 30
0.0
 11
950.0140914871586
 21
901.1328329634025
 31
0.0
  0
ARC
  5
4379
330
1F
100
AcDbEntity
  8
ZATU
100
AcDbCircle
 10
950.5140914871585
 20
901.1328329634025
 30
0.0
 40
0.5
100
AcDbArc
 50
180.0
 51
270.0
  0
ARC
  5
437A
330
1F
100
AcDbEntity
  8
ZATU
100
AcDbCircle
 10
951.5140914871585
 20
901.1328329634025
 30
0.0
 40
0.5
100
AcDbArc
 50
270.0
 51
0.0
  0
LINE
  5
437B
330
1F
100
AcDbEntity
  8
ZATU
100
AcDbLine
 10
952.0140914871586
 20
902.282832963403
 30
0.0
 11
952.0140914871586
 21
901.1328329634025
 31
0.0
  0
LINE
  5
437C
330
1F
100
AcDbEntity
  8
ZATU
100
AcDbLine
 10
954.0140914871585
 20
902.282832963403
 30
0.0
 11
952.0140914871586
 21
902.282832963403
 31
0.0
  0
LINE
  5
437D
330
1F
100
AcDbEntity
  8
ZATU
100
AcDbLine
 10
954.0140914871585
 20
902.282832963403
 30
0.0
 11
954.0140914871585
 21
898.1328329634024
 31
0.0
  0
LINE
  5
437E
330
1F
100
AcDbEntity
  8
ZATU
  6
DASHED
100
AcDbLine
 10
954.0140914871585
 20
900.1328329634025
 30
0.0
 11
954.0140914871585
 21
898.1328329634024
 31
0.0
  0
ARC
  5
437F
330
1F
100
AcDbEntity
  8
ZATU
100
AcDbCircle
 10
955.2140914871584
 20
896.9828329634028
 30
0.0
 40
0.5
100
AcDbArc
 50
270.0
 51
0.0
  0
LINE
  5
4380
330
1F
100
AcDbEntity
  8
ZATU
100
AcDbLine
 10
955.7140914871583
 20
902.4828329634029
 30
0.0
 11
955.7140914871583
 21
896.9828329634028
 31
0.0
  0
LINE
  5
4381
330
1F
100
AcDbEntity
  8
ZATU
100
AcDbLine
 10
956.8640914871584
 20
902.4828329634029
 30
0.0
 11
955.7140914871583
 21
902.4828329634029
 31
0.0
  0
ARC
  5
4382
330
1F
100
AcDbEntity
  8
ZATU
100
AcDbCircle
 10
956.8640914871584
 20
903.4828329634029
 30
0.0
 40
1.0
100
AcDbArc
 50
270.0
 51
0.0
  0
LINE
  5
4383
330
1F
100
AcDbEntity
  8
ZATU
100
AcDbLine
 10
957.8640914871584
 20
910.7328329634029
 30
0.0
 11
957.8640914871584
 21
903.4828329634029
 31
0.0
  0
LINE
  5
4384
330
1F
100
AcDbEntity
  8
ZATU
100
AcDbLine
 10
956.3640914871584
 20
910.7328329634029
 30
0.0
 11
956.3640914871584
 21
903.9828329634028
 31
0.0
  0
ARC
  5
4385
330
1F
100
AcDbEntity
  8
ZATU
100
AcDbCircle
 10
949.2140914871583
 20
905.4828329634029
 30
0.0
 40
3.2
100
AcDbArc
 50
180.0
 51
270.0
  0
ARC
  5
4386
330
1F
100
AcDbEntity
  8
ZATU
100
AcDbCircle
 10
949.2140914871583
 20
905.4828329634029
 30
0.0
 40
1.5
100
AcDbArc
 50
180.0
 51
270.0
  0
CIRCLE
  5
438B
102
{ACAD_REACTORS
330
438C
102
}
330
1F
100
AcDbEntity
  8
MOJI
100
AcDbCircle
 10
998.2363214354247
 20
845.4584984607874
 30
0.0
 40
4.0
  0
HATCH
  5
438C
330
1F
100
AcDbEntity
  8
MOJI
100
AcDbHatch
 10
0.0
 20
0.0
 30
0.0
210
0.0
220
0.0
230
1.0
  2
SOLID
 70
     1
 71
     1
 91
        1
 92
        1
 93
        1
 72
     2
 10
998.2363214354247
 20
845.4584984607874
 40
4.0
 50
0.0
 51
360.0
 73
     1
 97
        1
330
438B
 75
     0
 76
     1
 98
        1
 10
-711.9939640243902
 20
-81.71787526559979
  0
LINE
  5
4392
330
1F
100
AcDbEntity
  8
ZATU
100
AcDbLine
 10
1004.211881487157
 20
852.4828619634027
 30
0.0
 11
1004.211881487157
 21
850.9828619634026
 31
0.0
  0
ARC
  5
4394
330
1F
100
AcDbEntity
  8
ZATU
100
AcDbCircle
 10
1004.711710793547
 20
850.9826912939312
 30
0.0
 40
0.4998293355279987
100
AcDbArc
 50
179.9804360410615
 51
270.0081036570015
  0
LINE
  5
4395
330
1F
100
AcDbEntity
  8
ZATU
100
AcDbLine
 10
1005.211781487157
 20
850.4828619634027
 30
0.0
 11
1004.711781487157
 21
850.4828619634027
 31
0.0
  0
ARC
  5
4396
330
1F
100
AcDbEntity
  8
ZATU
100
AcDbCircle
 10
1005.211781487157
 20
850.9828619634026
 30
0.0
 40
0.5
100
AcDbArc
 50
270.0
 51
0.0
  0
ARC
  5
4397
330
1F
100
AcDbEntity
  8
ZATU
100
AcDbCircle
 10
1003.511555758048
 20
853.1970015757801
 30
0.0
 40
1.000225730932343
100
AcDbArc
 50
314.4404585074868
 51
0.0034591750899197
  0
ARC
  5
4398
330
1F
100
AcDbEntity
  8
ZATU
100
AcDbCircle
 10
1024.814091487158
 20
870.1901619634027
 30
0.0
 40
4.7
100
AcDbArc
 50
359.9987810000023
 51
82.69383699998426
  0
ARC
  5
4399
330
1F
100
AcDbEntity
  8
ZATU
100
AcDbCircle
 10
1024.714091487158
 20
870.202961963403
 30
0.0
 40
6.0
100
AcDbArc
 50
0.0
 51
82.69409499998088
  0
ARC
  5
439A
330
1F
100
AcDbEntity
  8
ZATU
100
AcDbCircle
 10
1026.714091487158
 20
871.9439349634031
 30
0.0
 40
6.0
100
AcDbArc
 50
0.0
 51
83.00004300002072
  0
LINE
  5
439B
330
1F
100
AcDbEntity
  8
ZATU
100
AcDbLine
 10
1032.714091487158
 20
860.482886963403
 30
0.0
 11
1016.054772487158
 21
860.482886963403
 31
0.0
  0
LINE
  5
439C
330
1F
100
AcDbEntity
  8
ZATU
100
AcDbLine
 10
1029.514091487158
 20
861.6828619634025
 30
0.0
 11
1006.511781487157
 21
861.6828619634025
 31
0.0
  0
LINE
  5
439D
330
1F
100
AcDbEntity
  8
ZATU
100
AcDbLine
 10
1030.214091487158
 20
860.4828619634027
 30
0.0
 11
1006.711781487157
 21
860.4828619634025
 31
0.0
  0
LINE
  5
439E
330
1F
100
AcDbEntity
  8
ZATU
100
AcDbLine
 10
1015.714091487158
 20
892.9023129634025
 30
0.0
 11
970.7140914871583
 21
898.4275839634028
 31
0.0
  0
LINE
  5
439F
330
1F
100
AcDbEntity
  8
ZATU
100
AcDbLine
 10
1004.214191487158
 20
877.5696219634028
 30
0.0
 11
978.2141914871585
 21
880.902961963403
 31
0.0
  0
LINE
  5
43A0
330
1F
100
AcDbEntity
  8
ZATU
  6
DASHED
100
AcDbLine
 10
1003.524118487158
 20
877.976664963403
 30
0.0
 11
978.2141914871585
 21
881.0843339634029
 31
0.0
  0
LINE
  5
43A1
330
1F
100
AcDbEntity
  8
ZATU
  6
DASHED
100
AcDbLine
 10
1003.329127487158
 20
876.3885909634026
 30
0.0
 11
978.5154734871584
 21
879.4353249634031
 31
0.0
  0
LINE
  5
43A2
330
1F
100
AcDbEntity
  8
ZATU
100
AcDbLine
 10
976.9140914871583
 20
881.0696319634025
 30
0.0
 11
976.9140914871583
 21
878.7233919634028
 31
0.0
  0
LINE
  5
43A3
330
1F
100
AcDbEntity
  8
ZATU
100
AcDbLine
 10
978.2141914871585
 20
880.902961963403
 30
0.0
 11
978.2141914871585
 21
878.8865919634027
 31
0.0
  0
LINE
  5
43A4
330
1F
100
AcDbEntity
  8
ZATU
  6
DASHED
100
AcDbLine
 10
978.5154734871584
 20
879.4353249634031
 30
0.0
 11
978.7104644871583
 21
881.0233989634026
 31
0.0
  0
CIRCLE
  5
43A5
330
1F
100
AcDbEntity
  8
ZATU
100
AcDbCircle
 10
970.7140914871583
 20
870.4828619634026
 30
0.0
 40
0.3
  0
LINE
  5
43A6
330
1F
100
AcDbEntity
  8
ZATU
100
AcDbLine
 10
980.1505914871581
 20
877.4284919634029
 30
0.0
 11
977.7869914871585
 21
877.7315119634032
 31
0.0
  0
ARC
  5
43A7
330
1F
100
AcDbEntity
  8
ZATU
100
AcDbCircle
 10
980.2141914871585
 20
877.9244319634026
 30
0.0
 40
0.5000010000000001
100
AcDbArc
 50
262.6922000000056
 51
359.9965620000062
  0
LINE
  5
43A8
330
1F
100
AcDbEntity
  8
ZATU
100
AcDbLine
 10
980.7141914871586
 20
878.1260919634023
 30
0.0
 11
980.7141914871586
 21
877.9244319634026
 31
0.0
  0
ARC
  5
43A9
330
1F
100
AcDbEntity
  8
ZATU
100
AcDbCircle
 10
980.2141914871585
 20
878.1260919634023
 30
0.0
 40
0.5
100
AcDbArc
 50
359.9977080000006
 51
82.70342100001919
  0
LINE
  5
43AA
330
1F
100
AcDbEntity
  8
ZATU
100
AcDbLine
 10
980.2777914871581
 20
878.6220219634024
 30
0.0
 11
978.2141914871585
 21
878.8865919634027
 31
0.0
  0
ARC
  5
43AB
330
1F
100
AcDbEntity
  8
ZATU
100
AcDbCircle
 10
977.9140914871582
 20
878.7233919634028
 30
0.0
 40
0.9999
100
AcDbArc
 50
180.0005730000029
 51
262.6978829999937
  0
CIRCLE
  5
43AC
330
1F
100
AcDbEntity
  8
ZATU
100
AcDbCircle
 10
985.7140914871584
 20
870.4828619634026
 30
0.0
 40
0.3
  0
CIRCLE
  5
43AD
330
1F
100
AcDbEntity
  8
ZATU
100
AcDbCircle
 10
970.7140914871583
 20
855.4828619634026
 30
0.0
 40
0.3
  0
ARC
  5
43AE
330
1F
100
AcDbEntity
  8
ZATU
  6
DASHED
100
AcDbCircle
 10
974.8984234871581
 20
859.9317659634024
 30
0.0
 40
1.0
100
AcDbArc
 50
217.9999999999975
 51
308.0000000000099
  0
CIRCLE
  5
43AF
330
1F
100
AcDbEntity
  8
ZATU
100
AcDbCircle
 10
978.2140914871584
 20
862.9828619634027
 30
0.0
 40
0.3
  0
ARC
  5
43B0
330
1F
100
AcDbEntity
  8
ZATU
  6
DASHED
100
AcDbCircle
 10
972.4918874871582
 20
859.346111963403
 30
0.0
 40
6.0
100
AcDbArc
 50
331.2387449999931
 51
15.28737099999878
  0
ARC
  5
43B1
330
1F
100
AcDbEntity
  8
ZATU
  6
DASHED
100
AcDbCircle
 10
983.5393744871584
 20
858.0411089634026
 30
0.0
 40
6.0
100
AcDbArc
 50
151.2387449999932
 51
195.2873709999988
  0
CIRCLE
  5
43B2
330
1F
100
AcDbEntity
  8
ZATU
100
AcDbCircle
 10
985.7140914871584
 20
855.4828619634026
 30
0.0
 40
0.3
  0
CIRCLE
  5
43B3
330
1F
100
AcDbEntity
  8
ZATU
100
AcDbCircle
 10
993.2140914871583
 20
862.9828619634027
 30
0.0
 40
0.3
  0
CIRCLE
  5
43B4
330
1F
100
AcDbEntity
  8
ZATU
100
AcDbCircle
 10
995.2776283712433
 20
855.6184705156702
 30
0.0
 40
0.3
  0
CIRCLE
  5
43B5
330
1F
100
AcDbEntity
  8
ZATU
100
AcDbCircle
 10
995.2776283712433
 20
855.6184705156702
 30
0.0
 40
0.3
  0
LINE
  5
43B6
330
1F
100
AcDbEntity
  8
ZATU
  6
DASHED
100
AcDbLine
 10
975.5140854871584
 20
859.1437549634029
 30
0.0
 11
998.3663964871585
 21
876.9979379634023
 31
0.0
  0
LINE
  5
43B7
330
1F
100
AcDbEntity
  8
ZATU
  6
DASHED
100
AcDbLine
 10
975.0018334871583
 20
860.7739689634026
 30
0.0
 11
997.9035864871585
 21
878.6667799634024
 31
0.0
  0
ARC
  5
43B8
330
1F
100
AcDbEntity
  8
ZATU
100
AcDbCircle
 10
973.0382364871584
 20
863.2872579634032
 30
0.0
 40
3.0
100
AcDbArc
 50
308.0000000000099
 51
128.0000000000099
  0
ARC
  5
43B9
330
1F
100
AcDbEntity
  8
ZATU
  6
DASHED
100
AcDbCircle
 10
973.0197874871583
 20
863.8150399634023
 30
0.0
 40
6.0
100
AcDbArc
 50
331.2387449999931
 51
15.28737099999878
  0
LINE
  5
43BA
330
1F
100
AcDbEntity
  8
ZATU
  6
DASHED
100
AcDbLine
 10
1014.998666487158
 20
879.4274569634026
 30
0.0
 11
1005.514091487158
 21
880.5920089634028
 31
0.0
  0
LINE
  5
43BB
330
1F
100
AcDbEntity
  8
ZATU
100
AcDbLine
 10
1014.714091487158
 20
891.9023129634025
 30
0.0
 11
1014.714091487158
 21
878.7896669634028
 31
0.0
  0
LINE
  5
43BC
330
1F
100
AcDbEntity
  8
ZATU
100
AcDbLine
 10
1004.214191487158
 20
875.5532419634027
 30
0.0
 11
1002.277691487158
 21
875.8015019634031
 31
0.0
  0
ARC
  5
43BD
330
1F
100
AcDbEntity
  8
ZATU
100
AcDbCircle
 10
1002.214191487158
 20
875.3055819634028
 30
0.0
 40
0.499969
100
AcDbArc
 50
82.70327599999973
 51
180.0022919999994
  0
LINE
  5
43BE
330
1F
100
AcDbEntity
  8
ZATU
100
AcDbLine
 10
1001.714191487158
 20
875.3055819634028
 30
0.0
 11
1001.714191487158
 21
875.103921963403
 31
0.0
  0
ARC
  5
43BF
330
1F
100
AcDbEntity
  8
ZATU
100
AcDbCircle
 10
1002.214191487158
 20
875.103921963403
 30
0.0
 40
0.5
100
AcDbArc
 50
180.0022919999994
 51
262.6924920000129
  0
LINE
  5
43C0
330
1F
100
AcDbEntity
  8
ZATU
100
AcDbLine
 10
1004.386991487158
 20
874.3212619634023
 30
0.0
 11
1002.150591487158
 21
874.6079619634029
 31
0.0
  0
ARC
  5
43C1
330
1F
100
AcDbEntity
  8
ZATU
100
AcDbCircle
 10
1004.514191487158
 20
875.3131519634026
 30
0.0
 40
1.000012999999999
100
AcDbArc
 50
262.6922729999997
 51
359.998853999994
  0
LINE
  5
43C2
330
1F
100
AcDbEntity
  8
ZATU
100
AcDbLine
 10
1005.514191487158
 20
877.4029619634029
 30
0.0
 11
1005.514191487158
 21
875.3131519634026
 31
0.0
  0
LINE
  5
43C3
330
1F
100
AcDbEntity
  8
ZATU
100
AcDbLine
 10
1004.214191487158
 20
877.5696219634028
 30
0.0
 11
1004.214191487158
 21
875.5532619634031
 31
0.0
  0
LINE
  5
43C4
330
1F
100
AcDbEntity
  8
ZATU
  6
DASHED
100
AcDbLine
 10
1003.524118487158
 20
877.976664963403
 30
0.0
 11
1003.329127487158
 21
876.3885909634026
 31
0.0
  0
LINE
  5
43C5
330
1F
100
AcDbEntity
  8
ZATU
100
AcDbLine
 10
1014.714091487158
 20
878.7896669634028
 30
0.0
 11
1015.714091487158
 21
877.7896669634028
 31
0.0
  0
LINE
  5
43C6
330
1F
100
AcDbEntity
  8
ZATU
  6
DASHED
100
AcDbLine
 10
1005.514091487158
 20
880.5920089634028
 30
0.0
 11
1005.514091487158
 21
888.4293609634024
 31
0.0
  0
LINE
  5
43C7
330
1F
100
AcDbEntity
  8
ZATU
100
AcDbLine
 10
1015.714091487158
 20
892.9023129634025
 30
0.0
 11
1014.714091487158
 21
891.9023129634025
 31
0.0
  0
LINE
  5
43C8
330
1F
100
AcDbEntity
  8
ZATU
100
AcDbLine
 10
1027.445302487159
 20
877.8992119634031
 30
0.0
 11
1014.998666487158
 21
879.4274569634026
 31
0.0
  0
LINE
  5
43C9
330
1F
100
AcDbEntity
  8
ZATU
100
AcDbLine
 10
1025.411791487158
 20
874.8519619634025
 30
0.0
 11
1005.514191487158
 21
877.4029619634029
 31
0.0
  0
CIRCLE
  5
43CC
330
1F
100
AcDbEntity
  8
ZATU
100
AcDbCircle
 10
1001.455088937936
 20
862.8410901093475
 30
0.0
 40
0.3
  0
CIRCLE
  5
43CD
330
1F
100
AcDbEntity
  8
ZATU
100
AcDbCircle
 10
1001.455088937936
 20
862.8410901093475
 30
0.0
 40
0.3
  0
LINE
  5
43CE
330
1F
100
AcDbEntity
  8
ZATU
  6
DASHED
100
AcDbLine
 10
1005.514091487158
 20
868.2791669634026
 30
0.0
 11
1005.514091487158
 21
861.4149127709715
 31
0.0
  0
ARC
  5
43CF
330
1F
100
AcDbEntity
  8
ZATU
100
AcDbCircle
 10
1030.214091487158
 20
860.9828619634027
 30
0.0
 40
0.5
100
AcDbArc
 50
270.0
 51
0.0
  0
LINE
  5
43D0
330
1F
100
AcDbEntity
  8
ZATU
100
AcDbLine
 10
1032.714091487158
 20
860.482886963403
 30
0.0
 11
1032.714091487158
 21
871.9439349634031
 31
0.0
  0
LINE
  5
43D1
330
1F
100
AcDbEntity
  8
ZATU
100
AcDbLine
 10
1029.514091487158
 20
870.1901619634027
 30
0.0
 11
1029.514091487158
 21
861.6828619634025
 31
0.0
  0
LINE
  5
43D2
330
1F
100
AcDbEntity
  8
ZATU
100
AcDbLine
 10
1030.714091487158
 20
870.202961963403
 30
0.0
 11
1030.714091487158
 21
860.9828619634027
 31
0.0
  0
LINE
  5
43D3
330
1F
100
AcDbEntity
  8
ZATU
100
AcDbLine
 10
855.7141914871586
 20
990.9828329634029
 30
0.0
 11
855.7141914871586
 21
1495.0
 31
0.0
  0
LINE
  5
43D4
330
1F
100
AcDbEntity
  8
ZATU
100
AcDbLine
 10
854.2141914871585
 20
985.4828329634029
 30
0.0
 11
854.2141914871585
 21
946.9828329634028
 31
0.0
  0
LINE
  5
43D5
330
1F
100
AcDbEntity
  8
ZATU
100
AcDbLine
 10
855.7141914871586
 20
982.6828329634027
 30
0.0
 11
855.7141914871586
 21
951.2828329634031
 31
0.0
  0
LINE
  5
43D6
330
1F
100
AcDbEntity
  8
ZATU
100
AcDbLine
 10
857.4141914871583
 20
980.282832963403
 30
0.0
 11
857.4141914871583
 21
974.1828329634026
 31
0.0
  0
LINE
  5
43D7
330
1F
100
AcDbEntity
  8
ZATU
100
AcDbLine
 10
886.0141914871583
 20
957.782832963403
 30
0.0
 11
882.5141914871583
 21
957.782832963403
 31
0.0
  0
ARC
  5
43D8
330
1F
100
AcDbEntity
  8
ZATU
100
AcDbCircle
 10
883.2141914871586
 20
967.4828329634028
 30
0.0
 40
3.999998999999999
100
AcDbArc
 50
59.99998799999446
 51
120.0000120000055
  0
LINE
  5
43D9
330
1F
100
AcDbEntity
  8
ZATU
100
AcDbLine
 10
880.7141914871586
 20
970.0809329634029
 30
0.0
 11
880.7141914871586
 21
959.4828329634028
 31
0.0
  0
LINE
  5
43DA
330
1F
100
AcDbEntity
  8
ZATU
100
AcDbLine
 10
880.0141914871582
 20
954.3828329634024
 30
0.0
 11
880.0141914871582
 21
956.2828329634029
 31
0.0
  0
ARC
  5
43DB
330
1F
100
AcDbEntity
  8
ZATU
100
AcDbCircle
 10
882.5141914871583
 20
956.782832963403
 30
0.0
 40
1.0
100
AcDbArc
 50
90.0
 51
180.0
  0
LINE
  5
43DC
330
1F
100
AcDbEntity
  8
ZATU
100
AcDbLine
 10
881.5141914871583
 20
954.1828329634027
 30
0.0
 11
881.5141914871583
 21
956.782832963403
 31
0.0
  0
ARC
  5
43DD
330
1F
100
AcDbEntity
  8
ZATU
100
AcDbCircle
 10
881.7141914871585
 20
970.0809329634029
 30
0.0
 40
0.9999780000000001
100
AcDbArc
 50
120.0007280000055
 51
180.0
  0
LINE
  5
43DE
330
1F
100
AcDbEntity
  8
ZATU
100
AcDbLine
 10
857.4141914871583
 20
972.9828329634029
 30
0.0
 11
857.4141914871583
 21
960.9828329634028
 31
0.0
  0
LINE
  5
43DF
330
1F
100
AcDbEntity
  8
ZATU
100
AcDbLine
 10
872.9141914871584
 20
957.782832963403
 30
0.0
 11
858.3641914871583
 21
957.782832963403
 31
0.0
  0
LINE
  5
43E0
330
1F
100
AcDbEntity
  8
ZATU
100
AcDbLine
 10
855.4141914871584
 20
950.9828329634029
 30
0.0
 11
855.4141914871584
 21
948.4828329634028
 31
0.0
  0
LINE
  5
43E1
330
1F
100
AcDbEntity
  8
ZATU
100
AcDbLine
 10
855.2141914871585
 20
946.4828329634029
 30
0.0
 11
854.7141914871586
 21
946.4828329634029
 31
0.0
  0
LINE
  5
43E2
330
1F
100
AcDbEntity
  8
ZATU
100
AcDbLine
 10
855.7141914871586
 20
948.1828329634026
 30
0.0
 11
855.7141914871586
 21
946.9828329634028
 31
0.0
  0
ARC
  5
43E3
330
1F
100
AcDbEntity
  8
ZATU
100
AcDbCircle
 10
855.2141914871585
 20
946.9828329634028
 30
0.0
 40
0.5
100
AcDbArc
 50
270.0
 51
0.0
  0
ARC
  5
43E4
330
1F
100
AcDbEntity
  8
ZATU
100
AcDbCircle
 10
855.4141914871584
 20
948.1828329634026
 30
0.0
 40
0.3
100
AcDbArc
 50
0.0
 51
90.0
  0
ARC
  5
43E5
330
1F
100
AcDbEntity
  8
ZATU
100
AcDbCircle
 10
854.7141914871586
 20
946.9828329634028
 30
0.0
 40
0.5
100
AcDbArc
 50
180.0
 51
270.0
  0
LINE
  5
43E6
330
1F
100
AcDbEntity
  8
ZATU
100
AcDbLine
 10
854.2141914871585
 20
957.9828349634025
 30
0.0
 11
854.2141914871585
 21
950.9828429634026
 31
0.0
  0
ARC
  5
43E7
330
1F
100
AcDbEntity
  8
ZATU
100
AcDbCircle
 10
858.9141914871584
 20
960.9828329634028
 30
0.0
 40
1.5
100
AcDbArc
 50
180.0
 51
270.0
  0
ARC
  5
43E8
330
1F
100
AcDbEntity
  8
ZATU
100
AcDbCircle
 10
858.3641914871583
 20
956.782832963403
 30
0.0
 40
1.0
100
AcDbArc
 50
90.0
 51
180.0
  0
ARC
  5
43E9
330
1F
100
AcDbEntity
  8
ZATU
100
AcDbCircle
 10
855.4141914871584
 20
951.2828329634031
 30
0.0
 40
0.3
100
AcDbArc
 50
270.0
 51
0.0
  0
LINE
  5
43EA
330
1F
100
AcDbEntity
  8
ZATU
  6
DASHED
100
AcDbLine
 10
862.2141914871585
 20
956.4828329634028
 30
0.0
 11
862.2141914871585
 21
952.4828429634025
 31
0.0
  0
LINE
  5
43EB
330
1F
100
AcDbEntity
  8
ZATU
  6
DASHED
100
AcDbLine
 10
854.2141914871585
 20
956.4828329634028
 30
0.0
 11
862.2141914871585
 21
956.4828329634028
 31
0.0
  0
LINE
  5
43EC
330
1F
100
AcDbEntity
  8
ZATU
  6
DASHED
100
AcDbLine
 10
854.2141914871585
 20
952.4828429634025
 30
0.0
 11
862.2141914871585
 21
952.4828429634025
 31
0.0
  0
ARC
  5
43ED
330
1F
100
AcDbEntity
  8
ZATU
100
AcDbCircle
 10
872.9141914871584
 20
956.782832963403
 30
0.0
 40
1.0
100
AcDbArc
 50
0.0
 51
90.0
  0
LINE
  5
43EE
330
1F
100
AcDbEntity
  8
ZATU
100
AcDbLine
 10
873.9141914871584
 20
956.782832963403
 30
0.0
 11
873.9141914871584
 21
954.1828329634027
 31
0.0
  0
ARC
  5
43EF
330
1F
100
AcDbEntity
  8
ZATU
100
AcDbCircle
 10
875.9141914871584
 20
954.1828329634027
 30
0.0
 40
2.0
100
AcDbArc
 50
180.0
 51
270.0
  0
ARC
  5
43F0
330
1F
100
AcDbEntity
  8
ZATU
100
AcDbCircle
 10
876.4141914871585
 20
956.2828329634029
 30
0.0
 40
1.0
100
AcDbArc
 50
90.0
 51
180.0
  0
LINE
  5
43F1
330
1F
100
AcDbEntity
  8
ZATU
100
AcDbLine
 10
875.4141914871583
 20
956.2828329634029
 30
0.0
 11
875.4141914871583
 21
954.3828329634024
 31
0.0
  0
ARC
  5
43F2
330
1F
100
AcDbEntity
  8
ZATU
100
AcDbCircle
 10
876.4141914871585
 20
954.3828329634024
 30
0.0
 40
1.0
100
AcDbArc
 50
180.0
 51
260.4039219999989
  0
ARC
  5
43F3
330
1F
100
AcDbEntity
  8
ZATU
100
AcDbCircle
 10
876.2141914871586
 20
953.1996329634029
 30
0.0
 40
0.2
100
AcDbArc
 50
0.0
 51
80.41522100000888
  0
LINE
  5
43F4
330
1F
100
AcDbEntity
  8
ZATU
100
AcDbLine
 10
876.4141914871585
 20
953.1996329634029
 30
0.0
 11
876.4141914871585
 21
952.6828329634026
 31
0.0
  0
ARC
  5
43F5
330
1F
100
AcDbEntity
  8
ZATU
100
AcDbCircle
 10
875.9141914871584
 20
952.6828329634026
 30
0.0
 40
0.5
100
AcDbArc
 50
270.0
 51
0.0
  0
ARC
  5
43F6
330
1F
100
AcDbEntity
  8
ZATU
100
AcDbCircle
 10
879.2141914871585
 20
953.1996329634029
 30
0.0
 40
0.200008
100
AcDbArc
 50
99.6130260000049
 51
180.0
  0
LINE
  5
43F7
330
1F
100
AcDbEntity
  8
ZATU
100
AcDbLine
 10
879.0141914871583
 20
952.6828329634026
 30
0.0
 11
879.0141914871583
 21
953.1996329634029
 31
0.0
  0
ARC
  5
43F8
330
1F
100
AcDbEntity
  8
ZATU
100
AcDbCircle
 10
879.5141914871583
 20
952.6828329634026
 30
0.0
 40
0.5
100
AcDbArc
 50
180.0
 51
270.0
  0
LINE
  5
43F9
330
1F
100
AcDbEntity
  8
ZATU
100
AcDbLine
 10
879.0141914871583
 20
957.2828329634031
 30
0.0
 11
876.4141914871585
 21
957.2828329634031
 31
0.0
  0
LINE
  5
43FA
330
1F
100
AcDbEntity
  8
ZATU
100
AcDbLine
 10
858.4141914871583
 20
974.1828329634026
 30
0.0
 11
857.4141914871583
 21
974.1828329634026
 31
0.0
  0
LINE
  5
43FB
330
1F
100
AcDbEntity
  8
ZATU
100
AcDbLine
 10
858.4141914871583
 20
974.6828329634027
 30
0.0
 11
858.4141914871583
 21
974.1828329634026
 31
0.0
  0
ARC
  5
43FC
330
1F
100
AcDbEntity
  8
ZATU
100
AcDbCircle
 10
858.9141914871584
 20
974.6828329634027
 30
0.0
 40
0.5
100
AcDbArc
 50
90.0
 51
180.0
  0
LINE
  5
43FD
330
1F
100
AcDbEntity
  8
ZATU
100
AcDbLine
 10
859.4141914871583
 20
975.1828329634026
 30
0.0
 11
858.9141914871584
 21
975.1828329634026
 31
0.0
  0
LINE
  5
43FE
330
1F
100
AcDbEntity
  8
ZATU
100
AcDbLine
 10
859.4141914871583
 20
975.1828329634026
 30
0.0
 11
859.4141914871583
 21
974.1828329634026
 31
0.0
  0
LINE
  5
43FF
330
1F
100
AcDbEntity
  8
ZATU
100
AcDbLine
 10
860.7141914871586
 20
974.1828329634026
 30
0.0
 11
859.4141914871583
 21
974.1828329634026
 31
0.0
  0
LINE
  5
4400
330
1F
100
AcDbEntity
  8
ZATU
100
AcDbLine
 10
860.7141914871586
 20
975.3828329634025
 30
0.0
 11
860.7141914871586
 21
974.1828329634026
 31
0.0
  0
LINE
  5
4401
330
1F
100
AcDbEntity
  8
ZATU
100
AcDbLine
 10
861.2141914871585
 20
975.3828329634025
 30
0.0
 11
860.7141914871586
 21
975.3828329634025
 31
0.0
  0
ARC
  5
4402
330
1F
100
AcDbEntity
  8
ZATU
100
AcDbCircle
 10
861.2141914871585
 20
974.8828329634024
 30
0.0
 40
0.5
100
AcDbArc
 50
0.0
 51
90.0
  0
LINE
  5
4403
330
1F
100
AcDbEntity
  8
ZATU
100
AcDbLine
 10
861.7141914871586
 20
974.8828329634024
 30
0.0
 11
861.7141914871586
 21
973.4828329634028
 31
0.0
  0
ARC
  5
4404
330
1F
100
AcDbEntity
  8
ZATU
100
AcDbCircle
 10
861.2141914871585
 20
973.4828329634028
 30
0.0
 40
0.5
100
AcDbArc
 50
270.0
 51
0.0
  0
LINE
  5
4405
330
1F
100
AcDbEntity
  8
ZATU
100
AcDbLine
 10
861.2141914871585
 20
972.9828329634029
 30
0.0
 11
857.4141914871583
 21
972.9828329634029
 31
0.0
  0
LINE
  5
4406
330
1F
100
AcDbEntity
  8
ZATU
100
AcDbLine
 10
880.7141914871586
 20
959.4828329634028
 30
0.0
 11
858.9141914871584
 21
959.4828329634028
 31
0.0
  0
ARC
  5
4407
330
1F
100
AcDbEntity
  8
ZATU
100
AcDbCircle
 10
879.0141914871583
 20
956.2828329634029
 30
0.0
 40
1.0
100
AcDbArc
 50
0.0
 51
90.0
  0
ARC
  5
4408
330
1F
100
AcDbEntity
  8
ZATU
100
AcDbCircle
 10
879.0141914871583
 20
954.3828329634024
 30
0.0
 40
0.999976
100
AcDbArc
 50
279.590428999986
 51
0.0
  0
ARC
  5
4409
330
1F
100
AcDbEntity
  8
ZATU
100
AcDbCircle
 10
879.5141914871583
 20
954.1828329634027
 30
0.0
 40
2.0
100
AcDbArc
 50
270.0
 51
0.0
  0
LINE
  5
440A
330
1F
100
AcDbEntity
  8
ZATU
100
AcDbLine
 10
883.2141914871586
 20
968.4828329634028
 30
0.0
 11
883.2141914871586
 21
959.4828329634028
 31
0.0
  0
LINE
  5
440B
330
1F
100
AcDbEntity
  8
ZATU
100
AcDbLine
 10
887.2141914871585
 20
959.4828329634028
 30
0.0
 11
883.2141914871586
 21
959.4828329634028
 31
0.0
  0
LINE
  5
440C
330
1F
100
AcDbEntity
  8
ZATU
100
AcDbLine
 10
887.7141914871586
 20
958.9828329634029
 30
0.0
 11
887.7141914871586
 21
946.4828329634029
 31
0.0
  0
LINE
  5
440D
330
1F
100
AcDbEntity
  8
ZATU
100
AcDbLine
 10
901.2141414871585
 20
946.4828329634029
 30
0.0
 11
887.7141914871586
 21
946.4828329634029
 31
0.0
  0
ARC
  5
440E
330
1F
100
AcDbEntity
  8
ZATU
100
AcDbCircle
 10
887.2141914871585
 20
958.9828329634029
 30
0.0
 40
0.5
100
AcDbArc
 50
0.0
 51
90.0
  0
LINE
  5
440F
330
1F
100
AcDbEntity
  8
ZATU
100
AcDbLine
 10
884.7141914871585
 20
968.4828329634028
 30
0.0
 11
883.2141914871586
 21
968.4828329634028
 31
0.0
  0
ARC
  5
4410
330
1F
100
AcDbEntity
  8
ZATU
100
AcDbCircle
 10
884.7141914871585
 20
970.0809329634029
 30
0.0
 40
1.0
100
AcDbArc
 50
0.0
 51
59.99927199999444
  0
LINE
  5
4411
330
1F
100
AcDbEntity
  8
ZATU
100
AcDbLine
 10
885.7141914871586
 20
970.0809329634029
 30
0.0
 11
885.7141914871586
 21
969.4828329634029
 31
0.0
  0
ARC
  5
4412
330
1F
100
AcDbEntity
  8
ZATU
100
AcDbCircle
 10
884.7141914871585
 20
969.4828329634029
 30
0.0
 40
1.0
100
AcDbArc
 50
270.0
 51
0.0
  0
LINE
  5
4413
330
1F
100
AcDbEntity
  8
ZATU
100
AcDbLine
 10
897.9141914871584
 20
945.1828329634027
 30
0.0
 11
887.7141914871586
 21
945.1828329634027
 31
0.0
  0
LINE
  5
4414
330
1F
100
AcDbEntity
  8
ZATU
100
AcDbLine
 10
897.9141914871584
 20
945.1828329634027
 30
0.0
 11
897.9141914871584
 21
938.4828429634026
 31
0.0
  0
ARC
  5
4415
330
1F
100
AcDbEntity
  8
ZATU
100
AcDbCircle
 10
898.9141914871584
 20
938.4828429634026
 30
0.0
 40
1.0
100
AcDbArc
 50
180.0
 51
270.0
  0
LINE
  5
4416
330
1F
100
AcDbEntity
  8
ZATU
100
AcDbLine
 10
901.7141414871584
 20
945.9828329634028
 30
0.0
 11
901.7141414871584
 21
944.4828329634029
 31
0.0
  0
ARC
  5
4417
330
1F
100
AcDbEntity
  8
ZATU
100
AcDbCircle
 10
901.2141414871585
 20
944.4828329634029
 30
0.0
 40
0.5
100
AcDbArc
 50
270.0
 51
0.0
  0
LINE
  5
4418
330
1F
100
AcDbEntity
  8
ZATU
100
AcDbLine
 10
901.2141414871585
 20
943.9828329634028
 30
0.0
 11
900.7141414871584
 21
943.9828329634028
 31
0.0
  0
LINE
  5
4419
330
1F
100
AcDbEntity
  8
ZATU
100
AcDbLine
 10
900.7141414871584
 20
945.1828329634027
 30
0.0
 11
900.7141414871584
 21
943.9828329634028
 31
0.0
  0
LINE
  5
441A
330
1F
100
AcDbEntity
  8
ZATU
100
AcDbLine
 10
900.7141414871584
 20
945.1828329634027
 30
0.0
 11
899.2141914871586
 21
945.1828329634027
 31
0.0
  0
LINE
  5
441B
330
1F
100
AcDbEntity
  8
ZATU
100
AcDbLine
 10
899.2141914871586
 20
945.1828329634027
 30
0.0
 11
899.2141914871586
 21
938.7828329634031
 31
0.0
  0
LINE
  5
441C
330
1F
100
AcDbEntity
  8
ZATU
100
AcDbLine
 10
900.7141414871584
 20
938.7828329634031
 30
0.0
 11
899.2141914871586
 21
938.7828329634031
 31
0.0
  0
LINE
  5
441D
330
1F
100
AcDbEntity
  8
ZATU
100
AcDbLine
 10
900.7141414871584
 20
939.9828329634029
 30
0.0
 11
900.7141414871584
 21
938.7828329634031
 31
0.0
  0
LINE
  5
441E
330
1F
100
AcDbEntity
  8
ZATU
100
AcDbLine
 10
901.2141414871585
 20
939.9828329634029
 30
0.0
 11
900.7141414871584
 21
939.9828329634029
 31
0.0
  0
ARC
  5
441F
330
1F
100
AcDbEntity
  8
ZATU
100
AcDbCircle
 10
901.2141414871585
 20
939.4828329634028
 30
0.0
 40
0.5
100
AcDbArc
 50
0.0
 51
90.0
  0
LINE
  5
4420
330
1F
100
AcDbEntity
  8
ZATU
100
AcDbLine
 10
901.7141414871584
 20
939.4828329634028
 30
0.0
 11
901.7141414871584
 21
937.9828429634025
 31
0.0
  0
ARC
  5
4421
330
1F
100
AcDbEntity
  8
ZATU
100
AcDbCircle
 10
901.2141414871585
 20
937.9828429634025
 30
0.0
 40
0.5
100
AcDbArc
 50
270.0
 51
359.9977080000006
  0
LINE
  5
4422
330
1F
100
AcDbEntity
  8
ZATU
100
AcDbLine
 10
901.2141414871585
 20
937.4828429634026
 30
0.0
 11
898.9141914871584
 21
937.4828429634026
 31
0.0
  0
ARC
  5
4423
330
1F
100
AcDbEntity
  8
ZATU
100
AcDbCircle
 10
901.2141414871585
 20
945.9828329634028
 30
0.0
 40
0.5
100
AcDbArc
 50
0.0
 51
90.0
  0
LINE
  5
4424
330
1F
100
AcDbEntity
  8
ZATU
100
AcDbLine
 10
859.2141914871586
 20
991.4828329634028
 30
0.0
 11
856.2141914871586
 21
991.4828329634028
 31
0.0
  0
ARC
  5
4425
330
1F
100
AcDbEntity
  8
ZATU
100
AcDbCircle
 10
859.2141914871586
 20
990.9828329634029
 30
0.0
 40
0.5
100
AcDbArc
 50
0.0
 51
90.0
  0
LINE
  5
4426
330
1F
100
AcDbEntity
  8
ZATU
100
AcDbLine
 10
859.7141914871585
 20
990.9828329634029
 30
0.0
 11
859.7141914871585
 21
990.4828329634028
 31
0.0
  0
ARC
  5
4427
330
1F
100
AcDbEntity
  8
ZATU
100
AcDbCircle
 10
859.2141914871586
 20
990.4828329634028
 30
0.0
 40
0.5
100
AcDbArc
 50
270.0
 51
0.0
  0
LINE
  5
4428
330
1F
100
AcDbEntity
  8
ZATU
100
AcDbLine
 10
859.2141914871586
 20
989.9828329634029
 30
0.0
 11
857.4141914871583
 21
989.9828329634029
 31
0.0
  0
ARC
  5
4429
330
1F
100
AcDbEntity
  8
ZATU
100
AcDbCircle
 10
856.2141914871586
 20
990.9828329634029
 30
0.0
 40
0.5
100
AcDbArc
 50
90.0
 51
180.0
  0
LINE
  5
442A
330
1F
100
AcDbEntity
  8
ZATU
100
AcDbLine
 10
855.7141914871586
 20
991.4828329634028
 30
0.0
 11
855.7141914871586
 21
990.4828329634028
 31
0.0
  0
ARC
  5
442B
330
1F
100
AcDbEntity
  8
ZATU
100
AcDbCircle
 10
855.2141914871585
 20
990.4828329634028
 30
0.0
 40
0.5
100
AcDbArc
 50
270.0
 51
0.0
  0
LINE
  5
442C
330
1F
100
AcDbEntity
  8
ZATU
100
AcDbLine
 10
855.7141914871586
 20
988.8388899634028
 30
0.0
 11
854.5702484871585
 21
989.9828329634029
 31
0.0
  0
ARC
  5
442D
330
1F
100
AcDbEntity
  8
ZATU
100
AcDbCircle
 10
861.2141914871585
 20
979.5828329634023
 30
0.0
 40
0.5
100
AcDbArc
 50
270.0
 51
0.0
  0
LINE
  5
442E
330
1F
100
AcDbEntity
  8
ZATU
100
AcDbLine
 10
860.7141914871586
 20
980.282832963403
 30
0.0
 11
860.7141914871586
 21
979.0828329634022
 31
0.0
  0
ARC
  5
442F
330
1F
100
AcDbEntity
  8
ZATU
100
AcDbCircle
 10
858.9141914871584
 20
979.7828329634031
 30
0.0
 40
0.5
100
AcDbArc
 50
180.0
 51
270.0
  0
LINE
  5
4430
330
1F
100
AcDbEntity
  8
ZATU
100
AcDbLine
 10
861.2141914871585
 20
979.0828329634022
 30
0.0
 11
860.7141914871586
 21
979.0828329634022
 31
0.0
  0
LINE
  5
4431
330
1F
100
AcDbEntity
  8
ZATU
100
AcDbLine
 10
861.2141914871585
 20
981.4828329634028
 30
0.0
 11
857.4141914871583
 21
981.4828329634028
 31
0.0
  0
ARC
  5
4432
330
1F
100
AcDbEntity
  8
ZATU
100
AcDbCircle
 10
861.2141914871585
 20
980.9828329634028
 30
0.0
 40
0.5
100
AcDbArc
 50
0.0
 51
90.0
  0
LINE
  5
4433
330
1F
100
AcDbEntity
  8
ZATU
100
AcDbLine
 10
861.7141914871586
 20
980.9828329634028
 30
0.0
 11
861.7141914871586
 21
979.5828329634023
 31
0.0
  0
LINE
  5
4434
330
1F
100
AcDbEntity
  8
ZATU
100
AcDbLine
 10
860.7141914871586
 20
980.282832963403
 30
0.0
 11
859.4141914871583
 21
980.282832963403
 31
0.0
  0
LINE
  5
4435
330
1F
100
AcDbEntity
  8
ZATU
100
AcDbLine
 10
859.4141914871583
 20
980.282832963403
 30
0.0
 11
859.4141914871583
 21
979.282832963403
 31
0.0
  0
LINE
  5
4436
330
1F
100
AcDbEntity
  8
ZATU
100
AcDbLine
 10
859.4141914871583
 20
979.282832963403
 30
0.0
 11
858.9141914871584
 21
979.282832963403
 31
0.0
  0
LINE
  5
4437
330
1F
100
AcDbEntity
  8
ZATU
100
AcDbLine
 10
858.4141914871583
 20
980.282832963403
 30
0.0
 11
858.4141914871583
 21
979.7828329634031
 31
0.0
  0
LINE
  5
4438
330
1F
100
AcDbEntity
  8
ZATU
100
AcDbLine
 10
858.4141914871583
 20
980.282832963403
 30
0.0
 11
857.4141914871583
 21
980.282832963403
 31
0.0
  0
LINE
  5
4439
330
1F
100
AcDbEntity
  8
ZATU
100
AcDbLine
 10
855.7141914871586
 20
986.9828329634028
 30
0.0
 11
855.7141914871586
 21
985.7828329634029
 31
0.0
  0
LINE
  5
443A
330
1F
100
AcDbEntity
  8
ZATU
100
AcDbLine
 10
855.4141914871584
 20
985.4828329634029
 30
0.0
 11
855.4141914871584
 21
982.9828329634029
 31
0.0
  0
ARC
  5
443B
330
1F
100
AcDbEntity
  8
ZATU
100
AcDbCircle
 10
855.4141914871584
 20
985.7828329634029
 30
0.0
 40
0.3
100
AcDbArc
 50
270.0
 51
0.0
  0
ARC
  5
443C
330
1F
100
AcDbEntity
  8
ZATU
100
AcDbCircle
 10
855.4141914871584
 20
982.6828329634027
 30
0.0
 40
0.3
100
AcDbArc
 50
0.0
 51
90.0
  0
LINE
  5
443D
330
1F
100
AcDbEntity
  8
ZATU
100
AcDbLine
 10
855.1508994871582
 20
986.9828329634028
 30
0.0
 11
855.7141914871586
 21
987.5461249634026
 31
0.0
  0
LINE
  5
443E
330
1F
100
AcDbEntity
  8
ZATU
100
AcDbLine
 10
857.4141914871583
 20
989.9828329634029
 30
0.0
 11
857.4141914871583
 21
981.4828329634028
 31
0.0
  0
TEXT
  5
4448
330
1F
100
AcDbEntity
  8
MOJI
100
AcDbText
 10
1123.680194775173
 20
922.5974346833083
 30
0.0
 40
20.0
  1
強力ガムシール
  7
MSゴシック
 11
1123.680194775173
 21
932.5974346833083
 31
0.0
100
AcDbText
 73
     2
  0
LINE
  5
45B2
330
1F
100
AcDbEntity
  8
KUTAI
100
AcDbLine
 10
975.02481404895
 20
842.4975185951055
 30
0.0
 11
800.0000000000001
 21
860.0000000000003
 31
0.0
  0
LINE
  5
45B3
330
1F
100
AcDbEntity
  8
KUTAI
100
AcDbLine
 10
975.02481404895
 20
842.4975185951055
 30
0.0
 11
980.0000000000002
 21
837.0000000000004
 31
0.0
  0
LINE
  5
4CB7
330
1F
100
AcDbEntity
  8
BOUSUI
100
AcDbLine
 10
940.1985123916004
 20
845.9801487608404
 30
0.0
 11
940.8452865652369
 21
852.4478904972053
 31
0.0
  0
ARC
  5
4CB8
330
1F
100
AcDbEntity
  8
BOUSUI
100
AcDbCircle
 10
939.334937243024
 20
842.376159574723
 30
0.0
 40
10.18434675617416
100
AcDbArc
 50
81.47151723501293
 51
153.1550316015826
  0
LINE
  5
4CB9
330
1F
100
AcDbEntity
  8
BOUSUI
100
AcDbLine
 10
955.7708444183868
 20
850.9553347118904
 30
0.0
 11
965.3304698768684
 21
853.5168286334345
 31
0.0
  0
LINE
  5
4CF7
330
1F
100
AcDbEntity
  8
ZATU
100
AcDbLine
 10
1004.511781487157
 20
853.197061963403
 30
0.0
 11
1004.511781487157
 21
859.6828619634024
 31
0.0
  0
LINE
  5
4CF8
330
1F
100
AcDbEntity
  8
ZATU
100
AcDbLine
 10
1005.711781487157
 20
850.9828619634026
 30
0.0
 11
1005.711781487157
 21
859.4828619634025
 31
0.0
  0
ARC
  5
4CF9
330
1F
100
AcDbEntity
  8
ZATU
100
AcDbCircle
 10
1006.511781487157
 20
859.6828619634024
 30
0.0
 40
2.0
100
AcDbArc
 50
90.0
 51
179.9999999999984
  0
ARC
  5
4CFA
330
1F
100
AcDbEntity
  8
ZATU
100
AcDbCircle
 10
1006.711781487157
 20
859.4828619634025
 30
0.0
 40
1.0
100
AcDbArc
 50
90.0
 51
180.0
  0
TEXT
  5
5394
330
1F
100
AcDbEntity
  8
MOJI
100
AcDbText
 10
1677.71000379757
 20
778.0050299935488
 30
0.0
 40
20.0
  1
断熱材：ギルフォーム（t=35）
  7
MSゴシック
 11
1677.71000379757
 21
788.0050299935487
 31
0.0
100
AcDbText
 73
     2
  0
TEXT
  5
5395
330
1F
100
AcDbEntity
  8
MOJI
100
AcDbText
 10
1654.615993029986
 20
738.0050299935487
 30
0.0
 40
20.0
  1
防湿層
  7
MSゴシック
 11
1654.615993029986
 21
748.0050299935487
 31
0.0
100
AcDbText
 73
     2
  0
LINE
  5
5396
330
1F
100
AcDbEntity
  8
MOJI
  6
Continuous
100
AcDbLine
 10
1624.71000379757
 20
788.0050299935487
 30
0.0
 11
1674.71000379757
 21
788.0050299935487
 31
0.0
  0
LINE
  5
5397
330
1F
100
AcDbEntity
  8
MOJI
  6
Continuous
100
AcDbLine
 10
1601.615993029986
 20
748.0050299935487
 30
0.0
 11
1651.615993029986
 21
748.0050299935487
 31
0.0
  0
TEXT
  5
53AB
330
1F
100
AcDbEntity
  8
MOJI
100
AcDbText
 10
1827.559376280786
 20
1020.755477071516
 30
0.0
 40
20.0
  1
1/100～1/50
  7
MSゴシック
100
AcDbText
  0
LINE
  5
53AC
330
1F
100
AcDbEntity
  8
MOJI
100
AcDbLine
 10
1766.841029158069
 20
989.7043563658728
 30
0.0
 11
1895.219861462451
 21
989.7043563658728
 31
0.0
  0
LINE
  5
53AD
330
1F
100
AcDbEntity
  8
MOJI
100
AcDbLine
 10
1895.219861462451
 20
989.7043563658728
 30
0.0
 11
1766.841029158069
 21
1018.210452430601
 31
0.0
  0
TEXT
  5
53AE
330
1F
100
AcDbEntity
  8
MOJI
100
AcDbText
 10
1788.226467875629
 20
959.4367653534911
 30
0.0
 40
20.0
  1
水勾配
  7
MSゴシック
100
AcDbText
  0
LINE
  5
53AF
330
1F
100
AcDbEntity
  8
MOJI
100
AcDbLine
 10
1766.841029158069
 20
1018.210452430601
 30
0.0
 11
1766.841029158069
 21
989.7043563658728
 31
0.0
  0
LINE
  5
53B7
330
1F
100
AcDbEntity
  8
BOUSUI
100
AcDbLine
 10
2280.0
 20
547.0
 30
0.0
 11
980.0000000000002
 21
547.0
 31
0.0
  0
LINE
  5
53B8
330
1F
100
AcDbEntity
  8
dannnetu
100
AcDbLine
 10
2280.0
 20
582.0
 30
0.0
 11
980.0000000000002
 21
582.0
 31
0.0
  0
LINE
  5
53C0
330
1F
100
AcDbEntity
  8
MOJI
100
AcDbLine
 10
1697.804014565155
 20
828.0050299935487
 30
0.0
 11
1647.804014565155
 21
828.0050299935487
 31
0.0
  0
LINE
  5
53C1
330
1F
100
AcDbEntity
  8
MOJI
100
AcDbLine
 10
1670.89802533274
 20
868.0050299935487
 30
0.0
 11
1485.057953332534
 21
546.1205832069335
 31
0.0
  0
TEXT
  5
541C
330
1F
100
AcDbEntity
  8
MOJI
100
AcDbText
 10
1723.89802533274
 20
858.0050299935487
 30
0.0
 40
20.0
  1
ステップスクエア500H（t=7.5）
  7
MSゴシック
 11
1723.89802533274
 21
868.0050299935487
 31
0.0
100
AcDbText
 73
     2
  0
LINE
  5
541D
330
1F
100
AcDbEntity
  8
MOJI
100
AcDbLine
 10
1720.89802533274
 20
868.0050299935487
 30
0.0
 11
1670.89802533274
 21
868.0050299935487
 31
0.0
  0
LINE
  5
54D7
330
1F
100
AcDbEntity
  8
ZATU
100
AcDbLine
 10
748.0000000000001
 20
974.4828329634028
 30
0.0
 11
748.0000000000001
 21
860.4895940621902
 31
0.0
  0
LINE
  5
54D8
330
1F
100
AcDbEntity
  8
BOUSUI
100
AcDbLine
 10
1004.511781487157
 20
859.6828619634024
 30
0.0
 11
983.7876061753412
 21
847.7177537683923
 31
0.0
  0
ARC
  5
54D9
330
1F
100
AcDbEntity
  8
BOUSUI
100
AcDbCircle
 10
1010.64982020126
 20
826.9161021396834
 30
0.0
 40
24.91296817521217
100
AcDbArc
 50
104.9761632772862
 51
145.9836902634625
  0
HATCH
  5
5551
330
1F
100
AcDbEntity
  8
MOJI
100
AcDbHatch
 10
0.0
 20
0.0
 30
0.0
210
0.0
220
0.0
230
1.0
  2
SOLID
 70
     1
 71
     1
 91
        1
 92
        1
 93
        1
 72
     2
 10
1513.274548114472
 20
594.9931589858308
 40
4.0
 50
0.0
 51
360.0
 73
     1
 97
        1
330
5552
 75
     0
 76
     1
 98
        1
 10
-196.9557373453433
 20
-332.183214740556
  0
CIRCLE
  5
5552
102
{ACAD_REACTORS
330
5551
102
}
330
1F
100
AcDbEntity
  8
MOJI
100
AcDbCircle
 10
1513.274548114472
 20
594.9931589858308
 30
0.0
 40
4.0
  0
CIRCLE
  5
5553
102
{ACAD_REACTORS
330
5554
102
}
330
1F
100
AcDbEntity
  8
MOJI
100
AcDbCircle
 10
1496.234604448398
 20
565.4791107980809
 30
0.0
 40
4.0
  0
HATCH
  5
5554
330
1F
100
AcDbEntity
  8
MOJI
100
AcDbHatch
 10
0.0
 20
0.0
 30
0.0
210
0.0
220
0.0
230
1.0
  2
SOLID
 70
     1
 71
     1
 91
        1
 92
        1
 93
        1
 72
     2
 10
1496.234604448398
 20
565.4791107980809
 40
4.0
 50
0.0
 51
360.0
 73
     1
 97
        1
330
5553
 75
     0
 76
     1
 98
        1
 10
-213.9956810114167
 20
-361.6972629283059
  0
CIRCLE
  5
5555
102
{ACAD_REACTORS
330
5556
102
}
330
1F
100
AcDbEntity
  8
MOJI
100
AcDbCircle
 10
1485.057953332534
 20
546.1205832069335
 30
0.0
 40
4.0
  0
HATCH
  5
5556
330
1F
100
AcDbEntity
  8
MOJI
100
AcDbHatch
 10
0.0
 20
0.0
 30
0.0
210
0.0
220
0.0
230
1.0
  2
SOLID
 70
     1
 71
     1
 91
        1
 92
        1
 93
        1
 72
     2
 10
1485.057953332534
 20
546.1205832069335
 40
4.0
 50
0.0
 51
360.0
 73
     1
 97
        1
330
5555
 75
     0
 76
     1
 98
        1
 10
-225.1723321272807
 20
-381.0557905194532
  0
HATCH
  5
5557
330
1F
100
AcDbEntity
  8
MOJI
100
AcDbHatch
 10
0.0
 20
0.0
 30
0.0
210
0.0
220
0.0
230
1.0
  2
SOLID
 70
     1
 71
     1
 91
        1
 92
        1
 93
        1
 72
     2
 10
1508.617152060864
 20
586.926312390011
 40
4.0
 50
0.0
 51
360.0
 73
     1
 97
        1
330
5558
 75
     0
 76
     1
 98
        1
 10
-201.6131333989513
 20
-340.2500613363758
  0
CIRCLE
  5
5558
102
{ACAD_REACTORS
330
5557
102
}
330
1F
100
AcDbEntity
  8
MOJI
100
AcDbCircle
 10
1508.617152060864
 20
586.926312390011
 30
0.0
 40
4.0
  0
LINE
  5
56BD
330
1F
100
AcDbEntity
  8
0
100
AcDbLine
 10
0.0
 20
1849.999999999998
 30
0.0
 11
2760.000000000001
 21
1849.999999999995
 31
0.0
  0
TEXT
  5
56BE
330
1F
100
AcDbEntity
  8
WAKU
100
AcDbText
 10
2608.553299492386
 20
1860.0
 30
0.0
 40
30.0
  1
ass-1-4
  7
MSゴシック
 72
     2
 11
2745.000000000001
 21
1860.0
 31
0.0
100
AcDbText
  0
TEXT
  5
56C0
330
1F
100
AcDbEntity
  8
WAKU
100
AcDbText
 10
15.0
 20
1860.0
 30
0.0
 40
40.0
  1
アスファルト防水／ステップスクエア５００Ｈ仕上げ
  7
MSゴシック
100
AcDbText
  0
TEXT
  5
56C1
330
1F
100
AcDbEntity
  8
WAKU
100
AcDbText
 10
15.0
 20
1800.000000000004
 30
0.0
 40
30.0
  1
一般部／出入口／サッシュ下水切り／断熱
  7
MSゴシック
100
AcDbText
  0
TEXT
  5
56C2
330
1F
100
AcDbEntity
  8
WAKU
100
AcDbText
 10
2589.060913705584
 20
1800.000000000005
 30
0.0
 40
30.0
  1
1/10(A4)
  7
MSゴシック
 72
     2
 11
2745.000000000001
 21
1800.000000000005
 31
0.0
100
AcDbText
  0
TEXT
  5
5C3F
330
1F
100
AcDbEntity
  8
MOJI
100
AcDbText
 10
480.0
 20
265.0
 30
0.0
 40
20.0
  1
※こちらの図は熱工法とストライプ工法の場合の形状です。その他の工法については出入隅の形状等一部が異なります。
  7
MSゴシック
 11
480.0
 21
275.0
 31
0.0
100
AcDbText
 73
     2
  0
TEXT
  5
5C53
330
1F
100
AcDbEntity
  8
MOJI
100
AcDbText
 10
1700.804014565155
 20
818.0050299935487
 30
0.0
 40
20.0
  1
アスファルト防水層
  7
MSゴシック
 11
1700.804014565155
 21
828.0050299935487
 31
0.0
100
AcDbText
 73
     2
  0
CIRCLE
  5
5ED4
102
{ACAD_REACTORS
330
5ED5
102
}
330
1F
100
AcDbEntity
  8
MOJI
100
AcDbCircle
 10
1000.445502097177
 20
593.6679609780526
 30
0.0
 40
4.0
  0
HATCH
  5
5ED5
330
1F
100
AcDbEntity
  8
MOJI
100
AcDbHatch
 10
0.0
 20
0.0
 30
0.0
210
0.0
220
0.0
230
1.0
  2
SOLID
 70
     1
 71
     1
 91
        1
 92
        1
 93
        1
 72
     2
 10
1000.445502097177
 20
593.6679609780526
 40
4.0
 50
0.0
 51
360.0
 73
     1
 97
        1
330
5ED4
 75
     0
 76
     1
 98
        1
 10
-709.7847833626381
 20
-333.5084127483342
  0
CIRCLE
  5
5ED6
102
{ACAD_REACTORS
330
5ED7
102
}
330
1F
100
AcDbEntity
  8
MOJI
100
AcDbCircle
 10
1000.445502097177
 20
593.6679609780526
 30
0.0
 40
4.0
  0
HATCH
  5
5ED7
330
1F
100
AcDbEntity
  8
MOJI
100
AcDbHatch
 10
0.0
 20
0.0
 30
0.0
210
0.0
220
0.0
230
1.0
  2
SOLID
 70
     1
 71
     1
 91
        1
 92
        1
 93
        1
 72
     2
 10
1000.445502097177
 20
593.6679609780526
 40
4.0
 50
0.0
 51
360.0
 73
     1
 97
        1
330
5ED6
 75
     0
 76
     1
 98
        1
 10
-709.7847833626381
 20
-333.5084127483342
  0
LINE
  5
5ED8
330
1F
100
AcDbEntity
  8
MOJI
100
AcDbLine
 10
1101.517688469763
 20
682.2579564571554
 30
0.0
 11
1051.592959834545
 21
682.2579564571554
 31
0.0
  0
LINE
  5
5ED9
330
1F
100
AcDbEntity
  8
MOJI
100
AcDbLine
 10
1051.592959834545
 20
682.2579564571554
 30
0.0
 11
1000.445502097177
 21
593.6679609780526
 31
0.0
  0
TEXT
  5
5EDA
330
1F
100
AcDbEntity
  8
MOJI
100
AcDbText
 10
1104.517688469763
 20
672.2579564571553
 30
0.0
 40
20.0
  1
ギルキャント
  7
MSゴシック
 11
1104.517688469763
 21
682.2579564571554
 31
0.0
100
AcDbText
 73
     2
  0
LINE
  5
62E4
330
1F
100
AcDbEntity
  8
0
100
AcDbLine
 10
480.0
 20
295.0
 30
0.0
 11
2280.0
 21
295.0
 31
0.0
  0
LINE
  5
62E5
330
1F
100
AcDbEntity
  8
0
100
AcDbLine
 10
2280.0
 20
295.0
 30
0.0
 11
2280.0
 21
1495.0
 31
0.0
  0
LINE
  5
62E6
330
1F
100
AcDbEntity
  8
0
100
AcDbLine
 10
2280.0
 20
1495.0
 30
0.0
 11
480.0
 21
1495.0
 31
0.0
  0
LINE
  5
62E7
330
1F
100
AcDbEntity
  8
0
100
AcDbLine
 10
480.0
 20
1495.0
 30
0.0
 11
480.0
 21
295.0
 31
0.0
  0
LINE
  5
62E8
330
1F
100
AcDbEntity
  8
MOJI
100
AcDbLine
 10
1110.680194775173
 20
932.5974346833083
 30
0.0
 11
1048.546009720395
 21
932.5974346833083
 31
0.0
  0
LINE
  5
62E9
330
1F
100
AcDbEntity
  8
MOJI
100
AcDbLine
 10
1048.546009720395
 20
932.5974346833083
 30
0.0
 11
998.2363214354247
 21
845.4584984607874
 31
0.0
  0
LINE
  5
62EA
330
1F
100
AcDbEntity
  8
BOUSUI
100
AcDbLine
 10
965.3304698768684
 20
853.5168286334345
 30
0.0
 11
979.8538647199874
 21
852.0644891491226
 31
0.0
  0
LINE
  5
62EB
330
1F
100
AcDbEntity
  8
BOUSUI
100
AcDbLine
 10
979.8538647199874
 20
852.0644891491226
 30
0.0
 11
990.0000000000002
 21
840.8531358612025
 31
0.0
  0
LINE
  5
62EC
330
1F
100
AcDbEntity
  8
BOUSUI
100
AcDbLine
 10
940.8452865652369
 20
852.4478904972053
 30
0.0
 11
955.7708444183868
 21
850.9553347118904
 31
0.0
  0
LINE
  5
62ED
330
1F
100
AcDbEntity
  8
HATCH
  6
Continuous
100
AcDbLine
 10
932.6554768038885
 20
846.7344523196116
 30
0.0
 11
938.4423399970026
 21
852.5213155127257
 31
0.0
  0
LINE
  5
62EE
330
1F
100
AcDbEntity
  8
HATCH
  6
Continuous
100
AcDbLine
 10
936.7374114043744
 20
846.3262588595631
 30
0.0
 11
940.6215358455947
 21
850.2103833007833
 31
0.0
  0
LINE
  5
62EF
330
1F
100
AcDbEntity
  8
HATCH
  6
Continuous
100
AcDbLine
 10
931.4493619191054
 20
846.8550638080897
 30
0.0
 11
930.6345232041769
 21
847.6699025230184
 31
0.0
  0
LINE
  5
62F0
330
1F
100
AcDbEntity
  8
HATCH
  6
Continuous
100
AcDbLine
 10
936.4383930974771
 20
846.3561606902526
 30
0.0
 11
932.6956498059089
 21
850.0989039818207
 31
0.0
  0
LINE
  5
62F1
330
1F
100
AcDbEntity
  8
HATCH
  6
Continuous
100
AcDbLine
 10
940.2990597275843
 20
846.98562212068
 30
0.0
 11
935.4813798501908
 21
851.8033019980736
 31
0.0
  0
LINE
  5
62F2
330
1F
100
AcDbEntity
  8
HATCH
  6
Continuous
100
AcDbLine
 10
940.707253187633
 20
851.0675567211659
 30
0.0
 11
939.2150097159937
 21
852.5598001928052
 31
0.0
  0
LINE
  5
62F3
330
1F
100
AcDbEntity
  8
HATCH
  6
Continuous
100
AcDbLine
 10
780.0000000000002
 20
842.2532015133645
 30
0.0
 11
797.7467984866358
 21
860.0000000000001
 31
0.0
  0
LINE
  5
62F4
330
1F
100
AcDbEntity
  8
HATCH
  6
Continuous
100
AcDbLine
 10
780.0000000000003
 20
819.8025612106915
 30
0.0
 11
800.0000000000003
 21
839.8025612106916
 31
0.0
  0
LINE
  5
62F5
330
1F
100
AcDbEntity
  8
HATCH
  6
Continuous
100
AcDbLine
 10
780.0000000000003
 20
797.3519209080188
 30
0.0
 11
800.0000000000003
 21
817.3519209080188
 31
0.0
  0
LINE
  5
62F6
330
1F
100
AcDbEntity
  8
HATCH
  6
Continuous
100
AcDbLine
 10
780.0000000000002
 20
774.9012806053458
 30
0.0
 11
800.0000000000001
 21
794.9012806053458
 31
0.0
  0
LINE
  5
62F7
330
1F
100
AcDbEntity
  8
HATCH
  6
Continuous
100
AcDbLine
 10
780.0000000000003
 20
752.4506403026729
 30
0.0
 11
800.0000000000003
 21
772.4506403026729
 31
0.0
  0
LINE
  5
62F8
330
1F
100
AcDbEntity
  8
HATCH
  6
Continuous
100
AcDbLine
 10
780.0000000000003
 20
730.0000000000001
 30
0.0
 11
800.0000000000003
 21
750.0
 31
0.0
  0
LINE
  5
62F9
330
1F
100
AcDbEntity
  8
HATCH
  6
Continuous
100
AcDbLine
 10
780.0000000000002
 20
707.5493596973272
 30
0.0
 11
800.0000000000001
 21
727.5493596973271
 31
0.0
  0
LINE
  5
62FA
330
1F
100
AcDbEntity
  8
HATCH
  6
Continuous
100
AcDbLine
 10
789.9012806053463
 20
695.0000000000002
 30
0.0
 11
800.0000000000003
 21
705.0987193946542
 31
0.0
  0
LINE
  5
62FB
330
1F
100
AcDbEntity
  8
HATCH
  6
Continuous
100
AcDbLine
 10
791.4461017924477
 20
695.0
 30
0.0
 11
780.0
 21
706.4461017924477
 31
0.0
  0
LINE
  5
62FC
330
1F
100
AcDbEntity
  8
HATCH
  6
Continuous
100
AcDbLine
 10
800.0
 20
708.8967420951206
 30
0.0
 11
780.0
 21
728.8967420951206
 31
0.0
  0
LINE
  5
62FD
330
1F
100
AcDbEntity
  8
HATCH
  6
Continuous
100
AcDbLine
 10
800.0
 20
731.3473823977934
 30
0.0
 11
780.0
 21
751.3473823977935
 31
0.0
  0
LINE
  5
62FE
330
1F
100
AcDbEntity
  8
HATCH
  6
Continuous
100
AcDbLine
 10
800.0000000000001
 20
753.7980227004663
 30
0.0
 11
780.0000000000001
 21
773.7980227004663
 31
0.0
  0
LINE
  5
62FF
330
1F
100
AcDbEntity
  8
HATCH
  6
Continuous
100
AcDbLine
 10
800.0
 20
776.2486630031393
 30
0.0
 11
780.0000000000001
 21
796.2486630031392
 31
0.0
  0
LINE
  5
6300
330
1F
100
AcDbEntity
  8
HATCH
  6
Continuous
100
AcDbLine
 10
800.0
 20
798.6993033058121
 30
0.0
 11
780.0000000000001
 21
818.699303305812
 31
0.0
  0
LINE
  5
6301
330
1F
100
AcDbEntity
  8
HATCH
  6
Continuous
100
AcDbLine
 10
800.0000000000001
 20
821.1499436084849
 30
0.0
 11
780.0000000000001
 21
841.1499436084849
 31
0.0
  0
LINE
  5
6302
330
1F
100
AcDbEntity
  8
HATCH
  6
Continuous
100
AcDbLine
 10
800.0
 20
843.6005839111579
 30
0.0
 11
783.6005839111579
 21
860.0
 31
0.0
  0
LINE
  5
6303
330
1F
100
AcDbEntity
  8
dannnetu
100
AcDbLine
 10
980.0000000000002
 20
631.4974746830582
 30
0.0
 11
1029.497474683059
 21
582.0
 31
0.0
  0
LINE
  5
6304
330
1F
100
AcDbEntity
  8
dannnetu
100
AcDbLine
 10
1029.497474683059
 20
582.0
 30
0.0
 11
994.1421356237313
 21
582.0
 31
0.0
  0
LINE
  5
6305
330
1F
100
AcDbEntity
  8
dannnetu
100
AcDbLine
 10
994.1421356237313
 20
582.0
 30
0.0
 11
980.0000000000002
 21
596.142135623731
 31
0.0
  0
LINE
  5
6306
330
1F
100
AcDbEntity
  8
dannnetu
100
AcDbLine
 10
980.0000000000002
 20
596.142135623731
 30
0.0
 11
980.0000000000002
 21
631.4974746830582
 31
0.0
  0
LINE
  5
6307
330
1F
100
AcDbEntity
  8
HATCH
  6
Continuous
100
AcDbLine
 10
980.0000000000004
 20
622.4738530943405
 30
0.0
 11
984.5118107943592
 21
626.9856638886994
 31
0.0
  0
LINE
  5
6308
330
1F
100
AcDbEntity
  8
HATCH
  6
Continuous
100
AcDbLine
 10
980.0000000000004
 20
609.0034689127366
 30
0.0
 11
991.2470028851609
 21
620.2504717978975
 31
0.0
  0
LINE
  5
6309
330
1F
100
AcDbEntity
  8
HATCH
  6
Continuous
100
AcDbLine
 10
980.3045254462995
 20
595.8376101774322
 30
0.0
 11
997.982194975963
 21
613.5152797070957
 31
0.0
  0
LINE
  5
630A
330
1F
100
AcDbEntity
  8
HATCH
  6
Continuous
100
AcDbLine
 10
987.0397175371012
 20
589.1024180866301
 30
0.0
 11
1004.717387066765
 21
606.780087616294
 31
0.0
  0
LINE
  5
630B
330
1F
100
AcDbEntity
  8
HATCH
  6
Continuous
100
AcDbLine
 10
993.7749096279032
 20
582.3672259958284
 30
0.0
 11
1011.452579157567
 21
600.0448955254921
 31
0.0
  0
LINE
  5
630C
330
1F
100
AcDbEntity
  8
HATCH
  6
Continuous
100
AcDbLine
 10
1006.878067813678
 20
582.0000000000002
 30
0.0
 11
1018.187771248369
 21
593.3097034346904
 31
0.0
  0
LINE
  5
630D
330
1F
100
AcDbEntity
  8
HATCH
  6
Continuous
100
AcDbLine
 10
1020.348451995282
 20
582.0000000000003
 30
0.0
 11
1024.922963339171
 21
586.5745113438885
 31
0.0
  0
LINE
  5
630E
330
1F
100
AcDbEntity
  8
HATCH
  6
Continuous
100
AcDbLine
 10
998.5018645165034
 20
581.9999999999999
 30
0.0
 11
980.0000000000002
 21
600.5018645165032
 31
0.0
  0
LINE
  5
630F
330
1F
100
AcDbEntity
  8
HATCH
  6
Continuous
100
AcDbLine
 10
1011.972248698107
 20
581.9999999999999
 30
0.0
 11
980.0
 21
613.9722486981071
 31
0.0
  0
LINE
  5
6310
330
1F
100
AcDbEntity
  8
HATCH
  6
Continuous
100
AcDbLine
 10
1025.442632879711
 20
581.9999999999999
 30
0.0
 11
980.0
 21
627.4426328797109
 31
0.0
  0
LINE
  5
6311
330
1F
100
AcDbEntity
  8
BOUSUI
100
AcDbLine
 10
2280.0
 20
592.0
 30
0.0
 11
1033.639610306789
 21
592.0
 31
0.0
  0
LINE
  5
6312
330
1F
100
AcDbEntity
  8
BOUSUI
100
AcDbLine
 10
1033.639610306789
 20
592.0
 30
0.0
 11
990.0000000000002
 21
635.639610306789
 31
0.0
  0
LINE
  5
6313
330
1F
100
AcDbEntity
  8
BOUSUI
100
AcDbLine
 10
990.0000000000002
 20
635.639610306789
 30
0.0
 11
990.0000000000002
 21
840.8531358612023
 31
0.0
  0
LINE
  5
6314
330
1F
100
AcDbEntity
  8
HATCH
  6
Continuous
100
AcDbLine
 10
980.0000000000002
 20
574.0627005495291
 30
0.0
 11
987.9372994504722
 21
582.0000000000011
 31
0.0
  0
LINE
  5
6315
330
1F
100
AcDbEntity
  8
HATCH
  6
Continuous
100
AcDbLine
 10
980.0000000000002
 20
560.5923163679253
 30
0.0
 11
1001.407683632076
 21
582.0000000000011
 31
0.0
  0
LINE
  5
6316
330
1F
100
AcDbEntity
  8
HATCH
  6
Continuous
100
AcDbLine
 10
980.0000000000002
 20
547.1219321863218
 30
0.0
 11
1014.87806781368
 21
582.0000000000011
 31
0.0
  0
LINE
  5
6317
330
1F
100
AcDbEntity
  8
HATCH
  6
Continuous
100
AcDbLine
 10
993.3484519952823
 20
547.0000000000002
 30
0.0
 11
1028.348451995283
 21
582.000000000001
 31
0.0
  0
LINE
  5
6318
330
1F
100
AcDbEntity
  8
HATCH
  6
Continuous
100
AcDbLine
 10
1006.818836176886
 20
547.0000000000001
 30
0.0
 11
1041.818836176887
 21
582.000000000001
 31
0.0
  0
LINE
  5
6319
330
1F
100
AcDbEntity
  8
HATCH
  6
Continuous
100
AcDbLine
 10
1020.28922035849
 20
547.0000000000002
 30
0.0
 11
1055.289220358491
 21
582.0000000000011
 31
0.0
  0
LINE
  5
631A
330
1F
100
AcDbEntity
  8
HATCH
  6
Continuous
100
AcDbLine
 10
1033.759604540093
 20
547.0
 30
0.0
 11
1068.759604540094
 21
582.000000000001
 31
0.0
  0
LINE
  5
631B
330
1F
100
AcDbEntity
  8
HATCH
  6
Continuous
100
AcDbLine
 10
1047.229988721697
 20
547.0000000000002
 30
0.0
 11
1082.229988721698
 21
582.0000000000009
 31
0.0
  0
LINE
  5
631C
330
1F
100
AcDbEntity
  8
HATCH
  6
Continuous
100
AcDbLine
 10
1060.700372903301
 20
547.0000000000002
 30
0.0
 11
1095.700372903302
 21
582.000000000001
 31
0.0
  0
LINE
  5
631D
330
1F
100
AcDbEntity
  8
HATCH
  6
Continuous
100
AcDbLine
 10
1074.170757084905
 20
547.0000000000003
 30
0.0
 11
1109.170757084906
 21
582.000000000001
 31
0.0
  0
LINE
  5
631E
330
1F
100
AcDbEntity
  8
HATCH
  6
Continuous
100
AcDbLine
 10
1087.641141266508
 20
547.0
 30
0.0
 11
1122.641141266509
 21
582.0000000000009
 31
0.0
  0
LINE
  5
631F
330
1F
100
AcDbEntity
  8
HATCH
  6
Continuous
100
AcDbLine
 10
1101.111525448112
 20
547.0
 30
0.0
 11
1136.111525448113
 21
582.0000000000008
 31
0.0
  0
LINE
  5
6320
330
1F
100
AcDbEntity
  8
HATCH
  6
Continuous
100
AcDbLine
 10
1114.581909629716
 20
547.0000000000002
 30
0.0
 11
1149.581909629717
 21
582.0000000000009
 31
0.0
  0
LINE
  5
6321
330
1F
100
AcDbEntity
  8
HATCH
  6
Continuous
100
AcDbLine
 10
1128.052293811319
 20
547.0000000000002
 30
0.0
 11
1163.05229381132
 21
582.000000000001
 31
0.0
  0
LINE
  5
6322
330
1F
100
AcDbEntity
  8
HATCH
  6
Continuous
100
AcDbLine
 10
1141.522677992923
 20
547.0000000000003
 30
0.0
 11
1176.522677992924
 21
582.0000000000008
 31
0.0
  0
LINE
  5
6323
330
1F
100
AcDbEntity
  8
HATCH
  6
Continuous
100
AcDbLine
 10
1154.993062174527
 20
547.0
 30
0.0
 11
1189.993062174528
 21
582.0000000000008
 31
0.0
  0
LINE
  5
6324
330
1F
100
AcDbEntity
  8
HATCH
  6
Continuous
100
AcDbLine
 10
1168.46344635613
 20
547.0
 30
0.0
 11
1203.463446356132
 21
582.0000000000009
 31
0.0
  0
LINE
  5
6325
330
1F
100
AcDbEntity
  8
HATCH
  6
Continuous
100
AcDbLine
 10
1181.933830537734
 20
547.0000000000002
 30
0.0
 11
1216.933830537735
 21
582.0000000000006
 31
0.0
  0
LINE
  5
6326
330
1F
100
AcDbEntity
  8
HATCH
  6
Continuous
100
AcDbLine
 10
1195.404214719338
 20
547.0000000000002
 30
0.0
 11
1230.404214719339
 21
582.0000000000009
 31
0.0
  0
LINE
  5
6327
330
1F
100
AcDbEntity
  8
HATCH
  6
Continuous
100
AcDbLine
 10
1208.874598900942
 20
547.0000000000003
 30
0.0
 11
1243.874598900942
 21
582.0000000000006
 31
0.0
  0
LINE
  5
6328
330
1F
100
AcDbEntity
  8
HATCH
  6
Continuous
100
AcDbLine
 10
1222.344983082545
 20
547.0
 30
0.0
 11
1257.344983082546
 21
582.0000000000008
 31
0.0
  0
LINE
  5
6329
330
1F
100
AcDbEntity
  8
HATCH
  6
Continuous
100
AcDbLine
 10
1235.815367264149
 20
547.0
 30
0.0
 11
1270.81536726415
 21
582.0000000000009
 31
0.0
  0
LINE
  5
632A
330
1F
100
AcDbEntity
  8
HATCH
  6
Continuous
100
AcDbLine
 10
1249.285751445753
 20
547.0000000000002
 30
0.0
 11
1284.285751445753
 21
582.0000000000006
 31
0.0
  0
LINE
  5
632B
330
1F
100
AcDbEntity
  8
HATCH
  6
Continuous
100
AcDbLine
 10
1262.756135627357
 20
547.0000000000002
 30
0.0
 11
1297.756135627358
 21
582.0000000000008
 31
0.0
  0
LINE
  5
632C
330
1F
100
AcDbEntity
  8
HATCH
  6
Continuous
100
AcDbLine
 10
1276.226519808961
 20
547.0000000000002
 30
0.0
 11
1311.226519808961
 21
582.0000000000006
 31
0.0
  0
LINE
  5
632D
330
1F
100
AcDbEntity
  8
HATCH
  6
Continuous
100
AcDbLine
 10
1289.696903990564
 20
547.0000000000002
 30
0.0
 11
1324.696903990565
 21
582.0000000000006
 31
0.0
  0
LINE
  5
632E
330
1F
100
AcDbEntity
  8
HATCH
  6
Continuous
100
AcDbLine
 10
1303.167288172168
 20
547.0
 30
0.0
 11
1338.167288172169
 21
582.0000000000009
 31
0.0
  0
LINE
  5
632F
330
1F
100
AcDbEntity
  8
HATCH
  6
Continuous
100
AcDbLine
 10
1316.637672353772
 20
547.0000000000002
 30
0.0
 11
1351.637672353772
 21
582.0000000000006
 31
0.0
  0
LINE
  5
6330
330
1F
100
AcDbEntity
  8
HATCH
  6
Continuous
100
AcDbLine
 10
1330.108056535376
 20
547.0000000000003
 30
0.0
 11
1365.108056535376
 21
582.0000000000008
 31
0.0
  0
LINE
  5
6331
330
1F
100
AcDbEntity
  8
HATCH
  6
Continuous
100
AcDbLine
 10
1343.578440716979
 20
547.0000000000002
 30
0.0
 11
1378.57844071698
 21
582.0000000000006
 31
0.0
  0
LINE
  5
6332
330
1F
100
AcDbEntity
  8
HATCH
  6
Continuous
100
AcDbLine
 10
1357.048824898583
 20
547.0000000000002
 30
0.0
 11
1392.048824898583
 21
582.0000000000006
 31
0.0
  0
LINE
  5
6333
330
1F
100
AcDbEntity
  8
HATCH
  6
Continuous
100
AcDbLine
 10
1370.519209080186
 20
547.0
 30
0.0
 11
1405.519209080187
 21
582.0000000000004
 31
0.0
  0
LINE
  5
6334
330
1F
100
AcDbEntity
  8
HATCH
  6
Continuous
100
AcDbLine
 10
1383.98959326179
 20
547.0000000000002
 30
0.0
 11
1418.989593261791
 21
582.0000000000006
 31
0.0
  0
LINE
  5
6335
330
1F
100
AcDbEntity
  8
HATCH
  6
Continuous
100
AcDbLine
 10
1397.459977443394
 20
547.0000000000001
 30
0.0
 11
1432.459977443395
 21
582.0000000000008
 31
0.0
  0
LINE
  5
6336
330
1F
100
AcDbEntity
  8
HATCH
  6
Continuous
100
AcDbLine
 10
1410.930361624998
 20
547.0000000000002
 30
0.0
 11
1445.930361624998
 21
582.0000000000006
 31
0.0
  0
LINE
  5
6337
330
1F
100
AcDbEntity
  8
HATCH
  6
Continuous
100
AcDbLine
 10
1424.400745806601
 20
547.0000000000002
 30
0.0
 11
1459.400745806602
 21
582.0000000000006
 31
0.0
  0
LINE
  5
6338
330
1F
100
AcDbEntity
  8
HATCH
  6
Continuous
100
AcDbLine
 10
1437.871129988205
 20
547.0
 30
0.0
 11
1472.871129988206
 21
582.0000000000004
 31
0.0
  0
LINE
  5
6339
330
1F
100
AcDbEntity
  8
HATCH
  6
Continuous
100
AcDbLine
 10
1451.341514169809
 20
547.0
 30
0.0
 11
1486.341514169809
 21
582.0000000000004
 31
0.0
  0
LINE
  5
633A
330
1F
100
AcDbEntity
  8
HATCH
  6
Continuous
100
AcDbLine
 10
1464.811898351413
 20
547.0000000000001
 30
0.0
 11
1499.811898351413
 21
582.0000000000005
 31
0.0
  0
LINE
  5
633B
330
1F
100
AcDbEntity
  8
HATCH
  6
Continuous
100
AcDbLine
 10
1478.282282533016
 20
547.0
 30
0.0
 11
1513.282282533017
 21
582.0000000000006
 31
0.0
  0
LINE
  5
633C
330
1F
100
AcDbEntity
  8
HATCH
  6
Continuous
100
AcDbLine
 10
1491.75266671462
 20
547.0
 30
0.0
 11
1526.752666714621
 21
582.0000000000006
 31
0.0
  0
LINE
  5
633D
330
1F
100
AcDbEntity
  8
HATCH
  6
Continuous
100
AcDbLine
 10
1505.223050896224
 20
547.0
 30
0.0
 11
1540.223050896224
 21
582.0000000000004
 31
0.0
  0
LINE
  5
633E
330
1F
100
AcDbEntity
  8
HATCH
  6
Continuous
100
AcDbLine
 10
1518.693435077828
 20
547.0
 30
0.0
 11
1553.693435077828
 21
582.0000000000004
 31
0.0
  0
LINE
  5
633F
330
1F
100
AcDbEntity
  8
HATCH
  6
Continuous
100
AcDbLine
 10
1532.163819259431
 20
546.9999999999998
 30
0.0
 11
1567.163819259432
 21
582.0000000000003
 31
0.0
  0
LINE
  5
6340
330
1F
100
AcDbEntity
  8
HATCH
  6
Continuous
100
AcDbLine
 10
1545.634203441035
 20
547.0
 30
0.0
 11
1580.634203441035
 21
582.0000000000004
 31
0.0
  0
LINE
  5
6341
330
1F
100
AcDbEntity
  8
HATCH
  6
Continuous
100
AcDbLine
 10
1559.104587622639
 20
547.0
 30
0.0
 11
1594.104587622639
 21
582.0000000000006
 31
0.0
  0
LINE
  5
6342
330
1F
100
AcDbEntity
  8
HATCH
  6
Continuous
100
AcDbLine
 10
1572.574971804242
 20
546.9999999999997
 30
0.0
 11
1607.574971804243
 21
582.0000000000004
 31
0.0
  0
LINE
  5
6343
330
1F
100
AcDbEntity
  8
HATCH
  6
Continuous
100
AcDbLine
 10
1586.045355985846
 20
547.0
 30
0.0
 11
1621.045355985847
 21
582.0000000000004
 31
0.0
  0
LINE
  5
6344
330
1F
100
AcDbEntity
  8
HATCH
  6
Continuous
100
AcDbLine
 10
1599.51574016745
 20
546.9999999999998
 30
0.0
 11
1634.51574016745
 21
582.0000000000003
 31
0.0
  0
LINE
  5
6345
330
1F
100
AcDbEntity
  8
HATCH
  6
Continuous
100
AcDbLine
 10
1612.986124349054
 20
546.9999999999997
 30
0.0
 11
1647.986124349054
 21
582.0000000000002
 31
0.0
  0
LINE
  5
6346
330
1F
100
AcDbEntity
  8
HATCH
  6
Continuous
100
AcDbLine
 10
1626.456508530657
 20
547.0
 30
0.0
 11
1661.456508530658
 21
582.0000000000006
 31
0.0
  0
LINE
  5
6347
330
1F
100
AcDbEntity
  8
HATCH
  6
Continuous
100
AcDbLine
 10
1639.926892712261
 20
546.9999999999998
 30
0.0
 11
1674.926892712262
 21
582.0000000000005
 31
0.0
  0
LINE
  5
6348
330
1F
100
AcDbEntity
  8
HATCH
  6
Continuous
100
AcDbLine
 10
1653.397276893864
 20
546.9999999999997
 30
0.0
 11
1688.397276893865
 21
582.0000000000002
 31
0.0
  0
LINE
  5
6349
330
1F
100
AcDbEntity
  8
HATCH
  6
Continuous
100
AcDbLine
 10
1666.867661075469
 20
546.9999999999998
 30
0.0
 11
1701.867661075469
 21
582.0000000000003
 31
0.0
  0
LINE
  5
634A
330
1F
100
AcDbEntity
  8
HATCH
  6
Continuous
100
AcDbLine
 10
1680.338045257072
 20
546.9999999999997
 30
0.0
 11
1715.338045257072
 21
582.0000000000002
 31
0.0
  0
LINE
  5
634B
330
1F
100
AcDbEntity
  8
HATCH
  6
Continuous
100
AcDbLine
 10
1693.808429438676
 20
546.9999999999997
 30
0.0
 11
1728.808429438676
 21
582.0000000000002
 31
0.0
  0
LINE
  5
634C
330
1F
100
AcDbEntity
  8
HATCH
  6
Continuous
100
AcDbLine
 10
1707.27881362028
 20
546.9999999999998
 30
0.0
 11
1742.27881362028
 21
582.0000000000005
 31
0.0
  0
LINE
  5
634D
330
1F
100
AcDbEntity
  8
HATCH
  6
Continuous
100
AcDbLine
 10
1720.749197801883
 20
546.9999999999997
 30
0.0
 11
1755.749197801884
 21
582.0000000000002
 31
0.0
  0
LINE
  5
634E
330
1F
100
AcDbEntity
  8
HATCH
  6
Continuous
100
AcDbLine
 10
1734.219581983487
 20
546.9999999999998
 30
0.0
 11
1769.219581983487
 21
582.0000000000001
 31
0.0
  0
LINE
  5
634F
330
1F
100
AcDbEntity
  8
HATCH
  6
Continuous
100
AcDbLine
 10
1747.689966165091
 20
546.9999999999995
 30
0.0
 11
1782.689966165091
 21
582.0000000000002
 31
0.0
  0
LINE
  5
6350
330
1F
100
AcDbEntity
  8
HATCH
  6
Continuous
100
AcDbLine
 10
1761.160350346694
 20
546.9999999999997
 30
0.0
 11
1796.160350346695
 21
582.0000000000002
 31
0.0
  0
LINE
  5
6351
330
1F
100
AcDbEntity
  8
HATCH
  6
Continuous
100
AcDbLine
 10
1774.630734528298
 20
546.9999999999997
 30
0.0
 11
1809.630734528298
 21
582.0000000000001
 31
0.0
  0
LINE
  5
6352
330
1F
100
AcDbEntity
  8
HATCH
  6
Continuous
100
AcDbLine
 10
1788.101118709902
 20
546.9999999999997
 30
0.0
 11
1823.101118709902
 21
582.0000000000002
 31
0.0
  0
LINE
  5
6353
330
1F
100
AcDbEntity
  8
HATCH
  6
Continuous
100
AcDbLine
 10
1801.571502891506
 20
546.9999999999998
 30
0.0
 11
1836.571502891506
 21
582.0000000000001
 31
0.0
  0
LINE
  5
6354
330
1F
100
AcDbEntity
  8
HATCH
  6
Continuous
100
AcDbLine
 10
1815.041887073109
 20
546.9999999999997
 30
0.0
 11
1850.041887073109
 21
582.0000000000001
 31
0.0
  0
LINE
  5
6355
330
1F
100
AcDbEntity
  8
HATCH
  6
Continuous
100
AcDbLine
 10
1828.512271254713
 20
546.9999999999995
 30
0.0
 11
1863.512271254714
 21
582.0000000000002
 31
0.0
  0
LINE
  5
6356
330
1F
100
AcDbEntity
  8
HATCH
  6
Continuous
100
AcDbLine
 10
1841.982655436316
 20
546.9999999999997
 30
0.0
 11
1876.982655436318
 21
582.0000000000003
 31
0.0
  0
LINE
  5
6357
330
1F
100
AcDbEntity
  8
HATCH
  6
Continuous
100
AcDbLine
 10
1855.453039617921
 20
546.9999999999995
 30
0.0
 11
1890.453039617921
 21
582.0000000000002
 31
0.0
  0
LINE
  5
6358
330
1F
100
AcDbEntity
  8
HATCH
  6
Continuous
100
AcDbLine
 10
1868.923423799524
 20
546.9999999999997
 30
0.0
 11
1903.923423799525
 21
582.0000000000001
 31
0.0
  0
LINE
  5
6359
330
1F
100
AcDbEntity
  8
HATCH
  6
Continuous
100
AcDbLine
 10
1882.393807981127
 20
546.9999999999997
 30
0.0
 11
1917.393807981128
 21
582.0000000000001
 31
0.0
  0
LINE
  5
635A
330
1F
100
AcDbEntity
  8
HATCH
  6
Continuous
100
AcDbLine
 10
1895.864192162731
 20
546.9999999999995
 30
0.0
 11
1930.864192162732
 21
582.0
 31
0.0
  0
LINE
  5
635B
330
1F
100
AcDbEntity
  8
HATCH
  6
Continuous
100
AcDbLine
 10
1909.334576344335
 20
546.9999999999994
 30
0.0
 11
1944.334576344336
 21
582.0000000000001
 31
0.0
  0
LINE
  5
635C
330
1F
100
AcDbEntity
  8
HATCH
  6
Continuous
100
AcDbLine
 10
1922.804960525939
 20
546.9999999999995
 30
0.0
 11
1957.80496052594
 21
582.0000000000002
 31
0.0
  0
LINE
  5
635D
330
1F
100
AcDbEntity
  8
HATCH
  6
Continuous
100
AcDbLine
 10
1936.275344707543
 20
546.9999999999994
 30
0.0
 11
1971.275344707543
 21
582.0000000000001
 31
0.0
  0
LINE
  5
635E
330
1F
100
AcDbEntity
  8
HATCH
  6
Continuous
100
AcDbLine
 10
1949.745728889146
 20
546.9999999999997
 30
0.0
 11
1984.745728889147
 21
582.0000000000001
 31
0.0
  0
LINE
  5
635F
330
1F
100
AcDbEntity
  8
HATCH
  6
Continuous
100
AcDbLine
 10
1963.21611307075
 20
546.9999999999995
 30
0.0
 11
1998.216113070751
 21
582.0
 31
0.0
  0
LINE
  5
6360
330
1F
100
AcDbEntity
  8
HATCH
  6
Continuous
100
AcDbLine
 10
1976.686497252354
 20
546.9999999999994
 30
0.0
 11
2011.686497252354
 21
582.0000000000001
 31
0.0
  0
LINE
  5
6361
330
1F
100
AcDbEntity
  8
HATCH
  6
Continuous
100
AcDbLine
 10
1990.156881433957
 20
546.9999999999993
 30
0.0
 11
2025.156881433959
 21
582.0000000000002
 31
0.0
  0
LINE
  5
6362
330
1F
100
AcDbEntity
  8
HATCH
  6
Continuous
100
AcDbLine
 10
2003.627265615562
 20
546.9999999999994
 30
0.0
 11
2038.627265615562
 21
582.0000000000001
 31
0.0
  0
LINE
  5
6363
330
1F
100
AcDbEntity
  8
HATCH
  6
Continuous
100
AcDbLine
 10
2017.097649797165
 20
546.9999999999997
 30
0.0
 11
2052.097649797166
 21
582.0000000000001
 31
0.0
  0
LINE
  5
6364
330
1F
100
AcDbEntity
  8
HATCH
  6
Continuous
100
AcDbLine
 10
2030.568033978769
 20
546.9999999999995
 30
0.0
 11
2065.56803397877
 21
582.0
 31
0.0
  0
LINE
  5
6365
330
1F
100
AcDbEntity
  8
HATCH
  6
Continuous
100
AcDbLine
 10
2044.038418160373
 20
546.9999999999994
 30
0.0
 11
2079.038418160374
 21
582.0000000000003
 31
0.0
  0
LINE
  5
6366
330
1F
100
AcDbEntity
  8
HATCH
  6
Continuous
100
AcDbLine
 10
2057.508802341976
 20
546.9999999999993
 30
0.0
 11
2092.508802341977
 21
582.0000000000002
 31
0.0
  0
LINE
  5
6367
330
1F
100
AcDbEntity
  8
HATCH
  6
Continuous
100
AcDbLine
 10
2070.97918652358
 20
546.9999999999997
 30
0.0
 11
2105.979186523581
 21
582.0000000000002
 31
0.0
  0
LINE
  5
6368
330
1F
100
AcDbEntity
  8
HATCH
  6
Continuous
100
AcDbLine
 10
2084.449570705184
 20
546.9999999999997
 30
0.0
 11
2119.449570705184
 21
581.9999999999999
 31
0.0
  0
LINE
  5
6369
330
1F
100
AcDbEntity
  8
HATCH
  6
Continuous
100
AcDbLine
 10
2097.919954886787
 20
546.9999999999995
 30
0.0
 11
2132.919954886788
 21
582.0
 31
0.0
  0
LINE
  5
636A
330
1F
100
AcDbEntity
  8
HATCH
  6
Continuous
100
AcDbLine
 10
2111.390339068391
 20
546.9999999999994
 30
0.0
 11
2146.390339068392
 21
582.0000000000003
 31
0.0
  0
LINE
  5
636B
330
1F
100
AcDbEntity
  8
HATCH
  6
Continuous
100
AcDbLine
 10
2124.860723249995
 20
546.9999999999993
 30
0.0
 11
2159.860723249996
 21
582.0000000000002
 31
0.0
  0
LINE
  5
636C
330
1F
100
AcDbEntity
  8
HATCH
  6
Continuous
100
AcDbLine
 10
2138.331107431598
 20
546.9999999999993
 30
0.0
 11
2173.331107431599
 21
582.0000000000002
 31
0.0
  0
LINE
  5
636D
330
1F
100
AcDbEntity
  8
HATCH
  6
Continuous
100
AcDbLine
 10
2151.801491613202
 20
546.9999999999997
 30
0.0
 11
2186.801491613203
 21
581.9999999999999
 31
0.0
  0
LINE
  5
636E
330
1F
100
AcDbEntity
  8
HATCH
  6
Continuous
100
AcDbLine
 10
2165.271875794806
 20
546.9999999999995
 30
0.0
 11
2200.271875794807
 21
582.0
 31
0.0
  0
LINE
  5
636F
330
1F
100
AcDbEntity
  8
HATCH
  6
Continuous
100
AcDbLine
 10
2178.742259976409
 20
546.9999999999991
 30
0.0
 11
2213.742259976411
 21
582.0000000000003
 31
0.0
  0
LINE
  5
6370
330
1F
100
AcDbEntity
  8
HATCH
  6
Continuous
100
AcDbLine
 10
2192.212644158014
 20
546.9999999999993
 30
0.0
 11
2227.212644158015
 21
582.0000000000002
 31
0.0
  0
LINE
  5
6371
330
1F
100
AcDbEntity
  8
HATCH
  6
Continuous
100
AcDbLine
 10
2205.683028339617
 20
546.9999999999993
 30
0.0
 11
2240.683028339618
 21
582.0000000000002
 31
0.0
  0
LINE
  5
6372
330
1F
100
AcDbEntity
  8
HATCH
  6
Continuous
100
AcDbLine
 10
2219.153412521221
 20
546.9999999999991
 30
0.0
 11
2254.153412521222
 21
581.9999999999999
 31
0.0
  0
LINE
  5
6373
330
1F
100
AcDbEntity
  8
HATCH
  6
Continuous
100
AcDbLine
 10
2232.623796702824
 20
546.9999999999995
 30
0.0
 11
2267.623796702826
 21
582.0000000000002
 31
0.0
  0
LINE
  5
6374
330
1F
100
AcDbEntity
  8
HATCH
  6
Continuous
100
AcDbLine
 10
2246.094180884428
 20
546.9999999999991
 30
0.0
 11
2280.000000000001
 21
580.9058191155712
 31
0.0
  0
LINE
  5
6375
330
1F
100
AcDbEntity
  8
HATCH
  6
Continuous
100
AcDbLine
 10
2259.564565066032
 20
546.9999999999993
 30
0.0
 11
2280.0
 21
567.4354349339673
 31
0.0
  0
LINE
  5
6376
330
1F
100
AcDbEntity
  8
HATCH
  6
Continuous
100
AcDbLine
 10
2273.034949247636
 20
546.9999999999993
 30
0.0
 11
2280.0
 21
553.9650507523638
 31
0.0
  0
LINE
  5
6377
330
1F
100
AcDbEntity
  8
HATCH
  6
Continuous
100
AcDbLine
 10
987.6203277900886
 20
546.9999999999997
 30
0.0
 11
980.0
 21
554.6203277900883
 31
0.0
  0
LINE
  5
6378
330
1F
100
AcDbEntity
  8
HATCH
  6
Continuous
100
AcDbLine
 10
1001.090711971692
 20
547.0
 30
0.0
 11
980.0
 21
568.0907119716921
 31
0.0
  0
LINE
  5
6379
330
1F
100
AcDbEntity
  8
HATCH
  6
Continuous
100
AcDbLine
 10
1014.561096153296
 20
546.9999999999998
 30
0.0
 11
980.0
 21
581.5610961532959
 31
0.0
  0
LINE
  5
637A
330
1F
100
AcDbEntity
  8
HATCH
  6
Continuous
100
AcDbLine
 10
1028.0314803349
 20
547.0
 30
0.0
 11
993.0314803349009
 21
581.9999999999988
 31
0.0
  0
LINE
  5
637B
330
1F
100
AcDbEntity
  8
HATCH
  6
Continuous
100
AcDbLine
 10
1041.501864516503
 20
546.9999999999997
 30
0.0
 11
1006.501864516504
 21
581.9999999999988
 31
0.0
  0
LINE
  5
637C
330
1F
100
AcDbEntity
  8
HATCH
  6
Continuous
100
AcDbLine
 10
1054.972248698107
 20
546.9999999999998
 30
0.0
 11
1019.972248698108
 21
581.9999999999988
 31
0.0
  0
LINE
  5
637D
330
1F
100
AcDbEntity
  8
HATCH
  6
Continuous
100
AcDbLine
 10
1068.442632879711
 20
547.0
 30
0.0
 11
1033.442632879712
 21
581.9999999999988
 31
0.0
  0
LINE
  5
637E
330
1F
100
AcDbEntity
  8
HATCH
  6
Continuous
100
AcDbLine
 10
1081.913017061315
 20
546.9999999999998
 30
0.0
 11
1046.913017061315
 21
581.9999999999989
 31
0.0
  0
LINE
  5
637F
330
1F
100
AcDbEntity
  8
HATCH
  6
Continuous
100
AcDbLine
 10
1095.383401242918
 20
547.0
 30
0.0
 11
1060.383401242919
 21
581.9999999999989
 31
0.0
  0
LINE
  5
6380
330
1F
100
AcDbEntity
  8
HATCH
  6
Continuous
100
AcDbLine
 10
1108.853785424522
 20
546.9999999999997
 30
0.0
 11
1073.853785424523
 21
581.9999999999988
 31
0.0
  0
LINE
  5
6381
330
1F
100
AcDbEntity
  8
HATCH
  6
Continuous
100
AcDbLine
 10
1122.324169606126
 20
546.9999999999998
 30
0.0
 11
1087.324169606127
 21
581.9999999999989
 31
0.0
  0
LINE
  5
6382
330
1F
100
AcDbEntity
  8
HATCH
  6
Continuous
100
AcDbLine
 10
1135.79455378773
 20
547.0
 30
0.0
 11
1100.79455378773
 21
581.9999999999989
 31
0.0
  0
LINE
  5
6383
330
1F
100
AcDbEntity
  8
HATCH
  6
Continuous
100
AcDbLine
 10
1149.264937969333
 20
546.9999999999998
 30
0.0
 11
1114.264937969334
 21
581.9999999999991
 31
0.0
  0
LINE
  5
6384
330
1F
100
AcDbEntity
  8
HATCH
  6
Continuous
100
AcDbLine
 10
1162.735322150937
 20
546.9999999999997
 30
0.0
 11
1127.735322150938
 21
581.9999999999989
 31
0.0
  0
LINE
  5
6385
330
1F
100
AcDbEntity
  8
HATCH
  6
Continuous
100
AcDbLine
 10
1176.205706332541
 20
546.9999999999997
 30
0.0
 11
1141.205706332542
 21
581.9999999999989
 31
0.0
  0
LINE
  5
6386
330
1F
100
AcDbEntity
  8
HATCH
  6
Continuous
100
AcDbLine
 10
1189.676090514145
 20
546.9999999999997
 30
0.0
 11
1154.676090514145
 21
581.9999999999991
 31
0.0
  0
LINE
  5
6387
330
1F
100
AcDbEntity
  8
HATCH
  6
Continuous
100
AcDbLine
 10
1203.146474695748
 20
547.0
 30
0.0
 11
1168.146474695749
 21
581.9999999999991
 31
0.0
  0
LINE
  5
6388
330
1F
100
AcDbEntity
  8
HATCH
  6
Continuous
100
AcDbLine
 10
1216.616858877352
 20
546.9999999999998
 30
0.0
 11
1181.616858877353
 21
581.9999999999991
 31
0.0
  0
LINE
  5
6389
330
1F
100
AcDbEntity
  8
HATCH
  6
Continuous
100
AcDbLine
 10
1230.087243058956
 20
546.9999999999997
 30
0.0
 11
1195.087243058956
 21
581.9999999999991
 31
0.0
  0
LINE
  5
638A
330
1F
100
AcDbEntity
  8
HATCH
  6
Continuous
100
AcDbLine
 10
1243.557627240559
 20
546.9999999999997
 30
0.0
 11
1208.55762724056
 21
581.9999999999991
 31
0.0
  0
LINE
  5
638B
330
1F
100
AcDbEntity
  8
HATCH
  6
Continuous
100
AcDbLine
 10
1257.028011422163
 20
546.9999999999997
 30
0.0
 11
1222.028011422164
 21
581.9999999999991
 31
0.0
  0
LINE
  5
638C
330
1F
100
AcDbEntity
  8
HATCH
  6
Continuous
100
AcDbLine
 10
1270.498395603767
 20
546.9999999999997
 30
0.0
 11
1235.498395603767
 21
581.9999999999992
 31
0.0
  0
LINE
  5
638D
330
1F
100
AcDbEntity
  8
HATCH
  6
Continuous
100
AcDbLine
 10
1283.96877978537
 20
546.9999999999998
 30
0.0
 11
1248.968779785371
 21
581.9999999999992
 31
0.0
  0
LINE
  5
638E
330
1F
100
AcDbEntity
  8
HATCH
  6
Continuous
100
AcDbLine
 10
1297.439163966974
 20
546.9999999999997
 30
0.0
 11
1262.439163966975
 21
581.9999999999991
 31
0.0
  0
LINE
  5
638F
330
1F
100
AcDbEntity
  8
HATCH
  6
Continuous
100
AcDbLine
 10
1310.909548148578
 20
546.9999999999998
 30
0.0
 11
1275.909548148579
 21
581.9999999999993
 31
0.0
  0
LINE
  5
6390
330
1F
100
AcDbEntity
  8
HATCH
  6
Continuous
100
AcDbLine
 10
1324.379932330182
 20
546.9999999999998
 30
0.0
 11
1289.379932330182
 21
581.9999999999992
 31
0.0
  0
LINE
  5
6391
330
1F
100
AcDbEntity
  8
HATCH
  6
Continuous
100
AcDbLine
 10
1337.850316511785
 20
546.9999999999997
 30
0.0
 11
1302.850316511786
 21
581.9999999999991
 31
0.0
  0
LINE
  5
6392
330
1F
100
AcDbEntity
  8
HATCH
  6
Continuous
100
AcDbLine
 10
1351.320700693389
 20
546.9999999999998
 30
0.0
 11
1316.32070069339
 21
581.9999999999993
 31
0.0
  0
LINE
  5
6393
330
1F
100
AcDbEntity
  8
HATCH
  6
Continuous
100
AcDbLine
 10
1364.791084874993
 20
546.9999999999998
 30
0.0
 11
1329.791084874993
 21
581.9999999999992
 31
0.0
  0
LINE
  5
6394
330
1F
100
AcDbEntity
  8
HATCH
  6
Continuous
100
AcDbLine
 10
1378.261469056596
 20
546.9999999999997
 30
0.0
 11
1343.261469056597
 21
581.9999999999991
 31
0.0
  0
LINE
  5
6395
330
1F
100
AcDbEntity
  8
HATCH
  6
Continuous
100
AcDbLine
 10
1391.7318532382
 20
546.9999999999998
 30
0.0
 11
1356.731853238201
 21
581.9999999999993
 31
0.0
  0
LINE
  5
6396
330
1F
100
AcDbEntity
  8
HATCH
  6
Continuous
100
AcDbLine
 10
1405.202237419804
 20
546.9999999999998
 30
0.0
 11
1370.202237419805
 21
581.9999999999992
 31
0.0
  0
LINE
  5
6397
330
1F
100
AcDbEntity
  8
HATCH
  6
Continuous
100
AcDbLine
 10
1418.672621601407
 20
547.0
 30
0.0
 11
1383.672621601408
 21
581.9999999999993
 31
0.0
  0
LINE
  5
6398
330
1F
100
AcDbEntity
  8
HATCH
  6
Continuous
100
AcDbLine
 10
1432.143005783012
 20
546.9999999999998
 30
0.0
 11
1397.143005783012
 21
581.9999999999993
 31
0.0
  0
LINE
  5
6399
330
1F
100
AcDbEntity
  8
HATCH
  6
Continuous
100
AcDbLine
 10
1445.613389964615
 20
546.9999999999998
 30
0.0
 11
1410.613389964616
 21
581.9999999999992
 31
0.0
  0
LINE
  5
639A
330
1F
100
AcDbEntity
  8
HATCH
  6
Continuous
100
AcDbLine
 10
1459.083774146219
 20
547.0
 30
0.0
 11
1424.08377414622
 21
581.9999999999993
 31
0.0
  0
LINE
  5
639B
330
1F
100
AcDbEntity
  8
HATCH
  6
Continuous
100
AcDbLine
 10
1472.554158327822
 20
547.0
 30
0.0
 11
1437.554158327823
 21
581.9999999999993
 31
0.0
  0
LINE
  5
639C
330
1F
100
AcDbEntity
  8
HATCH
  6
Continuous
100
AcDbLine
 10
1486.024542509426
 20
547.0000000000002
 30
0.0
 11
1451.024542509427
 21
581.9999999999993
 31
0.0
  0
LINE
  5
639D
330
1F
100
AcDbEntity
  8
HATCH
  6
Continuous
100
AcDbLine
 10
1499.49492669103
 20
547.0
 30
0.0
 11
1464.49492669103
 21
581.9999999999993
 31
0.0
  0
LINE
  5
639E
330
1F
100
AcDbEntity
  8
HATCH
  6
Continuous
100
AcDbLine
 10
1512.965310872634
 20
546.9999999999998
 30
0.0
 11
1477.965310872634
 21
581.9999999999992
 31
0.0
  0
LINE
  5
639F
330
1F
100
AcDbEntity
  8
HATCH
  6
Continuous
100
AcDbLine
 10
1526.435695054237
 20
547.0000000000001
 30
0.0
 11
1491.435695054238
 21
581.9999999999995
 31
0.0
  0
LINE
  5
63A0
330
1F
100
AcDbEntity
  8
HATCH
  6
Continuous
100
AcDbLine
 10
1539.906079235841
 20
547.0
 30
0.0
 11
1504.906079235842
 21
581.9999999999993
 31
0.0
  0
LINE
  5
63A1
330
1F
100
AcDbEntity
  8
HATCH
  6
Continuous
100
AcDbLine
 10
1553.376463417445
 20
547.0000000000002
 30
0.0
 11
1518.376463417445
 21
581.9999999999995
 31
0.0
  0
LINE
  5
63A2
330
1F
100
AcDbEntity
  8
HATCH
  6
Continuous
100
AcDbLine
 10
1566.846847599048
 20
547.0000000000002
 30
0.0
 11
1531.846847599049
 21
581.9999999999993
 31
0.0
  0
LINE
  5
63A3
330
1F
100
AcDbEntity
  8
HATCH
  6
Continuous
100
AcDbLine
 10
1580.317231780652
 20
547.0
 30
0.0
 11
1545.317231780653
 21
581.9999999999993
 31
0.0
  0
LINE
  5
63A4
330
1F
100
AcDbEntity
  8
HATCH
  6
Continuous
100
AcDbLine
 10
1593.787615962256
 20
547.0000000000001
 30
0.0
 11
1558.787615962257
 21
581.9999999999995
 31
0.0
  0
LINE
  5
63A5
330
1F
100
AcDbEntity
  8
HATCH
  6
Continuous
100
AcDbLine
 10
1607.25800014386
 20
547.0000000000002
 30
0.0
 11
1572.25800014386
 21
581.9999999999995
 31
0.0
  0
LINE
  5
63A6
330
1F
100
AcDbEntity
  8
HATCH
  6
Continuous
100
AcDbLine
 10
1620.728384325463
 20
547.0000000000002
 30
0.0
 11
1585.728384325464
 21
581.9999999999995
 31
0.0
  0
LINE
  5
63A7
330
1F
100
AcDbEntity
  8
HATCH
  6
Continuous
100
AcDbLine
 10
1634.198768507067
 20
547.0000000000002
 30
0.0
 11
1599.198768507068
 21
581.9999999999995
 31
0.0
  0
LINE
  5
63A8
330
1F
100
AcDbEntity
  8
HATCH
  6
Continuous
100
AcDbLine
 10
1647.669152688671
 20
547.0000000000002
 30
0.0
 11
1612.669152688672
 21
581.9999999999995
 31
0.0
  0
LINE
  5
63A9
330
1F
100
AcDbEntity
  8
HATCH
  6
Continuous
100
AcDbLine
 10
1661.139536870274
 20
547.0000000000002
 30
0.0
 11
1626.139536870275
 21
581.9999999999995
 31
0.0
  0
LINE
  5
63AA
330
1F
100
AcDbEntity
  8
HATCH
  6
Continuous
100
AcDbLine
 10
1674.609921051878
 20
547.0000000000002
 30
0.0
 11
1639.609921051879
 21
581.9999999999995
 31
0.0
  0
LINE
  5
63AB
330
1F
100
AcDbEntity
  8
HATCH
  6
Continuous
100
AcDbLine
 10
1688.080305233482
 20
547.0000000000002
 30
0.0
 11
1653.080305233483
 21
581.9999999999995
 31
0.0
  0
LINE
  5
63AC
330
1F
100
AcDbEntity
  8
HATCH
  6
Continuous
100
AcDbLine
 10
1701.550689415086
 20
547.0000000000002
 30
0.0
 11
1666.550689415086
 21
581.9999999999995
 31
0.0
  0
LINE
  5
63AD
330
1F
100
AcDbEntity
  8
HATCH
  6
Continuous
100
AcDbLine
 10
1715.021073596689
 20
547.0000000000002
 30
0.0
 11
1680.02107359669
 21
581.9999999999995
 31
0.0
  0
LINE
  5
63AE
330
1F
100
AcDbEntity
  8
HATCH
  6
Continuous
100
AcDbLine
 10
1728.491457778293
 20
547.0000000000005
 30
0.0
 11
1693.491457778294
 21
581.9999999999997
 31
0.0
  0
LINE
  5
63AF
330
1F
100
AcDbEntity
  8
HATCH
  6
Continuous
100
AcDbLine
 10
1741.961841959897
 20
547.0000000000003
 30
0.0
 11
1706.961841959898
 21
581.9999999999995
 31
0.0
  0
LINE
  5
63B0
330
1F
100
AcDbEntity
  8
HATCH
  6
Continuous
100
AcDbLine
 10
1755.4322261415
 20
547.0000000000001
 30
0.0
 11
1720.432226141501
 21
581.9999999999995
 31
0.0
  0
LINE
  5
63B1
330
1F
100
AcDbEntity
  8
HATCH
  6
Continuous
100
AcDbLine
 10
1768.902610323104
 20
547.0000000000003
 30
0.0
 11
1733.902610323105
 21
581.9999999999997
 31
0.0
  0
LINE
  5
63B2
330
1F
100
AcDbEntity
  8
HATCH
  6
Continuous
100
AcDbLine
 10
1782.372994504708
 20
547.0000000000002
 30
0.0
 11
1747.372994504709
 21
581.9999999999995
 31
0.0
  0
LINE
  5
63B3
330
1F
100
AcDbEntity
  8
HATCH
  6
Continuous
100
AcDbLine
 10
1795.843378686311
 20
547.0000000000005
 30
0.0
 11
1760.843378686312
 21
581.9999999999997
 31
0.0
  0
LINE
  5
63B4
330
1F
100
AcDbEntity
  8
HATCH
  6
Continuous
100
AcDbLine
 10
1809.313762867915
 20
547.0000000000005
 30
0.0
 11
1774.313762867916
 21
581.9999999999997
 31
0.0
  0
LINE
  5
63B5
330
1F
100
AcDbEntity
  8
HATCH
  6
Continuous
100
AcDbLine
 10
1822.784147049519
 20
547.0000000000003
 30
0.0
 11
1787.78414704952
 21
581.9999999999996
 31
0.0
  0
LINE
  5
63B6
330
1F
100
AcDbEntity
  8
HATCH
  6
Continuous
100
AcDbLine
 10
1836.254531231123
 20
547.0000000000003
 30
0.0
 11
1801.254531231124
 21
581.9999999999996
 31
0.0
  0
LINE
  5
63B7
330
1F
100
AcDbEntity
  8
HATCH
  6
Continuous
100
AcDbLine
 10
1849.724915412727
 20
547.0000000000003
 30
0.0
 11
1814.724915412727
 21
581.9999999999996
 31
0.0
  0
LINE
  5
63B8
330
1F
100
AcDbEntity
  8
HATCH
  6
Continuous
100
AcDbLine
 10
1863.19529959433
 20
547.0000000000005
 30
0.0
 11
1828.195299594331
 21
581.9999999999999
 31
0.0
  0
LINE
  5
63B9
330
1F
100
AcDbEntity
  8
HATCH
  6
Continuous
100
AcDbLine
 10
1876.665683775934
 20
547.0000000000005
 30
0.0
 11
1841.665683775935
 21
581.9999999999997
 31
0.0
  0
LINE
  5
63BA
330
1F
100
AcDbEntity
  8
HATCH
  6
Continuous
100
AcDbLine
 10
1890.136067957538
 20
547.0000000000003
 30
0.0
 11
1855.136067957538
 21
581.9999999999997
 31
0.0
  0
LINE
  5
63BB
330
1F
100
AcDbEntity
  8
HATCH
  6
Continuous
100
AcDbLine
 10
1903.606452139142
 20
547.0000000000005
 30
0.0
 11
1868.606452139142
 21
581.9999999999999
 31
0.0
  0
LINE
  5
63BC
330
1F
100
AcDbEntity
  8
HATCH
  6
Continuous
100
AcDbLine
 10
1917.076836320745
 20
547.0000000000003
 30
0.0
 11
1882.076836320746
 21
581.9999999999996
 31
0.0
  0
LINE
  5
63BD
330
1F
100
AcDbEntity
  8
HATCH
  6
Continuous
100
AcDbLine
 10
1930.547220502349
 20
547.0000000000005
 30
0.0
 11
1895.54722050235
 21
581.9999999999999
 31
0.0
  0
LINE
  5
63BE
330
1F
100
AcDbEntity
  8
HATCH
  6
Continuous
100
AcDbLine
 10
1944.017604683953
 20
547.0000000000005
 30
0.0
 11
1909.017604683953
 21
582.0
 31
0.0
  0
LINE
  5
63BF
330
1F
100
AcDbEntity
  8
HATCH
  6
Continuous
100
AcDbLine
 10
1957.487988865556
 20
547.0000000000003
 30
0.0
 11
1922.487988865557
 21
581.9999999999997
 31
0.0
  0
LINE
  5
63C0
330
1F
100
AcDbEntity
  8
HATCH
  6
Continuous
100
AcDbLine
 10
1970.95837304716
 20
547.0000000000005
 30
0.0
 11
1935.95837304716
 21
582.0
 31
0.0
  0
LINE
  5
63C1
330
1F
100
AcDbEntity
  8
HATCH
  6
Continuous
100
AcDbLine
 10
1984.428757228764
 20
547.0000000000005
 30
0.0
 11
1949.428757228764
 21
581.9999999999999
 31
0.0
  0
LINE
  5
63C2
330
1F
100
AcDbEntity
  8
HATCH
  6
Continuous
100
AcDbLine
 10
1997.899141410367
 20
547.0000000000003
 30
0.0
 11
1962.899141410368
 21
581.9999999999996
 31
0.0
  0
LINE
  5
63C3
330
1F
100
AcDbEntity
  8
HATCH
  6
Continuous
100
AcDbLine
 10
2011.369525591971
 20
547.0000000000007
 30
0.0
 11
1976.369525591972
 21
582.0
 31
0.0
  0
LINE
  5
63C4
330
1F
100
AcDbEntity
  8
HATCH
  6
Continuous
100
AcDbLine
 10
2024.839909773575
 20
547.0000000000005
 30
0.0
 11
1989.839909773575
 21
581.9999999999997
 31
0.0
  0
LINE
  5
63C5
330
1F
100
AcDbEntity
  8
HATCH
  6
Continuous
100
AcDbLine
 10
2038.310293955179
 20
547.0000000000006
 30
0.0
 11
2003.310293955179
 21
582.0
 31
0.0
  0
LINE
  5
63C6
330
1F
100
AcDbEntity
  8
HATCH
  6
Continuous
100
AcDbLine
 10
2051.780678136783
 20
547.0000000000005
 30
0.0
 11
2016.780678136783
 21
581.9999999999999
 31
0.0
  0
LINE
  5
63C7
330
1F
100
AcDbEntity
  8
HATCH
  6
Continuous
100
AcDbLine
 10
2065.251062318386
 20
547.0000000000005
 30
0.0
 11
2030.251062318387
 21
581.9999999999996
 31
0.0
  0
LINE
  5
63C8
330
1F
100
AcDbEntity
  8
HATCH
  6
Continuous
100
AcDbLine
 10
2078.72144649999
 20
547.0000000000007
 30
0.0
 11
2043.721446499991
 21
582.0
 31
0.0
  0
LINE
  5
63C9
330
1F
100
AcDbEntity
  8
HATCH
  6
Continuous
100
AcDbLine
 10
2092.191830681593
 20
547.0000000000007
 30
0.0
 11
2057.191830681594
 21
582.0
 31
0.0
  0
LINE
  5
63CA
330
1F
100
AcDbEntity
  8
HATCH
  6
Continuous
100
AcDbLine
 10
2105.662214863198
 20
547.0000000000005
 30
0.0
 11
2070.662214863198
 21
582.0000000000002
 31
0.0
  0
LINE
  5
63CB
330
1F
100
AcDbEntity
  8
HATCH
  6
Continuous
100
AcDbLine
 10
2119.132599044801
 20
547.0000000000005
 30
0.0
 11
2084.132599044802
 21
581.9999999999996
 31
0.0
  0
LINE
  5
63CC
330
1F
100
AcDbEntity
  8
HATCH
  6
Continuous
100
AcDbLine
 10
2132.602983226405
 20
547.0000000000005
 30
0.0
 11
2097.602983226406
 21
581.9999999999996
 31
0.0
  0
LINE
  5
63CD
330
1F
100
AcDbEntity
  8
HATCH
  6
Continuous
100
AcDbLine
 10
2146.073367408009
 20
547.0000000000007
 30
0.0
 11
2111.073367408009
 21
582.0
 31
0.0
  0
LINE
  5
63CE
330
1F
100
AcDbEntity
  8
HATCH
  6
Continuous
100
AcDbLine
 10
2159.543751589612
 20
547.0000000000007
 30
0.0
 11
2124.543751589613
 21
582.0
 31
0.0
  0
LINE
  5
63CF
330
1F
100
AcDbEntity
  8
HATCH
  6
Continuous
100
AcDbLine
 10
2173.014135771216
 20
547.000000000001
 30
0.0
 11
2138.014135771217
 21
582.0000000000002
 31
0.0
  0
LINE
  5
63D0
330
1F
100
AcDbEntity
  8
HATCH
  6
Continuous
100
AcDbLine
 10
2186.48451995282
 20
547.0000000000005
 30
0.0
 11
2151.484519952821
 21
581.9999999999996
 31
0.0
  0
LINE
  5
63D1
330
1F
100
AcDbEntity
  8
HATCH
  6
Continuous
100
AcDbLine
 10
2199.954904134424
 20
547.0000000000005
 30
0.0
 11
2164.954904134424
 21
581.9999999999996
 31
0.0
  0
LINE
  5
63D2
330
1F
100
AcDbEntity
  8
HATCH
  6
Continuous
100
AcDbLine
 10
2213.425288316027
 20
547.0000000000007
 30
0.0
 11
2178.425288316028
 21
582.0
 31
0.0
  0
LINE
  5
63D3
330
1F
100
AcDbEntity
  8
HATCH
  6
Continuous
100
AcDbLine
 10
2226.895672497631
 20
547.0000000000007
 30
0.0
 11
2191.895672497631
 21
582.0
 31
0.0
  0
LINE
  5
63D4
330
1F
100
AcDbEntity
  8
HATCH
  6
Continuous
100
AcDbLine
 10
2240.366056679234
 20
547.000000000001
 30
0.0
 11
2205.366056679235
 21
582.0000000000002
 31
0.0
  0
LINE
  5
63D5
330
1F
100
AcDbEntity
  8
HATCH
  6
Continuous
100
AcDbLine
 10
2253.836440860838
 20
547.000000000001
 30
0.0
 11
2218.83644086084
 21
581.9999999999996
 31
0.0
  0
LINE
  5
63D6
330
1F
100
AcDbEntity
  8
HATCH
  6
Continuous
100
AcDbLine
 10
2267.306825042442
 20
547.0000000000005
 30
0.0
 11
2232.306825042443
 21
581.9999999999996
 31
0.0
  0
LINE
  5
63D7
330
1F
100
AcDbEntity
  8
HATCH
  6
Continuous
100
AcDbLine
 10
2280.0
 20
547.7772092240465
 30
0.0
 11
2245.777209224047
 21
582.0
 31
0.0
  0
LINE
  5
63D8
330
1F
100
AcDbEntity
  8
HATCH
  6
Continuous
100
AcDbLine
 10
2280.0
 20
561.2475934056501
 30
0.0
 11
2259.24759340565
 21
582.0
 31
0.0
  0
LINE
  5
63D9
330
1F
100
AcDbEntity
  8
HATCH
  6
Continuous
100
AcDbLine
 10
2280.0
 20
574.7179775872537
 30
0.0
 11
2272.717977587254
 21
582.0
 31
0.0
  0
LINE
  5
63DA
330
1F
100
AcDbEntity
  8
BOUSUI
100
AcDbLine
 10
2280.0
 20
599.5
 30
0.0
 11
1033.639610306789
 21
599.5
 31
0.0
  0
LINE
  5
63DB
330
1F
100
AcDbEntity
  8
BOUSUI
100
AcDbLine
 10
1033.639610306789
 20
599.5
 30
0.0
 11
1033.639610306789
 21
592.0
 31
0.0
  0
LINE
  5
63DC
330
1F
100
AcDbEntity
  8
HATCH
  6
Continuous
100
AcDbLine
 10
985.5608749921877
 20
845.758313781496
 30
0.0
 11
992.6192900299268
 21
852.8167288192351
 31
0.0
  0
LINE
  5
63DD
330
1F
100
AcDbEntity
  8
HATCH
  6
Continuous
100
AcDbLine
 10
987.6939650594895
 20
843.401275788263
 30
0.0
 11
1003.243047087397
 21
858.9503578161711
 31
0.0
  0
LINE
  5
63DE
330
1F
100
AcDbEntity
  8
HATCH
  6
Continuous
100
AcDbLine
 10
989.8270551267909
 20
841.04423779503
 30
0.0
 11
990.9525178626157
 21
842.1697005308548
 31
0.0
  0
LINE
  5
63DF
330
1F
100
AcDbEntity
  8
HATCH
  6
Continuous
100
AcDbLine
 10
995.3962218100896
 20
846.6134044783284
 30
0.0
 11
1004.511781487158
 21
855.7289641553968
 31
0.0
  0
LINE
  5
63E0
330
1F
100
AcDbEntity
  8
HATCH
  6
Continuous
100
AcDbLine
 10
990.5503026545371
 20
841.6356597990729
 30
0.0
 11
984.2190908767234
 21
847.9668715768864
 31
0.0
  0
LINE
  5
63E1
330
1F
100
AcDbEntity
  8
HATCH
  6
Continuous
100
AcDbLine
 10
992.5943948835429
 20
844.0816956306017
 30
0.0
 11
987.0657180008571
 21
849.6103725132876
 31
0.0
  0
LINE
  5
63E2
330
1F
100
AcDbEntity
  8
HATCH
  6
Continuous
100
AcDbLine
 10
994.926057270451
 20
846.2401613042283
 30
0.0
 11
989.9123451249908
 21
851.2538734496885
 31
0.0
  0
LINE
  5
63E3
330
1F
100
AcDbEntity
  8
HATCH
  6
Continuous
100
AcDbLine
 10
997.5496466620297
 20
848.106699973184
 30
0.0
 11
992.7589722491243
 21
852.8973743860897
 31
0.0
  0
LINE
  5
63E4
330
1F
100
AcDbEntity
  8
HATCH
  6
Continuous
100
AcDbLine
 10
1000.485297161973
 20
849.6611775337752
 30
0.0
 11
995.6055993732578
 21
854.5408753224906
 31
0.0
  0
LINE
  5
63E5
330
1F
100
AcDbEntity
  8
HATCH
  6
Continuous
100
AcDbLine
 10
1003.774905408155
 20
850.8616973481277
 30
0.0
 11
998.4522264973914
 21
856.1843762588916
 31
0.0
  0
LINE
  5
63E6
330
1F
100
AcDbEntity
  8
HATCH
  6
Continuous
100
AcDbLine
 10
1004.511781487157
 20
854.6149493296603
 30
0.0
 11
1001.298853621525
 21
857.8278771952927
 31
0.0
  0
LINE
  5
63E7
330
1F
100
AcDbEntity
  8
HATCH
  6
Continuous
100
AcDbLine
 10
1004.511781487157
 20
859.1050773901946
 30
0.0
 11
1004.145480745658
 21
859.4713781316938
 31
0.0
  0
LINE
  5
63E8
330
1F
100
AcDbEntity
  8
WAKU
100
AcDbLine
 10
2760.000000000001
 20
1790.0
 30
0.0
 11
0.0
 21
1790.0
 31
0.0
  0
LINE
  5
63E9
330
1F
100
AcDbEntity
  8
WAKU
100
AcDbLine
 10
0.0
 20
1790.0
 30
0.0
 11
0.0
 21
1910.0
 31
0.0
  0
LINE
  5
63EA
330
1F
100
AcDbEntity
  8
WAKU
100
AcDbLine
 10
0.0
 20
1910.0
 30
0.0
 11
2760.000000000001
 21
1910.0
 31
0.0
  0
LINE
  5
63EB
330
1F
100
AcDbEntity
  8
WAKU
100
AcDbLine
 10
2760.000000000001
 20
1910.0
 30
0.0
 11
2760.000000000001
 21
1790.0
 31
0.0
  0
LINE
  5
63EC
330
1F
100
AcDbEntity
  8
WAKU
100
AcDbLine
 10
0.0
 20
0.0
 30
0.0
 11
2760.000000000001
 21
0.0
 31
0.0
  0
LINE
  5
63ED
330
1F
100
AcDbEntity
  8
WAKU
100
AcDbLine
 10
2760.000000000001
 20
0.0
 30
0.0
 11
2760.000000000001
 21
1910.0
 31
0.0
  0
LINE
  5
63EE
330
1F
100
AcDbEntity
  8
WAKU
100
AcDbLine
 10
2760.000000000001
 20
1910.0
 30
0.0
 11
0.0
 21
1910.0
 31
0.0
  0
LINE
  5
63EF
330
1F
100
AcDbEntity
  8
WAKU
100
AcDbLine
 10
0.0
 20
1910.0
 30
0.0
 11
0.0
 21
0.0
 31
0.0
  0
ENDSEC
  0
SECTION
  2
OBJECTS
  0
DICTIONARY
  5
C
330
0
100
AcDbDictionary
281
     1
  3
ACAD_CIP_PREVIOUS_PRODUCT_INFO
350
5656
  3
ACAD_COLOR
350
5524
  3
ACAD_DETAILVIEWSTYLE
350
5651
  3
ACAD_GROUP
350
D
  3
ACAD_LAYOUT
350
1A
  3
ACAD_MATERIAL
350
54F7
  3
ACAD_MLEADERSTYLE
350
5539
  3
ACAD_MLINESTYLE
350
17
  3
ACAD_PLOTSETTINGS
350
19
  3
ACAD_PLOTSTYLENAME
350
E
  3
ACAD_SCALELIST
350
5527
  3
ACAD_SECTIONVIEWSTYLE
350
564F
  3
ACAD_TABLESTYLE
350
5525
  3
ACAD_VISUALSTYLE
350
5510
  3
ACDB_RECOMPOSE_DATA
350
63F2
  3
AcDbVariableDictionary
350
1835
  3
AEC_PROPERTY_SET_DEFS
350
554D
  3
DWGPROPS
350
63F3
  0
DICTIONARY
  5
556D
330
8
100
AcDbDictionary
280
     1
281
     1
  0
DICTIONARY
  5
2D
330
2
100
AcDbDictionary
280
     1
281
     1
  3
ACAD_LAYERFILTERS
360
2E
  3
ACAD_LAYERSTATES
360
918
  0
DICTIONARY
  5
5559
330
10
100
AcDbDictionary
280
     1
281
     1
  3
ADSK_XREC_LAYER_RECONCILED
360
555A
  0
DICTIONARY
  5
555B
330
2294
100
AcDbDictionary
280
     1
281
     1
  3
ADSK_XREC_LAYER_RECONCILED
360
555C
  0
DICTIONARY
  5
555D
330
235F
100
AcDbDictionary
280
     1
281
     1
  3
ADSK_XREC_LAYER_RECONCILED
360
555E
  0
DICTIONARY
  5
555F
330
2360
100
AcDbDictionary
280
     1
281
     1
  3
ADSK_XREC_LAYER_RECONCILED
360
5560
  0
DICTIONARY
  5
5561
330
2361
100
AcDbDictionary
280
     1
281
     1
  3
ADSK_XREC_LAYER_RECONCILED
360
5562
  0
DICTIONARY
  5
5563
330
2363
100
AcDbDictionary
280
     1
281
     1
  3
ADSK_XREC_LAYER_RECONCILED
360
5564
  0
DICTIONARY
  5
5565
330
2501
100
AcDbDictionary
280
     1
281
     1
  3
ADSK_XREC_LAYER_RECONCILED
360
5566
  0
DICTIONARY
  5
5567
330
3EDC
100
AcDbDictionary
280
     1
281
     1
  3
ADSK_XREC_LAYER_RECONCILED
360
5568
  0
DICTIONARY
  5
56A3
330
56A2
100
AcDbDictionary
280
     1
281
     1
  0
DICTIONARY
  5
1C62
330
1F
100
AcDbDictionary
280
     1
281
     1
  3
ACAD_SORTENTS
360
1C63
  0
XRECORD
  5
5656
102
{ACAD_REACTORS
330
C
102
}
330
C
100
AcDbXrecord
280
     1
300
ACD
300
2022
300

  0
DICTIONARY
  5
5524
102
{ACAD_REACTORS
330
C
102
}
330
C
100
AcDbDictionary
281
     1
  0
DICTIONARY
  5
5651
102
{ACAD_REACTORS
330
C
102
}
330
C
100
AcDbDictionary
281
     1
  3
Metric50
350
5652
  0
DICTIONARY
  5
D
102
{ACAD_REACTORS
330
C
102
}
330
C
100
AcDbDictionary
281
     1
  0
DICTIONARY
  5
1A
102
{ACAD_REACTORS
330
C
102
}
330
C
100
AcDbDictionary
281
     1
  3
Model
350
22
  3
\U+FF9A\U+FF72\U+FF71\U+FF73\U+FF841
350
1CD1
  0
DICTIONARY
  5
54F7
102
{ACAD_REACTORS
330
C
102
}
330
C
100
AcDbDictionary
281
     1
  3
ByBlock
350
5500
  3
ByLayer
350
54F8
  3
Global
350
5508
  0
DICTIONARY
  5
5539
102
{ACAD_REACTORS
330
C
102
}
330
C
100
AcDbDictionary
281
     1
  3
Standard
350
553A
  0
DICTIONARY
  5
17
102
{ACAD_REACTORS
330
C
102
}
330
C
100
AcDbDictionary
281
     1
  3
Standard
350
18
  0
DICTIONARY
  5
19
102
{ACAD_REACTORS
330
C
102
}
330
C
100
AcDbDictionary
281
     1
  0
ACDBDICTIONARYWDFLT
  5
E
102
{ACAD_REACTORS
330
C
102
}
330
C
100
AcDbDictionary
281
     1
  3
Normal
350
F
  3
通常
350
29
100
AcDbDictionaryWithDefault
340
F
  0
DICTIONARY
  5
5527
102
{ACAD_REACTORS
330
C
102
}
330
C
100
AcDbDictionary
281
     1
  3
A0
350
5528
  3
A1
350
5529
  3
A2
350
552A
  3
A3
350
552B
  3
A4
350
552C
  3
A5
350
552D
  3
A6
350
552E
  3
A7
350
552F
  3
A8
350
5530
  3
A9
350
5531
  3
B0
350
5532
  3
B1
350
5533
  3
B2
350
5534
  3
B3
350
5535
  3
B4
350
5536
  3
B5
350
5537
  3
B6
350
5538
  0
DICTIONARY
  5
564F
102
{ACAD_REACTORS
330
C
102
}
330
C
100
AcDbDictionary
281
     1
  3
Metric50
350
5650
  0
DICTIONARY
  5
5525
102
{ACAD_REACTORS
330
C
102
}
330
C
100
AcDbDictionary
281
     1
  3
Standard
350
5526
  0
DICTIONARY
  5
5510
102
{ACAD_REACTORS
330
C
102
}
330
C
100
AcDbDictionary
281
     1
  3
2dWireframe
350
5516
  3
3D Hidden
350
5518
  3
3dWireframe
350
5517
  3
Basic
350
5515
  3
Brighten
350
551C
  3
ColorChange
350
5520
  3
Conceptual
350
5519
  3
Dim
350
551B
  3
EdgeColorOff
350
5523
  3
Facepattern
350
551F
  3
Flat
350
5511
  3
FlatWithEdges
350
5512
  3
Gouraud
350
5513
  3
GouraudWithEdges
350
5514
  3
Hidden
350
5649
  3
JitterOff
350
5521
  3
Linepattern
350
551E
  3
OverhangOff
350
5522
  3
Realistic
350
551A
  3
Shaded
350
564E
  3
Shaded with edges
350
564D
  3
Shades of Gray
350
564A
  3
Sketchy
350
564B
  3
Thicken
350
551D
  3
Wireframe
350
5648
  3
X-Ray
350
564C
  0
XRECORD
  5
63F2
102
{ACAD_REACTORS
330
C
102
}
330
C
100
AcDbXrecord
280
     1
 90
        1
330
5526
  0
DICTIONARY
  5
1835
102
{ACAD_REACTORS
330
C
102
}
330
C
100
AcDbDictionary
281
     1
  3
CANNOSCALE
350
55A0
  3
CMLEADERSTYLE
350
559F
  3
CTABLESTYLE
350
559E
  3
CVIEWDETAILSTYLE
350
569B
  3
CVIEWSECTIONSTYLE
350
569C
  3
DIMASSOC
350
55A2
  3
INDEXCTL
350
55A1
  3
SORTENTS
350
1836
  3
XCLIPFRAME
350
63F0
  0
DICTIONARY
  5
554D
102
{ACAD_REACTORS
330
C
102
}
330
C
100
AcDbDictionary
281
     1
  0
XRECORD
  5
63F3
102
{ACAD_REACTORS
330
C
102
}
330
C
100
AcDbXrecord
280
     1
  1
DWGPROPS COOKIE
  2

  3

  4

  6

  7

  8
2020009
  9

300
=
301
=
302
=
303
=
304
=
305
=
306
=
307
=
308
=
309
=
 40
0.3461133333333333
 41
2453276.413761574
 42
2459978.493310185
  1

 90
        0
  0
DICTIONARY
  5
2E
102
{ACAD_REACTORS
330
2D
102
}
330
2D
100
AcDbDictionary
280
     1
281
     1
  0
DICTIONARY
  5
918
102
{ACAD_REACTORS
330
2D
102
}
330
2D
100
AcDbDictionary
281
     1
  0
XRECORD
  5
555A
102
{ACAD_REACTORS
330
5559
102
}
330
5559
100
AcDbXrecord
280
     1
290
     1
  0
XRECORD
  5
555C
102
{ACAD_REACTORS
330
555B
102
}
330
555B
100
AcDbXrecord
280
     1
290
     1
  0
XRECORD
  5
555E
102
{ACAD_REACTORS
330
555D
102
}
330
555D
100
AcDbXrecord
280
     1
290
     1
  0
XRECORD
  5
5560
102
{ACAD_REACTORS
330
555F
102
}
330
555F
100
AcDbXrecord
280
     1
290
     1
  0
XRECORD
  5
5562
102
{ACAD_REACTORS
330
5561
102
}
330
5561
100
AcDbXrecord
280
     1
290
     1
  0
XRECORD
  5
5564
102
{ACAD_REACTORS
330
5563
102
}
330
5563
100
AcDbXrecord
280
     1
290
     1
  0
XRECORD
  5
5566
102
{ACAD_REACTORS
330
5565
102
}
330
5565
100
AcDbXrecord
280
     1
290
     1
  0
XRECORD
  5
5568
102
{ACAD_REACTORS
330
5567
102
}
330
5567
100
AcDbXrecord
280
     1
290
     1
  0
SORTENTSTABLE
  5
1C63
102
{ACAD_REACTORS
330
1C62
102
}
330
1C62
100
AcDbSortentsTable
330
1F
331
24F1
  5
28CA
331
24F2
  5
2A0D
331
24F4
  5
2A0E
331
24F5
  5
2A0F
331
28CA
  5
2A10
331
2A0D
  5
2DF6
331
2A0E
  5
2DF7
331
2A0F
  5
2DF8
331
2A10
  5
2E02
331
2DF6
  5
2E03
331
2DF7
  5
2E04
331
2DF8
  5
2E05
331
2E02
  5
2E06
331
2E03
  5
2E07
331
2E04
  5
2E08
331
2E05
  5
2E09
331
2E06
  5
2E0A
331
2E07
  5
2E0B
331
2E08
  5
2E0C
331
2E09
  5
2E0D
331
2E0A
  5
41EB
331
2E0B
  5
41EC
331
2E0C
  5
41ED
331
2E0D
  5
41EE
331
41EB
  5
4202
331
41EC
  5
4203
331
41ED
  5
4204
331
41EE
  5
4207
331
4202
  5
4208
331
4203
  5
4209
331
4204
  5
420A
331
4207
  5
420B
331
4208
  5
420C
331
4209
  5
420D
331
420A
  5
4216
331
420B
  5
4217
331
420C
  5
4218
331
420D
  5
4219
331
4216
  5
4221
331
4217
  5
4222
331
4218
  5
4223
331
4219
  5
422B
331
421F
  5
422C
331
4220
  5
422D
331
4221
  5
422E
331
4222
  5
422F
331
4223
  5
4230
331
422B
  5
4231
331
422C
  5
4232
331
422D
  5
4233
331
422E
  5
4234
331
422F
  5
4235
331
4230
  5
4236
331
4231
  5
4237
331
4232
  5
4238
331
4233
  5
423A
331
4234
  5
423B
331
4235
  5
423C
331
4236
  5
423D
331
4237
  5
423E
331
4238
  5
423F
331
423A
  5
4240
331
423B
  5
4241
331
423C
  5
4242
331
423D
  5
4243
331
423E
  5
4244
331
423F
  5
4249
331
4240
  5
424A
331
4241
  5
424B
331
4242
  5
424C
331
4243
  5
424D
331
4244
  5
424E
331
4249
  5
424F
331
424A
  5
4250
331
424B
  5
4251
331
424C
  5
4252
331
424D
  5
4253
331
424E
  5
4254
331
424F
  5
4255
331
4250
  5
4256
331
4251
  5
4257
331
4252
  5
4258
331
4253
  5
425B
331
4254
  5
425C
331
4255
  5
425D
331
4256
  5
425E
331
4257
  5
425F
331
4258
  5
4260
331
425B
  5
4261
331
425C
  5
4262
331
425D
  5
4263
331
425E
  5
4264
331
425F
  5
4265
331
4260
  5
4266
331
4261
  5
4268
331
4262
  5
4269
331
4263
  5
426A
331
4264
  5
426B
331
4265
  5
426C
331
4266
  5
426D
331
4268
  5
426E
331
4269
  5
426F
331
426A
  5
4270
331
426B
  5
4271
331
426C
  5
4272
331
426D
  5
4273
331
426E
  5
4274
331
426F
  5
4275
331
4270
  5
4276
331
4271
  5
4277
331
4272
  5
4278
331
4273
  5
4279
331
4274
  5
427A
331
4275
  5
427B
331
4276
  5
427C
331
4277
  5
427D
331
4278
  5
427E
331
4279
  5
427F
331
427A
  5
4280
331
427B
  5
4281
331
427C
  5
4282
331
427D
  5
4283
331
427E
  5
4284
331
427F
  5
4285
331
4280
  5
4286
331
4281
  5
4287
331
4282
  5
4288
331
4283
  5
4289
331
4284
  5
428A
331
4285
  5
428B
331
4286
  5
428C
331
4287
  5
428D
331
4288
  5
428E
331
4289
  5
428F
331
428A
  5
4290
331
428B
  5
4291
331
428C
  5
4292
331
428D
  5
4293
331
428E
  5
4294
331
428F
  5
4295
331
4290
  5
4296
331
4291
  5
4297
331
4292
  5
4298
331
4293
  5
4299
331
4294
  5
429A
331
4295
  5
429B
331
4296
  5
429C
331
4297
  5
429D
331
4298
  5
429E
331
4299
  5
429F
331
429A
  5
42A0
331
429B
  5
42A1
331
429C
  5
42A2
331
429D
  5
42A3
331
429E
  5
42A4
331
429F
  5
42A5
331
42A0
  5
42A6
331
42A1
  5
42A7
331
42A2
  5
42A8
331
42A3
  5
42A9
331
42A4
  5
42AA
331
42A5
  5
42AB
331
42A6
  5
42AC
331
42A7
  5
42AD
331
42A8
  5
42AE
331
42A9
  5
42AF
331
42AA
  5
42B0
331
42AB
  5
42B1
331
42AC
  5
42B2
331
42AD
  5
42B3
331
42AE
  5
42B4
331
42AF
  5
42B5
331
42B0
  5
42B6
331
42B1
  5
42B7
331
42B2
  5
42B8
331
42B3
  5
42B9
331
42B4
  5
42BA
331
42B5
  5
42BB
331
42B6
  5
42BC
331
42B7
  5
42BD
331
42B8
  5
42BE
331
42B9
  5
42BF
331
42BA
  5
42C0
331
42BB
  5
42C1
331
42BC
  5
42C2
331
42BD
  5
42C3
331
42BE
  5
42C4
331
42BF
  5
42C5
331
42C0
  5
42C6
331
42C1
  5
42C7
331
42C2
  5
42C8
331
42C3
  5
42C9
331
42C4
  5
42CA
331
42C5
  5
42CB
331
42C6
  5
42CC
331
42C7
  5
42CD
331
42C8
  5
42CE
331
42C9
  5
42CF
331
42CA
  5
42D0
331
42CB
  5
42D1
331
42CC
  5
42D2
331
42CD
  5
42D3
331
42CE
  5
42D4
331
42CF
  5
42D5
331
42D0
  5
42D6
331
42D1
  5
42D7
331
42D2
  5
42D8
331
42D3
  5
42D9
331
42D4
  5
42DA
331
42D5
  5
42DB
331
42D6
  5
42DC
331
42D7
  5
42DD
331
42D8
  5
42DE
331
42D9
  5
42DF
331
42DA
  5
42E0
331
42DB
  5
42E1
331
42DC
  5
42E2
331
42DD
  5
42E3
331
42DE
  5
42E4
331
42DF
  5
42E5
331
42E0
  5
42E6
331
42E1
  5
42E7
331
42E2
  5
42E8
331
42E3
  5
42E9
331
42E4
  5
42EA
331
42E5
  5
42EB
331
42E6
  5
42EC
331
42E7
  5
42ED
331
42E8
  5
42EE
331
42E9
  5
42EF
331
42EA
  5
42F0
331
42EB
  5
42F1
331
42EC
  5
42F2
331
42ED
  5
42F3
331
42EE
  5
42F4
331
42EF
  5
42F5
331
42F0
  5
42F6
331
42F1
  5
42F7
331
42F2
  5
42F8
331
42F3
  5
42F9
331
42F4
  5
42FA
331
42F5
  5
42FB
331
42F6
  5
42FC
331
42F7
  5
42FD
331
42F8
  5
42FE
331
42F9
  5
42FF
331
42FA
  5
4300
331
42FB
  5
4301
331
42FC
  5
4302
331
42FD
  5
4303
331
42FE
  5
4304
331
42FF
  5
4305
331
4300
  5
4306
331
4301
  5
4307
331
4302
  5
4308
331
4303
  5
4309
331
4304
  5
430A
331
4305
  5
430B
331
4306
  5
430C
331
4307
  5
430D
331
4308
  5
430E
331
4309
  5
430F
331
430A
  5
4310
331
430B
  5
4311
331
430C
  5
4312
331
430D
  5
4313
331
430E
  5
4314
331
430F
  5
4315
331
4310
  5
4316
331
4311
  5
4317
331
4312
  5
4318
331
4313
  5
4319
331
4314
  5
431A
331
4315
  5
431B
331
4316
  5
431C
331
4317
  5
431D
331
4318
  5
431E
331
4319
  5
431F
331
431A
  5
4320
331
431B
  5
4321
331
431C
  5
4322
331
431D
  5
4323
331
431E
  5
4324
331
431F
  5
4325
331
4320
  5
4326
331
4321
  5
4327
331
4322
  5
4328
331
4323
  5
4329
331
4324
  5
432A
331
4325
  5
432B
331
4326
  5
432C
331
4327
  5
432D
331
4328
  5
432E
331
4329
  5
432F
331
432A
  5
4330
331
432B
  5
4331
331
432C
  5
4332
331
432D
  5
4333
331
432E
  5
4334
331
432F
  5
4335
331
4330
  5
4336
331
4331
  5
4337
331
4332
  5
4338
331
4333
  5
4339
331
4334
  5
433A
331
4335
  5
433B
331
4336
  5
433C
331
4337
  5
433D
331
4338
  5
433E
331
4339
  5
433F
331
433A
  5
4340
331
433B
  5
4341
331
433C
  5
4342
331
433D
  5
4343
331
433E
  5
4344
331
433F
  5
4345
331
4340
  5
4346
331
4341
  5
4347
331
4342
  5
4348
331
4343
  5
4349
331
4344
  5
434A
331
4345
  5
434B
331
4346
  5
434C
331
4347
  5
434D
331
4348
  5
434E
331
4349
  5
434F
331
434A
  5
4350
331
434B
  5
4351
331
434C
  5
4352
331
434D
  5
4353
331
434E
  5
4354
331
434F
  5
4355
331
4350
  5
4356
331
4351
  5
4357
331
4352
  5
4358
331
4353
  5
4359
331
4354
  5
435A
331
4355
  5
435B
331
4356
  5
435C
331
4357
  5
435D
331
4358
  5
435E
331
4359
  5
435F
331
435A
  5
4360
331
435B
  5
4361
331
435C
  5
4362
331
435D
  5
4363
331
435E
  5
4364
331
435F
  5
4365
331
4360
  5
4366
331
4361
  5
4367
331
4362
  5
4368
331
4363
  5
4369
331
4364
  5
436A
331
4365
  5
436B
331
4366
  5
436C
331
4367
  5
436D
331
4368
  5
436E
331
4369
  5
436F
331
436A
  5
4370
331
436B
  5
4371
331
436C
  5
4372
331
436D
  5
4373
331
436E
  5
4374
331
436F
  5
4375
331
4370
  5
4376
331
4371
  5
4377
331
4372
  5
4378
331
4373
  5
4379
331
4374
  5
437A
331
4375
  5
437B
331
4376
  5
437C
331
4377
  5
437D
331
4378
  5
437E
331
4379
  5
437F
331
437A
  5
4380
331
437B
  5
4381
331
437C
  5
4382
331
437D
  5
4383
331
437E
  5
4384
331
437F
  5
4385
331
4380
  5
4386
331
4381
  5
438B
331
4382
  5
4392
331
4383
  5
4394
331
4384
  5
4395
331
4385
  5
4396
331
4386
  5
4397
331
438B
  5
4398
331
4392
  5
4399
331
4394
  5
439A
331
4395
  5
439B
331
4396
  5
439C
331
4397
  5
439D
331
4398
  5
439E
331
4399
  5
439F
331
439A
  5
43A0
331
439B
  5
43A1
331
439C
  5
43A2
331
439D
  5
43A3
331
439E
  5
43A4
331
439F
  5
43A5
331
43A0
  5
43A6
331
43A1
  5
43A7
331
43A2
  5
43A8
331
43A3
  5
43A9
331
43A4
  5
43AA
331
43A5
  5
43AB
331
43A6
  5
43AC
331
43A7
  5
43AD
331
43A8
  5
43AE
331
43A9
  5
43AF
331
43AA
  5
43B0
331
43AB
  5
43B1
331
43AC
  5
43B2
331
43AD
  5
43B3
331
43AE
  5
43B4
331
43AF
  5
43B5
331
43B0
  5
43B6
331
43B1
  5
43B7
331
43B2
  5
43B8
331
43B3
  5
43B9
331
43B4
  5
43BA
331
43B5
  5
43BB
331
43B6
  5
43BC
331
43B7
  5
43BD
331
43B8
  5
43BE
331
43B9
  5
43BF
331
43BA
  5
43C0
331
43BB
  5
43C1
331
43BC
  5
43C2
331
43BD
  5
43C3
331
43BE
  5
43C4
331
43BF
  5
43C5
331
43C0
  5
43C6
331
43C1
  5
43C7
331
43C2
  5
43C8
331
43C3
  5
43C9
331
43C4
  5
43CC
331
43C5
  5
43CD
331
43C6
  5
43CE
331
43C7
  5
43CF
331
43C8
  5
43D0
331
43C9
  5
43D1
331
43CC
  5
43D2
331
43CD
  5
43D3
331
43CE
  5
43D4
331
43CF
  5
43D5
331
43D0
  5
43D6
331
43D1
  5
43D7
331
43D2
  5
43D8
331
43D3
  5
43D9
331
43D4
  5
43DA
331
43D5
  5
43DB
331
43D6
  5
43DC
331
43D7
  5
43DD
331
43D8
  5
43DE
331
43D9
  5
43DF
331
43DA
  5
43E0
331
43DB
  5
43E1
331
43DC
  5
43E2
331
43DD
  5
43E3
331
43DE
  5
43E4
331
43DF
  5
43E5
331
43E0
  5
43E6
331
43E1
  5
43E7
331
43E2
  5
43E8
331
43E3
  5
43E9
331
43E4
  5
43EA
331
43E5
  5
43EB
331
43E6
  5
43EC
331
43E7
  5
43ED
331
43E8
  5
43EE
331
43E9
  5
43EF
331
43EA
  5
43F0
331
43EB
  5
43F1
331
43EC
  5
43F2
331
43ED
  5
43F3
331
43EE
  5
43F4
331
43EF
  5
43F5
331
43F0
  5
43F6
331
43F1
  5
43F7
331
43F2
  5
43F8
331
43F3
  5
43F9
331
43F4
  5
43FA
331
43F5
  5
43FB
331
43F6
  5
43FC
331
43F7
  5
43FD
331
43F8
  5
43FE
331
43F9
  5
43FF
331
43FA
  5
4400
331
43FB
  5
4401
331
43FC
  5
4402
331
43FD
  5
4403
331
43FE
  5
4404
331
43FF
  5
4405
331
4400
  5
4406
331
4401
  5
4407
331
4402
  5
4408
331
4403
  5
4409
331
4404
  5
440A
331
4405
  5
440B
331
4406
  5
440C
331
4407
  5
440D
331
4408
  5
440E
331
4409
  5
440F
331
440A
  5
4410
331
440B
  5
4411
331
440C
  5
4412
331
440D
  5
4413
331
440E
  5
4414
331
440F
  5
4415
331
4410
  5
4416
331
4411
  5
4417
331
4412
  5
4418
331
4413
  5
4419
331
4414
  5
441A
331
4415
  5
441B
331
4416
  5
441C
331
4417
  5
441D
331
4418
  5
441E
331
4419
  5
441F
331
441A
  5
4420
331
441B
  5
4421
331
441C
  5
4422
331
441D
  5
4423
331
441E
  5
4424
331
441F
  5
4425
331
4420
  5
4426
331
4421
  5
4427
331
4422
  5
4428
331
4423
  5
4429
331
4424
  5
442A
331
4425
  5
442B
331
4426
  5
442C
331
4427
  5
442D
331
4428
  5
442E
331
4429
  5
442F
331
442A
  5
4430
331
442B
  5
4431
331
442C
  5
4432
331
442D
  5
4433
331
442E
  5
4434
331
442F
  5
4435
331
4430
  5
4436
331
4431
  5
4437
331
4432
  5
4438
331
4433
  5
4439
331
4434
  5
443A
331
4435
  5
443B
331
4436
  5
443C
331
4437
  5
443D
331
4438
  5
443E
331
4439
  5
4448
331
443A
  5
45B2
331
443B
  5
45B3
331
443C
  5
4CB7
331
443D
  5
4CB8
331
443E
  5
4CB9
331
4448
  5
4CF7
331
45B2
  5
4CF8
331
45B3
  5
4CF9
331
4CB7
  5
5396
331
4CB8
  5
5397
331
4CB9
  5
53AB
331
4CF7
  5
53C0
331
4CF8
  5
53C1
331
4CF9
  5
541C
331
4CFA
  5
541D
331
5394
  5
5ED8
331
5395
  5
5ED9
331
5396
  5
5EDA
331
5397
  5
62E4
331
53AB
  5
62E5
331
53AC
  5
62E6
331
53AD
  5
62E7
331
53AE
  5
62E8
331
53AF
  5
62E9
331
53B7
  5
62EA
331
53B8
  5
62EB
331
53C0
  5
62FD
331
53C1
  5
62FE
331
541C
  5
63C5
331
541D
  5
63C6
331
54D7
  5
63C9
331
54D8
  5
63CA
331
54D9
  5
63CB
331
5552
  5
63D8
331
5553
  5
63D9
331
5555
  5
63DA
331
5558
  5
63DB
331
56BD
  5
63E0
331
56BE
  5
63E1
331
56C0
  5
63E6
331
56C1
  5
63E7
331
56C2
  5
63E8
331
5C3F
  5
63E9
331
5C53
  5
63EA
331
5ED4
  5
63EB
331
5ED6
  5
63EC
331
5ED8
  5
63ED
331
5ED9
  5
63EE
331
5EDA
  5
63EF
331
62E4
  5
24F1
331
62E5
  5
24F2
331
62E6
  5
24F4
331
62E7
  5
24F5
331
62E8
  5
421F
331
62E9
  5
4220
331
62EA
  5
4CFA
331
62EB
  5
5394
331
62EC
  5
5395
331
62ED
  5
53AC
331
62EE
  5
53AD
331
62EF
  5
53AE
331
62F0
  5
53AF
331
62F1
  5
53B7
331
62F2
  5
53B8
331
62F3
  5
54D7
331
62F4
  5
54D8
331
62F5
  5
54D9
331
62F6
  5
5552
331
62F7
  5
5553
331
62F8
  5
5555
331
62F9
  5
5558
331
62FA
  5
56BD
331
62FB
  5
56BE
331
62FC
  5
56C0
331
62FD
  5
56C1
331
62FE
  5
56C2
331
62FF
  5
5C3F
331
6300
  5
5C53
331
6301
  5
5ED4
331
6302
  5
5ED6
331
6303
  5
62EC
331
6304
  5
62ED
331
6305
  5
62EE
331
6306
  5
62EF
331
6307
  5
62F0
331
6308
  5
62F1
331
6309
  5
62F2
331
630A
  5
62F3
331
630B
  5
62F4
331
630C
  5
62F5
331
630D
  5
62F6
331
630E
  5
62F7
331
630F
  5
62F8
331
6310
  5
62F9
331
6311
  5
62FA
331
6312
  5
62FB
331
6313
  5
62FC
331
6314
  5
62FF
331
6315
  5
6300
331
6316
  5
6301
331
6317
  5
6302
331
6318
  5
6303
331
6319
  5
6304
331
631A
  5
6305
331
631B
  5
6306
331
631C
  5
6307
331
631D
  5
6308
331
631E
  5
6309
331
631F
  5
630A
331
6320
  5
630B
331
6321
  5
630C
331
6322
  5
630D
331
6323
  5
630E
331
6324
  5
630F
331
6325
  5
6310
331
6326
  5
6311
331
6327
  5
6312
331
6328
  5
6313
331
6329
  5
6314
331
632A
  5
6315
331
632B
  5
6316
331
632C
  5
6317
331
632D
  5
6318
331
632E
  5
6319
331
632F
  5
631A
331
6330
  5
631B
331
6331
  5
631C
331
6332
  5
631D
331
6333
  5
631E
331
6334
  5
631F
331
6335
  5
6320
331
6336
  5
6321
331
6337
  5
6322
331
6338
  5
6323
331
6339
  5
6324
331
633A
  5
6325
331
633B
  5
6326
331
633C
  5
6327
331
633D
  5
6328
331
633E
  5
6329
331
633F
  5
632A
331
6340
  5
632B
331
6341
  5
632C
331
6342
  5
632D
331
6343
  5
632E
331
6344
  5
632F
331
6345
  5
6330
331
6346
  5
6331
331
6347
  5
6332
331
6348
  5
6333
331
6349
  5
6334
331
634A
  5
6335
331
634B
  5
6336
331
634C
  5
6337
331
634D
  5
6338
331
634E
  5
6339
331
634F
  5
633A
331
6350
  5
633B
331
6351
  5
633C
331
6352
  5
633D
331
6353
  5
633E
331
6354
  5
633F
331
6355
  5
6340
331
6356
  5
6341
331
6357
  5
6342
331
6358
  5
6343
331
6359
  5
6344
331
635A
  5
6345
331
635B
  5
6346
331
635C
  5
6347
331
635D
  5
6348
331
635E
  5
6349
331
635F
  5
634A
331
6360
  5
634B
331
6361
  5
634C
331
6362
  5
634D
331
6363
  5
634E
331
6364
  5
634F
331
6365
  5
6350
331
6366
  5
6351
331
6367
  5
6352
331
6368
  5
6353
331
6369
  5
6354
331
636A
  5
6355
331
636B
  5
6356
331
636C
  5
6357
331
636D
  5
6358
331
636E
  5
6359
331
636F
  5
635A
331
6370
  5
635B
331
6371
  5
635C
331
6372
  5
635D
331
6373
  5
635E
331
6374
  5
635F
331
6375
  5
6360
331
6376
  5
6361
331
6377
  5
6362
331
6378
  5
6363
331
6379
  5
6364
331
637A
  5
6365
331
637B
  5
6366
331
637C
  5
6367
331
637D
  5
6368
331
637E
  5
6369
331
637F
  5
636A
331
6380
  5
636B
331
6381
  5
636C
331
6382
  5
636D
331
6383
  5
636E
331
6384
  5
636F
331
6385
  5
6370
331
6386
  5
6371
331
6387
  5
6372
331
6388
  5
6373
331
6389
  5
6374
331
638A
  5
6375
331
638B
  5
6376
331
638C
  5
6377
331
638D
  5
6378
331
638E
  5
6379
331
638F
  5
637A
331
6390
  5
637B
331
6391
  5
637C
331
6392
  5
637D
331
6393
  5
637E
331
6394
  5
637F
331
6395
  5
6380
331
6396
  5
6381
331
6397
  5
6382
331
6398
  5
6383
331
6399
  5
6384
331
639A
  5
6385
331
639B
  5
6386
331
639C
  5
6387
331
639D
  5
6388
331
639E
  5
6389
331
639F
  5
638A
331
63A0
  5
638B
331
63A1
  5
638C
331
63A2
  5
638D
331
63A3
  5
638E
331
63A4
  5
638F
331
63A5
  5
6390
331
63A6
  5
6391
331
63A7
  5
6392
331
63A8
  5
6393
331
63A9
  5
6394
331
63AA
  5
6395
331
63AB
  5
6396
331
63AC
  5
6397
331
63AD
  5
6398
331
63AE
  5
6399
331
63AF
  5
639A
331
63B0
  5
639B
331
63B1
  5
639C
331
63B2
  5
639D
331
63B3
  5
639E
331
63B4
  5
639F
331
63B5
  5
63A0
331
63B6
  5
63A1
331
63B7
  5
63A2
331
63B8
  5
63A3
331
63B9
  5
63A4
331
63BA
  5
63A5
331
63BB
  5
63A6
331
63BC
  5
63A7
331
63BD
  5
63A8
331
63BE
  5
63A9
331
63BF
  5
63AA
331
63C0
  5
63AB
331
63C1
  5
63AC
331
63C2
  5
63AD
331
63C3
  5
63AE
331
63C4
  5
63AF
331
63C5
  5
63B0
331
63C6
  5
63B1
331
63C7
  5
63B2
331
63C8
  5
63B3
331
63C9
  5
63B4
331
63CA
  5
63B5
331
63CB
  5
63B6
331
63CC
  5
63B7
331
63CD
  5
63B8
331
63CE
  5
63B9
331
63CF
  5
63BA
331
63D0
  5
63BB
331
63D1
  5
63BC
331
63D2
  5
63BD
331
63D3
  5
63BE
331
63D4
  5
63BF
331
63D5
  5
63C0
331
63D6
  5
63C1
331
63D7
  5
63C2
331
63D8
  5
63C3
331
63D9
  5
63C4
331
63DA
  5
63C7
331
63DB
  5
63C8
331
63DC
  5
63CC
331
63DD
  5
63CD
331
63DE
  5
63CE
331
63DF
  5
63CF
331
63E0
  5
63D0
331
63E1
  5
63D1
331
63E2
  5
63D2
331
63E3
  5
63D3
331
63E4
  5
63D4
331
63E5
  5
63D5
331
63E6
  5
63D6
331
63E7
  5
63D7
331
63E8
  5
63DC
331
63E9
  5
63DD
331
63EA
  5
63DE
331
63EB
  5
63DF
331
63EC
  5
63E2
331
63ED
  5
63E3
331
63EE
  5
63E4
331
63EF
  5
63E5
  0
ACDBDETAILVIEWSTYLE
  5
5652
102
{ACAD_XDICTIONARY
360
6432
102
}
102
{ACAD_REACTORS
330
5651
102
}
330
5651
100
AcDbModelDocViewStyle
 70
     0
  3
Metric50
290
     0
100
AcDbDetailViewStyle
 70
     0
 71
     0
 90
        3
 71
     1
340
11
 40
5.0
340
0
 40
5.0
300

 40
0.0
280
     1
 71
     2
340
16
 90
       25
 71
     3
340
11
 40
5.0
 90
        0
 40
15.0
 90
        1
300
%<\AcVar ViewDetailId>% (%<\AcVar ViewScale \f "%sn">%)
 71
     4
340
16
 90
       25
340
16
 90
       25
280
     0
1001
ACAD
1000
AcRTDxfName
1000
ACDBDETAILVIEWSTYLE
1000
AcRTDxfName
1000
ACDBDETAILVIEWSTYLE
1000
AcRTDxfName
1000
ACDBDETAILVIEWSTYLE
  0
LAYOUT
  5
22
102
{ACAD_XDICTIONARY
360
63F4
102
}
102
{ACAD_REACTORS
330
1A
102
}
330
1A
100
AcDbPlotSettings
  1

  2
Canon LBP3800 LIPSLX
  4
A4
  6

 40
5.873749732971191
 41
5.873747825622558
 42
5.873748779296875
 43
5.873748779296875
 44
209.9733276367187
 45
296.9259948730469
 46
0.61
 47
0.59
 48
444.9983463649091
 49
-1090.000000918417
140
2395.001653364909
141
1659.999999081583
142
1.0
143
10.0
 70
 11940
 72
     1
 73
     1
 74
     2
  7
monochrome.ctb
 75
     0
147
0.1
148
0.0
149
0.0
100
AcDbLayout
  1
Model
 70
     1
 71
     0
 10
0.0
 20
0.0
 11
12.0
 21
9.0
 12
0.0
 22
0.0
 32
0.0
 14
0.0
 24
0.0
 34
0.0
 15
0.0
 25
0.0
 35
0.0
146
0.0
 13
0.0
 23
0.0
 33
0.0
 16
1.0
 26
0.0
 36
0.0
 17
0.0
 27
1.0
 37
0.0
 76
     0
330
1F
331
54F5
  0
LAYOUT
  5
1CD1
102
{ACAD_XDICTIONARY
360
63F6
102
}
102
{ACAD_REACTORS
330
1A
102
}
330
1A
100
AcDbPlotSettings
  1

  2
\\ek_srv\Canon LBP-880 LIPS4
  4

  6

 40
0.0
 41
0.0
 42
0.0
 43
0.0
 44
0.0
 45
0.0
 46
0.0
 47
0.0
 48
0.0
 49
0.0
140
0.0
141
0.0
142
1.0
143
1.0
 70
   688
 72
     0
 73
     0
 74
     5
  7
monochrome.ctb
 75
    16
147
1.0
148
0.0
149
0.0
100
AcDbLayout
  1
\U+FF9A\U+FF72\U+FF71\U+FF73\U+FF841
 70
     1
 71
     1
 10
0.0
 20
0.0
 11
12.0
 21
9.0
 12
0.0
 22
0.0
 32
0.0
 14
0.0
 24
0.0
 34
0.0
 15
0.0
 25
0.0
 35
0.0
146
0.0
 13
0.0
 23
0.0
 33
0.0
 16
1.0
 26
0.0
 36
0.0
 17
0.0
 27
1.0
 37
0.0
 76
     0
330
1CD0
  0
MATERIAL
  5
5500
102
{ACAD_XDICTIONARY
360
5501
102
}
102
{ACAD_REACTORS
330
54F7
102
}
330
54F7
100
AcDbMaterial
  1
ByBlock
 72
     0
 43
0.0008202099737533
 43
0.0
 43
0.0
 43
0.0
 43
0.0
 43
0.0008202099737533
 43
0.0
 43
0.0
 43
0.0
 43
0.0
 43
1.0
 43
0.0
 43
0.0
 43
0.0
 43
0.0
 43
1.0
 77
     0
 47
0.0008202099737533
 47
0.0
 47
0.0
 47
0.0
 47
0.0
 47
0.0008202099737533
 47
0.0
 47
0.0
 47
0.0
 47
0.0
 47
1.0
 47
0.0
 47
0.0
 47
0.0
 47
0.0
 47
1.0
171
     0
 49
0.0008202099737533
 49
0.0
 49
0.0
 49
0.0
 49
0.0
 49
0.0008202099737533
 49
0.0
 49
0.0
 49
0.0
 49
0.0
 49
1.0
 49
0.0
 49
0.0
 49
0.0
 49
0.0
 49
1.0
175
     0
142
0.0008202099737533
142
0.0
142
0.0
142
0.0
142
0.0
142
0.0008202099737533
142
0.0
142
0.0
142
0.0
142
0.0
142
1.0
142
0.0
142
0.0
142
0.0
142
0.0
142
1.0
179
     0
144
0.0008202099737533
144
0.0
144
0.0
144
0.0
144
0.0
144
0.0008202099737533
144
0.0
144
0.0
144
0.0
144
0.0
144
1.0
144
0.0
144
0.0
144
0.0
144
0.0
144
1.0
147
0.0008202099737533
147
0.0
147
0.0
147
0.0
147
0.0
147
0.0008202099737533
147
0.0
147
0.0
147
0.0
147
0.0
147
1.0
147
0.0
147
0.0
147
0.0
147
0.0
147
1.0
  0
MATERIAL
  5
54F8
102
{ACAD_XDICTIONARY
360
54F9
102
}
102
{ACAD_REACTORS
330
54F7
102
}
330
54F7
100
AcDbMaterial
  1
ByLayer
 72
     0
 43
0.0008202099737533
 43
0.0
 43
0.0
 43
0.0
 43
0.0
 43
0.0008202099737533
 43
0.0
 43
0.0
 43
0.0
 43
0.0
 43
1.0
 43
0.0
 43
0.0
 43
0.0
 43
0.0
 43
1.0
 77
     0
 47
0.0008202099737533
 47
0.0
 47
0.0
 47
0.0
 47
0.0
 47
0.0008202099737533
 47
0.0
 47
0.0
 47
0.0
 47
0.0
 47
1.0
 47
0.0
 47
0.0
 47
0.0
 47
0.0
 47
1.0
171
     0
 49
0.0008202099737533
 49
0.0
 49
0.0
 49
0.0
 49
0.0
 49
0.0008202099737533
 49
0.0
 49
0.0
 49
0.0
 49
0.0
 49
1.0
 49
0.0
 49
0.0
 49
0.0
 49
0.0
 49
1.0
175
     0
142
0.0008202099737533
142
0.0
142
0.0
142
0.0
142
0.0
142
0.0008202099737533
142
0.0
142
0.0
142
0.0
142
0.0
142
1.0
142
0.0
142
0.0
142
0.0
142
0.0
142
1.0
179
     0
144
0.0008202099737533
144
0.0
144
0.0
144
0.0
144
0.0
144
0.0008202099737533
144
0.0
144
0.0
144
0.0
144
0.0
144
1.0
144
0.0
144
0.0
144
0.0
144
0.0
144
1.0
147
0.0008202099737533
147
0.0
147
0.0
147
0.0
147
0.0
147
0.0008202099737533
147
0.0
147
0.0
147
0.0
147
0.0
147
1.0
147
0.0
147
0.0
147
0.0
147
0.0
147
1.0
  0
MATERIAL
  5
5508
102
{ACAD_XDICTIONARY
360
5509
102
}
102
{ACAD_REACTORS
330
54F7
102
}
330
54F7
100
AcDbMaterial
  1
Global
 72
     0
 43
0.0008202099737533
 43
0.0
 43
0.0
 43
0.0
 43
0.0
 43
0.0008202099737533
 43
0.0
 43
0.0
 43
0.0
 43
0.0
 43
1.0
 43
0.0
 43
0.0
 43
0.0
 43
0.0
 43
1.0
 77
     0
 47
0.0008202099737533
 47
0.0
 47
0.0
 47
0.0
 47
0.0
 47
0.0008202099737533
 47
0.0
 47
0.0
 47
0.0
 47
0.0
 47
1.0
 47
0.0
 47
0.0
 47
0.0
 47
0.0
 47
1.0
171
     0
 49
0.0008202099737533
 49
0.0
 49
0.0
 49
0.0
 49
0.0
 49
0.0008202099737533
 49
0.0
 49
0.0
 49
0.0
 49
0.0
 49
1.0
 49
0.0
 49
0.0
 49
0.0
 49
0.0
 49
1.0
175
     0
142
0.0008202099737533
142
0.0
142
0.0
142
0.0
142
0.0
142
0.0008202099737533
142
0.0
142
0.0
142
0.0
142
0.0
142
1.0
142
0.0
142
0.0
142
0.0
142
0.0
142
1.0
179
     0
144
0.0008202099737533
144
0.0
144
0.0
144
0.0
144
0.0
144
0.0008202099737533
144
0.0
144
0.0
144
0.0
144
0.0
144
1.0
144
0.0
144
0.0
144
0.0
144
0.0
144
1.0
147
0.0008202099737533
147
0.0
147
0.0
147
0.0
147
0.0
147
0.0008202099737533
147
0.0
147
0.0
147
0.0
147
0.0
147
1.0
147
0.0
147
0.0
147
0.0
147
0.0
147
1.0
  0
MLEADERSTYLE
  5
553A
102
{ACAD_REACTORS
330
5539
102
}
330
5539
100
AcDbMLeaderStyle
170
     2
171
     1
172
     0
 90
        2
 40
0.0
 41
0.0
173
     1
 91
-1056964608
340
14
 92
       -2
290
     1
 42
2.0
291
     1
 43
0.36
  3
Standard
 44
4.0
300

342
11
174
     1
178
     6
175
     1
176
     0
 93
-1056964608
 45
4.0
292
     0
297
     0
 46
4.0
 94
-1056964608
 47
1.0
 49
1.0
140
1.0
293
     1
141
0.0
294
     1
177
     0
142
1.0
295
     0
296
     0
143
0.125
1001
ACAD_MLEADERVER
1070
     2
  0
MLINESTYLE
  5
18
102
{ACAD_REACTORS
330
17
102
}
330
17
100
AcDbMlineStyle
  2
STANDARD
 70
     0
  3

 62
   256
 51
90.0
 52
90.0
 71
     2
 49
0.5
 62
   256
  6
BYLAYER
 49
-0.5
 62
   256
  6
BYLAYER
  0
ACDBPLACEHOLDER
  5
F
102
{ACAD_REACTORS
330
E
102
}
330
E
  0
ACDBPLACEHOLDER
  5
29
102
{ACAD_REACTORS
330
E
102
}
330
E
  0
SCALE
  5
5528
102
{ACAD_REACTORS
330
5527
102
}
330
5527
100
AcDbScale
 70
     0
300
1:1
140
1.0
141
1.0
290
     1
  0
SCALE
  5
5529
102
{ACAD_REACTORS
330
5527
102
}
330
5527
100
AcDbScale
 70
     0
300
1:2
140
1.0
141
2.0
290
     0
  0
SCALE
  5
552A
102
{ACAD_REACTORS
330
5527
102
}
330
5527
100
AcDbScale
 70
     0
300
1:4
140
1.0
141
4.0
290
     0
  0
SCALE
  5
552B
102
{ACAD_REACTORS
330
5527
102
}
330
5527
100
AcDbScale
 70
     0
300
1:5
140
1.0
141
5.0
290
     0
  0
SCALE
  5
552C
102
{ACAD_REACTORS
330
5527
102
}
330
5527
100
AcDbScale
 70
     0
300
1:8
140
1.0
141
8.0
290
     0
  0
SCALE
  5
552D
102
{ACAD_REACTORS
330
5527
102
}
330
5527
100
AcDbScale
 70
     0
300
1:10
140
1.0
141
10.0
290
     0
  0
SCALE
  5
552E
102
{ACAD_REACTORS
330
5527
102
}
330
5527
100
AcDbScale
 70
     0
300
1:16
140
1.0
141
16.0
290
     0
  0
SCALE
  5
552F
102
{ACAD_REACTORS
330
5527
102
}
330
5527
100
AcDbScale
 70
     0
300
1:20
140
1.0
141
20.0
290
     0
  0
SCALE
  5
5530
102
{ACAD_REACTORS
330
5527
102
}
330
5527
100
AcDbScale
 70
     0
300
1:30
140
1.0
141
30.0
290
     0
  0
SCALE
  5
5531
102
{ACAD_REACTORS
330
5527
102
}
330
5527
100
AcDbScale
 70
     0
300
1:40
140
1.0
141
40.0
290
     0
  0
SCALE
  5
5532
102
{ACAD_REACTORS
330
5527
102
}
330
5527
100
AcDbScale
 70
     0
300
1:50
140
1.0
141
50.0
290
     0
  0
SCALE
  5
5533
102
{ACAD_REACTORS
330
5527
102
}
330
5527
100
AcDbScale
 70
     0
300
1:100
140
1.0
141
100.0
290
     0
  0
SCALE
  5
5534
102
{ACAD_REACTORS
330
5527
102
}
330
5527
100
AcDbScale
 70
     0
300
2:1
140
2.0
141
1.0
290
     0
  0
SCALE
  5
5535
102
{ACAD_REACTORS
330
5527
102
}
330
5527
100
AcDbScale
 70
     0
300
4:1
140
4.0
141
1.0
290
     0
  0
SCALE
  5
5536
102
{ACAD_REACTORS
330
5527
102
}
330
5527
100
AcDbScale
 70
     0
300
8:1
140
8.0
141
1.0
290
     0
  0
SCALE
  5
5537
102
{ACAD_REACTORS
330
5527
102
}
330
5527
100
AcDbScale
 70
     0
300
10:1
140
10.0
141
1.0
290
     0
  0
SCALE
  5
5538
102
{ACAD_REACTORS
330
5527
102
}
330
5527
100
AcDbScale
 70
     0
300
100:1
140
100.0
141
1.0
290
     0
  0
ACDBSECTIONVIEWSTYLE
  5
5650
102
{ACAD_XDICTIONARY
360
6430
102
}
102
{ACAD_REACTORS
330
564F
102
}
330
564F
100
AcDbModelDocViewStyle
 70
     0
  3
Metric50
290
     0
100
AcDbSectionViewStyle
 70
     0
 71
     0
 90
      102
 71
     1
340
11
 40
5.0
340
0
340
0
 40
5.0
300
I, O, Q, S, X, Z
 40
10.0
 90
        0
 40
2.5
 90
        0
 71
     2
340
16
 90
       25
340
16
 90
       50
 40
5.0
 40
2.5
 40
5.0
 71
     3
340
11
 40
5.0
 90
        0
 40
15.0
 90
        1
300
%<\AcVar ViewSectionStartId>%-%<\AcVar ViewSectionEndId>% (%<\AcVar ViewScale \f "%sn">%)
 71
     4
300
ANSI31
 40
1.0
 90
        0
290
     0
290
     0
 90
        6
 40
0.0
 40
1.570796326794896
 40
0.2617993877991494
 40
1.308996938995747
 40
-0.2617993877991494
 40
1.832595714594046
1001
ACAD
1000
AcRTDxfName
1000
ACDBSECTIONVIEWSTYLE
1000
AcRTDxfName
1000
ACDBSECTIONVIEWSTYLE
1000
AcRTDxfName
1000
ACDBSECTIONVIEWSTYLE
  0
TABLESTYLE
  5
5526
102
{ACAD_XDICTIONARY
360
5569
102
}
102
{ACAD_REACTORS
330
5525
102
}
330
5525
100
AcDbTableStyle
  3
Standard
 70
     0
 71
     0
 40
1.5
 41
1.5
280
     0
281
     0
  7
Standard
140
4.5
170
     2
 62
     0
 63
     7
283
     0
274
    -2
284
     1
 64
     0
275
    -2
285
     1
 65
     0
276
    -2
286
     1
 66
     0
277
    -2
287
     1
 67
     0
278
    -2
288
     1
 68
     0
279
    -2
289
     1
 69
     0
  7
Standard
140
6.0
170
     5
 62
     0
 63
     7
283
     0
274
    -2
284
     1
 64
     0
275
    -2
285
     1
 65
     0
276
    -2
286
     1
 66
     0
277
    -2
287
     1
 67
     0
278
    -2
288
     1
 68
     0
279
    -2
289
     1
 69
     0
  7
Standard
140
4.5
170
     5
 62
     0
 63
     7
283
     0
274
    -2
284
     1
 64
     0
275
    -2
285
     1
 65
     0
276
    -2
286
     1
 66
     0
277
    -2
287
     1
 67
     0
278
    -2
288
     1
 68
     0
279
    -2
289
     1
 69
     0
  0
VISUALSTYLE
  5
5516
102
{ACAD_XDICTIONARY
360
6405
102
}
102
{ACAD_REACTORS
330
5510
102
}
330
5510
100
AcDbVisualStyle
  2
2dWireframe
 70
     4
 71
     0
 72
     2
 73
     0
 90
        0
 40
-0.6
 41
-30.0
 62
     5
 63
     7
 74
     1
 91
        4
 64
     7
 65
   257
 75
     1
175
     1
 42
1.0
 92
        0
 66
   257
 43
1.0
 76
     1
 77
     6
 78
     2
 67
     7
 79
     5
170
     0
171
     0
290
     0
174
     0
 93
        1
 44
0.0
173
     0
291
     0
 45
0.0
1001
ACAD
1000
AcDbSavedByObjectVersion
1070
     0
  0
VISUALSTYLE
  5
5518
102
{ACAD_XDICTIONARY
360
6409
102
}
102
{ACAD_REACTORS
330
5510
102
}
330
5510
100
AcDbVisualStyle
  2
3D Hidden
 70
     6
 71
     1
 72
     2
 73
     2
 90
        0
 40
-0.6
 41
-30.0
 62
     5
 63
     7
 74
     2
 91
        2
 64
     7
 65
   257
 75
     2
175
     1
 42
179.0
 92
        0
 66
   257
 43
1.0
 76
     1
 77
     6
 78
     2
 67
     7
 79
     3
170
     0
171
     0
290
     0
174
     0
 93
        1
 44
0.0
173
     0
291
     0
 45
0.0
1001
ACAD
1000
AcDbSavedByObjectVersion
1070
     0
  0
VISUALSTYLE
  5
5517
102
{ACAD_XDICTIONARY
360
6407
102
}
102
{ACAD_REACTORS
330
5510
102
}
330
5510
100
AcDbVisualStyle
  2
3dWireframe
 70
     5
 71
     0
 72
     2
 73
     0
 90
        0
 40
-0.6
 41
-30.0
 62
     5
 63
     7
 74
     1
 91
        4
 64
     7
 65
   257
 75
     1
175
     1
 42
1.0
 92
        0
 66
   257
 43
1.0
 76
     1
 77
     6
 78
     2
 67
     7
 79
     5
170
     0
171
     0
290
     0
174
     0
 93
        1
 44
0.0
173
     0
291
     0
 45
0.0
1001
ACAD
1000
AcDbSavedByObjectVersion
1070
     0
  0
VISUALSTYLE
  5
5515
102
{ACAD_XDICTIONARY
360
6403
102
}
102
{ACAD_REACTORS
330
5510
102
}
330
5510
100
AcDbVisualStyle
  2
Basic
 70
     7
 71
     1
 72
     0
 73
     1
 90
        0
 40
-0.6
 41
-30.0
 62
     5
 63
     7
 74
     0
 91
        4
 64
     7
 65
   257
 75
     1
175
     1
 42
1.0
 92
        8
 66
     7
 43
1.0
 76
     1
 77
     6
 78
     2
 67
     7
 79
     5
170
     0
171
     0
290
     0
174
     0
 93
        1
 44
0.0
173
     0
291
     1
 45
0.0
1001
ACAD
1000
AcDbSavedByObjectVersion
1070
     0
  0
VISUALSTYLE
  5
551C
102
{ACAD_XDICTIONARY
360
6411
102
}
102
{ACAD_REACTORS
330
5510
102
}
330
5510
100
AcDbVisualStyle
  2
Brighten
 70
    12
 71
     2
 72
     2
 73
     0
 90
        0
 40
-0.6
 41
-30.0
 62
     5
 63
     7
 74
     1
 91
        4
 64
     7
 65
   257
 75
     1
175
     1
 42
1.0
 92
        8
 66
     7
 43
1.0
 76
     1
 77
     6
 78
     2
 67
     7
 79
     5
170
     0
171
     0
290
     0
174
     0
 93
        1
 44
50.0
173
     0
291
     1
 45
0.0
1001
ACAD
1000
AcDbSavedByObjectVersion
1070
     0
  0
VISUALSTYLE
  5
5520
102
{ACAD_XDICTIONARY
360
6419
102
}
102
{ACAD_REACTORS
330
5510
102
}
330
5510
100
AcDbVisualStyle
  2
ColorChange
 70
    16
 71
     2
 72
     2
 73
     3
 90
        0
 40
-0.6
 41
-30.0
 62
     5
 63
     8
 74
     1
 91
        4
 64
     7
 65
   257
 75
     1
175
     1
 42
1.0
 92
        8
 66
     8
 43
1.0
 76
     1
 77
     6
 78
     2
 67
     7
 79
     5
170
     0
171
     0
290
     0
174
     0
 93
        1
 44
0.0
173
     0
291
     1
 45
0.0
1001
ACAD
1000
AcDbSavedByObjectVersion
1070
     0
  0
VISUALSTYLE
  5
5519
102
{ACAD_XDICTIONARY
360
640B
102
}
102
{ACAD_REACTORS
330
5510
102
}
330
5510
100
AcDbVisualStyle
  2
Conceptual
 70
     9
 71
     3
 72
     2
 73
     0
 90
        0
 40
-0.6
 41
-30.0
 62
     5
 63
     7
 74
     2
 91
        2
 64
     7
 65
   257
 75
     1
175
     1
 42
179.0
 92
        8
 66
     7
 43
1.0
 76
     1
 77
     6
 78
     2
 67
     7
 79
     3
170
     0
171
     0
290
     0
174
     0
 93
        1
 44
0.0
173
     0
291
     0
 45
0.0
1001
ACAD
1000
AcDbSavedByObjectVersion
1070
     0
  0
VISUALSTYLE
  5
551B
102
{ACAD_XDICTIONARY
360
640F
102
}
102
{ACAD_REACTORS
330
5510
102
}
330
5510
100
AcDbVisualStyle
  2
Dim
 70
    11
 71
     2
 72
     2
 73
     0
 90
        0
 40
-0.6
 41
-30.0
 62
     5
 63
     7
 74
     1
 91
        4
 64
     7
 65
   257
 75
     1
175
     1
 42
1.0
 92
        8
 66
     7
 43
1.0
 76
     1
 77
     6
 78
     2
 67
     7
 79
     5
170
     0
171
     0
290
     0
174
     0
 93
        1
 44
-50.0
173
     0
291
     1
 45
0.0
1001
ACAD
1000
AcDbSavedByObjectVersion
1070
     0
  0
VISUALSTYLE
  5
5523
102
{ACAD_XDICTIONARY
360
641F
102
}
102
{ACAD_REACTORS
330
5510
102
}
330
5510
100
AcDbVisualStyle
  2
EdgeColorOff
 70
    22
 71
     2
 72
     2
 73
     0
 90
        0
 40
-0.6
 41
-30.0
 62
     5
 63
     7
 74
     1
 91
        4
 64
     7
 65
   257
 75
     1
175
     1
 42
1.0
 92
        8
 66
     7
 43
1.0
 76
     1
 77
     6
 78
     2
 67
     7
 79
     5
170
     0
171
     0
290
     0
174
     0
 93
        1
 44
0.0
173
     0
291
     1
 45
0.0
1001
ACAD
1000
AcDbSavedByObjectVersion
1070
     0
  0
VISUALSTYLE
  5
551F
102
{ACAD_XDICTIONARY
360
6417
102
}
102
{ACAD_REACTORS
330
5510
102
}
330
5510
100
AcDbVisualStyle
  2
Facepattern
 70
    15
 71
     2
 72
     2
 73
     0
 90
        0
 40
-0.6
 41
-30.0
 62
     5
 63
     7
 74
     1
 91
        4
 64
     7
 65
   257
 75
     1
175
     1
 42
1.0
 92
        8
 66
     7
 43
1.0
 76
     1
 77
     6
 78
     2
 67
     7
 79
     5
170
     0
171
     0
290
     0
174
     0
 93
        1
 44
0.0
173
     0
291
     1
 45
0.0
1001
ACAD
1000
AcDbSavedByObjectVersion
1070
     0
  0
VISUALSTYLE
  5
5511
102
{ACAD_XDICTIONARY
360
63FB
102
}
102
{ACAD_REACTORS
330
5510
102
}
330
5510
100
AcDbVisualStyle
  2
Flat
 70
     0
 71
     2
 72
     1
 73
     1
 90
        2
 40
-0.6
 41
30.0
 62
     5
 63
     7
 74
     0
 91
        4
 64
     7
 65
   257
 75
     1
175
     1
 42
1.0
 92
        8
 66
     7
 43
1.0
 76
     1
 77
     6
 78
     2
 67
     7
 79
     5
170
     0
171
     0
290
     0
174
     0
 93
       13
 44
0.0
173
     0
291
     1
 45
0.0
1001
ACAD
1000
AcDbSavedByObjectVersion
1070
     0
  0
VISUALSTYLE
  5
5512
102
{ACAD_XDICTIONARY
360
63FD
102
}
102
{ACAD_REACTORS
330
5510
102
}
330
5510
100
AcDbVisualStyle
  2
FlatWithEdges
 70
     1
 71
     2
 72
     1
 73
     1
 90
        2
 40
-0.6
 41
30.0
 62
     5
 63
     7
 74
     1
 91
        4
 64
     7
 65
   257
 75
     1
175
     1
 42
1.0
 92
        0
 66
   257
 43
1.0
 76
     1
 77
     6
 78
     2
 67
     7
 79
     5
170
     0
171
     0
290
     0
174
     0
 93
       13
 44
0.0
173
     0
291
     1
 45
0.0
1001
ACAD
1000
AcDbSavedByObjectVersion
1070
     0
  0
VISUALSTYLE
  5
5513
102
{ACAD_XDICTIONARY
360
63FF
102
}
102
{ACAD_REACTORS
330
5510
102
}
330
5510
100
AcDbVisualStyle
  2
Gouraud
 70
     2
 71
     2
 72
     2
 73
     1
 90
        2
 40
-0.6
 41
30.0
 62
     5
 63
     7
 74
     0
 91
        4
 64
     7
 65
   257
 75
     1
175
     1
 42
1.0
 92
        0
 66
     7
 43
1.0
 76
     1
 77
     6
 78
     2
 67
     7
 79
     5
170
     0
171
     0
290
     0
174
     0
 93
       13
 44
0.0
173
     0
291
     1
 45
0.0
1001
ACAD
1000
AcDbSavedByObjectVersion
1070
     0
  0
VISUALSTYLE
  5
5514
102
{ACAD_XDICTIONARY
360
6401
102
}
102
{ACAD_REACTORS
330
5510
102
}
330
5510
100
AcDbVisualStyle
  2
GouraudWithEdges
 70
     3
 71
     2
 72
     2
 73
     1
 90
        2
 40
-0.6
 41
30.0
 62
     5
 63
     7
 74
     1
 91
        4
 64
     7
 65
   257
 75
     1
175
     1
 42
1.0
 92
        0
 66
   257
 43
1.0
 76
     1
 77
     6
 78
     2
 67
     7
 79
     5
170
     0
171
     0
290
     0
174
     0
 93
       13
 44
0.0
173
     0
291
     1
 45
0.0
1001
ACAD
1000
AcDbSavedByObjectVersion
1070
     0
  0
VISUALSTYLE
  5
5649
102
{ACAD_XDICTIONARY
360
6424
102
}
102
{ACAD_REACTORS
330
5510
102
}
330
5510
100
AcDbVisualStyle
  2
Hidden
 70
     6
 71
     1
 72
     2
 73
     2
 90
        0
 40
-0.6
 41
-30.0
 62
     5
 63
     7
 74
     2
 91
        2
 64
     7
 65
   257
 75
     2
175
     1
 42
40.0
 92
        0
 66
   257
 43
1.0
 76
     1
 77
     6
 78
     2
 67
     7
 79
     3
170
     0
171
     0
290
     0
174
     0
 93
        1
 44
0.0
173
     0
291
     0
 45
0.0
1001
ACAD
1000
AcDbSavedByObjectVersion
1070
     0
  0
VISUALSTYLE
  5
5521
102
{ACAD_XDICTIONARY
360
641B
102
}
102
{ACAD_REACTORS
330
5510
102
}
330
5510
100
AcDbVisualStyle
  2
JitterOff
 70
    20
 71
     2
 72
     2
 73
     0
 90
        0
 40
-0.6
 41
-30.0
 62
     5
 63
     7
 74
     1
 91
        4
 64
     7
 65
   257
 75
     1
175
     1
 42
1.0
 92
       10
 66
     7
 43
1.0
 76
     1
 77
     6
 78
     2
 67
     7
 79
     5
170
     0
171
     0
290
     0
174
     0
 93
        1
 44
0.0
173
     0
291
     1
 45
0.0
1001
ACAD
1000
AcDbSavedByObjectVersion
1070
     0
  0
VISUALSTYLE
  5
551E
102
{ACAD_XDICTIONARY
360
6415
102
}
102
{ACAD_REACTORS
330
5510
102
}
330
5510
100
AcDbVisualStyle
  2
Linepattern
 70
    14
 71
     2
 72
     2
 73
     0
 90
        0
 40
-0.6
 41
-30.0
 62
     5
 63
     7
 74
     1
 91
        4
 64
     7
 65
   257
 75
     7
175
     7
 42
1.0
 92
        8
 66
     7
 43
1.0
 76
     1
 77
     6
 78
     2
 67
     7
 79
     5
170
     0
171
     0
290
     0
174
     0
 93
        1
 44
0.0
173
     0
291
     1
 45
0.0
1001
ACAD
1000
AcDbSavedByObjectVersion
1070
     0
  0
VISUALSTYLE
  5
5522
102
{ACAD_XDICTIONARY
360
641D
102
}
102
{ACAD_REACTORS
330
5510
102
}
330
5510
100
AcDbVisualStyle
  2
OverhangOff
 70
    21
 71
     2
 72
     2
 73
     0
 90
        0
 40
-0.6
 41
-30.0
 62
     5
 63
     7
 74
     1
 91
        4
 64
     7
 65
   257
 75
     1
175
     1
 42
1.0
 92
        9
 66
     7
 43
1.0
 76
     1
 77
     6
 78
     2
 67
     7
 79
     5
170
     0
171
     0
290
     0
174
     0
 93
        1
 44
0.0
173
     0
291
     1
 45
0.0
1001
ACAD
1000
AcDbSavedByObjectVersion
1070
     0
  0
VISUALSTYLE
  5
551A
102
{ACAD_XDICTIONARY
360
640D
102
}
102
{ACAD_REACTORS
330
5510
102
}
330
5510
100
AcDbVisualStyle
  2
Realistic
 70
     8
 71
     2
 72
     2
 73
     0
 90
        0
 40
-0.6
 41
-30.0
 62
     5
 63
     7
 74
     1
 91
        0
 64
     7
 65
   257
 75
     1
175
     1
 42
1.0
 92
        8
 66
     8
 43
1.0
 76
     1
 77
     6
 78
     2
 67
     7
 79
     5
170
     0
171
     0
290
     0
174
     0
 93
       13
 44
0.0
173
     0
291
     0
 45
0.0
1001
ACAD
1000
AcDbSavedByObjectVersion
1070
     0
  0
VISUALSTYLE
  5
564E
102
{ACAD_XDICTIONARY
360
642E
102
}
102
{ACAD_REACTORS
330
5510
102
}
330
5510
100
AcDbVisualStyle
  2
Shaded
 70
    27
 71
     2
 72
     2
 73
     1
 90
        2
 40
-0.6
 41
30.0
 62
     5
 63
     7
 74
     0
 91
        4
 64
     7
 65
   257
 75
     1
175
     1
 42
1.0
 92
        8
 66
   257
 43
1.0
 76
     1
 77
     6
 78
     2
 67
     8
 79
     3
170
     0
171
     0
290
     0
174
     0
 93
        5
 44
0.0
173
     0
291
     0
 45
0.0
1001
ACAD
1000
AcDbSavedByObjectVersion
1070
     0
  0
VISUALSTYLE
  5
564D
102
{ACAD_XDICTIONARY
360
642C
102
}
102
{ACAD_REACTORS
330
5510
102
}
330
5510
100
AcDbVisualStyle
  2
Shaded with edges
 70
    26
 71
     2
 72
     2
 73
     1
 90
        2
 40
-0.6
 41
30.0
 62
     5
 63
     7
 74
     1
 91
        2
 64
     7
 65
   257
 75
     2
175
     1
 42
1.0
 92
        8
 66
   257
 43
1.0
 76
     1
 77
     6
 78
     2
 67
     7
 79
     3
170
     0
171
     0
290
     0
174
     0
 93
        5
 44
0.0
173
     0
291
     0
 45
0.0
1001
ACAD
1000
AcDbSavedByObjectVersion
1070
     0
  0
VISUALSTYLE
  5
564A
102
{ACAD_XDICTIONARY
360
6426
102
}
102
{ACAD_REACTORS
330
5510
102
}
330
5510
100
AcDbVisualStyle
  2
Shades of Gray
 70
    23
 71
     2
 72
     2
 73
     3
 90
        0
 40
-0.6
 41
-30.0
 62
     5
 63
     7
 74
     2
 91
        2
 64
     7
 65
     7
 75
     1
175
     1
 42
40.0
 92
        8
 66
     7
 43
1.0
 76
     1
 77
     6
 78
     2
 67
     7
 79
     3
170
     0
171
     0
290
     0
174
     0
 93
        1
 44
0.0
173
     0
291
     0
 45
0.0
1001
ACAD
1000
AcDbSavedByObjectVersion
1070
     0
  0
VISUALSTYLE
  5
564B
102
{ACAD_XDICTIONARY
360
6428
102
}
102
{ACAD_REACTORS
330
5510
102
}
330
5510
100
AcDbVisualStyle
  2
Sketchy
 70
    24
 71
     1
 72
     2
 73
     2
 90
        0
 40
-0.6
 41
-30.0
 62
     5
 63
     7
 74
     2
 91
        2
 64
     7
 65
     7
 75
     1
175
     1
 42
40.0
 92
       11
 66
     7
 43
1.0
 76
     1
 77
     6
 78
     2
 67
     7
 79
     6
170
     0
171
     0
290
     0
174
     0
 93
        1
 44
0.0
173
     0
291
     0
 45
0.0
1001
ACAD
1000
AcDbSavedByObjectVersion
1070
     0
  0
VISUALSTYLE
  5
551D
102
{ACAD_XDICTIONARY
360
6413
102
}
102
{ACAD_REACTORS
330
5510
102
}
330
5510
100
AcDbVisualStyle
  2
Thicken
 70
    13
 71
     2
 72
     2
 73
     0
 90
        0
 40
-0.6
 41
-30.0
 62
     5
 63
     7
 74
     1
 91
        4
 64
     7
 65
   257
 75
     1
175
     1
 42
1.0
 92
       12
 66
     7
 43
1.0
 76
     1
 77
     6
 78
     2
 67
     7
 79
     5
170
     0
171
     0
290
     0
174
     0
 93
        1
 44
0.0
173
     0
291
     1
 45
0.0
1001
ACAD
1000
AcDbSavedByObjectVersion
1070
     0
  0
VISUALSTYLE
  5
5648
102
{ACAD_XDICTIONARY
360
6422
102
}
102
{ACAD_REACTORS
330
5510
102
}
330
5510
100
AcDbVisualStyle
  2
Wireframe
 70
     5
 71
     0
 72
     2
 73
     0
 90
        0
 40
-0.6
 41
-30.0
 62
     5
 63
     7
 74
     1
 91
        4
 64
     7
 65
   257
 75
     1
175
     1
 42
1.0
 92
        0
 66
   257
 43
1.0
 76
     1
 77
     6
 78
     2
 67
     7
 79
     3
170
     0
171
     0
290
     0
174
     0
 93
        1
 44
0.0
173
     0
291
     0
 45
0.0
1001
ACAD
1000
AcDbSavedByObjectVersion
1070
     0
  0
VISUALSTYLE
  5
564C
102
{ACAD_XDICTIONARY
360
642A
102
}
102
{ACAD_REACTORS
330
5510
102
}
330
5510
100
AcDbVisualStyle
  2
X-Ray
 70
    25
 71
     2
 72
     2
 73
     1
 90
        1
 40
0.5
 41
-30.0
 62
     5
 63
     7
 74
     1
 91
        0
 64
     7
 65
   257
 75
     1
175
     1
 42
1.0
 92
        8
 66
     7
 43
1.0
 76
     1
 77
     6
 78
     2
 67
     7
 79
     3
170
     0
171
     0
290
     0
174
     0
 93
       13
 44
0.0
173
     0
291
     0
 45
0.0
1001
ACAD
1000
AcDbSavedByObjectVersion
1070
     0
  0
DICTIONARYVAR
  5
55A0
102
{ACAD_REACTORS
330
1835
102
}
330
1835
100
DictionaryVariables
280
     0
  1
1:1
  0
DICTIONARYVAR
  5
559F
102
{ACAD_REACTORS
330
1835
102
}
330
1835
100
DictionaryVariables
280
     0
  1
STANDARD
  0
DICTIONARYVAR
  5
559E
102
{ACAD_REACTORS
330
1835
102
}
330
1835
100
DictionaryVariables
280
     0
  1
STANDARD
  0
DICTIONARYVAR
  5
569B
102
{ACAD_REACTORS
330
1835
102
}
330
1835
100
DictionaryVariables
280
     0
  1
Metric50
  0
DICTIONARYVAR
  5
569C
102
{ACAD_REACTORS
330
1835
102
}
330
1835
100
DictionaryVariables
280
     0
  1
Metric50
  0
DICTIONARYVAR
  5
55A2
102
{ACAD_REACTORS
330
1835
102
}
330
1835
100
DictionaryVariables
280
     0
  1
1
  0
DICTIONARYVAR
  5
55A1
102
{ACAD_REACTORS
330
1835
102
}
330
1835
100
DictionaryVariables
280
     0
  1
0
  0
DICTIONARYVAR
  5
1836
102
{ACAD_REACTORS
330
1835
102
}
330
1835
100
DictionaryVariables
280
     0
  1
127
  0
DICTIONARYVAR
  5
63F0
102
{ACAD_REACTORS
330
1835
102
}
330
1835
100
DictionaryVariables
280
     0
  1
2
  0
DICTIONARY
  5
6432
330
5652
100
AcDbDictionary
280
     1
281
     1
  3
ACAD_XREC_ROUNDTRIP
360
6433
  0
DICTIONARY
  5
63F4
330
22
100
AcDbDictionary
280
     1
281
     1
  3
ACAD_XREC_ROUNDTRIP
360
63F5
  0
DICTIONARY
  5
63F6
330
1CD1
100
AcDbDictionary
280
     1
281
     1
  3
ACAD_XREC_ROUNDTRIP
360
63F7
  0
DICTIONARY
  5
5501
330
5500
100
AcDbDictionary
280
     1
281
     1
  3
ACAD_XREC_ROUNDTRIP
360
63F9
  3
BUMPTILE
360
5503
  3
DIFFUSETILE
360
5502
  3
OPACITYTILE
360
5506
  3
REFLECTIONTILE
360
5505
  3
REFRACTIONTILE
360
5507
  3
SPECULARTILE
360
5504
  0
DICTIONARY
  5
54F9
330
54F8
100
AcDbDictionary
280
     1
281
     1
  3
ACAD_XREC_ROUNDTRIP
360
63F8
  3
BUMPTILE
360
54FB
  3
DIFFUSETILE
360
54FA
  3
OPACITYTILE
360
54FE
  3
REFLECTIONTILE
360
54FD
  3
REFRACTIONTILE
360
54FF
  3
SPECULARTILE
360
54FC
  0
DICTIONARY
  5
5509
330
5508
100
AcDbDictionary
280
     1
281
     1
  3
ACAD_XREC_ROUNDTRIP
360
63FA
  3
BUMPTILE
360
550B
  3
DIFFUSETILE
360
550A
  3
OPACITYTILE
360
550E
  3
REFLECTIONTILE
360
550D
  3
REFRACTIONTILE
360
550F
  3
SPECULARTILE
360
550C
  0
DICTIONARY
  5
6430
330
5650
100
AcDbDictionary
280
     1
281
     1
  3
ACAD_XREC_ROUNDTRIP
360
6431
  0
DICTIONARY
  5
5569
330
5526
100
AcDbDictionary
280
     1
281
     1
  3
ACAD_ROUNDTRIP_2008_TABLESTYLE_CELLSTYLEMAP
360
63F1
  3
ACAD_XREC_ROUNDTRIP
360
6421
  0
DICTIONARY
  5
6405
330
5516
100
AcDbDictionary
280
     1
281
     1
  3
ACAD_XREC_ROUNDTRIP
360
6406
  0
DICTIONARY
  5
6409
330
5518
100
AcDbDictionary
280
     1
281
     1
  3
ACAD_XREC_ROUNDTRIP
360
640A
  0
DICTIONARY
  5
6407
330
5517
100
AcDbDictionary
280
     1
281
     1
  3
ACAD_XREC_ROUNDTRIP
360
6408
  0
DICTIONARY
  5
6403
330
5515
100
AcDbDictionary
280
     1
281
     1
  3
ACAD_XREC_ROUNDTRIP
360
6404
  0
DICTIONARY
  5
6411
330
551C
100
AcDbDictionary
280
     1
281
     1
  3
ACAD_XREC_ROUNDTRIP
360
6412
  0
DICTIONARY
  5
6419
330
5520
100
AcDbDictionary
280
     1
281
     1
  3
ACAD_XREC_ROUNDTRIP
360
641A
  0
DICTIONARY
  5
640B
330
5519
100
AcDbDictionary
280
     1
281
     1
  3
ACAD_XREC_ROUNDTRIP
360
640C
  0
DICTIONARY
  5
640F
330
551B
100
AcDbDictionary
280
     1
281
     1
  3
ACAD_XREC_ROUNDTRIP
360
6410
  0
DICTIONARY
  5
641F
330
5523
100
AcDbDictionary
280
     1
281
     1
  3
ACAD_XREC_ROUNDTRIP
360
6420
  0
DICTIONARY
  5
6417
330
551F
100
AcDbDictionary
280
     1
281
     1
  3
ACAD_XREC_ROUNDTRIP
360
6418
  0
DICTIONARY
  5
63FB
330
5511
100
AcDbDictionary
280
     1
281
     1
  3
ACAD_XREC_ROUNDTRIP
360
63FC
  0
DICTIONARY
  5
63FD
330
5512
100
AcDbDictionary
280
     1
281
     1
  3
ACAD_XREC_ROUNDTRIP
360
63FE
  0
DICTIONARY
  5
63FF
330
5513
100
AcDbDictionary
280
     1
281
     1
  3
ACAD_XREC_ROUNDTRIP
360
6400
  0
DICTIONARY
  5
6401
330
5514
100
AcDbDictionary
280
     1
281
     1
  3
ACAD_XREC_ROUNDTRIP
360
6402
  0
DICTIONARY
  5
6424
330
5649
100
AcDbDictionary
280
     1
281
     1
  3
ACAD_XREC_ROUNDTRIP
360
6425
  0
DICTIONARY
  5
641B
330
5521
100
AcDbDictionary
280
     1
281
     1
  3
ACAD_XREC_ROUNDTRIP
360
641C
  0
DICTIONARY
  5
6415
330
551E
100
AcDbDictionary
280
     1
281
     1
  3
ACAD_XREC_ROUNDTRIP
360
6416
  0
DICTIONARY
  5
641D
330
5522
100
AcDbDictionary
280
     1
281
     1
  3
ACAD_XREC_ROUNDTRIP
360
641E
  0
DICTIONARY
  5
640D
330
551A
100
AcDbDictionary
280
     1
281
     1
  3
ACAD_XREC_ROUNDTRIP
360
640E
  0
DICTIONARY
  5
642E
330
564E
100
AcDbDictionary
280
     1
281
     1
  3
ACAD_XREC_ROUNDTRIP
360
642F
  0
DICTIONARY
  5
642C
330
564D
100
AcDbDictionary
280
     1
281
     1
  3
ACAD_XREC_ROUNDTRIP
360
642D
  0
DICTIONARY
  5
6426
330
564A
100
AcDbDictionary
280
     1
281
     1
  3
ACAD_XREC_ROUNDTRIP
360
6427
  0
DICTIONARY
  5
6428
330
564B
100
AcDbDictionary
280
     1
281
     1
  3
ACAD_XREC_ROUNDTRIP
360
6429
  0
DICTIONARY
  5
6413
330
551D
100
AcDbDictionary
280
     1
281
     1
  3
ACAD_XREC_ROUNDTRIP
360
6414
  0
DICTIONARY
  5
6422
330
5648
100
AcDbDictionary
280
     1
281
     1
  3
ACAD_XREC_ROUNDTRIP
360
6423
  0
DICTIONARY
  5
642A
330
564C
100
AcDbDictionary
280
     1
281
     1
  3
ACAD_XREC_ROUNDTRIP
360
642B
  0
XRECORD
  5
6433
102
{ACAD_REACTORS
330
6432
102
}
330
6432
100
AcDbXrecord
280
     1
102
DISPLAYNAME
  1
Metric50
102
FLAGS
 90
        0
  0
XRECORD
  5
63F5
102
{ACAD_REACTORS
330
63F4
102
}
330
63F4
100
AcDbXrecord
280
     1
102
SHADEPLOT
 70
     0
102
SHADEPLOTRESLEVEL
 70
     2
102
SHADEPLOTCUSTOMDPI
 70
   300
  0
XRECORD
  5
63F7
102
{ACAD_REACTORS
330
63F6
102
}
330
63F6
100
AcDbXrecord
280
     1
102
SHADEPLOT
 70
     0
102
SHADEPLOTRESLEVEL
 70
     2
102
SHADEPLOTCUSTOMDPI
 70
   300
  0
XRECORD
  5
63F9
102
{ACAD_REACTORS
330
5501
102
}
330
5501
100
AcDbXrecord
280
     1
102
MATERIAL
148
0.0
149
0.0
149
0.0
 93
        0
 94
      127
282
     0
 72
     0
 77
     0
171
     0
175
     0
179
     0
273
     0
  0
XRECORD
  5
5503
102
{ACAD_REACTORS
330
5501
102
}
330
5501
100
AcDbXrecord
280
     1
270
     1
271
     1
  0
XRECORD
  5
5502
102
{ACAD_REACTORS
330
5501
102
}
330
5501
100
AcDbXrecord
280
     1
270
     1
271
     1
  0
XRECORD
  5
5506
102
{ACAD_REACTORS
330
5501
102
}
330
5501
100
AcDbXrecord
280
     1
270
     1
271
     1
  0
XRECORD
  5
5505
102
{ACAD_REACTORS
330
5501
102
}
330
5501
100
AcDbXrecord
280
     1
270
     1
271
     1
  0
XRECORD
  5
5507
102
{ACAD_REACTORS
330
5501
102
}
330
5501
100
AcDbXrecord
280
     1
270
     1
271
     1
  0
XRECORD
  5
5504
102
{ACAD_REACTORS
330
5501
102
}
330
5501
100
AcDbXrecord
280
     1
270
     1
271
     1
  0
XRECORD
  5
63F8
102
{ACAD_REACTORS
330
54F9
102
}
330
54F9
100
AcDbXrecord
280
     1
102
MATERIAL
148
0.0
149
0.0
149
0.0
 93
        0
 94
      127
282
     0
 72
     0
 77
     0
171
     0
175
     0
179
     0
273
     0
  0
XRECORD
  5
54FB
102
{ACAD_REACTORS
330
54F9
102
}
330
54F9
100
AcDbXrecord
280
     1
270
     1
271
     1
  0
XRECORD
  5
54FA
102
{ACAD_REACTORS
330
54F9
102
}
330
54F9
100
AcDbXrecord
280
     1
270
     1
271
     1
  0
XRECORD
  5
54FE
102
{ACAD_REACTORS
330
54F9
102
}
330
54F9
100
AcDbXrecord
280
     1
270
     1
271
     1
  0
XRECORD
  5
54FD
102
{ACAD_REACTORS
330
54F9
102
}
330
54F9
100
AcDbXrecord
280
     1
270
     1
271
     1
  0
XRECORD
  5
54FF
102
{ACAD_REACTORS
330
54F9
102
}
330
54F9
100
AcDbXrecord
280
     1
270
     1
271
     1
  0
XRECORD
  5
54FC
102
{ACAD_REACTORS
330
54F9
102
}
330
54F9
100
AcDbXrecord
280
     1
270
     1
271
     1
  0
XRECORD
  5
63FA
102
{ACAD_REACTORS
330
5509
102
}
330
5509
100
AcDbXrecord
280
     1
102
MATERIAL
148
0.0
149
0.0
149
0.0
 93
        0
 94
      127
282
     0
 72
     0
 77
     0
171
     0
175
     0
179
     0
273
     0
  0
XRECORD
  5
550B
102
{ACAD_REACTORS
330
5509
102
}
330
5509
100
AcDbXrecord
280
     1
270
     1
271
     1
  0
XRECORD
  5
550A
102
{ACAD_REACTORS
330
5509
102
}
330
5509
100
AcDbXrecord
280
     1
270
     1
271
     1
  0
XRECORD
  5
550E
102
{ACAD_REACTORS
330
5509
102
}
330
5509
100
AcDbXrecord
280
     1
270
     1
271
     1
  0
XRECORD
  5
550D
102
{ACAD_REACTORS
330
5509
102
}
330
5509
100
AcDbXrecord
280
     1
270
     1
271
     1
  0
XRECORD
  5
550F
102
{ACAD_REACTORS
330
5509
102
}
330
5509
100
AcDbXrecord
280
     1
270
     1
271
     1
  0
XRECORD
  5
550C
102
{ACAD_REACTORS
330
5509
102
}
330
5509
100
AcDbXrecord
280
     1
270
     1
271
     1
  0
XRECORD
  5
6431
102
{ACAD_REACTORS
330
6430
102
}
330
6430
100
AcDbXrecord
280
     1
102
DISPLAYNAME
  1
Metric50
102
FLAGS
 90
        0
  0
CELLSTYLEMAP
  5
63F1
102
{ACAD_REACTORS
330
5569
102
}
330
5569
100
AcDbCellStyleMap
 90
        3
300
CELLSTYLE
  1
TABLEFORMAT_BEGIN
 90
        5
170
     1
 91
        0
 92
    32768
 62
   257
 93
        1
300
CONTENTFORMAT
  1
CONTENTFORMAT_BEGIN
 90
        0
 91
        0
 92
      512
 93
        0
300

 40
0.0
140
1.0
 94
        5
 62
     0
340
11
144
6.0
309
CONTENTFORMAT_END
171
     1
301
MARGIN
  1
CELLMARGIN_BEGIN
 40
1.5
 40
1.5
 40
1.5
 40
1.5
 40
4.5
 40
4.5
309
CELLMARGIN_END
 94
        6
 95
        1
302
GRIDFORMAT
  1
GRIDFORMAT_BEGIN
 90
        0
 91
        1
 62
     0
 92
       -2
340
0
 93
        0
 40
1.125
309
GRIDFORMAT_END
 95
        2
302
GRIDFORMAT
  1
GRIDFORMAT_BEGIN
 90
        0
 91
        1
 62
     0
 92
       -2
340
0
 93
        0
 40
1.125
309
GRIDFORMAT_END
 95
        4
302
GRIDFORMAT
  1
GRIDFORMAT_BEGIN
 90
        0
 91
        1
 62
     0
 92
       -2
340
0
 93
        0
 40
1.125
309
GRIDFORMAT_END
 95
        8
302
GRIDFORMAT
  1
GRIDFORMAT_BEGIN
 90
        0
 91
        1
 62
     0
 92
       -2
340
0
 93
        0
 40
1.125
309
GRIDFORMAT_END
 95
       16
302
GRIDFORMAT
  1
GRIDFORMAT_BEGIN
 90
        0
 91
        1
 62
     0
 92
       -2
340
0
 93
        0
 40
1.125
309
GRIDFORMAT_END
 95
       32
302
GRIDFORMAT
  1
GRIDFORMAT_BEGIN
 90
        0
 91
        1
 62
     0
 92
       -2
340
0
 93
        0
 40
1.125
309
GRIDFORMAT_END
309
TABLEFORMAT_END
  1
CELLSTYLE_BEGIN
 90
        1
 91
        1
300
_TITLE
309
CELLSTYLE_END
300
CELLSTYLE
  1
TABLEFORMAT_BEGIN
 90
        5
170
     1
 91
        0
 92
        0
 62
   257
 93
        1
300
CONTENTFORMAT
  1
CONTENTFORMAT_BEGIN
 90
        0
 91
        0
 92
      512
 93
        0
300

 40
0.0
140
1.0
 94
        5
 62
     0
340
11
144
4.5
309
CONTENTFORMAT_END
171
     1
301
MARGIN
  1
CELLMARGIN_BEGIN
 40
1.5
 40
1.5
 40
1.5
 40
1.5
 40
4.5
 40
4.5
309
CELLMARGIN_END
 94
        6
 95
        1
302
GRIDFORMAT
  1
GRIDFORMAT_BEGIN
 90
        0
 91
        1
 62
     0
 92
       -2
340
0
 93
        0
 40
1.125
309
GRIDFORMAT_END
 95
        2
302
GRIDFORMAT
  1
GRIDFORMAT_BEGIN
 90
        0
 91
        1
 62
     0
 92
       -2
340
0
 93
        0
 40
1.125
309
GRIDFORMAT_END
 95
        4
302
GRIDFORMAT
  1
GRIDFORMAT_BEGIN
 90
        0
 91
        1
 62
     0
 92
       -2
340
0
 93
        0
 40
1.125
309
GRIDFORMAT_END
 95
        8
302
GRIDFORMAT
  1
GRIDFORMAT_BEGIN
 90
        0
 91
        1
 62
     0
 92
       -2
340
0
 93
        0
 40
1.125
309
GRIDFORMAT_END
 95
       16
302
GRIDFORMAT
  1
GRIDFORMAT_BEGIN
 90
        0
 91
        1
 62
     0
 92
       -2
340
0
 93
        0
 40
1.125
309
GRIDFORMAT_END
 95
       32
302
GRIDFORMAT
  1
GRIDFORMAT_BEGIN
 90
        0
 91
        1
 62
     0
 92
       -2
340
0
 93
        0
 40
1.125
309
GRIDFORMAT_END
309
TABLEFORMAT_END
  1
CELLSTYLE_BEGIN
 90
        2
 91
        1
300
_HEADER
309
CELLSTYLE_END
300
CELLSTYLE
  1
TABLEFORMAT_BEGIN
 90
        5
170
     1
 91
        0
 92
        0
 62
   257
 93
        1
300
CONTENTFORMAT
  1
CONTENTFORMAT_BEGIN
 90
        0
 91
        0
 92
      512
 93
        0
300

 40
0.0
140
1.0
 94
        2
 62
     0
340
11
144
4.5
309
CONTENTFORMAT_END
171
     1
301
MARGIN
  1
CELLMARGIN_BEGIN
 40
1.5
 40
1.5
 40
1.5
 40
1.5
 40
4.5
 40
4.5
309
CELLMARGIN_END
 94
        6
 95
        1
302
GRIDFORMAT
  1
GRIDFORMAT_BEGIN
 90
        0
 91
        1
 62
     0
 92
       -2
340
0
 93
        0
 40
1.125
309
GRIDFORMAT_END
 95
        2
302
GRIDFORMAT
  1
GRIDFORMAT_BEGIN
 90
        0
 91
        1
 62
     0
 92
       -2
340
0
 93
        0
 40
1.125
309
GRIDFORMAT_END
 95
        4
302
GRIDFORMAT
  1
GRIDFORMAT_BEGIN
 90
        0
 91
        1
 62
     0
 92
       -2
340
0
 93
        0
 40
1.125
309
GRIDFORMAT_END
 95
        8
302
GRIDFORMAT
  1
GRIDFORMAT_BEGIN
 90
        0
 91
        1
 62
     0
 92
       -2
340
0
 93
        0
 40
1.125
309
GRIDFORMAT_END
 95
       16
302
GRIDFORMAT
  1
GRIDFORMAT_BEGIN
 90
        0
 91
        1
 62
     0
 92
       -2
340
0
 93
        0
 40
1.125
309
GRIDFORMAT_END
 95
       32
302
GRIDFORMAT
  1
GRIDFORMAT_BEGIN
 90
        0
 91
        1
 62
     0
 92
       -2
340
0
 93
        0
 40
1.125
309
GRIDFORMAT_END
309
TABLEFORMAT_END
  1
CELLSTYLE_BEGIN
 90
        3
 91
        2
300
_DATA
309
CELLSTYLE_END
  0
XRECORD
  5
6421
102
{ACAD_REACTORS
330
5569
102
}
330
5569
100
AcDbXrecord
280
     1
102
ACAD_ROUNDTRIP_PRE2007_TABLESTYLE
 90
      512
 91
        0
  1

 92
      512
 93
        0
  2

 94
      512
 95
        0
  3

  0
XRECORD
  5
6406
102
{ACAD_REACTORS
330
6405
102
}
330
6405
100
AcDbXrecord
280
     1
102
RTVSPost2010Prop28
280
     1
102
RTVSPost2010PropOp28
 70
     1
102
RTVSPost2010Prop29
280
     1
102
RTVSPost2010PropOp29
 70
     1
102
RTVSPost2010Prop30
280
     0
102
RTVSPost2010PropOp30
 70
     1
102
RTVSPost2010Prop31
280
     0
102
RTVSPost2010PropOp31
 70
     1
102
RTVSPost2010Prop32
280
     0
102
RTVSPost2010PropOp32
 70
     1
102
RTVSPost2010Prop33
280
     0
102
RTVSPost2010PropOp33
 70
     1
102
RTVSPost2010Prop34
280
     0
102
RTVSPost2010PropOp34
 70
     1
102
RTVSPost2010Prop35
280
     0
102
RTVSPost2010PropOp35
 70
     1
102
RTVSPost2010Prop36
280
     0
102
RTVSPost2010PropOp36
 70
     1
102
RTVSPost2010Prop37
 90
       50
102
RTVSPost2010PropOp37
 70
     1
102
RTVSPost2010Prop38
140
0.0
102
RTVSPost2010PropOp38
 70
     1
102
RTVSPost2010Prop39
140
1.0
102
RTVSPost2010PropOp39
 70
     1
102
RTVSPost2010Prop40
 90
        0
102
RTVSPost2010PropOp40
 70
     1
102
RTVSPost2010Prop41ColorIndex
 90
       18
102
RTVSPost2010Prop41ColorRGB
 90
        0
102
RTVSPost2010PropOp41
 70
     1
102
RTVSPost2010Prop42
 90
       50
102
RTVSPost2010PropOp42
 70
     1
102
RTVSPost2010Prop43
 90
        3
102
RTVSPost2010PropOp43
 70
     1
102
RTVSPost2010Prop44ColorIndex
 90
        5
102
RTVSPost2010Prop44ColorRGB
 90
      255
102
RTVSPost2010PropOp44
 70
     1
102
RTVSPost2010Prop45
280
     0
102
RTVSPost2010PropOp45
 70
     1
102
RTVSPost2010Prop46
 90
       50
102
RTVSPost2010PropOp46
 70
     1
102
RTVSPost2010Prop47
 90
       50
102
RTVSPost2010PropOp47
 70
     1
102
RTVSPost2010Prop48
 90
       50
102
RTVSPost2010PropOp48
 70
     1
102
RTVSPost2010Prop49
280
     0
102
RTVSPost2010PropOp49
 70
     1
102
RTVSPost2010Prop50
 90
       50
102
RTVSPost2010PropOp50
 70
     1
102
RTVSPost2010Prop51ColorIndex
 90
      256
102
RTVSPost2010Prop51ColorRGB
 90
-16777216
102
RTVSPost2010PropOp51
 70
     0
102
RTVSPost2010Prop52
140
1.0
102
RTVSPost2010PropOp52
 70
     0
102
RTVSPost2010Prop53
 90
        2
102
RTVSPost2010PropOp53
 70
     1
102
RTVSPost2010Prop54
  1
strokes_ogs.tif
102
RTVSPost2010PropOp54
 70
     1
102
RTVSPost2010Prop55
280
     0
102
RTVSPost2010PropOp55
 70
     1
102
RTVSPost2010Prop56
140
1.0
102
RTVSPost2010PropOp56
 70
     1
102
RTVSPost2010Prop57
140
1.0
102
RTVSPost2010PropOp57
 70
     1
102
RTVSPropertyOp0
 70
     1
102
RTVSPropertyOp1
 70
     1
102
RTVSPropertyOp2
 70
     1
102
RTVSPropertyOp3
 70
     1
102
RTVSPropertyOp4
 70
     1
102
RTVSPropertyOp5
 70
     1
102
RTVSPropertyOp6
 70
     1
102
RTVSPropertyOp7
 70
     1
102
RTVSPropertyOp8
 70
     1
102
RTVSPropertyOp9
 70
     1
102
RTVSPropertyOp10
 70
     1
102
RTVSPropertyOp11
 70
     1
102
RTVSPropertyOp12
 70
     1
102
RTVSPropertyOp13
 70
     1
102
RTVSPropertyOp14
 70
     1
102
RTVSPropertyOp15
 70
     1
102
RTVSPropertyOp16
 70
     1
102
RTVSPropertyOp17
 70
     1
102
RTVSPropertyOp18
 70
     1
102
RTVSPropertyOp19
 70
     1
102
RTVSPropertyOp20
 70
     1
102
RTVSPropertyOp21
 70
     1
102
RTVSPropertyOp22
 70
     1
102
RTVSPropertyOp23
 70
     1
102
RTVSPropertyOp24
 70
     1
102
RTVSPropertyOp25
 70
     1
102
RTVSPropertyOp26
 70
     1
102
RTVSPropertyOp27
 70
     1
102
RTVSPropertyOp28
 70
     1
102
RTVSPropertyOp29
 70
     1
102
RTVSPropertyOp30
 70
     1
102
RTVSPropertyOp31
 70
     1
102
RTVSPropertyOp32
 70
     1
102
RTVSPropertyOp33
 70
     1
102
RTVSPropertyOp34
 70
     1
102
RTVSPropertyOp35
 70
     1
102
RTVSPropertyOp36
 70
     1
102
RTVSPropertyOp37
 70
     1
102
RTVSPropertyOp38
 70
     1
102
RTVSPropertyOp39
 70
     1
102
RTVSPropertyOp40
 70
     1
102
RTVSPropertyOp41
 70
     1
102
RTVSPropertyOp42
 70
     1
102
RTVSPropertyOp43
 70
     1
102
RTVSPropertyOp44
 70
     1
102
RTVSPropertyOp45
 70
     1
102
RTVSPropertyOp46
 70
     1
102
RTVSPropertyOp47
 70
     1
102
RTVSPropertyOp48
 70
     1
102
RTVSPropertyOp49
 70
     1
102
RTVSPropertyOp50
 70
     1
102
RTVSPropertyOp51
 70
     0
102
RTVSPropertyOp52
 70
     0
102
RTVSPropertyOp53
 70
     1
102
RTVSPropertyOp54
 70
     1
102
RTVSPropertyOp55
 70
     1
102
RTVSPropertyOp56
 70
     1
102
RTVSPropertyOp57
 70
     1
102
RTVSPropertyOp58
 70
     1
102
RTVSPropertyOp59
 70
     1
102
RTVSPropertyOp60
 70
     1
102
RTVSPropertyOp61
 70
     1
102
RTVSPropertyOp62
 70
     1
  0
XRECORD
  5
640A
102
{ACAD_REACTORS
330
6409
102
}
330
6409
100
AcDbXrecord
280
     1
102
RTVSPost2010Prop28
280
     0
102
RTVSPost2010PropOp28
 70
     1
102
RTVSPost2010Prop29
280
     1
102
RTVSPost2010PropOp29
 70
     1
102
RTVSPost2010Prop30
280
     1
102
RTVSPost2010PropOp30
 70
     1
102
RTVSPost2010Prop31
280
     0
102
RTVSPost2010PropOp31
 70
     1
102
RTVSPost2010Prop32
280
     0
102
RTVSPost2010PropOp32
 70
     1
102
RTVSPost2010Prop33
280
     0
102
RTVSPost2010PropOp33
 70
     1
102
RTVSPost2010Prop34
280
     0
102
RTVSPost2010PropOp34
 70
     1
102
RTVSPost2010Prop35
280
     0
102
RTVSPost2010PropOp35
 70
     1
102
RTVSPost2010Prop36
280
     0
102
RTVSPost2010PropOp36
 70
     1
102
RTVSPost2010Prop37
 90
       50
102
RTVSPost2010PropOp37
 70
     1
102
RTVSPost2010Prop38
140
0.0
102
RTVSPost2010PropOp38
 70
     1
102
RTVSPost2010Prop39
140
1.0
102
RTVSPost2010PropOp39
 70
     1
102
RTVSPost2010Prop40
 90
        0
102
RTVSPost2010PropOp40
 70
     1
102
RTVSPost2010Prop41ColorIndex
 90
       18
102
RTVSPost2010Prop41ColorRGB
 90
        0
102
RTVSPost2010PropOp41
 70
     1
102
RTVSPost2010Prop42
 90
       50
102
RTVSPost2010PropOp42
 70
     1
102
RTVSPost2010Prop43
 90
        3
102
RTVSPost2010PropOp43
 70
     1
102
RTVSPost2010Prop44ColorIndex
 90
        5
102
RTVSPost2010Prop44ColorRGB
 90
      255
102
RTVSPost2010PropOp44
 70
     1
102
RTVSPost2010Prop45
280
     0
102
RTVSPost2010PropOp45
 70
     1
102
RTVSPost2010Prop46
 90
       50
102
RTVSPost2010PropOp46
 70
     1
102
RTVSPost2010Prop47
 90
       50
102
RTVSPost2010PropOp47
 70
     1
102
RTVSPost2010Prop48
 90
       50
102
RTVSPost2010PropOp48
 70
     1
102
RTVSPost2010Prop49
280
     0
102
RTVSPost2010PropOp49
 70
     1
102
RTVSPost2010Prop50
 90
       50
102
RTVSPost2010PropOp50
 70
     1
102
RTVSPost2010Prop51ColorIndex
 90
      256
102
RTVSPost2010Prop51ColorRGB
 90
-16777216
102
RTVSPost2010PropOp51
 70
     0
102
RTVSPost2010Prop52
140
1.0
102
RTVSPost2010PropOp52
 70
     0
102
RTVSPost2010Prop53
 90
        2
102
RTVSPost2010PropOp53
 70
     1
102
RTVSPost2010Prop54
  1
strokes_ogs.tif
102
RTVSPost2010PropOp54
 70
     1
102
RTVSPost2010Prop55
280
     0
102
RTVSPost2010PropOp55
 70
     1
102
RTVSPost2010Prop56
140
1.0
102
RTVSPost2010PropOp56
 70
     1
102
RTVSPost2010Prop57
140
1.0
102
RTVSPost2010PropOp57
 70
     1
102
RTVSPropertyOp0
 70
     1
102
RTVSPropertyOp1
 70
     1
102
RTVSPropertyOp2
 70
     1
102
RTVSPropertyOp3
 70
     1
102
RTVSPropertyOp4
 70
     1
102
RTVSPropertyOp5
 70
     1
102
RTVSPropertyOp6
 70
     1
102
RTVSPropertyOp7
 70
     1
102
RTVSPropertyOp8
 70
     1
102
RTVSPropertyOp9
 70
     1
102
RTVSPropertyOp10
 70
     1
102
RTVSPropertyOp11
 70
     1
102
RTVSPropertyOp12
 70
     1
102
RTVSPropertyOp13
 70
     1
102
RTVSPropertyOp14
 70
     1
102
RTVSPropertyOp15
 70
     1
102
RTVSPropertyOp16
 70
     1
102
RTVSPropertyOp17
 70
     1
102
RTVSPropertyOp18
 70
     1
102
RTVSPropertyOp19
 70
     1
102
RTVSPropertyOp20
 70
     1
102
RTVSPropertyOp21
 70
     1
102
RTVSPropertyOp22
 70
     1
102
RTVSPropertyOp23
 70
     1
102
RTVSPropertyOp24
 70
     1
102
RTVSPropertyOp25
 70
     1
102
RTVSPropertyOp26
 70
     1
102
RTVSPropertyOp27
 70
     1
102
RTVSPropertyOp28
 70
     1
102
RTVSPropertyOp29
 70
     1
102
RTVSPropertyOp30
 70
     1
102
RTVSPropertyOp31
 70
     1
102
RTVSPropertyOp32
 70
     1
102
RTVSPropertyOp33
 70
     1
102
RTVSPropertyOp34
 70
     1
102
RTVSPropertyOp35
 70
     1
102
RTVSPropertyOp36
 70
     1
102
RTVSPropertyOp37
 70
     1
102
RTVSPropertyOp38
 70
     1
102
RTVSPropertyOp39
 70
     1
102
RTVSPropertyOp40
 70
     1
102
RTVSPropertyOp41
 70
     1
102
RTVSPropertyOp42
 70
     1
102
RTVSPropertyOp43
 70
     1
102
RTVSPropertyOp44
 70
     1
102
RTVSPropertyOp45
 70
     1
102
RTVSPropertyOp46
 70
     1
102
RTVSPropertyOp47
 70
     1
102
RTVSPropertyOp48
 70
     1
102
RTVSPropertyOp49
 70
     1
102
RTVSPropertyOp50
 70
     1
102
RTVSPropertyOp51
 70
     0
102
RTVSPropertyOp52
 70
     0
102
RTVSPropertyOp53
 70
     1
102
RTVSPropertyOp54
 70
     1
102
RTVSPropertyOp55
 70
     1
102
RTVSPropertyOp56
 70
     1
102
RTVSPropertyOp57
 70
     1
102
RTVSPropertyOp58
 70
     1
102
RTVSPropertyOp59
 70
     1
102
RTVSPropertyOp60
 70
     1
102
RTVSPropertyOp61
 70
     1
102
RTVSPropertyOp62
 70
     1
  0
XRECORD
  5
6408
102
{ACAD_REACTORS
330
6407
102
}
330
6407
100
AcDbXrecord
280
     1
102
RTVSPost2010Prop28
280
     0
102
RTVSPost2010PropOp28
 70
     1
102
RTVSPost2010Prop29
280
     1
102
RTVSPost2010PropOp29
 70
     1
102
RTVSPost2010Prop30
280
     1
102
RTVSPost2010PropOp30
 70
     1
102
RTVSPost2010Prop31
280
     0
102
RTVSPost2010PropOp31
 70
     1
102
RTVSPost2010Prop32
280
     0
102
RTVSPost2010PropOp32
 70
     1
102
RTVSPost2010Prop33
280
     0
102
RTVSPost2010PropOp33
 70
     1
102
RTVSPost2010Prop34
280
     0
102
RTVSPost2010PropOp34
 70
     1
102
RTVSPost2010Prop35
280
     0
102
RTVSPost2010PropOp35
 70
     1
102
RTVSPost2010Prop36
280
     0
102
RTVSPost2010PropOp36
 70
     1
102
RTVSPost2010Prop37
 90
       50
102
RTVSPost2010PropOp37
 70
     1
102
RTVSPost2010Prop38
140
0.0
102
RTVSPost2010PropOp38
 70
     1
102
RTVSPost2010Prop39
140
1.0
102
RTVSPost2010PropOp39
 70
     1
102
RTVSPost2010Prop40
 90
        0
102
RTVSPost2010PropOp40
 70
     1
102
RTVSPost2010Prop41ColorIndex
 90
       18
102
RTVSPost2010Prop41ColorRGB
 90
        0
102
RTVSPost2010PropOp41
 70
     1
102
RTVSPost2010Prop42
 90
       50
102
RTVSPost2010PropOp42
 70
     1
102
RTVSPost2010Prop43
 90
        3
102
RTVSPost2010PropOp43
 70
     1
102
RTVSPost2010Prop44ColorIndex
 90
        5
102
RTVSPost2010Prop44ColorRGB
 90
      255
102
RTVSPost2010PropOp44
 70
     1
102
RTVSPost2010Prop45
280
     0
102
RTVSPost2010PropOp45
 70
     1
102
RTVSPost2010Prop46
 90
       50
102
RTVSPost2010PropOp46
 70
     1
102
RTVSPost2010Prop47
 90
       50
102
RTVSPost2010PropOp47
 70
     1
102
RTVSPost2010Prop48
 90
       50
102
RTVSPost2010PropOp48
 70
     1
102
RTVSPost2010Prop49
280
     0
102
RTVSPost2010PropOp49
 70
     1
102
RTVSPost2010Prop50
 90
       50
102
RTVSPost2010PropOp50
 70
     1
102
RTVSPost2010Prop51ColorIndex
 90
      256
102
RTVSPost2010Prop51ColorRGB
 90
-16777216
102
RTVSPost2010PropOp51
 70
     0
102
RTVSPost2010Prop52
140
1.0
102
RTVSPost2010PropOp52
 70
     0
102
RTVSPost2010Prop53
 90
        2
102
RTVSPost2010PropOp53
 70
     1
102
RTVSPost2010Prop54
  1
strokes_ogs.tif
102
RTVSPost2010PropOp54
 70
     1
102
RTVSPost2010Prop55
280
     0
102
RTVSPost2010PropOp55
 70
     1
102
RTVSPost2010Prop56
140
1.0
102
RTVSPost2010PropOp56
 70
     1
102
RTVSPost2010Prop57
140
1.0
102
RTVSPost2010PropOp57
 70
     1
102
RTVSPropertyOp0
 70
     1
102
RTVSPropertyOp1
 70
     1
102
RTVSPropertyOp2
 70
     1
102
RTVSPropertyOp3
 70
     1
102
RTVSPropertyOp4
 70
     1
102
RTVSPropertyOp5
 70
     1
102
RTVSPropertyOp6
 70
     1
102
RTVSPropertyOp7
 70
     1
102
RTVSPropertyOp8
 70
     1
102
RTVSPropertyOp9
 70
     1
102
RTVSPropertyOp10
 70
     1
102
RTVSPropertyOp11
 70
     1
102
RTVSPropertyOp12
 70
     1
102
RTVSPropertyOp13
 70
     1
102
RTVSPropertyOp14
 70
     1
102
RTVSPropertyOp15
 70
     1
102
RTVSPropertyOp16
 70
     1
102
RTVSPropertyOp17
 70
     1
102
RTVSPropertyOp18
 70
     1
102
RTVSPropertyOp19
 70
     1
102
RTVSPropertyOp20
 70
     1
102
RTVSPropertyOp21
 70
     1
102
RTVSPropertyOp22
 70
     1
102
RTVSPropertyOp23
 70
     1
102
RTVSPropertyOp24
 70
     1
102
RTVSPropertyOp25
 70
     1
102
RTVSPropertyOp26
 70
     1
102
RTVSPropertyOp27
 70
     1
102
RTVSPropertyOp28
 70
     1
102
RTVSPropertyOp29
 70
     1
102
RTVSPropertyOp30
 70
     1
102
RTVSPropertyOp31
 70
     1
102
RTVSPropertyOp32
 70
     1
102
RTVSPropertyOp33
 70
     1
102
RTVSPropertyOp34
 70
     1
102
RTVSPropertyOp35
 70
     1
102
RTVSPropertyOp36
 70
     1
102
RTVSPropertyOp37
 70
     1
102
RTVSPropertyOp38
 70
     1
102
RTVSPropertyOp39
 70
     1
102
RTVSPropertyOp40
 70
     1
102
RTVSPropertyOp41
 70
     1
102
RTVSPropertyOp42
 70
     1
102
RTVSPropertyOp43
 70
     1
102
RTVSPropertyOp44
 70
     1
102
RTVSPropertyOp45
 70
     1
102
RTVSPropertyOp46
 70
     1
102
RTVSPropertyOp47
 70
     1
102
RTVSPropertyOp48
 70
     1
102
RTVSPropertyOp49
 70
     1
102
RTVSPropertyOp50
 70
     1
102
RTVSPropertyOp51
 70
     0
102
RTVSPropertyOp52
 70
     0
102
RTVSPropertyOp53
 70
     1
102
RTVSPropertyOp54
 70
     1
102
RTVSPropertyOp55
 70
     1
102
RTVSPropertyOp56
 70
     1
102
RTVSPropertyOp57
 70
     1
102
RTVSPropertyOp58
 70
     1
102
RTVSPropertyOp59
 70
     1
102
RTVSPropertyOp60
 70
     1
102
RTVSPropertyOp61
 70
     1
102
RTVSPropertyOp62
 70
     1
  0
XRECORD
  5
6404
102
{ACAD_REACTORS
330
6403
102
}
330
6403
100
AcDbXrecord
280
     1
102
RTVSPost2010Prop28
280
     0
102
RTVSPost2010PropOp28
 70
     1
102
RTVSPost2010Prop29
280
     1
102
RTVSPost2010PropOp29
 70
     1
102
RTVSPost2010Prop30
280
     1
102
RTVSPost2010PropOp30
 70
     1
102
RTVSPost2010Prop31
280
     0
102
RTVSPost2010PropOp31
 70
     1
102
RTVSPost2010Prop32
280
     0
102
RTVSPost2010PropOp32
 70
     1
102
RTVSPost2010Prop33
280
     0
102
RTVSPost2010PropOp33
 70
     1
102
RTVSPost2010Prop34
280
     0
102
RTVSPost2010PropOp34
 70
     1
102
RTVSPost2010Prop35
280
     0
102
RTVSPost2010PropOp35
 70
     1
102
RTVSPost2010Prop36
280
     0
102
RTVSPost2010PropOp36
 70
     1
102
RTVSPost2010Prop37
 90
       50
102
RTVSPost2010PropOp37
 70
     1
102
RTVSPost2010Prop38
140
0.0
102
RTVSPost2010PropOp38
 70
     1
102
RTVSPost2010Prop39
140
1.0
102
RTVSPost2010PropOp39
 70
     1
102
RTVSPost2010Prop40
 90
        0
102
RTVSPost2010PropOp40
 70
     1
102
RTVSPost2010Prop41ColorIndex
 90
       18
102
RTVSPost2010Prop41ColorRGB
 90
        0
102
RTVSPost2010PropOp41
 70
     1
102
RTVSPost2010Prop42
 90
       50
102
RTVSPost2010PropOp42
 70
     1
102
RTVSPost2010Prop43
 90
        3
102
RTVSPost2010PropOp43
 70
     1
102
RTVSPost2010Prop44ColorIndex
 90
        5
102
RTVSPost2010Prop44ColorRGB
 90
      255
102
RTVSPost2010PropOp44
 70
     1
102
RTVSPost2010Prop45
280
     0
102
RTVSPost2010PropOp45
 70
     1
102
RTVSPost2010Prop46
 90
       50
102
RTVSPost2010PropOp46
 70
     1
102
RTVSPost2010Prop47
 90
       50
102
RTVSPost2010PropOp47
 70
     1
102
RTVSPost2010Prop48
 90
       50
102
RTVSPost2010PropOp48
 70
     1
102
RTVSPost2010Prop49
280
     0
102
RTVSPost2010PropOp49
 70
     1
102
RTVSPost2010Prop50
 90
       50
102
RTVSPost2010PropOp50
 70
     1
102
RTVSPost2010Prop51ColorIndex
 90
      256
102
RTVSPost2010Prop51ColorRGB
 90
-16777216
102
RTVSPost2010PropOp51
 70
     0
102
RTVSPost2010Prop52
140
1.0
102
RTVSPost2010PropOp52
 70
     0
102
RTVSPost2010Prop53
 90
        2
102
RTVSPost2010PropOp53
 70
     1
102
RTVSPost2010Prop54
  1
strokes_ogs.tif
102
RTVSPost2010PropOp54
 70
     1
102
RTVSPost2010Prop55
280
     0
102
RTVSPost2010PropOp55
 70
     1
102
RTVSPost2010Prop56
140
1.0
102
RTVSPost2010PropOp56
 70
     1
102
RTVSPost2010Prop57
140
1.0
102
RTVSPost2010PropOp57
 70
     1
102
RTVSPropertyOp0
 70
     1
102
RTVSPropertyOp1
 70
     1
102
RTVSPropertyOp2
 70
     1
102
RTVSPropertyOp3
 70
     1
102
RTVSPropertyOp4
 70
     1
102
RTVSPropertyOp5
 70
     1
102
RTVSPropertyOp6
 70
     1
102
RTVSPropertyOp7
 70
     1
102
RTVSPropertyOp8
 70
     1
102
RTVSPropertyOp9
 70
     1
102
RTVSPropertyOp10
 70
     1
102
RTVSPropertyOp11
 70
     1
102
RTVSPropertyOp12
 70
     1
102
RTVSPropertyOp13
 70
     1
102
RTVSPropertyOp14
 70
     1
102
RTVSPropertyOp15
 70
     1
102
RTVSPropertyOp16
 70
     1
102
RTVSPropertyOp17
 70
     1
102
RTVSPropertyOp18
 70
     1
102
RTVSPropertyOp19
 70
     1
102
RTVSPropertyOp20
 70
     1
102
RTVSPropertyOp21
 70
     1
102
RTVSPropertyOp22
 70
     1
102
RTVSPropertyOp23
 70
     1
102
RTVSPropertyOp24
 70
     1
102
RTVSPropertyOp25
 70
     1
102
RTVSPropertyOp26
 70
     1
102
RTVSPropertyOp27
 70
     1
102
RTVSPropertyOp28
 70
     1
102
RTVSPropertyOp29
 70
     1
102
RTVSPropertyOp30
 70
     1
102
RTVSPropertyOp31
 70
     1
102
RTVSPropertyOp32
 70
     1
102
RTVSPropertyOp33
 70
     1
102
RTVSPropertyOp34
 70
     1
102
RTVSPropertyOp35
 70
     1
102
RTVSPropertyOp36
 70
     1
102
RTVSPropertyOp37
 70
     1
102
RTVSPropertyOp38
 70
     1
102
RTVSPropertyOp39
 70
     1
102
RTVSPropertyOp40
 70
     1
102
RTVSPropertyOp41
 70
     1
102
RTVSPropertyOp42
 70
     1
102
RTVSPropertyOp43
 70
     1
102
RTVSPropertyOp44
 70
     1
102
RTVSPropertyOp45
 70
     1
102
RTVSPropertyOp46
 70
     1
102
RTVSPropertyOp47
 70
     1
102
RTVSPropertyOp48
 70
     1
102
RTVSPropertyOp49
 70
     1
102
RTVSPropertyOp50
 70
     1
102
RTVSPropertyOp51
 70
     0
102
RTVSPropertyOp52
 70
     0
102
RTVSPropertyOp53
 70
     1
102
RTVSPropertyOp54
 70
     1
102
RTVSPropertyOp55
 70
     1
102
RTVSPropertyOp56
 70
     1
102
RTVSPropertyOp57
 70
     1
102
RTVSPropertyOp58
 70
     1
102
RTVSPropertyOp59
 70
     1
102
RTVSPropertyOp60
 70
     1
102
RTVSPropertyOp61
 70
     1
102
RTVSPropertyOp62
 70
     1
  0
XRECORD
  5
6412
102
{ACAD_REACTORS
330
6411
102
}
330
6411
100
AcDbXrecord
280
     1
102
RTVSPost2010Prop28
280
     0
102
RTVSPost2010PropOp28
 70
     1
102
RTVSPost2010Prop29
280
     1
102
RTVSPost2010PropOp29
 70
     1
102
RTVSPost2010Prop30
280
     1
102
RTVSPost2010PropOp30
 70
     1
102
RTVSPost2010Prop31
280
     0
102
RTVSPost2010PropOp31
 70
     1
102
RTVSPost2010Prop32
280
     0
102
RTVSPost2010PropOp32
 70
     1
102
RTVSPost2010Prop33
280
     0
102
RTVSPost2010PropOp33
 70
     1
102
RTVSPost2010Prop34
280
     0
102
RTVSPost2010PropOp34
 70
     1
102
RTVSPost2010Prop35
280
     0
102
RTVSPost2010PropOp35
 70
     1
102
RTVSPost2010Prop36
280
     0
102
RTVSPost2010PropOp36
 70
     1
102
RTVSPost2010Prop37
 90
       50
102
RTVSPost2010PropOp37
 70
     1
102
RTVSPost2010Prop38
140
0.0
102
RTVSPost2010PropOp38
 70
     1
102
RTVSPost2010Prop39
140
1.0
102
RTVSPost2010PropOp39
 70
     1
102
RTVSPost2010Prop40
 90
        0
102
RTVSPost2010PropOp40
 70
     1
102
RTVSPost2010Prop41ColorIndex
 90
       18
102
RTVSPost2010Prop41ColorRGB
 90
        0
102
RTVSPost2010PropOp41
 70
     1
102
RTVSPost2010Prop42
 90
       50
102
RTVSPost2010PropOp42
 70
     1
102
RTVSPost2010Prop43
 90
        3
102
RTVSPost2010PropOp43
 70
     1
102
RTVSPost2010Prop44ColorIndex
 90
        5
102
RTVSPost2010Prop44ColorRGB
 90
      255
102
RTVSPost2010PropOp44
 70
     1
102
RTVSPost2010Prop45
280
     0
102
RTVSPost2010PropOp45
 70
     1
102
RTVSPost2010Prop46
 90
       50
102
RTVSPost2010PropOp46
 70
     1
102
RTVSPost2010Prop47
 90
       50
102
RTVSPost2010PropOp47
 70
     1
102
RTVSPost2010Prop48
 90
       50
102
RTVSPost2010PropOp48
 70
     1
102
RTVSPost2010Prop49
280
     0
102
RTVSPost2010PropOp49
 70
     1
102
RTVSPost2010Prop50
 90
       50
102
RTVSPost2010PropOp50
 70
     1
102
RTVSPost2010Prop51ColorIndex
 90
      256
102
RTVSPost2010Prop51ColorRGB
 90
-16777216
102
RTVSPost2010PropOp51
 70
     0
102
RTVSPost2010Prop52
140
1.0
102
RTVSPost2010PropOp52
 70
     0
102
RTVSPost2010Prop53
 90
        2
102
RTVSPost2010PropOp53
 70
     1
102
RTVSPost2010Prop54
  1
strokes_ogs.tif
102
RTVSPost2010PropOp54
 70
     1
102
RTVSPost2010Prop55
280
     0
102
RTVSPost2010PropOp55
 70
     1
102
RTVSPost2010Prop56
140
1.0
102
RTVSPost2010PropOp56
 70
     1
102
RTVSPost2010Prop57
140
1.0
102
RTVSPost2010PropOp57
 70
     1
102
RTVSPropertyOp0
 70
     1
102
RTVSPropertyOp1
 70
     1
102
RTVSPropertyOp2
 70
     1
102
RTVSPropertyOp3
 70
     1
102
RTVSPropertyOp4
 70
     1
102
RTVSPropertyOp5
 70
     1
102
RTVSPropertyOp6
 70
     1
102
RTVSPropertyOp7
 70
     1
102
RTVSPropertyOp8
 70
     1
102
RTVSPropertyOp9
 70
     1
102
RTVSPropertyOp10
 70
     1
102
RTVSPropertyOp11
 70
     1
102
RTVSPropertyOp12
 70
     1
102
RTVSPropertyOp13
 70
     1
102
RTVSPropertyOp14
 70
     1
102
RTVSPropertyOp15
 70
     1
102
RTVSPropertyOp16
 70
     1
102
RTVSPropertyOp17
 70
     1
102
RTVSPropertyOp18
 70
     1
102
RTVSPropertyOp19
 70
     1
102
RTVSPropertyOp20
 70
     1
102
RTVSPropertyOp21
 70
     1
102
RTVSPropertyOp22
 70
     1
102
RTVSPropertyOp23
 70
     1
102
RTVSPropertyOp24
 70
     1
102
RTVSPropertyOp25
 70
     1
102
RTVSPropertyOp26
 70
     1
102
RTVSPropertyOp27
 70
     1
102
RTVSPropertyOp28
 70
     1
102
RTVSPropertyOp29
 70
     1
102
RTVSPropertyOp30
 70
     1
102
RTVSPropertyOp31
 70
     1
102
RTVSPropertyOp32
 70
     1
102
RTVSPropertyOp33
 70
     1
102
RTVSPropertyOp34
 70
     1
102
RTVSPropertyOp35
 70
     1
102
RTVSPropertyOp36
 70
     1
102
RTVSPropertyOp37
 70
     1
102
RTVSPropertyOp38
 70
     1
102
RTVSPropertyOp39
 70
     1
102
RTVSPropertyOp40
 70
     1
102
RTVSPropertyOp41
 70
     1
102
RTVSPropertyOp42
 70
     1
102
RTVSPropertyOp43
 70
     1
102
RTVSPropertyOp44
 70
     1
102
RTVSPropertyOp45
 70
     1
102
RTVSPropertyOp46
 70
     1
102
RTVSPropertyOp47
 70
     1
102
RTVSPropertyOp48
 70
     1
102
RTVSPropertyOp49
 70
     1
102
RTVSPropertyOp50
 70
     1
102
RTVSPropertyOp51
 70
     0
102
RTVSPropertyOp52
 70
     0
102
RTVSPropertyOp53
 70
     1
102
RTVSPropertyOp54
 70
     1
102
RTVSPropertyOp55
 70
     1
102
RTVSPropertyOp56
 70
     1
102
RTVSPropertyOp57
 70
     1
102
RTVSPropertyOp58
 70
     1
102
RTVSPropertyOp59
 70
     1
102
RTVSPropertyOp60
 70
     1
102
RTVSPropertyOp61
 70
     1
102
RTVSPropertyOp62
 70
     1
  0
XRECORD
  5
641A
102
{ACAD_REACTORS
330
6419
102
}
330
6419
100
AcDbXrecord
280
     1
102
RTVSPost2010Prop28
280
     0
102
RTVSPost2010PropOp28
 70
     1
102
RTVSPost2010Prop29
280
     1
102
RTVSPost2010PropOp29
 70
     1
102
RTVSPost2010Prop30
280
     1
102
RTVSPost2010PropOp30
 70
     1
102
RTVSPost2010Prop31
280
     0
102
RTVSPost2010PropOp31
 70
     1
102
RTVSPost2010Prop32
280
     0
102
RTVSPost2010PropOp32
 70
     1
102
RTVSPost2010Prop33
280
     0
102
RTVSPost2010PropOp33
 70
     1
102
RTVSPost2010Prop34
280
     0
102
RTVSPost2010PropOp34
 70
     1
102
RTVSPost2010Prop35
280
     0
102
RTVSPost2010PropOp35
 70
     1
102
RTVSPost2010Prop36
280
     0
102
RTVSPost2010PropOp36
 70
     1
102
RTVSPost2010Prop37
 90
       50
102
RTVSPost2010PropOp37
 70
     1
102
RTVSPost2010Prop38
140
0.0
102
RTVSPost2010PropOp38
 70
     1
102
RTVSPost2010Prop39
140
1.0
102
RTVSPost2010PropOp39
 70
     1
102
RTVSPost2010Prop40
 90
        0
102
RTVSPost2010PropOp40
 70
     1
102
RTVSPost2010Prop41ColorIndex
 90
       18
102
RTVSPost2010Prop41ColorRGB
 90
        0
102
RTVSPost2010PropOp41
 70
     1
102
RTVSPost2010Prop42
 90
       50
102
RTVSPost2010PropOp42
 70
     1
102
RTVSPost2010Prop43
 90
        3
102
RTVSPost2010PropOp43
 70
     1
102
RTVSPost2010Prop44ColorIndex
 90
        5
102
RTVSPost2010Prop44ColorRGB
 90
      255
102
RTVSPost2010PropOp44
 70
     1
102
RTVSPost2010Prop45
280
     0
102
RTVSPost2010PropOp45
 70
     1
102
RTVSPost2010Prop46
 90
       50
102
RTVSPost2010PropOp46
 70
     1
102
RTVSPost2010Prop47
 90
       50
102
RTVSPost2010PropOp47
 70
     1
102
RTVSPost2010Prop48
 90
       50
102
RTVSPost2010PropOp48
 70
     1
102
RTVSPost2010Prop49
280
     0
102
RTVSPost2010PropOp49
 70
     1
102
RTVSPost2010Prop50
 90
       50
102
RTVSPost2010PropOp50
 70
     1
102
RTVSPost2010Prop51ColorIndex
 90
      256
102
RTVSPost2010Prop51ColorRGB
 90
-16777216
102
RTVSPost2010PropOp51
 70
     0
102
RTVSPost2010Prop52
140
1.0
102
RTVSPost2010PropOp52
 70
     0
102
RTVSPost2010Prop53
 90
        2
102
RTVSPost2010PropOp53
 70
     1
102
RTVSPost2010Prop54
  1
strokes_ogs.tif
102
RTVSPost2010PropOp54
 70
     1
102
RTVSPost2010Prop55
280
     0
102
RTVSPost2010PropOp55
 70
     1
102
RTVSPost2010Prop56
140
1.0
102
RTVSPost2010PropOp56
 70
     1
102
RTVSPost2010Prop57
140
1.0
102
RTVSPost2010PropOp57
 70
     1
102
RTVSPropertyOp0
 70
     1
102
RTVSPropertyOp1
 70
     1
102
RTVSPropertyOp2
 70
     1
102
RTVSPropertyOp3
 70
     1
102
RTVSPropertyOp4
 70
     1
102
RTVSPropertyOp5
 70
     1
102
RTVSPropertyOp6
 70
     1
102
RTVSPropertyOp7
 70
     1
102
RTVSPropertyOp8
 70
     1
102
RTVSPropertyOp9
 70
     1
102
RTVSPropertyOp10
 70
     1
102
RTVSPropertyOp11
 70
     1
102
RTVSPropertyOp12
 70
     1
102
RTVSPropertyOp13
 70
     1
102
RTVSPropertyOp14
 70
     1
102
RTVSPropertyOp15
 70
     1
102
RTVSPropertyOp16
 70
     1
102
RTVSPropertyOp17
 70
     1
102
RTVSPropertyOp18
 70
     1
102
RTVSPropertyOp19
 70
     1
102
RTVSPropertyOp20
 70
     1
102
RTVSPropertyOp21
 70
     1
102
RTVSPropertyOp22
 70
     1
102
RTVSPropertyOp23
 70
     1
102
RTVSPropertyOp24
 70
     1
102
RTVSPropertyOp25
 70
     1
102
RTVSPropertyOp26
 70
     1
102
RTVSPropertyOp27
 70
     1
102
RTVSPropertyOp28
 70
     1
102
RTVSPropertyOp29
 70
     1
102
RTVSPropertyOp30
 70
     1
102
RTVSPropertyOp31
 70
     1
102
RTVSPropertyOp32
 70
     1
102
RTVSPropertyOp33
 70
     1
102
RTVSPropertyOp34
 70
     1
102
RTVSPropertyOp35
 70
     1
102
RTVSPropertyOp36
 70
     1
102
RTVSPropertyOp37
 70
     1
102
RTVSPropertyOp38
 70
     1
102
RTVSPropertyOp39
 70
     1
102
RTVSPropertyOp40
 70
     1
102
RTVSPropertyOp41
 70
     1
102
RTVSPropertyOp42
 70
     1
102
RTVSPropertyOp43
 70
     1
102
RTVSPropertyOp44
 70
     1
102
RTVSPropertyOp45
 70
     1
102
RTVSPropertyOp46
 70
     1
102
RTVSPropertyOp47
 70
     1
102
RTVSPropertyOp48
 70
     1
102
RTVSPropertyOp49
 70
     1
102
RTVSPropertyOp50
 70
     1
102
RTVSPropertyOp51
 70
     0
102
RTVSPropertyOp52
 70
     0
102
RTVSPropertyOp53
 70
     1
102
RTVSPropertyOp54
 70
     1
102
RTVSPropertyOp55
 70
     1
102
RTVSPropertyOp56
 70
     1
102
RTVSPropertyOp57
 70
     1
102
RTVSPropertyOp58
 70
     1
102
RTVSPropertyOp59
 70
     1
102
RTVSPropertyOp60
 70
     1
102
RTVSPropertyOp61
 70
     1
102
RTVSPropertyOp62
 70
     1
  0
XRECORD
  5
640C
102
{ACAD_REACTORS
330
640B
102
}
330
640B
100
AcDbXrecord
280
     1
102
RTVSPost2010Prop28
280
     0
102
RTVSPost2010PropOp28
 70
     1
102
RTVSPost2010Prop29
280
     1
102
RTVSPost2010PropOp29
 70
     1
102
RTVSPost2010Prop30
280
     1
102
RTVSPost2010PropOp30
 70
     1
102
RTVSPost2010Prop31
280
     0
102
RTVSPost2010PropOp31
 70
     1
102
RTVSPost2010Prop32
280
     0
102
RTVSPost2010PropOp32
 70
     1
102
RTVSPost2010Prop33
280
     0
102
RTVSPost2010PropOp33
 70
     1
102
RTVSPost2010Prop34
280
     0
102
RTVSPost2010PropOp34
 70
     1
102
RTVSPost2010Prop35
280
     0
102
RTVSPost2010PropOp35
 70
     1
102
RTVSPost2010Prop36
280
     0
102
RTVSPost2010PropOp36
 70
     1
102
RTVSPost2010Prop37
 90
       50
102
RTVSPost2010PropOp37
 70
     1
102
RTVSPost2010Prop38
140
0.0
102
RTVSPost2010PropOp38
 70
     1
102
RTVSPost2010Prop39
140
1.0
102
RTVSPost2010PropOp39
 70
     1
102
RTVSPost2010Prop40
 90
        0
102
RTVSPost2010PropOp40
 70
     1
102
RTVSPost2010Prop41ColorIndex
 90
       18
102
RTVSPost2010Prop41ColorRGB
 90
        0
102
RTVSPost2010PropOp41
 70
     1
102
RTVSPost2010Prop42
 90
       50
102
RTVSPost2010PropOp42
 70
     1
102
RTVSPost2010Prop43
 90
        3
102
RTVSPost2010PropOp43
 70
     1
102
RTVSPost2010Prop44ColorIndex
 90
        5
102
RTVSPost2010Prop44ColorRGB
 90
      255
102
RTVSPost2010PropOp44
 70
     1
102
RTVSPost2010Prop45
280
     0
102
RTVSPost2010PropOp45
 70
     1
102
RTVSPost2010Prop46
 90
       50
102
RTVSPost2010PropOp46
 70
     1
102
RTVSPost2010Prop47
 90
       50
102
RTVSPost2010PropOp47
 70
     1
102
RTVSPost2010Prop48
 90
       50
102
RTVSPost2010PropOp48
 70
     1
102
RTVSPost2010Prop49
280
     0
102
RTVSPost2010PropOp49
 70
     1
102
RTVSPost2010Prop50
 90
       50
102
RTVSPost2010PropOp50
 70
     1
102
RTVSPost2010Prop51ColorIndex
 90
      256
102
RTVSPost2010Prop51ColorRGB
 90
-16777216
102
RTVSPost2010PropOp51
 70
     0
102
RTVSPost2010Prop52
140
1.0
102
RTVSPost2010PropOp52
 70
     0
102
RTVSPost2010Prop53
 90
        2
102
RTVSPost2010PropOp53
 70
     1
102
RTVSPost2010Prop54
  1
strokes_ogs.tif
102
RTVSPost2010PropOp54
 70
     1
102
RTVSPost2010Prop55
280
     0
102
RTVSPost2010PropOp55
 70
     1
102
RTVSPost2010Prop56
140
1.0
102
RTVSPost2010PropOp56
 70
     1
102
RTVSPost2010Prop57
140
1.0
102
RTVSPost2010PropOp57
 70
     1
102
RTVSPropertyOp0
 70
     1
102
RTVSPropertyOp1
 70
     1
102
RTVSPropertyOp2
 70
     1
102
RTVSPropertyOp3
 70
     1
102
RTVSPropertyOp4
 70
     1
102
RTVSPropertyOp5
 70
     1
102
RTVSPropertyOp6
 70
     1
102
RTVSPropertyOp7
 70
     1
102
RTVSPropertyOp8
 70
     1
102
RTVSPropertyOp9
 70
     1
102
RTVSPropertyOp10
 70
     1
102
RTVSPropertyOp11
 70
     1
102
RTVSPropertyOp12
 70
     1
102
RTVSPropertyOp13
 70
     1
102
RTVSPropertyOp14
 70
     1
102
RTVSPropertyOp15
 70
     1
102
RTVSPropertyOp16
 70
     1
102
RTVSPropertyOp17
 70
     1
102
RTVSPropertyOp18
 70
     1
102
RTVSPropertyOp19
 70
     1
102
RTVSPropertyOp20
 70
     1
102
RTVSPropertyOp21
 70
     1
102
RTVSPropertyOp22
 70
     1
102
RTVSPropertyOp23
 70
     1
102
RTVSPropertyOp24
 70
     1
102
RTVSPropertyOp25
 70
     1
102
RTVSPropertyOp26
 70
     1
102
RTVSPropertyOp27
 70
     1
102
RTVSPropertyOp28
 70
     1
102
RTVSPropertyOp29
 70
     1
102
RTVSPropertyOp30
 70
     1
102
RTVSPropertyOp31
 70
     1
102
RTVSPropertyOp32
 70
     1
102
RTVSPropertyOp33
 70
     1
102
RTVSPropertyOp34
 70
     1
102
RTVSPropertyOp35
 70
     1
102
RTVSPropertyOp36
 70
     1
102
RTVSPropertyOp37
 70
     1
102
RTVSPropertyOp38
 70
     1
102
RTVSPropertyOp39
 70
     1
102
RTVSPropertyOp40
 70
     1
102
RTVSPropertyOp41
 70
     1
102
RTVSPropertyOp42
 70
     1
102
RTVSPropertyOp43
 70
     1
102
RTVSPropertyOp44
 70
     1
102
RTVSPropertyOp45
 70
     1
102
RTVSPropertyOp46
 70
     1
102
RTVSPropertyOp47
 70
     1
102
RTVSPropertyOp48
 70
     1
102
RTVSPropertyOp49
 70
     1
102
RTVSPropertyOp50
 70
     1
102
RTVSPropertyOp51
 70
     0
102
RTVSPropertyOp52
 70
     0
102
RTVSPropertyOp53
 70
     1
102
RTVSPropertyOp54
 70
     1
102
RTVSPropertyOp55
 70
     1
102
RTVSPropertyOp56
 70
     1
102
RTVSPropertyOp57
 70
     1
102
RTVSPropertyOp58
 70
     1
102
RTVSPropertyOp59
 70
     1
102
RTVSPropertyOp60
 70
     1
102
RTVSPropertyOp61
 70
     1
102
RTVSPropertyOp62
 70
     1
  0
XRECORD
  5
6410
102
{ACAD_REACTORS
330
640F
102
}
330
640F
100
AcDbXrecord
280
     1
102
RTVSPost2010Prop28
280
     0
102
RTVSPost2010PropOp28
 70
     1
102
RTVSPost2010Prop29
280
     1
102
RTVSPost2010PropOp29
 70
     1
102
RTVSPost2010Prop30
280
     1
102
RTVSPost2010PropOp30
 70
     1
102
RTVSPost2010Prop31
280
     0
102
RTVSPost2010PropOp31
 70
     1
102
RTVSPost2010Prop32
280
     0
102
RTVSPost2010PropOp32
 70
     1
102
RTVSPost2010Prop33
280
     0
102
RTVSPost2010PropOp33
 70
     1
102
RTVSPost2010Prop34
280
     0
102
RTVSPost2010PropOp34
 70
     1
102
RTVSPost2010Prop35
280
     0
102
RTVSPost2010PropOp35
 70
     1
102
RTVSPost2010Prop36
280
     0
102
RTVSPost2010PropOp36
 70
     1
102
RTVSPost2010Prop37
 90
       50
102
RTVSPost2010PropOp37
 70
     1
102
RTVSPost2010Prop38
140
0.0
102
RTVSPost2010PropOp38
 70
     1
102
RTVSPost2010Prop39
140
1.0
102
RTVSPost2010PropOp39
 70
     1
102
RTVSPost2010Prop40
 90
        0
102
RTVSPost2010PropOp40
 70
     1
102
RTVSPost2010Prop41ColorIndex
 90
       18
102
RTVSPost2010Prop41ColorRGB
 90
        0
102
RTVSPost2010PropOp41
 70
     1
102
RTVSPost2010Prop42
 90
       50
102
RTVSPost2010PropOp42
 70
     1
102
RTVSPost2010Prop43
 90
        3
102
RTVSPost2010PropOp43
 70
     1
102
RTVSPost2010Prop44ColorIndex
 90
        5
102
RTVSPost2010Prop44ColorRGB
 90
      255
102
RTVSPost2010PropOp44
 70
     1
102
RTVSPost2010Prop45
280
     0
102
RTVSPost2010PropOp45
 70
     1
102
RTVSPost2010Prop46
 90
       50
102
RTVSPost2010PropOp46
 70
     1
102
RTVSPost2010Prop47
 90
       50
102
RTVSPost2010PropOp47
 70
     1
102
RTVSPost2010Prop48
 90
       50
102
RTVSPost2010PropOp48
 70
     1
102
RTVSPost2010Prop49
280
     0
102
RTVSPost2010PropOp49
 70
     1
102
RTVSPost2010Prop50
 90
       50
102
RTVSPost2010PropOp50
 70
     1
102
RTVSPost2010Prop51ColorIndex
 90
      256
102
RTVSPost2010Prop51ColorRGB
 90
-16777216
102
RTVSPost2010PropOp51
 70
     0
102
RTVSPost2010Prop52
140
1.0
102
RTVSPost2010PropOp52
 70
     0
102
RTVSPost2010Prop53
 90
        2
102
RTVSPost2010PropOp53
 70
     1
102
RTVSPost2010Prop54
  1
strokes_ogs.tif
102
RTVSPost2010PropOp54
 70
     1
102
RTVSPost2010Prop55
280
     0
102
RTVSPost2010PropOp55
 70
     1
102
RTVSPost2010Prop56
140
1.0
102
RTVSPost2010PropOp56
 70
     1
102
RTVSPost2010Prop57
140
1.0
102
RTVSPost2010PropOp57
 70
     1
102
RTVSPropertyOp0
 70
     1
102
RTVSPropertyOp1
 70
     1
102
RTVSPropertyOp2
 70
     1
102
RTVSPropertyOp3
 70
     1
102
RTVSPropertyOp4
 70
     1
102
RTVSPropertyOp5
 70
     1
102
RTVSPropertyOp6
 70
     1
102
RTVSPropertyOp7
 70
     1
102
RTVSPropertyOp8
 70
     1
102
RTVSPropertyOp9
 70
     1
102
RTVSPropertyOp10
 70
     1
102
RTVSPropertyOp11
 70
     1
102
RTVSPropertyOp12
 70
     1
102
RTVSPropertyOp13
 70
     1
102
RTVSPropertyOp14
 70
     1
102
RTVSPropertyOp15
 70
     1
102
RTVSPropertyOp16
 70
     1
102
RTVSPropertyOp17
 70
     1
102
RTVSPropertyOp18
 70
     1
102
RTVSPropertyOp19
 70
     1
102
RTVSPropertyOp20
 70
     1
102
RTVSPropertyOp21
 70
     1
102
RTVSPropertyOp22
 70
     1
102
RTVSPropertyOp23
 70
     1
102
RTVSPropertyOp24
 70
     1
102
RTVSPropertyOp25
 70
     1
102
RTVSPropertyOp26
 70
     1
102
RTVSPropertyOp27
 70
     1
102
RTVSPropertyOp28
 70
     1
102
RTVSPropertyOp29
 70
     1
102
RTVSPropertyOp30
 70
     1
102
RTVSPropertyOp31
 70
     1
102
RTVSPropertyOp32
 70
     1
102
RTVSPropertyOp33
 70
     1
102
RTVSPropertyOp34
 70
     1
102
RTVSPropertyOp35
 70
     1
102
RTVSPropertyOp36
 70
     1
102
RTVSPropertyOp37
 70
     1
102
RTVSPropertyOp38
 70
     1
102
RTVSPropertyOp39
 70
     1
102
RTVSPropertyOp40
 70
     1
102
RTVSPropertyOp41
 70
     1
102
RTVSPropertyOp42
 70
     1
102
RTVSPropertyOp43
 70
     1
102
RTVSPropertyOp44
 70
     1
102
RTVSPropertyOp45
 70
     1
102
RTVSPropertyOp46
 70
     1
102
RTVSPropertyOp47
 70
     1
102
RTVSPropertyOp48
 70
     1
102
RTVSPropertyOp49
 70
     1
102
RTVSPropertyOp50
 70
     1
102
RTVSPropertyOp51
 70
     0
102
RTVSPropertyOp52
 70
     0
102
RTVSPropertyOp53
 70
     1
102
RTVSPropertyOp54
 70
     1
102
RTVSPropertyOp55
 70
     1
102
RTVSPropertyOp56
 70
     1
102
RTVSPropertyOp57
 70
     1
102
RTVSPropertyOp58
 70
     1
102
RTVSPropertyOp59
 70
     1
102
RTVSPropertyOp60
 70
     1
102
RTVSPropertyOp61
 70
     1
102
RTVSPropertyOp62
 70
     1
  0
XRECORD
  5
6420
102
{ACAD_REACTORS
330
641F
102
}
330
641F
100
AcDbXrecord
280
     1
102
RTVSPost2010Prop28
280
     0
102
RTVSPost2010PropOp28
 70
     1
102
RTVSPost2010Prop29
280
     1
102
RTVSPost2010PropOp29
 70
     1
102
RTVSPost2010Prop30
280
     1
102
RTVSPost2010PropOp30
 70
     1
102
RTVSPost2010Prop31
280
     0
102
RTVSPost2010PropOp31
 70
     1
102
RTVSPost2010Prop32
280
     0
102
RTVSPost2010PropOp32
 70
     1
102
RTVSPost2010Prop33
280
     0
102
RTVSPost2010PropOp33
 70
     1
102
RTVSPost2010Prop34
280
     0
102
RTVSPost2010PropOp34
 70
     1
102
RTVSPost2010Prop35
280
     0
102
RTVSPost2010PropOp35
 70
     1
102
RTVSPost2010Prop36
280
     0
102
RTVSPost2010PropOp36
 70
     1
102
RTVSPost2010Prop37
 90
       50
102
RTVSPost2010PropOp37
 70
     1
102
RTVSPost2010Prop38
140
0.0
102
RTVSPost2010PropOp38
 70
     1
102
RTVSPost2010Prop39
140
1.0
102
RTVSPost2010PropOp39
 70
     1
102
RTVSPost2010Prop40
 90
        0
102
RTVSPost2010PropOp40
 70
     1
102
RTVSPost2010Prop41ColorIndex
 90
       18
102
RTVSPost2010Prop41ColorRGB
 90
        0
102
RTVSPost2010PropOp41
 70
     1
102
RTVSPost2010Prop42
 90
       50
102
RTVSPost2010PropOp42
 70
     1
102
RTVSPost2010Prop43
 90
        3
102
RTVSPost2010PropOp43
 70
     1
102
RTVSPost2010Prop44ColorIndex
 90
        5
102
RTVSPost2010Prop44ColorRGB
 90
      255
102
RTVSPost2010PropOp44
 70
     1
102
RTVSPost2010Prop45
280
     0
102
RTVSPost2010PropOp45
 70
     1
102
RTVSPost2010Prop46
 90
       50
102
RTVSPost2010PropOp46
 70
     1
102
RTVSPost2010Prop47
 90
       50
102
RTVSPost2010PropOp47
 70
     1
102
RTVSPost2010Prop48
 90
       50
102
RTVSPost2010PropOp48
 70
     1
102
RTVSPost2010Prop49
280
     0
102
RTVSPost2010PropOp49
 70
     1
102
RTVSPost2010Prop50
 90
       50
102
RTVSPost2010PropOp50
 70
     1
102
RTVSPost2010Prop51ColorIndex
 90
      256
102
RTVSPost2010Prop51ColorRGB
 90
-16777216
102
RTVSPost2010PropOp51
 70
     0
102
RTVSPost2010Prop52
140
1.0
102
RTVSPost2010PropOp52
 70
     0
102
RTVSPost2010Prop53
 90
        2
102
RTVSPost2010PropOp53
 70
     1
102
RTVSPost2010Prop54
  1
strokes_ogs.tif
102
RTVSPost2010PropOp54
 70
     1
102
RTVSPost2010Prop55
280
     0
102
RTVSPost2010PropOp55
 70
     1
102
RTVSPost2010Prop56
140
1.0
102
RTVSPost2010PropOp56
 70
     1
102
RTVSPost2010Prop57
140
1.0
102
RTVSPost2010PropOp57
 70
     1
102
RTVSPropertyOp0
 70
     0
102
RTVSPropertyOp1
 70
     0
102
RTVSPropertyOp2
 70
     0
102
RTVSPropertyOp3
 70
     0
102
RTVSPropertyOp4
 70
     0
102
RTVSPropertyOp5
 70
     0
102
RTVSPropertyOp6
 70
     0
102
RTVSPropertyOp7
 70
     0
102
RTVSPropertyOp8
 70
     0
102
RTVSPropertyOp9
 70
     0
102
RTVSPropertyOp10
 70
     0
102
RTVSPropertyOp11
 70
     0
102
RTVSPropertyOp12
 70
     0
102
RTVSPropertyOp13
 70
     0
102
RTVSPropertyOp14
 70
     2
102
RTVSPropertyOp15
 70
     0
102
RTVSPropertyOp16
 70
     0
102
RTVSPropertyOp17
 70
     0
102
RTVSPropertyOp18
 70
     0
102
RTVSPropertyOp19
 70
     0
102
RTVSPropertyOp20
 70
     0
102
RTVSPropertyOp21
 70
     0
102
RTVSPropertyOp22
 70
     0
102
RTVSPropertyOp23
 70
     0
102
RTVSPropertyOp24
 70
     0
102
RTVSPropertyOp25
 70
     0
102
RTVSPropertyOp26
 70
     0
102
RTVSPropertyOp27
 70
     0
102
RTVSPropertyOp28
 70
     1
102
RTVSPropertyOp29
 70
     1
102
RTVSPropertyOp30
 70
     1
102
RTVSPropertyOp31
 70
     1
102
RTVSPropertyOp32
 70
     1
102
RTVSPropertyOp33
 70
     1
102
RTVSPropertyOp34
 70
     1
102
RTVSPropertyOp35
 70
     1
102
RTVSPropertyOp36
 70
     1
102
RTVSPropertyOp37
 70
     1
102
RTVSPropertyOp38
 70
     1
102
RTVSPropertyOp39
 70
     1
102
RTVSPropertyOp40
 70
     1
102
RTVSPropertyOp41
 70
     1
102
RTVSPropertyOp42
 70
     1
102
RTVSPropertyOp43
 70
     1
102
RTVSPropertyOp44
 70
     1
102
RTVSPropertyOp45
 70
     1
102
RTVSPropertyOp46
 70
     1
102
RTVSPropertyOp47
 70
     1
102
RTVSPropertyOp48
 70
     1
102
RTVSPropertyOp49
 70
     1
102
RTVSPropertyOp50
 70
     1
102
RTVSPropertyOp51
 70
     0
102
RTVSPropertyOp52
 70
     0
102
RTVSPropertyOp53
 70
     1
102
RTVSPropertyOp54
 70
     1
102
RTVSPropertyOp55
 70
     1
102
RTVSPropertyOp56
 70
     1
102
RTVSPropertyOp57
 70
     1
102
RTVSPropertyOp58
 70
     1
102
RTVSPropertyOp59
 70
     1
102
RTVSPropertyOp60
 70
     1
102
RTVSPropertyOp61
 70
     1
102
RTVSPropertyOp62
 70
     1
  0
XRECORD
  5
6418
102
{ACAD_REACTORS
330
6417
102
}
330
6417
100
AcDbXrecord
280
     1
102
RTVSPost2010Prop28
280
     0
102
RTVSPost2010PropOp28
 70
     1
102
RTVSPost2010Prop29
280
     1
102
RTVSPost2010PropOp29
 70
     1
102
RTVSPost2010Prop30
280
     1
102
RTVSPost2010PropOp30
 70
     1
102
RTVSPost2010Prop31
280
     0
102
RTVSPost2010PropOp31
 70
     1
102
RTVSPost2010Prop32
280
     0
102
RTVSPost2010PropOp32
 70
     1
102
RTVSPost2010Prop33
280
     0
102
RTVSPost2010PropOp33
 70
     1
102
RTVSPost2010Prop34
280
     0
102
RTVSPost2010PropOp34
 70
     1
102
RTVSPost2010Prop35
280
     0
102
RTVSPost2010PropOp35
 70
     1
102
RTVSPost2010Prop36
280
     0
102
RTVSPost2010PropOp36
 70
     1
102
RTVSPost2010Prop37
 90
       50
102
RTVSPost2010PropOp37
 70
     1
102
RTVSPost2010Prop38
140
0.0
102
RTVSPost2010PropOp38
 70
     1
102
RTVSPost2010Prop39
140
1.0
102
RTVSPost2010PropOp39
 70
     1
102
RTVSPost2010Prop40
 90
        0
102
RTVSPost2010PropOp40
 70
     1
102
RTVSPost2010Prop41ColorIndex
 90
       18
102
RTVSPost2010Prop41ColorRGB
 90
        0
102
RTVSPost2010PropOp41
 70
     1
102
RTVSPost2010Prop42
 90
       50
102
RTVSPost2010PropOp42
 70
     1
102
RTVSPost2010Prop43
 90
        3
102
RTVSPost2010PropOp43
 70
     1
102
RTVSPost2010Prop44ColorIndex
 90
        5
102
RTVSPost2010Prop44ColorRGB
 90
      255
102
RTVSPost2010PropOp44
 70
     1
102
RTVSPost2010Prop45
280
     0
102
RTVSPost2010PropOp45
 70
     1
102
RTVSPost2010Prop46
 90
       50
102
RTVSPost2010PropOp46
 70
     1
102
RTVSPost2010Prop47
 90
       50
102
RTVSPost2010PropOp47
 70
     1
102
RTVSPost2010Prop48
 90
       50
102
RTVSPost2010PropOp48
 70
     1
102
RTVSPost2010Prop49
280
     0
102
RTVSPost2010PropOp49
 70
     1
102
RTVSPost2010Prop50
 90
       50
102
RTVSPost2010PropOp50
 70
     1
102
RTVSPost2010Prop51ColorIndex
 90
      256
102
RTVSPost2010Prop51ColorRGB
 90
-16777216
102
RTVSPost2010PropOp51
 70
     0
102
RTVSPost2010Prop52
140
1.0
102
RTVSPost2010PropOp52
 70
     0
102
RTVSPost2010Prop53
 90
        2
102
RTVSPost2010PropOp53
 70
     1
102
RTVSPost2010Prop54
  1
strokes_ogs.tif
102
RTVSPost2010PropOp54
 70
     1
102
RTVSPost2010Prop55
280
     0
102
RTVSPost2010PropOp55
 70
     1
102
RTVSPost2010Prop56
140
1.0
102
RTVSPost2010PropOp56
 70
     1
102
RTVSPost2010Prop57
140
1.0
102
RTVSPost2010PropOp57
 70
     1
102
RTVSPropertyOp0
 70
     1
102
RTVSPropertyOp1
 70
     1
102
RTVSPropertyOp2
 70
     1
102
RTVSPropertyOp3
 70
     1
102
RTVSPropertyOp4
 70
     1
102
RTVSPropertyOp5
 70
     1
102
RTVSPropertyOp6
 70
     1
102
RTVSPropertyOp7
 70
     1
102
RTVSPropertyOp8
 70
     1
102
RTVSPropertyOp9
 70
     1
102
RTVSPropertyOp10
 70
     1
102
RTVSPropertyOp11
 70
     1
102
RTVSPropertyOp12
 70
     1
102
RTVSPropertyOp13
 70
     1
102
RTVSPropertyOp14
 70
     1
102
RTVSPropertyOp15
 70
     1
102
RTVSPropertyOp16
 70
     1
102
RTVSPropertyOp17
 70
     1
102
RTVSPropertyOp18
 70
     1
102
RTVSPropertyOp19
 70
     1
102
RTVSPropertyOp20
 70
     1
102
RTVSPropertyOp21
 70
     1
102
RTVSPropertyOp22
 70
     1
102
RTVSPropertyOp23
 70
     1
102
RTVSPropertyOp24
 70
     1
102
RTVSPropertyOp25
 70
     1
102
RTVSPropertyOp26
 70
     1
102
RTVSPropertyOp27
 70
     1
102
RTVSPropertyOp28
 70
     1
102
RTVSPropertyOp29
 70
     1
102
RTVSPropertyOp30
 70
     1
102
RTVSPropertyOp31
 70
     1
102
RTVSPropertyOp32
 70
     1
102
RTVSPropertyOp33
 70
     1
102
RTVSPropertyOp34
 70
     1
102
RTVSPropertyOp35
 70
     1
102
RTVSPropertyOp36
 70
     1
102
RTVSPropertyOp37
 70
     1
102
RTVSPropertyOp38
 70
     1
102
RTVSPropertyOp39
 70
     1
102
RTVSPropertyOp40
 70
     1
102
RTVSPropertyOp41
 70
     1
102
RTVSPropertyOp42
 70
     1
102
RTVSPropertyOp43
 70
     1
102
RTVSPropertyOp44
 70
     1
102
RTVSPropertyOp45
 70
     1
102
RTVSPropertyOp46
 70
     1
102
RTVSPropertyOp47
 70
     1
102
RTVSPropertyOp48
 70
     1
102
RTVSPropertyOp49
 70
     1
102
RTVSPropertyOp50
 70
     1
102
RTVSPropertyOp51
 70
     0
102
RTVSPropertyOp52
 70
     0
102
RTVSPropertyOp53
 70
     1
102
RTVSPropertyOp54
 70
     1
102
RTVSPropertyOp55
 70
     1
102
RTVSPropertyOp56
 70
     1
102
RTVSPropertyOp57
 70
     1
102
RTVSPropertyOp58
 70
     1
102
RTVSPropertyOp59
 70
     1
102
RTVSPropertyOp60
 70
     1
102
RTVSPropertyOp61
 70
     1
102
RTVSPropertyOp62
 70
     1
  0
XRECORD
  5
63FC
102
{ACAD_REACTORS
330
63FB
102
}
330
63FB
100
AcDbXrecord
280
     1
102
RTVSPost2010Prop28
280
     0
102
RTVSPost2010PropOp28
 70
     1
102
RTVSPost2010Prop29
280
     1
102
RTVSPost2010PropOp29
 70
     1
102
RTVSPost2010Prop30
280
     1
102
RTVSPost2010PropOp30
 70
     1
102
RTVSPost2010Prop31
280
     0
102
RTVSPost2010PropOp31
 70
     1
102
RTVSPost2010Prop32
280
     0
102
RTVSPost2010PropOp32
 70
     1
102
RTVSPost2010Prop33
280
     0
102
RTVSPost2010PropOp33
 70
     1
102
RTVSPost2010Prop34
280
     0
102
RTVSPost2010PropOp34
 70
     1
102
RTVSPost2010Prop35
280
     0
102
RTVSPost2010PropOp35
 70
     1
102
RTVSPost2010Prop36
280
     0
102
RTVSPost2010PropOp36
 70
     1
102
RTVSPost2010Prop37
 90
       50
102
RTVSPost2010PropOp37
 70
     1
102
RTVSPost2010Prop38
140
0.0
102
RTVSPost2010PropOp38
 70
     1
102
RTVSPost2010Prop39
140
1.0
102
RTVSPost2010PropOp39
 70
     1
102
RTVSPost2010Prop40
 90
        0
102
RTVSPost2010PropOp40
 70
     1
102
RTVSPost2010Prop41ColorIndex
 90
       18
102
RTVSPost2010Prop41ColorRGB
 90
        0
102
RTVSPost2010PropOp41
 70
     1
102
RTVSPost2010Prop42
 90
       50
102
RTVSPost2010PropOp42
 70
     1
102
RTVSPost2010Prop43
 90
        3
102
RTVSPost2010PropOp43
 70
     1
102
RTVSPost2010Prop44ColorIndex
 90
        5
102
RTVSPost2010Prop44ColorRGB
 90
      255
102
RTVSPost2010PropOp44
 70
     1
102
RTVSPost2010Prop45
280
     0
102
RTVSPost2010PropOp45
 70
     1
102
RTVSPost2010Prop46
 90
       50
102
RTVSPost2010PropOp46
 70
     1
102
RTVSPost2010Prop47
 90
       50
102
RTVSPost2010PropOp47
 70
     1
102
RTVSPost2010Prop48
 90
       50
102
RTVSPost2010PropOp48
 70
     1
102
RTVSPost2010Prop49
280
     0
102
RTVSPost2010PropOp49
 70
     1
102
RTVSPost2010Prop50
 90
       50
102
RTVSPost2010PropOp50
 70
     1
102
RTVSPost2010Prop51ColorIndex
 90
      256
102
RTVSPost2010Prop51ColorRGB
 90
-16777216
102
RTVSPost2010PropOp51
 70
     0
102
RTVSPost2010Prop52
140
1.0
102
RTVSPost2010PropOp52
 70
     0
102
RTVSPost2010Prop53
 90
        2
102
RTVSPost2010PropOp53
 70
     1
102
RTVSPost2010Prop54
  1
strokes_ogs.tif
102
RTVSPost2010PropOp54
 70
     1
102
RTVSPost2010Prop55
280
     0
102
RTVSPost2010PropOp55
 70
     1
102
RTVSPost2010Prop56
140
1.0
102
RTVSPost2010PropOp56
 70
     1
102
RTVSPost2010Prop57
140
1.0
102
RTVSPost2010PropOp57
 70
     1
102
RTVSPropertyOp0
 70
     1
102
RTVSPropertyOp1
 70
     1
102
RTVSPropertyOp2
 70
     1
102
RTVSPropertyOp3
 70
     1
102
RTVSPropertyOp4
 70
     1
102
RTVSPropertyOp5
 70
     1
102
RTVSPropertyOp6
 70
     1
102
RTVSPropertyOp7
 70
     1
102
RTVSPropertyOp8
 70
     1
102
RTVSPropertyOp9
 70
     1
102
RTVSPropertyOp10
 70
     1
102
RTVSPropertyOp11
 70
     1
102
RTVSPropertyOp12
 70
     1
102
RTVSPropertyOp13
 70
     1
102
RTVSPropertyOp14
 70
     1
102
RTVSPropertyOp15
 70
     1
102
RTVSPropertyOp16
 70
     1
102
RTVSPropertyOp17
 70
     1
102
RTVSPropertyOp18
 70
     1
102
RTVSPropertyOp19
 70
     1
102
RTVSPropertyOp20
 70
     1
102
RTVSPropertyOp21
 70
     1
102
RTVSPropertyOp22
 70
     1
102
RTVSPropertyOp23
 70
     1
102
RTVSPropertyOp24
 70
     1
102
RTVSPropertyOp25
 70
     1
102
RTVSPropertyOp26
 70
     1
102
RTVSPropertyOp27
 70
     1
102
RTVSPropertyOp28
 70
     1
102
RTVSPropertyOp29
 70
     1
102
RTVSPropertyOp30
 70
     1
102
RTVSPropertyOp31
 70
     1
102
RTVSPropertyOp32
 70
     1
102
RTVSPropertyOp33
 70
     1
102
RTVSPropertyOp34
 70
     1
102
RTVSPropertyOp35
 70
     1
102
RTVSPropertyOp36
 70
     1
102
RTVSPropertyOp37
 70
     1
102
RTVSPropertyOp38
 70
     1
102
RTVSPropertyOp39
 70
     1
102
RTVSPropertyOp40
 70
     1
102
RTVSPropertyOp41
 70
     1
102
RTVSPropertyOp42
 70
     1
102
RTVSPropertyOp43
 70
     1
102
RTVSPropertyOp44
 70
     1
102
RTVSPropertyOp45
 70
     1
102
RTVSPropertyOp46
 70
     1
102
RTVSPropertyOp47
 70
     1
102
RTVSPropertyOp48
 70
     1
102
RTVSPropertyOp49
 70
     1
102
RTVSPropertyOp50
 70
     1
102
RTVSPropertyOp51
 70
     0
102
RTVSPropertyOp52
 70
     0
102
RTVSPropertyOp53
 70
     1
102
RTVSPropertyOp54
 70
     1
102
RTVSPropertyOp55
 70
     1
102
RTVSPropertyOp56
 70
     1
102
RTVSPropertyOp57
 70
     1
102
RTVSPropertyOp58
 70
     1
102
RTVSPropertyOp59
 70
     1
102
RTVSPropertyOp60
 70
     1
102
RTVSPropertyOp61
 70
     1
102
RTVSPropertyOp62
 70
     1
  0
XRECORD
  5
63FE
102
{ACAD_REACTORS
330
63FD
102
}
330
63FD
100
AcDbXrecord
280
     1
102
RTVSPost2010Prop28
280
     0
102
RTVSPost2010PropOp28
 70
     1
102
RTVSPost2010Prop29
280
     1
102
RTVSPost2010PropOp29
 70
     1
102
RTVSPost2010Prop30
280
     1
102
RTVSPost2010PropOp30
 70
     1
102
RTVSPost2010Prop31
280
     0
102
RTVSPost2010PropOp31
 70
     1
102
RTVSPost2010Prop32
280
     0
102
RTVSPost2010PropOp32
 70
     1
102
RTVSPost2010Prop33
280
     0
102
RTVSPost2010PropOp33
 70
     1
102
RTVSPost2010Prop34
280
     0
102
RTVSPost2010PropOp34
 70
     1
102
RTVSPost2010Prop35
280
     0
102
RTVSPost2010PropOp35
 70
     1
102
RTVSPost2010Prop36
280
     0
102
RTVSPost2010PropOp36
 70
     1
102
RTVSPost2010Prop37
 90
       50
102
RTVSPost2010PropOp37
 70
     1
102
RTVSPost2010Prop38
140
0.0
102
RTVSPost2010PropOp38
 70
     1
102
RTVSPost2010Prop39
140
1.0
102
RTVSPost2010PropOp39
 70
     1
102
RTVSPost2010Prop40
 90
        0
102
RTVSPost2010PropOp40
 70
     1
102
RTVSPost2010Prop41ColorIndex
 90
       18
102
RTVSPost2010Prop41ColorRGB
 90
        0
102
RTVSPost2010PropOp41
 70
     1
102
RTVSPost2010Prop42
 90
       50
102
RTVSPost2010PropOp42
 70
     1
102
RTVSPost2010Prop43
 90
        3
102
RTVSPost2010PropOp43
 70
     1
102
RTVSPost2010Prop44ColorIndex
 90
        5
102
RTVSPost2010Prop44ColorRGB
 90
      255
102
RTVSPost2010PropOp44
 70
     1
102
RTVSPost2010Prop45
280
     0
102
RTVSPost2010PropOp45
 70
     1
102
RTVSPost2010Prop46
 90
       50
102
RTVSPost2010PropOp46
 70
     1
102
RTVSPost2010Prop47
 90
       50
102
RTVSPost2010PropOp47
 70
     1
102
RTVSPost2010Prop48
 90
       50
102
RTVSPost2010PropOp48
 70
     1
102
RTVSPost2010Prop49
280
     0
102
RTVSPost2010PropOp49
 70
     1
102
RTVSPost2010Prop50
 90
       50
102
RTVSPost2010PropOp50
 70
     1
102
RTVSPost2010Prop51ColorIndex
 90
      256
102
RTVSPost2010Prop51ColorRGB
 90
-16777216
102
RTVSPost2010PropOp51
 70
     0
102
RTVSPost2010Prop52
140
1.0
102
RTVSPost2010PropOp52
 70
     0
102
RTVSPost2010Prop53
 90
        2
102
RTVSPost2010PropOp53
 70
     1
102
RTVSPost2010Prop54
  1
strokes_ogs.tif
102
RTVSPost2010PropOp54
 70
     1
102
RTVSPost2010Prop55
280
     0
102
RTVSPost2010PropOp55
 70
     1
102
RTVSPost2010Prop56
140
1.0
102
RTVSPost2010PropOp56
 70
     1
102
RTVSPost2010Prop57
140
1.0
102
RTVSPost2010PropOp57
 70
     1
102
RTVSPropertyOp0
 70
     1
102
RTVSPropertyOp1
 70
     1
102
RTVSPropertyOp2
 70
     1
102
RTVSPropertyOp3
 70
     1
102
RTVSPropertyOp4
 70
     1
102
RTVSPropertyOp5
 70
     1
102
RTVSPropertyOp6
 70
     1
102
RTVSPropertyOp7
 70
     1
102
RTVSPropertyOp8
 70
     1
102
RTVSPropertyOp9
 70
     1
102
RTVSPropertyOp10
 70
     1
102
RTVSPropertyOp11
 70
     1
102
RTVSPropertyOp12
 70
     1
102
RTVSPropertyOp13
 70
     1
102
RTVSPropertyOp14
 70
     1
102
RTVSPropertyOp15
 70
     1
102
RTVSPropertyOp16
 70
     1
102
RTVSPropertyOp17
 70
     1
102
RTVSPropertyOp18
 70
     1
102
RTVSPropertyOp19
 70
     1
102
RTVSPropertyOp20
 70
     1
102
RTVSPropertyOp21
 70
     1
102
RTVSPropertyOp22
 70
     1
102
RTVSPropertyOp23
 70
     1
102
RTVSPropertyOp24
 70
     1
102
RTVSPropertyOp25
 70
     1
102
RTVSPropertyOp26
 70
     1
102
RTVSPropertyOp27
 70
     1
102
RTVSPropertyOp28
 70
     1
102
RTVSPropertyOp29
 70
     1
102
RTVSPropertyOp30
 70
     1
102
RTVSPropertyOp31
 70
     1
102
RTVSPropertyOp32
 70
     1
102
RTVSPropertyOp33
 70
     1
102
RTVSPropertyOp34
 70
     1
102
RTVSPropertyOp35
 70
     1
102
RTVSPropertyOp36
 70
     1
102
RTVSPropertyOp37
 70
     1
102
RTVSPropertyOp38
 70
     1
102
RTVSPropertyOp39
 70
     1
102
RTVSPropertyOp40
 70
     1
102
RTVSPropertyOp41
 70
     1
102
RTVSPropertyOp42
 70
     1
102
RTVSPropertyOp43
 70
     1
102
RTVSPropertyOp44
 70
     1
102
RTVSPropertyOp45
 70
     1
102
RTVSPropertyOp46
 70
     1
102
RTVSPropertyOp47
 70
     1
102
RTVSPropertyOp48
 70
     1
102
RTVSPropertyOp49
 70
     1
102
RTVSPropertyOp50
 70
     1
102
RTVSPropertyOp51
 70
     0
102
RTVSPropertyOp52
 70
     0
102
RTVSPropertyOp53
 70
     1
102
RTVSPropertyOp54
 70
     1
102
RTVSPropertyOp55
 70
     1
102
RTVSPropertyOp56
 70
     1
102
RTVSPropertyOp57
 70
     1
102
RTVSPropertyOp58
 70
     1
102
RTVSPropertyOp59
 70
     1
102
RTVSPropertyOp60
 70
     1
102
RTVSPropertyOp61
 70
     1
102
RTVSPropertyOp62
 70
     1
  0
XRECORD
  5
6400
102
{ACAD_REACTORS
330
63FF
102
}
330
63FF
100
AcDbXrecord
280
     1
102
RTVSPost2010Prop28
280
     0
102
RTVSPost2010PropOp28
 70
     1
102
RTVSPost2010Prop29
280
     1
102
RTVSPost2010PropOp29
 70
     1
102
RTVSPost2010Prop30
280
     1
102
RTVSPost2010PropOp30
 70
     1
102
RTVSPost2010Prop31
280
     0
102
RTVSPost2010PropOp31
 70
     1
102
RTVSPost2010Prop32
280
     0
102
RTVSPost2010PropOp32
 70
     1
102
RTVSPost2010Prop33
280
     0
102
RTVSPost2010PropOp33
 70
     1
102
RTVSPost2010Prop34
280
     0
102
RTVSPost2010PropOp34
 70
     1
102
RTVSPost2010Prop35
280
     0
102
RTVSPost2010PropOp35
 70
     1
102
RTVSPost2010Prop36
280
     0
102
RTVSPost2010PropOp36
 70
     1
102
RTVSPost2010Prop37
 90
       50
102
RTVSPost2010PropOp37
 70
     1
102
RTVSPost2010Prop38
140
0.0
102
RTVSPost2010PropOp38
 70
     1
102
RTVSPost2010Prop39
140
1.0
102
RTVSPost2010PropOp39
 70
     1
102
RTVSPost2010Prop40
 90
        0
102
RTVSPost2010PropOp40
 70
     1
102
RTVSPost2010Prop41ColorIndex
 90
       18
102
RTVSPost2010Prop41ColorRGB
 90
        0
102
RTVSPost2010PropOp41
 70
     1
102
RTVSPost2010Prop42
 90
       50
102
RTVSPost2010PropOp42
 70
     1
102
RTVSPost2010Prop43
 90
        3
102
RTVSPost2010PropOp43
 70
     1
102
RTVSPost2010Prop44ColorIndex
 90
        5
102
RTVSPost2010Prop44ColorRGB
 90
      255
102
RTVSPost2010PropOp44
 70
     1
102
RTVSPost2010Prop45
280
     0
102
RTVSPost2010PropOp45
 70
     1
102
RTVSPost2010Prop46
 90
       50
102
RTVSPost2010PropOp46
 70
     1
102
RTVSPost2010Prop47
 90
       50
102
RTVSPost2010PropOp47
 70
     1
102
RTVSPost2010Prop48
 90
       50
102
RTVSPost2010PropOp48
 70
     1
102
RTVSPost2010Prop49
280
     0
102
RTVSPost2010PropOp49
 70
     1
102
RTVSPost2010Prop50
 90
       50
102
RTVSPost2010PropOp50
 70
     1
102
RTVSPost2010Prop51ColorIndex
 90
      256
102
RTVSPost2010Prop51ColorRGB
 90
-16777216
102
RTVSPost2010PropOp51
 70
     0
102
RTVSPost2010Prop52
140
1.0
102
RTVSPost2010PropOp52
 70
     0
102
RTVSPost2010Prop53
 90
        2
102
RTVSPost2010PropOp53
 70
     1
102
RTVSPost2010Prop54
  1
strokes_ogs.tif
102
RTVSPost2010PropOp54
 70
     1
102
RTVSPost2010Prop55
280
     0
102
RTVSPost2010PropOp55
 70
     1
102
RTVSPost2010Prop56
140
1.0
102
RTVSPost2010PropOp56
 70
     1
102
RTVSPost2010Prop57
140
1.0
102
RTVSPost2010PropOp57
 70
     1
102
RTVSPropertyOp0
 70
     1
102
RTVSPropertyOp1
 70
     1
102
RTVSPropertyOp2
 70
     1
102
RTVSPropertyOp3
 70
     1
102
RTVSPropertyOp4
 70
     1
102
RTVSPropertyOp5
 70
     1
102
RTVSPropertyOp6
 70
     1
102
RTVSPropertyOp7
 70
     1
102
RTVSPropertyOp8
 70
     1
102
RTVSPropertyOp9
 70
     1
102
RTVSPropertyOp10
 70
     1
102
RTVSPropertyOp11
 70
     1
102
RTVSPropertyOp12
 70
     1
102
RTVSPropertyOp13
 70
     1
102
RTVSPropertyOp14
 70
     1
102
RTVSPropertyOp15
 70
     1
102
RTVSPropertyOp16
 70
     1
102
RTVSPropertyOp17
 70
     1
102
RTVSPropertyOp18
 70
     1
102
RTVSPropertyOp19
 70
     1
102
RTVSPropertyOp20
 70
     1
102
RTVSPropertyOp21
 70
     1
102
RTVSPropertyOp22
 70
     1
102
RTVSPropertyOp23
 70
     1
102
RTVSPropertyOp24
 70
     1
102
RTVSPropertyOp25
 70
     1
102
RTVSPropertyOp26
 70
     1
102
RTVSPropertyOp27
 70
     1
102
RTVSPropertyOp28
 70
     1
102
RTVSPropertyOp29
 70
     1
102
RTVSPropertyOp30
 70
     1
102
RTVSPropertyOp31
 70
     1
102
RTVSPropertyOp32
 70
     1
102
RTVSPropertyOp33
 70
     1
102
RTVSPropertyOp34
 70
     1
102
RTVSPropertyOp35
 70
     1
102
RTVSPropertyOp36
 70
     1
102
RTVSPropertyOp37
 70
     1
102
RTVSPropertyOp38
 70
     1
102
RTVSPropertyOp39
 70
     1
102
RTVSPropertyOp40
 70
     1
102
RTVSPropertyOp41
 70
     1
102
RTVSPropertyOp42
 70
     1
102
RTVSPropertyOp43
 70
     1
102
RTVSPropertyOp44
 70
     1
102
RTVSPropertyOp45
 70
     1
102
RTVSPropertyOp46
 70
     1
102
RTVSPropertyOp47
 70
     1
102
RTVSPropertyOp48
 70
     1
102
RTVSPropertyOp49
 70
     1
102
RTVSPropertyOp50
 70
     1
102
RTVSPropertyOp51
 70
     0
102
RTVSPropertyOp52
 70
     0
102
RTVSPropertyOp53
 70
     1
102
RTVSPropertyOp54
 70
     1
102
RTVSPropertyOp55
 70
     1
102
RTVSPropertyOp56
 70
     1
102
RTVSPropertyOp57
 70
     1
102
RTVSPropertyOp58
 70
     1
102
RTVSPropertyOp59
 70
     1
102
RTVSPropertyOp60
 70
     1
102
RTVSPropertyOp61
 70
     1
102
RTVSPropertyOp62
 70
     1
  0
XRECORD
  5
6402
102
{ACAD_REACTORS
330
6401
102
}
330
6401
100
AcDbXrecord
280
     1
102
RTVSPost2010Prop28
280
     0
102
RTVSPost2010PropOp28
 70
     1
102
RTVSPost2010Prop29
280
     1
102
RTVSPost2010PropOp29
 70
     1
102
RTVSPost2010Prop30
280
     1
102
RTVSPost2010PropOp30
 70
     1
102
RTVSPost2010Prop31
280
     0
102
RTVSPost2010PropOp31
 70
     1
102
RTVSPost2010Prop32
280
     0
102
RTVSPost2010PropOp32
 70
     1
102
RTVSPost2010Prop33
280
     0
102
RTVSPost2010PropOp33
 70
     1
102
RTVSPost2010Prop34
280
     0
102
RTVSPost2010PropOp34
 70
     1
102
RTVSPost2010Prop35
280
     0
102
RTVSPost2010PropOp35
 70
     1
102
RTVSPost2010Prop36
280
     0
102
RTVSPost2010PropOp36
 70
     1
102
RTVSPost2010Prop37
 90
       50
102
RTVSPost2010PropOp37
 70
     1
102
RTVSPost2010Prop38
140
0.0
102
RTVSPost2010PropOp38
 70
     1
102
RTVSPost2010Prop39
140
1.0
102
RTVSPost2010PropOp39
 70
     1
102
RTVSPost2010Prop40
 90
        0
102
RTVSPost2010PropOp40
 70
     1
102
RTVSPost2010Prop41ColorIndex
 90
       18
102
RTVSPost2010Prop41ColorRGB
 90
        0
102
RTVSPost2010PropOp41
 70
     1
102
RTVSPost2010Prop42
 90
       50
102
RTVSPost2010PropOp42
 70
     1
102
RTVSPost2010Prop43
 90
        3
102
RTVSPost2010PropOp43
 70
     1
102
RTVSPost2010Prop44ColorIndex
 90
        5
102
RTVSPost2010Prop44ColorRGB
 90
      255
102
RTVSPost2010PropOp44
 70
     1
102
RTVSPost2010Prop45
280
     0
102
RTVSPost2010PropOp45
 70
     1
102
RTVSPost2010Prop46
 90
       50
102
RTVSPost2010PropOp46
 70
     1
102
RTVSPost2010Prop47
 90
       50
102
RTVSPost2010PropOp47
 70
     1
102
RTVSPost2010Prop48
 90
       50
102
RTVSPost2010PropOp48
 70
     1
102
RTVSPost2010Prop49
280
     0
102
RTVSPost2010PropOp49
 70
     1
102
RTVSPost2010Prop50
 90
       50
102
RTVSPost2010PropOp50
 70
     1
102
RTVSPost2010Prop51ColorIndex
 90
      256
102
RTVSPost2010Prop51ColorRGB
 90
-16777216
102
RTVSPost2010PropOp51
 70
     0
102
RTVSPost2010Prop52
140
1.0
102
RTVSPost2010PropOp52
 70
     0
102
RTVSPost2010Prop53
 90
        2
102
RTVSPost2010PropOp53
 70
     1
102
RTVSPost2010Prop54
  1
strokes_ogs.tif
102
RTVSPost2010PropOp54
 70
     1
102
RTVSPost2010Prop55
280
     0
102
RTVSPost2010PropOp55
 70
     1
102
RTVSPost2010Prop56
140
1.0
102
RTVSPost2010PropOp56
 70
     1
102
RTVSPost2010Prop57
140
1.0
102
RTVSPost2010PropOp57
 70
     1
102
RTVSPropertyOp0
 70
     1
102
RTVSPropertyOp1
 70
     1
102
RTVSPropertyOp2
 70
     1
102
RTVSPropertyOp3
 70
     1
102
RTVSPropertyOp4
 70
     1
102
RTVSPropertyOp5
 70
     1
102
RTVSPropertyOp6
 70
     1
102
RTVSPropertyOp7
 70
     1
102
RTVSPropertyOp8
 70
     1
102
RTVSPropertyOp9
 70
     1
102
RTVSPropertyOp10
 70
     1
102
RTVSPropertyOp11
 70
     1
102
RTVSPropertyOp12
 70
     1
102
RTVSPropertyOp13
 70
     1
102
RTVSPropertyOp14
 70
     1
102
RTVSPropertyOp15
 70
     1
102
RTVSPropertyOp16
 70
     1
102
RTVSPropertyOp17
 70
     1
102
RTVSPropertyOp18
 70
     1
102
RTVSPropertyOp19
 70
     1
102
RTVSPropertyOp20
 70
     1
102
RTVSPropertyOp21
 70
     1
102
RTVSPropertyOp22
 70
     1
102
RTVSPropertyOp23
 70
     1
102
RTVSPropertyOp24
 70
     1
102
RTVSPropertyOp25
 70
     1
102
RTVSPropertyOp26
 70
     1
102
RTVSPropertyOp27
 70
     1
102
RTVSPropertyOp28
 70
     1
102
RTVSPropertyOp29
 70
     1
102
RTVSPropertyOp30
 70
     1
102
RTVSPropertyOp31
 70
     1
102
RTVSPropertyOp32
 70
     1
102
RTVSPropertyOp33
 70
     1
102
RTVSPropertyOp34
 70
     1
102
RTVSPropertyOp35
 70
     1
102
RTVSPropertyOp36
 70
     1
102
RTVSPropertyOp37
 70
     1
102
RTVSPropertyOp38
 70
     1
102
RTVSPropertyOp39
 70
     1
102
RTVSPropertyOp40
 70
     1
102
RTVSPropertyOp41
 70
     1
102
RTVSPropertyOp42
 70
     1
102
RTVSPropertyOp43
 70
     1
102
RTVSPropertyOp44
 70
     1
102
RTVSPropertyOp45
 70
     1
102
RTVSPropertyOp46
 70
     1
102
RTVSPropertyOp47
 70
     1
102
RTVSPropertyOp48
 70
     1
102
RTVSPropertyOp49
 70
     1
102
RTVSPropertyOp50
 70
     1
102
RTVSPropertyOp51
 70
     0
102
RTVSPropertyOp52
 70
     0
102
RTVSPropertyOp53
 70
     1
102
RTVSPropertyOp54
 70
     1
102
RTVSPropertyOp55
 70
     1
102
RTVSPropertyOp56
 70
     1
102
RTVSPropertyOp57
 70
     1
102
RTVSPropertyOp58
 70
     1
102
RTVSPropertyOp59
 70
     1
102
RTVSPropertyOp60
 70
     1
102
RTVSPropertyOp61
 70
     1
102
RTVSPropertyOp62
 70
     1
  0
XRECORD
  5
6425
102
{ACAD_REACTORS
330
6424
102
}
330
6424
100
AcDbXrecord
280
     1
102
RTVSPost2010Prop28
280
     0
102
RTVSPost2010PropOp28
 70
     1
102
RTVSPost2010Prop29
280
     1
102
RTVSPost2010PropOp29
 70
     1
102
RTVSPost2010Prop30
280
     1
102
RTVSPost2010PropOp30
 70
     1
102
RTVSPost2010Prop31
280
     0
102
RTVSPost2010PropOp31
 70
     1
102
RTVSPost2010Prop32
280
     0
102
RTVSPost2010PropOp32
 70
     1
102
RTVSPost2010Prop33
280
     0
102
RTVSPost2010PropOp33
 70
     1
102
RTVSPost2010Prop34
280
     0
102
RTVSPost2010PropOp34
 70
     1
102
RTVSPost2010Prop35
280
     0
102
RTVSPost2010PropOp35
 70
     1
102
RTVSPost2010Prop36
280
     0
102
RTVSPost2010PropOp36
 70
     1
102
RTVSPost2010Prop37
 90
       50
102
RTVSPost2010PropOp37
 70
     1
102
RTVSPost2010Prop38
140
0.0
102
RTVSPost2010PropOp38
 70
     1
102
RTVSPost2010Prop39
140
1.0
102
RTVSPost2010PropOp39
 70
     1
102
RTVSPost2010Prop40
 90
        0
102
RTVSPost2010PropOp40
 70
     1
102
RTVSPost2010Prop41ColorIndex
 90
       18
102
RTVSPost2010Prop41ColorRGB
 90
        0
102
RTVSPost2010PropOp41
 70
     1
102
RTVSPost2010Prop42
 90
       50
102
RTVSPost2010PropOp42
 70
     1
102
RTVSPost2010Prop43
 90
        3
102
RTVSPost2010PropOp43
 70
     1
102
RTVSPost2010Prop44ColorIndex
 90
        5
102
RTVSPost2010Prop44ColorRGB
 90
      255
102
RTVSPost2010PropOp44
 70
     1
102
RTVSPost2010Prop45
280
     0
102
RTVSPost2010PropOp45
 70
     1
102
RTVSPost2010Prop46
 90
       50
102
RTVSPost2010PropOp46
 70
     1
102
RTVSPost2010Prop47
 90
       50
102
RTVSPost2010PropOp47
 70
     1
102
RTVSPost2010Prop48
 90
       50
102
RTVSPost2010PropOp48
 70
     1
102
RTVSPost2010Prop49
280
     0
102
RTVSPost2010PropOp49
 70
     1
102
RTVSPost2010Prop50
 90
       50
102
RTVSPost2010PropOp50
 70
     1
102
RTVSPost2010Prop51ColorIndex
 90
      256
102
RTVSPost2010Prop51ColorRGB
 90
-16777216
102
RTVSPost2010PropOp51
 70
     0
102
RTVSPost2010Prop52
140
1.0
102
RTVSPost2010PropOp52
 70
     0
102
RTVSPost2010Prop53
 90
        2
102
RTVSPost2010PropOp53
 70
     1
102
RTVSPost2010Prop54
  1
strokes_ogs.tif
102
RTVSPost2010PropOp54
 70
     1
102
RTVSPost2010Prop55
280
     0
102
RTVSPost2010PropOp55
 70
     1
102
RTVSPost2010Prop56
140
1.0
102
RTVSPost2010PropOp56
 70
     1
102
RTVSPost2010Prop57
140
1.0
102
RTVSPost2010PropOp57
 70
     1
102
RTVSPropertyOp0
 70
     1
102
RTVSPropertyOp1
 70
     1
102
RTVSPropertyOp2
 70
     1
102
RTVSPropertyOp3
 70
     1
102
RTVSPropertyOp4
 70
     1
102
RTVSPropertyOp5
 70
     1
102
RTVSPropertyOp6
 70
     1
102
RTVSPropertyOp7
 70
     1
102
RTVSPropertyOp8
 70
     1
102
RTVSPropertyOp9
 70
     1
102
RTVSPropertyOp10
 70
     1
102
RTVSPropertyOp11
 70
     1
102
RTVSPropertyOp12
 70
     1
102
RTVSPropertyOp13
 70
     1
102
RTVSPropertyOp14
 70
     1
102
RTVSPropertyOp15
 70
     1
102
RTVSPropertyOp16
 70
     1
102
RTVSPropertyOp17
 70
     1
102
RTVSPropertyOp18
 70
     1
102
RTVSPropertyOp19
 70
     1
102
RTVSPropertyOp20
 70
     1
102
RTVSPropertyOp21
 70
     1
102
RTVSPropertyOp22
 70
     1
102
RTVSPropertyOp23
 70
     1
102
RTVSPropertyOp24
 70
     1
102
RTVSPropertyOp25
 70
     1
102
RTVSPropertyOp26
 70
     1
102
RTVSPropertyOp27
 70
     1
102
RTVSPropertyOp28
 70
     1
102
RTVSPropertyOp29
 70
     1
102
RTVSPropertyOp30
 70
     1
102
RTVSPropertyOp31
 70
     1
102
RTVSPropertyOp32
 70
     1
102
RTVSPropertyOp33
 70
     1
102
RTVSPropertyOp34
 70
     1
102
RTVSPropertyOp35
 70
     1
102
RTVSPropertyOp36
 70
     1
102
RTVSPropertyOp37
 70
     1
102
RTVSPropertyOp38
 70
     1
102
RTVSPropertyOp39
 70
     1
102
RTVSPropertyOp40
 70
     1
102
RTVSPropertyOp41
 70
     1
102
RTVSPropertyOp42
 70
     1
102
RTVSPropertyOp43
 70
     1
102
RTVSPropertyOp44
 70
     1
102
RTVSPropertyOp45
 70
     1
102
RTVSPropertyOp46
 70
     1
102
RTVSPropertyOp47
 70
     1
102
RTVSPropertyOp48
 70
     1
102
RTVSPropertyOp49
 70
     1
102
RTVSPropertyOp50
 70
     1
102
RTVSPropertyOp51
 70
     0
102
RTVSPropertyOp52
 70
     0
102
RTVSPropertyOp53
 70
     1
102
RTVSPropertyOp54
 70
     1
102
RTVSPropertyOp55
 70
     1
102
RTVSPropertyOp56
 70
     1
102
RTVSPropertyOp57
 70
     1
102
RTVSPropertyOp58
 70
     1
102
RTVSPropertyOp59
 70
     1
102
RTVSPropertyOp60
 70
     1
102
RTVSPropertyOp61
 70
     1
102
RTVSPropertyOp62
 70
     1
  0
XRECORD
  5
641C
102
{ACAD_REACTORS
330
641B
102
}
330
641B
100
AcDbXrecord
280
     1
102
RTVSPost2010Prop28
280
     0
102
RTVSPost2010PropOp28
 70
     1
102
RTVSPost2010Prop29
280
     1
102
RTVSPost2010PropOp29
 70
     1
102
RTVSPost2010Prop30
280
     1
102
RTVSPost2010PropOp30
 70
     1
102
RTVSPost2010Prop31
280
     0
102
RTVSPost2010PropOp31
 70
     1
102
RTVSPost2010Prop32
280
     0
102
RTVSPost2010PropOp32
 70
     1
102
RTVSPost2010Prop33
280
     0
102
RTVSPost2010PropOp33
 70
     1
102
RTVSPost2010Prop34
280
     0
102
RTVSPost2010PropOp34
 70
     1
102
RTVSPost2010Prop35
280
     0
102
RTVSPost2010PropOp35
 70
     1
102
RTVSPost2010Prop36
280
     0
102
RTVSPost2010PropOp36
 70
     1
102
RTVSPost2010Prop37
 90
       50
102
RTVSPost2010PropOp37
 70
     1
102
RTVSPost2010Prop38
140
0.0
102
RTVSPost2010PropOp38
 70
     1
102
RTVSPost2010Prop39
140
1.0
102
RTVSPost2010PropOp39
 70
     1
102
RTVSPost2010Prop40
 90
        0
102
RTVSPost2010PropOp40
 70
     1
102
RTVSPost2010Prop41ColorIndex
 90
       18
102
RTVSPost2010Prop41ColorRGB
 90
        0
102
RTVSPost2010PropOp41
 70
     1
102
RTVSPost2010Prop42
 90
       50
102
RTVSPost2010PropOp42
 70
     1
102
RTVSPost2010Prop43
 90
        3
102
RTVSPost2010PropOp43
 70
     1
102
RTVSPost2010Prop44ColorIndex
 90
        5
102
RTVSPost2010Prop44ColorRGB
 90
      255
102
RTVSPost2010PropOp44
 70
     1
102
RTVSPost2010Prop45
280
     0
102
RTVSPost2010PropOp45
 70
     1
102
RTVSPost2010Prop46
 90
       50
102
RTVSPost2010PropOp46
 70
     1
102
RTVSPost2010Prop47
 90
       50
102
RTVSPost2010PropOp47
 70
     1
102
RTVSPost2010Prop48
 90
       50
102
RTVSPost2010PropOp48
 70
     1
102
RTVSPost2010Prop49
280
     0
102
RTVSPost2010PropOp49
 70
     1
102
RTVSPost2010Prop50
 90
       50
102
RTVSPost2010PropOp50
 70
     1
102
RTVSPost2010Prop51ColorIndex
 90
      256
102
RTVSPost2010Prop51ColorRGB
 90
-16777216
102
RTVSPost2010PropOp51
 70
     0
102
RTVSPost2010Prop52
140
1.0
102
RTVSPost2010PropOp52
 70
     0
102
RTVSPost2010Prop53
 90
        2
102
RTVSPost2010PropOp53
 70
     1
102
RTVSPost2010Prop54
  1
strokes_ogs.tif
102
RTVSPost2010PropOp54
 70
     1
102
RTVSPost2010Prop55
280
     0
102
RTVSPost2010PropOp55
 70
     1
102
RTVSPost2010Prop56
140
1.0
102
RTVSPost2010PropOp56
 70
     1
102
RTVSPost2010Prop57
140
1.0
102
RTVSPost2010PropOp57
 70
     1
102
RTVSPropertyOp0
 70
     0
102
RTVSPropertyOp1
 70
     0
102
RTVSPropertyOp2
 70
     0
102
RTVSPropertyOp3
 70
     0
102
RTVSPropertyOp4
 70
     0
102
RTVSPropertyOp5
 70
     0
102
RTVSPropertyOp6
 70
     0
102
RTVSPropertyOp7
 70
     0
102
RTVSPropertyOp8
 70
     0
102
RTVSPropertyOp9
 70
     0
102
RTVSPropertyOp10
 70
     0
102
RTVSPropertyOp11
 70
     0
102
RTVSPropertyOp12
 70
     0
102
RTVSPropertyOp13
 70
     0
102
RTVSPropertyOp14
 70
     2
102
RTVSPropertyOp15
 70
     0
102
RTVSPropertyOp16
 70
     0
102
RTVSPropertyOp17
 70
     0
102
RTVSPropertyOp18
 70
     0
102
RTVSPropertyOp19
 70
     0
102
RTVSPropertyOp20
 70
     0
102
RTVSPropertyOp21
 70
     0
102
RTVSPropertyOp22
 70
     0
102
RTVSPropertyOp23
 70
     0
102
RTVSPropertyOp24
 70
     0
102
RTVSPropertyOp25
 70
     0
102
RTVSPropertyOp26
 70
     0
102
RTVSPropertyOp27
 70
     0
102
RTVSPropertyOp28
 70
     1
102
RTVSPropertyOp29
 70
     1
102
RTVSPropertyOp30
 70
     1
102
RTVSPropertyOp31
 70
     1
102
RTVSPropertyOp32
 70
     1
102
RTVSPropertyOp33
 70
     1
102
RTVSPropertyOp34
 70
     1
102
RTVSPropertyOp35
 70
     1
102
RTVSPropertyOp36
 70
     1
102
RTVSPropertyOp37
 70
     1
102
RTVSPropertyOp38
 70
     1
102
RTVSPropertyOp39
 70
     1
102
RTVSPropertyOp40
 70
     1
102
RTVSPropertyOp41
 70
     1
102
RTVSPropertyOp42
 70
     1
102
RTVSPropertyOp43
 70
     1
102
RTVSPropertyOp44
 70
     1
102
RTVSPropertyOp45
 70
     1
102
RTVSPropertyOp46
 70
     1
102
RTVSPropertyOp47
 70
     1
102
RTVSPropertyOp48
 70
     1
102
RTVSPropertyOp49
 70
     1
102
RTVSPropertyOp50
 70
     1
102
RTVSPropertyOp51
 70
     0
102
RTVSPropertyOp52
 70
     0
102
RTVSPropertyOp53
 70
     1
102
RTVSPropertyOp54
 70
     1
102
RTVSPropertyOp55
 70
     1
102
RTVSPropertyOp56
 70
     1
102
RTVSPropertyOp57
 70
     1
102
RTVSPropertyOp58
 70
     1
102
RTVSPropertyOp59
 70
     1
102
RTVSPropertyOp60
 70
     1
102
RTVSPropertyOp61
 70
     1
102
RTVSPropertyOp62
 70
     1
  0
XRECORD
  5
6416
102
{ACAD_REACTORS
330
6415
102
}
330
6415
100
AcDbXrecord
280
     1
102
RTVSPost2010Prop28
280
     0
102
RTVSPost2010PropOp28
 70
     1
102
RTVSPost2010Prop29
280
     1
102
RTVSPost2010PropOp29
 70
     1
102
RTVSPost2010Prop30
280
     1
102
RTVSPost2010PropOp30
 70
     1
102
RTVSPost2010Prop31
280
     0
102
RTVSPost2010PropOp31
 70
     1
102
RTVSPost2010Prop32
280
     0
102
RTVSPost2010PropOp32
 70
     1
102
RTVSPost2010Prop33
280
     0
102
RTVSPost2010PropOp33
 70
     1
102
RTVSPost2010Prop34
280
     0
102
RTVSPost2010PropOp34
 70
     1
102
RTVSPost2010Prop35
280
     0
102
RTVSPost2010PropOp35
 70
     1
102
RTVSPost2010Prop36
280
     0
102
RTVSPost2010PropOp36
 70
     1
102
RTVSPost2010Prop37
 90
       50
102
RTVSPost2010PropOp37
 70
     1
102
RTVSPost2010Prop38
140
0.0
102
RTVSPost2010PropOp38
 70
     1
102
RTVSPost2010Prop39
140
1.0
102
RTVSPost2010PropOp39
 70
     1
102
RTVSPost2010Prop40
 90
        0
102
RTVSPost2010PropOp40
 70
     1
102
RTVSPost2010Prop41ColorIndex
 90
       18
102
RTVSPost2010Prop41ColorRGB
 90
        0
102
RTVSPost2010PropOp41
 70
     1
102
RTVSPost2010Prop42
 90
       50
102
RTVSPost2010PropOp42
 70
     1
102
RTVSPost2010Prop43
 90
        3
102
RTVSPost2010PropOp43
 70
     1
102
RTVSPost2010Prop44ColorIndex
 90
        5
102
RTVSPost2010Prop44ColorRGB
 90
      255
102
RTVSPost2010PropOp44
 70
     1
102
RTVSPost2010Prop45
280
     0
102
RTVSPost2010PropOp45
 70
     1
102
RTVSPost2010Prop46
 90
       50
102
RTVSPost2010PropOp46
 70
     1
102
RTVSPost2010Prop47
 90
       50
102
RTVSPost2010PropOp47
 70
     1
102
RTVSPost2010Prop48
 90
       50
102
RTVSPost2010PropOp48
 70
     1
102
RTVSPost2010Prop49
280
     0
102
RTVSPost2010PropOp49
 70
     1
102
RTVSPost2010Prop50
 90
       50
102
RTVSPost2010PropOp50
 70
     1
102
RTVSPost2010Prop51ColorIndex
 90
      256
102
RTVSPost2010Prop51ColorRGB
 90
-16777216
102
RTVSPost2010PropOp51
 70
     0
102
RTVSPost2010Prop52
140
1.0
102
RTVSPost2010PropOp52
 70
     0
102
RTVSPost2010Prop53
 90
        2
102
RTVSPost2010PropOp53
 70
     1
102
RTVSPost2010Prop54
  1
strokes_ogs.tif
102
RTVSPost2010PropOp54
 70
     1
102
RTVSPost2010Prop55
280
     0
102
RTVSPost2010PropOp55
 70
     1
102
RTVSPost2010Prop56
140
1.0
102
RTVSPost2010PropOp56
 70
     1
102
RTVSPost2010Prop57
140
1.0
102
RTVSPost2010PropOp57
 70
     1
102
RTVSPropertyOp0
 70
     1
102
RTVSPropertyOp1
 70
     1
102
RTVSPropertyOp2
 70
     1
102
RTVSPropertyOp3
 70
     1
102
RTVSPropertyOp4
 70
     1
102
RTVSPropertyOp5
 70
     1
102
RTVSPropertyOp6
 70
     1
102
RTVSPropertyOp7
 70
     1
102
RTVSPropertyOp8
 70
     1
102
RTVSPropertyOp9
 70
     1
102
RTVSPropertyOp10
 70
     1
102
RTVSPropertyOp11
 70
     1
102
RTVSPropertyOp12
 70
     1
102
RTVSPropertyOp13
 70
     1
102
RTVSPropertyOp14
 70
     1
102
RTVSPropertyOp15
 70
     1
102
RTVSPropertyOp16
 70
     1
102
RTVSPropertyOp17
 70
     1
102
RTVSPropertyOp18
 70
     1
102
RTVSPropertyOp19
 70
     1
102
RTVSPropertyOp20
 70
     1
102
RTVSPropertyOp21
 70
     1
102
RTVSPropertyOp22
 70
     1
102
RTVSPropertyOp23
 70
     1
102
RTVSPropertyOp24
 70
     1
102
RTVSPropertyOp25
 70
     1
102
RTVSPropertyOp26
 70
     1
102
RTVSPropertyOp27
 70
     1
102
RTVSPropertyOp28
 70
     1
102
RTVSPropertyOp29
 70
     1
102
RTVSPropertyOp30
 70
     1
102
RTVSPropertyOp31
 70
     1
102
RTVSPropertyOp32
 70
     1
102
RTVSPropertyOp33
 70
     1
102
RTVSPropertyOp34
 70
     1
102
RTVSPropertyOp35
 70
     1
102
RTVSPropertyOp36
 70
     1
102
RTVSPropertyOp37
 70
     1
102
RTVSPropertyOp38
 70
     1
102
RTVSPropertyOp39
 70
     1
102
RTVSPropertyOp40
 70
     1
102
RTVSPropertyOp41
 70
     1
102
RTVSPropertyOp42
 70
     1
102
RTVSPropertyOp43
 70
     1
102
RTVSPropertyOp44
 70
     1
102
RTVSPropertyOp45
 70
     1
102
RTVSPropertyOp46
 70
     1
102
RTVSPropertyOp47
 70
     1
102
RTVSPropertyOp48
 70
     1
102
RTVSPropertyOp49
 70
     1
102
RTVSPropertyOp50
 70
     1
102
RTVSPropertyOp51
 70
     0
102
RTVSPropertyOp52
 70
     0
102
RTVSPropertyOp53
 70
     1
102
RTVSPropertyOp54
 70
     1
102
RTVSPropertyOp55
 70
     1
102
RTVSPropertyOp56
 70
     1
102
RTVSPropertyOp57
 70
     1
102
RTVSPropertyOp58
 70
     1
102
RTVSPropertyOp59
 70
     1
102
RTVSPropertyOp60
 70
     1
102
RTVSPropertyOp61
 70
     1
102
RTVSPropertyOp62
 70
     1
  0
XRECORD
  5
641E
102
{ACAD_REACTORS
330
641D
102
}
330
641D
100
AcDbXrecord
280
     1
102
RTVSPost2010Prop28
280
     0
102
RTVSPost2010PropOp28
 70
     1
102
RTVSPost2010Prop29
280
     1
102
RTVSPost2010PropOp29
 70
     1
102
RTVSPost2010Prop30
280
     1
102
RTVSPost2010PropOp30
 70
     1
102
RTVSPost2010Prop31
280
     0
102
RTVSPost2010PropOp31
 70
     1
102
RTVSPost2010Prop32
280
     0
102
RTVSPost2010PropOp32
 70
     1
102
RTVSPost2010Prop33
280
     0
102
RTVSPost2010PropOp33
 70
     1
102
RTVSPost2010Prop34
280
     0
102
RTVSPost2010PropOp34
 70
     1
102
RTVSPost2010Prop35
280
     0
102
RTVSPost2010PropOp35
 70
     1
102
RTVSPost2010Prop36
280
     0
102
RTVSPost2010PropOp36
 70
     1
102
RTVSPost2010Prop37
 90
       50
102
RTVSPost2010PropOp37
 70
     1
102
RTVSPost2010Prop38
140
0.0
102
RTVSPost2010PropOp38
 70
     1
102
RTVSPost2010Prop39
140
1.0
102
RTVSPost2010PropOp39
 70
     1
102
RTVSPost2010Prop40
 90
        0
102
RTVSPost2010PropOp40
 70
     1
102
RTVSPost2010Prop41ColorIndex
 90
       18
102
RTVSPost2010Prop41ColorRGB
 90
        0
102
RTVSPost2010PropOp41
 70
     1
102
RTVSPost2010Prop42
 90
       50
102
RTVSPost2010PropOp42
 70
     1
102
RTVSPost2010Prop43
 90
        3
102
RTVSPost2010PropOp43
 70
     1
102
RTVSPost2010Prop44ColorIndex
 90
        5
102
RTVSPost2010Prop44ColorRGB
 90
      255
102
RTVSPost2010PropOp44
 70
     1
102
RTVSPost2010Prop45
280
     0
102
RTVSPost2010PropOp45
 70
     1
102
RTVSPost2010Prop46
 90
       50
102
RTVSPost2010PropOp46
 70
     1
102
RTVSPost2010Prop47
 90
       50
102
RTVSPost2010PropOp47
 70
     1
102
RTVSPost2010Prop48
 90
       50
102
RTVSPost2010PropOp48
 70
     1
102
RTVSPost2010Prop49
280
     0
102
RTVSPost2010PropOp49
 70
     1
102
RTVSPost2010Prop50
 90
       50
102
RTVSPost2010PropOp50
 70
     1
102
RTVSPost2010Prop51ColorIndex
 90
      256
102
RTVSPost2010Prop51ColorRGB
 90
-16777216
102
RTVSPost2010PropOp51
 70
     0
102
RTVSPost2010Prop52
140
1.0
102
RTVSPost2010PropOp52
 70
     0
102
RTVSPost2010Prop53
 90
        2
102
RTVSPost2010PropOp53
 70
     1
102
RTVSPost2010Prop54
  1
strokes_ogs.tif
102
RTVSPost2010PropOp54
 70
     1
102
RTVSPost2010Prop55
280
     0
102
RTVSPost2010PropOp55
 70
     1
102
RTVSPost2010Prop56
140
1.0
102
RTVSPost2010PropOp56
 70
     1
102
RTVSPost2010Prop57
140
1.0
102
RTVSPost2010PropOp57
 70
     1
102
RTVSPropertyOp0
 70
     0
102
RTVSPropertyOp1
 70
     0
102
RTVSPropertyOp2
 70
     0
102
RTVSPropertyOp3
 70
     0
102
RTVSPropertyOp4
 70
     0
102
RTVSPropertyOp5
 70
     0
102
RTVSPropertyOp6
 70
     0
102
RTVSPropertyOp7
 70
     0
102
RTVSPropertyOp8
 70
     0
102
RTVSPropertyOp9
 70
     0
102
RTVSPropertyOp10
 70
     0
102
RTVSPropertyOp11
 70
     0
102
RTVSPropertyOp12
 70
     0
102
RTVSPropertyOp13
 70
     0
102
RTVSPropertyOp14
 70
     2
102
RTVSPropertyOp15
 70
     0
102
RTVSPropertyOp16
 70
     0
102
RTVSPropertyOp17
 70
     0
102
RTVSPropertyOp18
 70
     0
102
RTVSPropertyOp19
 70
     0
102
RTVSPropertyOp20
 70
     0
102
RTVSPropertyOp21
 70
     0
102
RTVSPropertyOp22
 70
     0
102
RTVSPropertyOp23
 70
     0
102
RTVSPropertyOp24
 70
     0
102
RTVSPropertyOp25
 70
     0
102
RTVSPropertyOp26
 70
     0
102
RTVSPropertyOp27
 70
     0
102
RTVSPropertyOp28
 70
     1
102
RTVSPropertyOp29
 70
     1
102
RTVSPropertyOp30
 70
     1
102
RTVSPropertyOp31
 70
     1
102
RTVSPropertyOp32
 70
     1
102
RTVSPropertyOp33
 70
     1
102
RTVSPropertyOp34
 70
     1
102
RTVSPropertyOp35
 70
     1
102
RTVSPropertyOp36
 70
     1
102
RTVSPropertyOp37
 70
     1
102
RTVSPropertyOp38
 70
     1
102
RTVSPropertyOp39
 70
     1
102
RTVSPropertyOp40
 70
     1
102
RTVSPropertyOp41
 70
     1
102
RTVSPropertyOp42
 70
     1
102
RTVSPropertyOp43
 70
     1
102
RTVSPropertyOp44
 70
     1
102
RTVSPropertyOp45
 70
     1
102
RTVSPropertyOp46
 70
     1
102
RTVSPropertyOp47
 70
     1
102
RTVSPropertyOp48
 70
     1
102
RTVSPropertyOp49
 70
     1
102
RTVSPropertyOp50
 70
     1
102
RTVSPropertyOp51
 70
     0
102
RTVSPropertyOp52
 70
     0
102
RTVSPropertyOp53
 70
     1
102
RTVSPropertyOp54
 70
     1
102
RTVSPropertyOp55
 70
     1
102
RTVSPropertyOp56
 70
     1
102
RTVSPropertyOp57
 70
     1
102
RTVSPropertyOp58
 70
     1
102
RTVSPropertyOp59
 70
     1
102
RTVSPropertyOp60
 70
     1
102
RTVSPropertyOp61
 70
     1
102
RTVSPropertyOp62
 70
     1
  0
XRECORD
  5
640E
102
{ACAD_REACTORS
330
640D
102
}
330
640D
100
AcDbXrecord
280
     1
102
RTVSPost2010Prop28
280
     0
102
RTVSPost2010PropOp28
 70
     1
102
RTVSPost2010Prop29
280
     1
102
RTVSPost2010PropOp29
 70
     1
102
RTVSPost2010Prop30
280
     1
102
RTVSPost2010PropOp30
 70
     1
102
RTVSPost2010Prop31
280
     0
102
RTVSPost2010PropOp31
 70
     1
102
RTVSPost2010Prop32
280
     0
102
RTVSPost2010PropOp32
 70
     1
102
RTVSPost2010Prop33
280
     0
102
RTVSPost2010PropOp33
 70
     1
102
RTVSPost2010Prop34
280
     0
102
RTVSPost2010PropOp34
 70
     1
102
RTVSPost2010Prop35
280
     0
102
RTVSPost2010PropOp35
 70
     1
102
RTVSPost2010Prop36
280
     0
102
RTVSPost2010PropOp36
 70
     1
102
RTVSPost2010Prop37
 90
       50
102
RTVSPost2010PropOp37
 70
     1
102
RTVSPost2010Prop38
140
0.0
102
RTVSPost2010PropOp38
 70
     1
102
RTVSPost2010Prop39
140
1.0
102
RTVSPost2010PropOp39
 70
     1
102
RTVSPost2010Prop40
 90
        0
102
RTVSPost2010PropOp40
 70
     1
102
RTVSPost2010Prop41ColorIndex
 90
       18
102
RTVSPost2010Prop41ColorRGB
 90
        0
102
RTVSPost2010PropOp41
 70
     1
102
RTVSPost2010Prop42
 90
       50
102
RTVSPost2010PropOp42
 70
     1
102
RTVSPost2010Prop43
 90
        3
102
RTVSPost2010PropOp43
 70
     1
102
RTVSPost2010Prop44ColorIndex
 90
        5
102
RTVSPost2010Prop44ColorRGB
 90
      255
102
RTVSPost2010PropOp44
 70
     1
102
RTVSPost2010Prop45
280
     0
102
RTVSPost2010PropOp45
 70
     1
102
RTVSPost2010Prop46
 90
       50
102
RTVSPost2010PropOp46
 70
     1
102
RTVSPost2010Prop47
 90
       50
102
RTVSPost2010PropOp47
 70
     1
102
RTVSPost2010Prop48
 90
       50
102
RTVSPost2010PropOp48
 70
     1
102
RTVSPost2010Prop49
280
     0
102
RTVSPost2010PropOp49
 70
     1
102
RTVSPost2010Prop50
 90
       50
102
RTVSPost2010PropOp50
 70
     1
102
RTVSPost2010Prop51ColorIndex
 90
      256
102
RTVSPost2010Prop51ColorRGB
 90
-16777216
102
RTVSPost2010PropOp51
 70
     0
102
RTVSPost2010Prop52
140
1.0
102
RTVSPost2010PropOp52
 70
     0
102
RTVSPost2010Prop53
 90
        2
102
RTVSPost2010PropOp53
 70
     1
102
RTVSPost2010Prop54
  1
strokes_ogs.tif
102
RTVSPost2010PropOp54
 70
     1
102
RTVSPost2010Prop55
280
     0
102
RTVSPost2010PropOp55
 70
     1
102
RTVSPost2010Prop56
140
1.0
102
RTVSPost2010PropOp56
 70
     1
102
RTVSPost2010Prop57
140
1.0
102
RTVSPost2010PropOp57
 70
     1
102
RTVSPropertyOp0
 70
     1
102
RTVSPropertyOp1
 70
     1
102
RTVSPropertyOp2
 70
     1
102
RTVSPropertyOp3
 70
     1
102
RTVSPropertyOp4
 70
     1
102
RTVSPropertyOp5
 70
     1
102
RTVSPropertyOp6
 70
     1
102
RTVSPropertyOp7
 70
     1
102
RTVSPropertyOp8
 70
     1
102
RTVSPropertyOp9
 70
     1
102
RTVSPropertyOp10
 70
     1
102
RTVSPropertyOp11
 70
     1
102
RTVSPropertyOp12
 70
     1
102
RTVSPropertyOp13
 70
     1
102
RTVSPropertyOp14
 70
     1
102
RTVSPropertyOp15
 70
     1
102
RTVSPropertyOp16
 70
     1
102
RTVSPropertyOp17
 70
     1
102
RTVSPropertyOp18
 70
     1
102
RTVSPropertyOp19
 70
     1
102
RTVSPropertyOp20
 70
     1
102
RTVSPropertyOp21
 70
     1
102
RTVSPropertyOp22
 70
     1
102
RTVSPropertyOp23
 70
     1
102
RTVSPropertyOp24
 70
     1
102
RTVSPropertyOp25
 70
     1
102
RTVSPropertyOp26
 70
     1
102
RTVSPropertyOp27
 70
     1
102
RTVSPropertyOp28
 70
     1
102
RTVSPropertyOp29
 70
     1
102
RTVSPropertyOp30
 70
     1
102
RTVSPropertyOp31
 70
     1
102
RTVSPropertyOp32
 70
     1
102
RTVSPropertyOp33
 70
     1
102
RTVSPropertyOp34
 70
     1
102
RTVSPropertyOp35
 70
     1
102
RTVSPropertyOp36
 70
     1
102
RTVSPropertyOp37
 70
     1
102
RTVSPropertyOp38
 70
     1
102
RTVSPropertyOp39
 70
     1
102
RTVSPropertyOp40
 70
     1
102
RTVSPropertyOp41
 70
     1
102
RTVSPropertyOp42
 70
     1
102
RTVSPropertyOp43
 70
     1
102
RTVSPropertyOp44
 70
     1
102
RTVSPropertyOp45
 70
     1
102
RTVSPropertyOp46
 70
     1
102
RTVSPropertyOp47
 70
     1
102
RTVSPropertyOp48
 70
     1
102
RTVSPropertyOp49
 70
     1
102
RTVSPropertyOp50
 70
     1
102
RTVSPropertyOp51
 70
     0
102
RTVSPropertyOp52
 70
     0
102
RTVSPropertyOp53
 70
     1
102
RTVSPropertyOp54
 70
     1
102
RTVSPropertyOp55
 70
     1
102
RTVSPropertyOp56
 70
     1
102
RTVSPropertyOp57
 70
     1
102
RTVSPropertyOp58
 70
     1
102
RTVSPropertyOp59
 70
     1
102
RTVSPropertyOp60
 70
     1
102
RTVSPropertyOp61
 70
     1
102
RTVSPropertyOp62
 70
     1
  0
XRECORD
  5
642F
102
{ACAD_REACTORS
330
642E
102
}
330
642E
100
AcDbXrecord
280
     1
102
RTVSPost2010Prop28
280
     0
102
RTVSPost2010PropOp28
 70
     1
102
RTVSPost2010Prop29
280
     1
102
RTVSPost2010PropOp29
 70
     1
102
RTVSPost2010Prop30
280
     1
102
RTVSPost2010PropOp30
 70
     1
102
RTVSPost2010Prop31
280
     0
102
RTVSPost2010PropOp31
 70
     1
102
RTVSPost2010Prop32
280
     0
102
RTVSPost2010PropOp32
 70
     1
102
RTVSPost2010Prop33
280
     0
102
RTVSPost2010PropOp33
 70
     1
102
RTVSPost2010Prop34
280
     0
102
RTVSPost2010PropOp34
 70
     1
102
RTVSPost2010Prop35
280
     0
102
RTVSPost2010PropOp35
 70
     1
102
RTVSPost2010Prop36
280
     0
102
RTVSPost2010PropOp36
 70
     1
102
RTVSPost2010Prop37
 90
       50
102
RTVSPost2010PropOp37
 70
     1
102
RTVSPost2010Prop38
140
0.0
102
RTVSPost2010PropOp38
 70
     1
102
RTVSPost2010Prop39
140
1.0
102
RTVSPost2010PropOp39
 70
     1
102
RTVSPost2010Prop40
 90
        0
102
RTVSPost2010PropOp40
 70
     1
102
RTVSPost2010Prop41ColorIndex
 90
       18
102
RTVSPost2010Prop41ColorRGB
 90
        0
102
RTVSPost2010PropOp41
 70
     1
102
RTVSPost2010Prop42
 90
       50
102
RTVSPost2010PropOp42
 70
     1
102
RTVSPost2010Prop43
 90
        3
102
RTVSPost2010PropOp43
 70
     1
102
RTVSPost2010Prop44ColorIndex
 90
        5
102
RTVSPost2010Prop44ColorRGB
 90
      255
102
RTVSPost2010PropOp44
 70
     1
102
RTVSPost2010Prop45
280
     0
102
RTVSPost2010PropOp45
 70
     1
102
RTVSPost2010Prop46
 90
       50
102
RTVSPost2010PropOp46
 70
     1
102
RTVSPost2010Prop47
 90
       50
102
RTVSPost2010PropOp47
 70
     1
102
RTVSPost2010Prop48
 90
       50
102
RTVSPost2010PropOp48
 70
     1
102
RTVSPost2010Prop49
280
     0
102
RTVSPost2010PropOp49
 70
     1
102
RTVSPost2010Prop50
 90
       50
102
RTVSPost2010PropOp50
 70
     1
102
RTVSPost2010Prop51ColorIndex
 90
      256
102
RTVSPost2010Prop51ColorRGB
 90
-16777216
102
RTVSPost2010PropOp51
 70
     0
102
RTVSPost2010Prop52
140
1.0
102
RTVSPost2010PropOp52
 70
     0
102
RTVSPost2010Prop53
 90
        2
102
RTVSPost2010PropOp53
 70
     1
102
RTVSPost2010Prop54
  1
strokes_ogs.tif
102
RTVSPost2010PropOp54
 70
     1
102
RTVSPost2010Prop55
280
     0
102
RTVSPost2010PropOp55
 70
     1
102
RTVSPost2010Prop56
140
1.0
102
RTVSPost2010PropOp56
 70
     1
102
RTVSPost2010Prop57
140
1.0
102
RTVSPost2010PropOp57
 70
     1
102
RTVSPropertyOp0
 70
     1
102
RTVSPropertyOp1
 70
     1
102
RTVSPropertyOp2
 70
     1
102
RTVSPropertyOp3
 70
     1
102
RTVSPropertyOp4
 70
     1
102
RTVSPropertyOp5
 70
     1
102
RTVSPropertyOp6
 70
     1
102
RTVSPropertyOp7
 70
     1
102
RTVSPropertyOp8
 70
     1
102
RTVSPropertyOp9
 70
     1
102
RTVSPropertyOp10
 70
     1
102
RTVSPropertyOp11
 70
     1
102
RTVSPropertyOp12
 70
     1
102
RTVSPropertyOp13
 70
     1
102
RTVSPropertyOp14
 70
     1
102
RTVSPropertyOp15
 70
     1
102
RTVSPropertyOp16
 70
     1
102
RTVSPropertyOp17
 70
     1
102
RTVSPropertyOp18
 70
     1
102
RTVSPropertyOp19
 70
     1
102
RTVSPropertyOp20
 70
     1
102
RTVSPropertyOp21
 70
     1
102
RTVSPropertyOp22
 70
     1
102
RTVSPropertyOp23
 70
     1
102
RTVSPropertyOp24
 70
     1
102
RTVSPropertyOp25
 70
     1
102
RTVSPropertyOp26
 70
     1
102
RTVSPropertyOp27
 70
     1
102
RTVSPropertyOp28
 70
     1
102
RTVSPropertyOp29
 70
     1
102
RTVSPropertyOp30
 70
     1
102
RTVSPropertyOp31
 70
     1
102
RTVSPropertyOp32
 70
     1
102
RTVSPropertyOp33
 70
     1
102
RTVSPropertyOp34
 70
     1
102
RTVSPropertyOp35
 70
     1
102
RTVSPropertyOp36
 70
     1
102
RTVSPropertyOp37
 70
     1
102
RTVSPropertyOp38
 70
     1
102
RTVSPropertyOp39
 70
     1
102
RTVSPropertyOp40
 70
     1
102
RTVSPropertyOp41
 70
     1
102
RTVSPropertyOp42
 70
     1
102
RTVSPropertyOp43
 70
     1
102
RTVSPropertyOp44
 70
     1
102
RTVSPropertyOp45
 70
     1
102
RTVSPropertyOp46
 70
     1
102
RTVSPropertyOp47
 70
     1
102
RTVSPropertyOp48
 70
     1
102
RTVSPropertyOp49
 70
     1
102
RTVSPropertyOp50
 70
     1
102
RTVSPropertyOp51
 70
     0
102
RTVSPropertyOp52
 70
     0
102
RTVSPropertyOp53
 70
     1
102
RTVSPropertyOp54
 70
     1
102
RTVSPropertyOp55
 70
     1
102
RTVSPropertyOp56
 70
     1
102
RTVSPropertyOp57
 70
     1
102
RTVSPropertyOp58
 70
     1
102
RTVSPropertyOp59
 70
     1
102
RTVSPropertyOp60
 70
     1
102
RTVSPropertyOp61
 70
     1
102
RTVSPropertyOp62
 70
     1
  0
XRECORD
  5
642D
102
{ACAD_REACTORS
330
642C
102
}
330
642C
100
AcDbXrecord
280
     1
102
RTVSPost2010Prop28
280
     0
102
RTVSPost2010PropOp28
 70
     1
102
RTVSPost2010Prop29
280
     1
102
RTVSPost2010PropOp29
 70
     1
102
RTVSPost2010Prop30
280
     1
102
RTVSPost2010PropOp30
 70
     1
102
RTVSPost2010Prop31
280
     0
102
RTVSPost2010PropOp31
 70
     1
102
RTVSPost2010Prop32
280
     0
102
RTVSPost2010PropOp32
 70
     1
102
RTVSPost2010Prop33
280
     0
102
RTVSPost2010PropOp33
 70
     1
102
RTVSPost2010Prop34
280
     0
102
RTVSPost2010PropOp34
 70
     1
102
RTVSPost2010Prop35
280
     0
102
RTVSPost2010PropOp35
 70
     1
102
RTVSPost2010Prop36
280
     0
102
RTVSPost2010PropOp36
 70
     1
102
RTVSPost2010Prop37
 90
       50
102
RTVSPost2010PropOp37
 70
     1
102
RTVSPost2010Prop38
140
0.0
102
RTVSPost2010PropOp38
 70
     1
102
RTVSPost2010Prop39
140
1.0
102
RTVSPost2010PropOp39
 70
     1
102
RTVSPost2010Prop40
 90
        0
102
RTVSPost2010PropOp40
 70
     1
102
RTVSPost2010Prop41ColorIndex
 90
       18
102
RTVSPost2010Prop41ColorRGB
 90
        0
102
RTVSPost2010PropOp41
 70
     1
102
RTVSPost2010Prop42
 90
       50
102
RTVSPost2010PropOp42
 70
     1
102
RTVSPost2010Prop43
 90
        3
102
RTVSPost2010PropOp43
 70
     1
102
RTVSPost2010Prop44ColorIndex
 90
        5
102
RTVSPost2010Prop44ColorRGB
 90
      255
102
RTVSPost2010PropOp44
 70
     1
102
RTVSPost2010Prop45
280
     0
102
RTVSPost2010PropOp45
 70
     1
102
RTVSPost2010Prop46
 90
       50
102
RTVSPost2010PropOp46
 70
     1
102
RTVSPost2010Prop47
 90
       50
102
RTVSPost2010PropOp47
 70
     1
102
RTVSPost2010Prop48
 90
       50
102
RTVSPost2010PropOp48
 70
     1
102
RTVSPost2010Prop49
280
     0
102
RTVSPost2010PropOp49
 70
     1
102
RTVSPost2010Prop50
 90
       50
102
RTVSPost2010PropOp50
 70
     1
102
RTVSPost2010Prop51ColorIndex
 90
      256
102
RTVSPost2010Prop51ColorRGB
 90
-16777216
102
RTVSPost2010PropOp51
 70
     0
102
RTVSPost2010Prop52
140
1.0
102
RTVSPost2010PropOp52
 70
     0
102
RTVSPost2010Prop53
 90
        2
102
RTVSPost2010PropOp53
 70
     1
102
RTVSPost2010Prop54
  1
strokes_ogs.tif
102
RTVSPost2010PropOp54
 70
     1
102
RTVSPost2010Prop55
280
     0
102
RTVSPost2010PropOp55
 70
     1
102
RTVSPost2010Prop56
140
1.0
102
RTVSPost2010PropOp56
 70
     1
102
RTVSPost2010Prop57
140
1.0
102
RTVSPost2010PropOp57
 70
     1
102
RTVSPropertyOp0
 70
     1
102
RTVSPropertyOp1
 70
     1
102
RTVSPropertyOp2
 70
     1
102
RTVSPropertyOp3
 70
     1
102
RTVSPropertyOp4
 70
     1
102
RTVSPropertyOp5
 70
     1
102
RTVSPropertyOp6
 70
     1
102
RTVSPropertyOp7
 70
     1
102
RTVSPropertyOp8
 70
     1
102
RTVSPropertyOp9
 70
     1
102
RTVSPropertyOp10
 70
     1
102
RTVSPropertyOp11
 70
     1
102
RTVSPropertyOp12
 70
     1
102
RTVSPropertyOp13
 70
     1
102
RTVSPropertyOp14
 70
     1
102
RTVSPropertyOp15
 70
     1
102
RTVSPropertyOp16
 70
     1
102
RTVSPropertyOp17
 70
     1
102
RTVSPropertyOp18
 70
     1
102
RTVSPropertyOp19
 70
     1
102
RTVSPropertyOp20
 70
     1
102
RTVSPropertyOp21
 70
     1
102
RTVSPropertyOp22
 70
     1
102
RTVSPropertyOp23
 70
     1
102
RTVSPropertyOp24
 70
     1
102
RTVSPropertyOp25
 70
     1
102
RTVSPropertyOp26
 70
     1
102
RTVSPropertyOp27
 70
     1
102
RTVSPropertyOp28
 70
     1
102
RTVSPropertyOp29
 70
     1
102
RTVSPropertyOp30
 70
     1
102
RTVSPropertyOp31
 70
     1
102
RTVSPropertyOp32
 70
     1
102
RTVSPropertyOp33
 70
     1
102
RTVSPropertyOp34
 70
     1
102
RTVSPropertyOp35
 70
     1
102
RTVSPropertyOp36
 70
     1
102
RTVSPropertyOp37
 70
     1
102
RTVSPropertyOp38
 70
     1
102
RTVSPropertyOp39
 70
     1
102
RTVSPropertyOp40
 70
     1
102
RTVSPropertyOp41
 70
     1
102
RTVSPropertyOp42
 70
     1
102
RTVSPropertyOp43
 70
     1
102
RTVSPropertyOp44
 70
     1
102
RTVSPropertyOp45
 70
     1
102
RTVSPropertyOp46
 70
     1
102
RTVSPropertyOp47
 70
     1
102
RTVSPropertyOp48
 70
     1
102
RTVSPropertyOp49
 70
     1
102
RTVSPropertyOp50
 70
     1
102
RTVSPropertyOp51
 70
     0
102
RTVSPropertyOp52
 70
     0
102
RTVSPropertyOp53
 70
     1
102
RTVSPropertyOp54
 70
     1
102
RTVSPropertyOp55
 70
     1
102
RTVSPropertyOp56
 70
     1
102
RTVSPropertyOp57
 70
     1
102
RTVSPropertyOp58
 70
     1
102
RTVSPropertyOp59
 70
     1
102
RTVSPropertyOp60
 70
     1
102
RTVSPropertyOp61
 70
     1
102
RTVSPropertyOp62
 70
     1
  0
XRECORD
  5
6427
102
{ACAD_REACTORS
330
6426
102
}
330
6426
100
AcDbXrecord
280
     1
102
RTVSPost2010Prop28
280
     0
102
RTVSPost2010PropOp28
 70
     1
102
RTVSPost2010Prop29
280
     1
102
RTVSPost2010PropOp29
 70
     1
102
RTVSPost2010Prop30
280
     1
102
RTVSPost2010PropOp30
 70
     1
102
RTVSPost2010Prop31
280
     0
102
RTVSPost2010PropOp31
 70
     1
102
RTVSPost2010Prop32
280
     0
102
RTVSPost2010PropOp32
 70
     1
102
RTVSPost2010Prop33
280
     0
102
RTVSPost2010PropOp33
 70
     1
102
RTVSPost2010Prop34
280
     0
102
RTVSPost2010PropOp34
 70
     1
102
RTVSPost2010Prop35
280
     0
102
RTVSPost2010PropOp35
 70
     1
102
RTVSPost2010Prop36
280
     0
102
RTVSPost2010PropOp36
 70
     1
102
RTVSPost2010Prop37
 90
       50
102
RTVSPost2010PropOp37
 70
     1
102
RTVSPost2010Prop38
140
0.0
102
RTVSPost2010PropOp38
 70
     1
102
RTVSPost2010Prop39
140
1.0
102
RTVSPost2010PropOp39
 70
     1
102
RTVSPost2010Prop40
 90
        0
102
RTVSPost2010PropOp40
 70
     1
102
RTVSPost2010Prop41ColorIndex
 90
       18
102
RTVSPost2010Prop41ColorRGB
 90
        0
102
RTVSPost2010PropOp41
 70
     1
102
RTVSPost2010Prop42
 90
       50
102
RTVSPost2010PropOp42
 70
     1
102
RTVSPost2010Prop43
 90
        3
102
RTVSPost2010PropOp43
 70
     1
102
RTVSPost2010Prop44ColorIndex
 90
        5
102
RTVSPost2010Prop44ColorRGB
 90
      255
102
RTVSPost2010PropOp44
 70
     1
102
RTVSPost2010Prop45
280
     0
102
RTVSPost2010PropOp45
 70
     1
102
RTVSPost2010Prop46
 90
       50
102
RTVSPost2010PropOp46
 70
     1
102
RTVSPost2010Prop47
 90
       50
102
RTVSPost2010PropOp47
 70
     1
102
RTVSPost2010Prop48
 90
       50
102
RTVSPost2010PropOp48
 70
     1
102
RTVSPost2010Prop49
280
     0
102
RTVSPost2010PropOp49
 70
     1
102
RTVSPost2010Prop50
 90
       50
102
RTVSPost2010PropOp50
 70
     1
102
RTVSPost2010Prop51ColorIndex
 90
      256
102
RTVSPost2010Prop51ColorRGB
 90
-16777216
102
RTVSPost2010PropOp51
 70
     0
102
RTVSPost2010Prop52
140
1.0
102
RTVSPost2010PropOp52
 70
     0
102
RTVSPost2010Prop53
 90
        2
102
RTVSPost2010PropOp53
 70
     1
102
RTVSPost2010Prop54
  1
strokes_ogs.tif
102
RTVSPost2010PropOp54
 70
     1
102
RTVSPost2010Prop55
280
     0
102
RTVSPost2010PropOp55
 70
     1
102
RTVSPost2010Prop56
140
1.0
102
RTVSPost2010PropOp56
 70
     1
102
RTVSPost2010Prop57
140
1.0
102
RTVSPost2010PropOp57
 70
     1
102
RTVSPropertyOp0
 70
     1
102
RTVSPropertyOp1
 70
     1
102
RTVSPropertyOp2
 70
     1
102
RTVSPropertyOp3
 70
     1
102
RTVSPropertyOp4
 70
     1
102
RTVSPropertyOp5
 70
     1
102
RTVSPropertyOp6
 70
     1
102
RTVSPropertyOp7
 70
     1
102
RTVSPropertyOp8
 70
     1
102
RTVSPropertyOp9
 70
     1
102
RTVSPropertyOp10
 70
     1
102
RTVSPropertyOp11
 70
     1
102
RTVSPropertyOp12
 70
     1
102
RTVSPropertyOp13
 70
     1
102
RTVSPropertyOp14
 70
     1
102
RTVSPropertyOp15
 70
     1
102
RTVSPropertyOp16
 70
     1
102
RTVSPropertyOp17
 70
     1
102
RTVSPropertyOp18
 70
     1
102
RTVSPropertyOp19
 70
     1
102
RTVSPropertyOp20
 70
     1
102
RTVSPropertyOp21
 70
     1
102
RTVSPropertyOp22
 70
     1
102
RTVSPropertyOp23
 70
     1
102
RTVSPropertyOp24
 70
     1
102
RTVSPropertyOp25
 70
     1
102
RTVSPropertyOp26
 70
     1
102
RTVSPropertyOp27
 70
     1
102
RTVSPropertyOp28
 70
     1
102
RTVSPropertyOp29
 70
     1
102
RTVSPropertyOp30
 70
     1
102
RTVSPropertyOp31
 70
     1
102
RTVSPropertyOp32
 70
     1
102
RTVSPropertyOp33
 70
     1
102
RTVSPropertyOp34
 70
     1
102
RTVSPropertyOp35
 70
     1
102
RTVSPropertyOp36
 70
     1
102
RTVSPropertyOp37
 70
     1
102
RTVSPropertyOp38
 70
     1
102
RTVSPropertyOp39
 70
     1
102
RTVSPropertyOp40
 70
     1
102
RTVSPropertyOp41
 70
     1
102
RTVSPropertyOp42
 70
     1
102
RTVSPropertyOp43
 70
     1
102
RTVSPropertyOp44
 70
     1
102
RTVSPropertyOp45
 70
     1
102
RTVSPropertyOp46
 70
     1
102
RTVSPropertyOp47
 70
     1
102
RTVSPropertyOp48
 70
     1
102
RTVSPropertyOp49
 70
     1
102
RTVSPropertyOp50
 70
     1
102
RTVSPropertyOp51
 70
     0
102
RTVSPropertyOp52
 70
     0
102
RTVSPropertyOp53
 70
     1
102
RTVSPropertyOp54
 70
     1
102
RTVSPropertyOp55
 70
     1
102
RTVSPropertyOp56
 70
     1
102
RTVSPropertyOp57
 70
     1
102
RTVSPropertyOp58
 70
     1
102
RTVSPropertyOp59
 70
     1
102
RTVSPropertyOp60
 70
     1
102
RTVSPropertyOp61
 70
     1
102
RTVSPropertyOp62
 70
     1
  0
XRECORD
  5
6429
102
{ACAD_REACTORS
330
6428
102
}
330
6428
100
AcDbXrecord
280
     1
102
RTVSPost2010Prop28
280
     0
102
RTVSPost2010PropOp28
 70
     1
102
RTVSPost2010Prop29
280
     1
102
RTVSPost2010PropOp29
 70
     1
102
RTVSPost2010Prop30
280
     1
102
RTVSPost2010PropOp30
 70
     1
102
RTVSPost2010Prop31
280
     0
102
RTVSPost2010PropOp31
 70
     1
102
RTVSPost2010Prop32
280
     0
102
RTVSPost2010PropOp32
 70
     1
102
RTVSPost2010Prop33
280
     0
102
RTVSPost2010PropOp33
 70
     1
102
RTVSPost2010Prop34
280
     0
102
RTVSPost2010PropOp34
 70
     1
102
RTVSPost2010Prop35
280
     0
102
RTVSPost2010PropOp35
 70
     1
102
RTVSPost2010Prop36
280
     0
102
RTVSPost2010PropOp36
 70
     1
102
RTVSPost2010Prop37
 90
       50
102
RTVSPost2010PropOp37
 70
     1
102
RTVSPost2010Prop38
140
0.0
102
RTVSPost2010PropOp38
 70
     1
102
RTVSPost2010Prop39
140
1.0
102
RTVSPost2010PropOp39
 70
     1
102
RTVSPost2010Prop40
 90
        0
102
RTVSPost2010PropOp40
 70
     1
102
RTVSPost2010Prop41ColorIndex
 90
       18
102
RTVSPost2010Prop41ColorRGB
 90
        0
102
RTVSPost2010PropOp41
 70
     1
102
RTVSPost2010Prop42
 90
       50
102
RTVSPost2010PropOp42
 70
     1
102
RTVSPost2010Prop43
 90
        3
102
RTVSPost2010PropOp43
 70
     1
102
RTVSPost2010Prop44ColorIndex
 90
        5
102
RTVSPost2010Prop44ColorRGB
 90
      255
102
RTVSPost2010PropOp44
 70
     1
102
RTVSPost2010Prop45
280
     0
102
RTVSPost2010PropOp45
 70
     1
102
RTVSPost2010Prop46
 90
       50
102
RTVSPost2010PropOp46
 70
     1
102
RTVSPost2010Prop47
 90
       50
102
RTVSPost2010PropOp47
 70
     1
102
RTVSPost2010Prop48
 90
       50
102
RTVSPost2010PropOp48
 70
     1
102
RTVSPost2010Prop49
280
     0
102
RTVSPost2010PropOp49
 70
     1
102
RTVSPost2010Prop50
 90
       50
102
RTVSPost2010PropOp50
 70
     1
102
RTVSPost2010Prop51ColorIndex
 90
      256
102
RTVSPost2010Prop51ColorRGB
 90
-16777216
102
RTVSPost2010PropOp51
 70
     0
102
RTVSPost2010Prop52
140
1.0
102
RTVSPost2010PropOp52
 70
     0
102
RTVSPost2010Prop53
 90
        2
102
RTVSPost2010PropOp53
 70
     1
102
RTVSPost2010Prop54
  1
strokes_ogs.tif
102
RTVSPost2010PropOp54
 70
     1
102
RTVSPost2010Prop55
280
     0
102
RTVSPost2010PropOp55
 70
     1
102
RTVSPost2010Prop56
140
1.0
102
RTVSPost2010PropOp56
 70
     1
102
RTVSPost2010Prop57
140
1.0
102
RTVSPost2010PropOp57
 70
     1
102
RTVSPropertyOp0
 70
     1
102
RTVSPropertyOp1
 70
     1
102
RTVSPropertyOp2
 70
     1
102
RTVSPropertyOp3
 70
     1
102
RTVSPropertyOp4
 70
     1
102
RTVSPropertyOp5
 70
     1
102
RTVSPropertyOp6
 70
     1
102
RTVSPropertyOp7
 70
     1
102
RTVSPropertyOp8
 70
     1
102
RTVSPropertyOp9
 70
     1
102
RTVSPropertyOp10
 70
     1
102
RTVSPropertyOp11
 70
     1
102
RTVSPropertyOp12
 70
     1
102
RTVSPropertyOp13
 70
     1
102
RTVSPropertyOp14
 70
     1
102
RTVSPropertyOp15
 70
     1
102
RTVSPropertyOp16
 70
     1
102
RTVSPropertyOp17
 70
     1
102
RTVSPropertyOp18
 70
     1
102
RTVSPropertyOp19
 70
     1
102
RTVSPropertyOp20
 70
     1
102
RTVSPropertyOp21
 70
     1
102
RTVSPropertyOp22
 70
     1
102
RTVSPropertyOp23
 70
     1
102
RTVSPropertyOp24
 70
     1
102
RTVSPropertyOp25
 70
     1
102
RTVSPropertyOp26
 70
     1
102
RTVSPropertyOp27
 70
     1
102
RTVSPropertyOp28
 70
     1
102
RTVSPropertyOp29
 70
     1
102
RTVSPropertyOp30
 70
     1
102
RTVSPropertyOp31
 70
     1
102
RTVSPropertyOp32
 70
     1
102
RTVSPropertyOp33
 70
     1
102
RTVSPropertyOp34
 70
     1
102
RTVSPropertyOp35
 70
     1
102
RTVSPropertyOp36
 70
     1
102
RTVSPropertyOp37
 70
     1
102
RTVSPropertyOp38
 70
     1
102
RTVSPropertyOp39
 70
     1
102
RTVSPropertyOp40
 70
     1
102
RTVSPropertyOp41
 70
     1
102
RTVSPropertyOp42
 70
     1
102
RTVSPropertyOp43
 70
     1
102
RTVSPropertyOp44
 70
     1
102
RTVSPropertyOp45
 70
     1
102
RTVSPropertyOp46
 70
     1
102
RTVSPropertyOp47
 70
     1
102
RTVSPropertyOp48
 70
     1
102
RTVSPropertyOp49
 70
     1
102
RTVSPropertyOp50
 70
     1
102
RTVSPropertyOp51
 70
     0
102
RTVSPropertyOp52
 70
     0
102
RTVSPropertyOp53
 70
     1
102
RTVSPropertyOp54
 70
     1
102
RTVSPropertyOp55
 70
     1
102
RTVSPropertyOp56
 70
     1
102
RTVSPropertyOp57
 70
     1
102
RTVSPropertyOp58
 70
     1
102
RTVSPropertyOp59
 70
     1
102
RTVSPropertyOp60
 70
     1
102
RTVSPropertyOp61
 70
     1
102
RTVSPropertyOp62
 70
     1
  0
XRECORD
  5
6414
102
{ACAD_REACTORS
330
6413
102
}
330
6413
100
AcDbXrecord
280
     1
102
RTVSPost2010Prop28
280
     0
102
RTVSPost2010PropOp28
 70
     1
102
RTVSPost2010Prop29
280
     1
102
RTVSPost2010PropOp29
 70
     1
102
RTVSPost2010Prop30
280
     1
102
RTVSPost2010PropOp30
 70
     1
102
RTVSPost2010Prop31
280
     0
102
RTVSPost2010PropOp31
 70
     1
102
RTVSPost2010Prop32
280
     0
102
RTVSPost2010PropOp32
 70
     1
102
RTVSPost2010Prop33
280
     0
102
RTVSPost2010PropOp33
 70
     1
102
RTVSPost2010Prop34
280
     0
102
RTVSPost2010PropOp34
 70
     1
102
RTVSPost2010Prop35
280
     0
102
RTVSPost2010PropOp35
 70
     1
102
RTVSPost2010Prop36
280
     0
102
RTVSPost2010PropOp36
 70
     1
102
RTVSPost2010Prop37
 90
       50
102
RTVSPost2010PropOp37
 70
     1
102
RTVSPost2010Prop38
140
0.0
102
RTVSPost2010PropOp38
 70
     1
102
RTVSPost2010Prop39
140
1.0
102
RTVSPost2010PropOp39
 70
     1
102
RTVSPost2010Prop40
 90
        0
102
RTVSPost2010PropOp40
 70
     1
102
RTVSPost2010Prop41ColorIndex
 90
       18
102
RTVSPost2010Prop41ColorRGB
 90
        0
102
RTVSPost2010PropOp41
 70
     1
102
RTVSPost2010Prop42
 90
       50
102
RTVSPost2010PropOp42
 70
     1
102
RTVSPost2010Prop43
 90
        3
102
RTVSPost2010PropOp43
 70
     1
102
RTVSPost2010Prop44ColorIndex
 90
        5
102
RTVSPost2010Prop44ColorRGB
 90
      255
102
RTVSPost2010PropOp44
 70
     1
102
RTVSPost2010Prop45
280
     0
102
RTVSPost2010PropOp45
 70
     1
102
RTVSPost2010Prop46
 90
       50
102
RTVSPost2010PropOp46
 70
     1
102
RTVSPost2010Prop47
 90
       50
102
RTVSPost2010PropOp47
 70
     1
102
RTVSPost2010Prop48
 90
       50
102
RTVSPost2010PropOp48
 70
     1
102
RTVSPost2010Prop49
280
     0
102
RTVSPost2010PropOp49
 70
     1
102
RTVSPost2010Prop50
 90
       50
102
RTVSPost2010PropOp50
 70
     1
102
RTVSPost2010Prop51ColorIndex
 90
      256
102
RTVSPost2010Prop51ColorRGB
 90
-16777216
102
RTVSPost2010PropOp51
 70
     0
102
RTVSPost2010Prop52
140
1.0
102
RTVSPost2010PropOp52
 70
     0
102
RTVSPost2010Prop53
 90
        2
102
RTVSPost2010PropOp53
 70
     1
102
RTVSPost2010Prop54
  1
strokes_ogs.tif
102
RTVSPost2010PropOp54
 70
     1
102
RTVSPost2010Prop55
280
     0
102
RTVSPost2010PropOp55
 70
     1
102
RTVSPost2010Prop56
140
1.0
102
RTVSPost2010PropOp56
 70
     1
102
RTVSPost2010Prop57
140
1.0
102
RTVSPost2010PropOp57
 70
     1
102
RTVSPropertyOp0
 70
     1
102
RTVSPropertyOp1
 70
     1
102
RTVSPropertyOp2
 70
     1
102
RTVSPropertyOp3
 70
     1
102
RTVSPropertyOp4
 70
     1
102
RTVSPropertyOp5
 70
     1
102
RTVSPropertyOp6
 70
     1
102
RTVSPropertyOp7
 70
     1
102
RTVSPropertyOp8
 70
     1
102
RTVSPropertyOp9
 70
     1
102
RTVSPropertyOp10
 70
     1
102
RTVSPropertyOp11
 70
     1
102
RTVSPropertyOp12
 70
     1
102
RTVSPropertyOp13
 70
     1
102
RTVSPropertyOp14
 70
     1
102
RTVSPropertyOp15
 70
     1
102
RTVSPropertyOp16
 70
     1
102
RTVSPropertyOp17
 70
     1
102
RTVSPropertyOp18
 70
     1
102
RTVSPropertyOp19
 70
     1
102
RTVSPropertyOp20
 70
     1
102
RTVSPropertyOp21
 70
     1
102
RTVSPropertyOp22
 70
     1
102
RTVSPropertyOp23
 70
     1
102
RTVSPropertyOp24
 70
     1
102
RTVSPropertyOp25
 70
     1
102
RTVSPropertyOp26
 70
     1
102
RTVSPropertyOp27
 70
     1
102
RTVSPropertyOp28
 70
     1
102
RTVSPropertyOp29
 70
     1
102
RTVSPropertyOp30
 70
     1
102
RTVSPropertyOp31
 70
     1
102
RTVSPropertyOp32
 70
     1
102
RTVSPropertyOp33
 70
     1
102
RTVSPropertyOp34
 70
     1
102
RTVSPropertyOp35
 70
     1
102
RTVSPropertyOp36
 70
     1
102
RTVSPropertyOp37
 70
     1
102
RTVSPropertyOp38
 70
     1
102
RTVSPropertyOp39
 70
     1
102
RTVSPropertyOp40
 70
     1
102
RTVSPropertyOp41
 70
     1
102
RTVSPropertyOp42
 70
     1
102
RTVSPropertyOp43
 70
     1
102
RTVSPropertyOp44
 70
     1
102
RTVSPropertyOp45
 70
     1
102
RTVSPropertyOp46
 70
     1
102
RTVSPropertyOp47
 70
     1
102
RTVSPropertyOp48
 70
     1
102
RTVSPropertyOp49
 70
     1
102
RTVSPropertyOp50
 70
     1
102
RTVSPropertyOp51
 70
     0
102
RTVSPropertyOp52
 70
     0
102
RTVSPropertyOp53
 70
     1
102
RTVSPropertyOp54
 70
     1
102
RTVSPropertyOp55
 70
     1
102
RTVSPropertyOp56
 70
     1
102
RTVSPropertyOp57
 70
     1
102
RTVSPropertyOp58
 70
     1
102
RTVSPropertyOp59
 70
     1
102
RTVSPropertyOp60
 70
     1
102
RTVSPropertyOp61
 70
     1
102
RTVSPropertyOp62
 70
     1
  0
XRECORD
  5
6423
102
{ACAD_REACTORS
330
6422
102
}
330
6422
100
AcDbXrecord
280
     1
102
RTVSPost2010Prop28
280
     0
102
RTVSPost2010PropOp28
 70
     1
102
RTVSPost2010Prop29
280
     1
102
RTVSPost2010PropOp29
 70
     1
102
RTVSPost2010Prop30
280
     1
102
RTVSPost2010PropOp30
 70
     1
102
RTVSPost2010Prop31
280
     0
102
RTVSPost2010PropOp31
 70
     1
102
RTVSPost2010Prop32
280
     0
102
RTVSPost2010PropOp32
 70
     1
102
RTVSPost2010Prop33
280
     0
102
RTVSPost2010PropOp33
 70
     1
102
RTVSPost2010Prop34
280
     0
102
RTVSPost2010PropOp34
 70
     1
102
RTVSPost2010Prop35
280
     0
102
RTVSPost2010PropOp35
 70
     1
102
RTVSPost2010Prop36
280
     0
102
RTVSPost2010PropOp36
 70
     1
102
RTVSPost2010Prop37
 90
       50
102
RTVSPost2010PropOp37
 70
     1
102
RTVSPost2010Prop38
140
0.0
102
RTVSPost2010PropOp38
 70
     1
102
RTVSPost2010Prop39
140
1.0
102
RTVSPost2010PropOp39
 70
     1
102
RTVSPost2010Prop40
 90
        0
102
RTVSPost2010PropOp40
 70
     1
102
RTVSPost2010Prop41ColorIndex
 90
       18
102
RTVSPost2010Prop41ColorRGB
 90
        0
102
RTVSPost2010PropOp41
 70
     1
102
RTVSPost2010Prop42
 90
       50
102
RTVSPost2010PropOp42
 70
     1
102
RTVSPost2010Prop43
 90
        3
102
RTVSPost2010PropOp43
 70
     1
102
RTVSPost2010Prop44ColorIndex
 90
        5
102
RTVSPost2010Prop44ColorRGB
 90
      255
102
RTVSPost2010PropOp44
 70
     1
102
RTVSPost2010Prop45
280
     0
102
RTVSPost2010PropOp45
 70
     1
102
RTVSPost2010Prop46
 90
       50
102
RTVSPost2010PropOp46
 70
     1
102
RTVSPost2010Prop47
 90
       50
102
RTVSPost2010PropOp47
 70
     1
102
RTVSPost2010Prop48
 90
       50
102
RTVSPost2010PropOp48
 70
     1
102
RTVSPost2010Prop49
280
     0
102
RTVSPost2010PropOp49
 70
     1
102
RTVSPost2010Prop50
 90
       50
102
RTVSPost2010PropOp50
 70
     1
102
RTVSPost2010Prop51ColorIndex
 90
      256
102
RTVSPost2010Prop51ColorRGB
 90
-16777216
102
RTVSPost2010PropOp51
 70
     0
102
RTVSPost2010Prop52
140
1.0
102
RTVSPost2010PropOp52
 70
     0
102
RTVSPost2010Prop53
 90
        2
102
RTVSPost2010PropOp53
 70
     1
102
RTVSPost2010Prop54
  1
strokes_ogs.tif
102
RTVSPost2010PropOp54
 70
     1
102
RTVSPost2010Prop55
280
     0
102
RTVSPost2010PropOp55
 70
     1
102
RTVSPost2010Prop56
140
1.0
102
RTVSPost2010PropOp56
 70
     1
102
RTVSPost2010Prop57
140
1.0
102
RTVSPost2010PropOp57
 70
     1
102
RTVSPropertyOp0
 70
     1
102
RTVSPropertyOp1
 70
     1
102
RTVSPropertyOp2
 70
     1
102
RTVSPropertyOp3
 70
     1
102
RTVSPropertyOp4
 70
     1
102
RTVSPropertyOp5
 70
     1
102
RTVSPropertyOp6
 70
     1
102
RTVSPropertyOp7
 70
     1
102
RTVSPropertyOp8
 70
     1
102
RTVSPropertyOp9
 70
     1
102
RTVSPropertyOp10
 70
     1
102
RTVSPropertyOp11
 70
     1
102
RTVSPropertyOp12
 70
     1
102
RTVSPropertyOp13
 70
     1
102
RTVSPropertyOp14
 70
     1
102
RTVSPropertyOp15
 70
     1
102
RTVSPropertyOp16
 70
     1
102
RTVSPropertyOp17
 70
     1
102
RTVSPropertyOp18
 70
     1
102
RTVSPropertyOp19
 70
     1
102
RTVSPropertyOp20
 70
     1
102
RTVSPropertyOp21
 70
     1
102
RTVSPropertyOp22
 70
     1
102
RTVSPropertyOp23
 70
     1
102
RTVSPropertyOp24
 70
     1
102
RTVSPropertyOp25
 70
     1
102
RTVSPropertyOp26
 70
     1
102
RTVSPropertyOp27
 70
     1
102
RTVSPropertyOp28
 70
     1
102
RTVSPropertyOp29
 70
     1
102
RTVSPropertyOp30
 70
     1
102
RTVSPropertyOp31
 70
     1
102
RTVSPropertyOp32
 70
     1
102
RTVSPropertyOp33
 70
     1
102
RTVSPropertyOp34
 70
     1
102
RTVSPropertyOp35
 70
     1
102
RTVSPropertyOp36
 70
     1
102
RTVSPropertyOp37
 70
     1
102
RTVSPropertyOp38
 70
     1
102
RTVSPropertyOp39
 70
     1
102
RTVSPropertyOp40
 70
     1
102
RTVSPropertyOp41
 70
     1
102
RTVSPropertyOp42
 70
     1
102
RTVSPropertyOp43
 70
     1
102
RTVSPropertyOp44
 70
     1
102
RTVSPropertyOp45
 70
     1
102
RTVSPropertyOp46
 70
     1
102
RTVSPropertyOp47
 70
     1
102
RTVSPropertyOp48
 70
     1
102
RTVSPropertyOp49
 70
     1
102
RTVSPropertyOp50
 70
     1
102
RTVSPropertyOp51
 70
     0
102
RTVSPropertyOp52
 70
     0
102
RTVSPropertyOp53
 70
     1
102
RTVSPropertyOp54
 70
     1
102
RTVSPropertyOp55
 70
     1
102
RTVSPropertyOp56
 70
     1
102
RTVSPropertyOp57
 70
     1
102
RTVSPropertyOp58
 70
     1
102
RTVSPropertyOp59
 70
     1
102
RTVSPropertyOp60
 70
     1
102
RTVSPropertyOp61
 70
     1
102
RTVSPropertyOp62
 70
     1
  0
XRECORD
  5
642B
102
{ACAD_REACTORS
330
642A
102
}
330
642A
100
AcDbXrecord
280
     1
102
RTVSPost2010Prop28
280
     0
102
RTVSPost2010PropOp28
 70
     1
102
RTVSPost2010Prop29
280
     1
102
RTVSPost2010PropOp29
 70
     1
102
RTVSPost2010Prop30
280
     1
102
RTVSPost2010PropOp30
 70
     1
102
RTVSPost2010Prop31
280
     0
102
RTVSPost2010PropOp31
 70
     1
102
RTVSPost2010Prop32
280
     0
102
RTVSPost2010PropOp32
 70
     1
102
RTVSPost2010Prop33
280
     0
102
RTVSPost2010PropOp33
 70
     1
102
RTVSPost2010Prop34
280
     0
102
RTVSPost2010PropOp34
 70
     1
102
RTVSPost2010Prop35
280
     0
102
RTVSPost2010PropOp35
 70
     1
102
RTVSPost2010Prop36
280
     0
102
RTVSPost2010PropOp36
 70
     1
102
RTVSPost2010Prop37
 90
       50
102
RTVSPost2010PropOp37
 70
     1
102
RTVSPost2010Prop38
140
0.0
102
RTVSPost2010PropOp38
 70
     1
102
RTVSPost2010Prop39
140
1.0
102
RTVSPost2010PropOp39
 70
     1
102
RTVSPost2010Prop40
 90
        0
102
RTVSPost2010PropOp40
 70
     1
102
RTVSPost2010Prop41ColorIndex
 90
       18
102
RTVSPost2010Prop41ColorRGB
 90
        0
102
RTVSPost2010PropOp41
 70
     1
102
RTVSPost2010Prop42
 90
       50
102
RTVSPost2010PropOp42
 70
     1
102
RTVSPost2010Prop43
 90
        3
102
RTVSPost2010PropOp43
 70
     1
102
RTVSPost2010Prop44ColorIndex
 90
        5
102
RTVSPost2010Prop44ColorRGB
 90
      255
102
RTVSPost2010PropOp44
 70
     1
102
RTVSPost2010Prop45
280
     0
102
RTVSPost2010PropOp45
 70
     1
102
RTVSPost2010Prop46
 90
       50
102
RTVSPost2010PropOp46
 70
     1
102
RTVSPost2010Prop47
 90
       50
102
RTVSPost2010PropOp47
 70
     1
102
RTVSPost2010Prop48
 90
       50
102
RTVSPost2010PropOp48
 70
     1
102
RTVSPost2010Prop49
280
     0
102
RTVSPost2010PropOp49
 70
     1
102
RTVSPost2010Prop50
 90
       50
102
RTVSPost2010PropOp50
 70
     1
102
RTVSPost2010Prop51ColorIndex
 90
      256
102
RTVSPost2010Prop51ColorRGB
 90
-16777216
102
RTVSPost2010PropOp51
 70
     0
102
RTVSPost2010Prop52
140
1.0
102
RTVSPost2010PropOp52
 70
     0
102
RTVSPost2010Prop53
 90
        2
102
RTVSPost2010PropOp53
 70
     1
102
RTVSPost2010Prop54
  1
strokes_ogs.tif
102
RTVSPost2010PropOp54
 70
     1
102
RTVSPost2010Prop55
280
     0
102
RTVSPost2010PropOp55
 70
     1
102
RTVSPost2010Prop56
140
1.0
102
RTVSPost2010PropOp56
 70
     1
102
RTVSPost2010Prop57
140
1.0
102
RTVSPost2010PropOp57
 70
     1
102
RTVSPropertyOp0
 70
     1
102
RTVSPropertyOp1
 70
     1
102
RTVSPropertyOp2
 70
     1
102
RTVSPropertyOp3
 70
     1
102
RTVSPropertyOp4
 70
     1
102
RTVSPropertyOp5
 70
     1
102
RTVSPropertyOp6
 70
     1
102
RTVSPropertyOp7
 70
     1
102
RTVSPropertyOp8
 70
     1
102
RTVSPropertyOp9
 70
     1
102
RTVSPropertyOp10
 70
     1
102
RTVSPropertyOp11
 70
     1
102
RTVSPropertyOp12
 70
     1
102
RTVSPropertyOp13
 70
     1
102
RTVSPropertyOp14
 70
     1
102
RTVSPropertyOp15
 70
     1
102
RTVSPropertyOp16
 70
     1
102
RTVSPropertyOp17
 70
     1
102
RTVSPropertyOp18
 70
     1
102
RTVSPropertyOp19
 70
     1
102
RTVSPropertyOp20
 70
     1
102
RTVSPropertyOp21
 70
     1
102
RTVSPropertyOp22
 70
     1
102
RTVSPropertyOp23
 70
     1
102
RTVSPropertyOp24
 70
     1
102
RTVSPropertyOp25
 70
     1
102
RTVSPropertyOp26
 70
     1
102
RTVSPropertyOp27
 70
     1
102
RTVSPropertyOp28
 70
     1
102
RTVSPropertyOp29
 70
     1
102
RTVSPropertyOp30
 70
     1
102
RTVSPropertyOp31
 70
     1
102
RTVSPropertyOp32
 70
     1
102
RTVSPropertyOp33
 70
     1
102
RTVSPropertyOp34
 70
     1
102
RTVSPropertyOp35
 70
     1
102
RTVSPropertyOp36
 70
     1
102
RTVSPropertyOp37
 70
     1
102
RTVSPropertyOp38
 70
     1
102
RTVSPropertyOp39
 70
     1
102
RTVSPropertyOp40
 70
     1
102
RTVSPropertyOp41
 70
     1
102
RTVSPropertyOp42
 70
     1
102
RTVSPropertyOp43
 70
     1
102
RTVSPropertyOp44
 70
     1
102
RTVSPropertyOp45
 70
     1
102
RTVSPropertyOp46
 70
     1
102
RTVSPropertyOp47
 70
     1
102
RTVSPropertyOp48
 70
     1
102
RTVSPropertyOp49
 70
     1
102
RTVSPropertyOp50
 70
     1
102
RTVSPropertyOp51
 70
     0
102
RTVSPropertyOp52
 70
     0
102
RTVSPropertyOp53
 70
     1
102
RTVSPropertyOp54
 70
     1
102
RTVSPropertyOp55
 70
     1
102
RTVSPropertyOp56
 70
     1
102
RTVSPropertyOp57
 70
     1
102
RTVSPropertyOp58
 70
     1
102
RTVSPropertyOp59
 70
     1
102
RTVSPropertyOp60
 70
     1
102
RTVSPropertyOp61
 70
     1
102
RTVSPropertyOp62
 70
     1
  0
ENDSEC
  0
EOF
