  0
SECTION
  2
HEADER
  9
$ACADVER
  1
AC1015
  9
$ACADMAINTVER
 70
    20
  9
$DWGCODEPAGE
  3
ANSI_932
  9
$INSBASE
 10
0.0
 20
0.0
 30
0.0
  9
$EXTMIN
 10
-0.1299852203555929
 20
-0.0901653190639991
 30
-0.0000000000000058
  9
$EXTMAX
 10
2760.132455252344
 20
1910.089880487941
 30
0.0000000000000104
  9
$LIMMIN
 10
0.0
 20
0.0
  9
$LIMMAX
 10
2840.0
 20
1970.0
  9
$ORTHOMODE
 70
     0
  9
$REGENMODE
 70
     1
  9
$FILLMODE
 70
     1
  9
$QTEXTMODE
 70
     0
  9
$MIRRTEXT
 70
     1
  9
$LTSCALE
 40
1.0
  9
$ATTMODE
 70
     1
  9
$TEXTSIZE
 40
2.5
  9
$TRACEWID
 40
1.0
  9
$TEXTSTYLE
  7
Standard
  9
$CLAYER
  8
sunpo
  9
$CELTYPE
  6
ByLayer
  9
$CECOLOR
 62
   256
  9
$CELTSCALE
 40
1.0
  9
$DISPSILH
 70
     0
  9
$DIMSCALE
 40
10.0
  9
$DIMASZ
 40
0.8
  9
$DIMEXO
 40
1.0
  9
$DIMDLI
 40
0.0
  9
$DIMRND
 40
0.0
  9
$DIMDLE
 40
0.0
  9
$DIMEXE
 40
0.0
  9
$DIMTP
 40
0.0
  9
$DIMTM
 40
0.0
  9
$DIMTXT
 40
2.0
  9
$DIMCEN
 40
2.5
  9
$DIMTSZ
 40
0.0
  9
$DIMTOL
 70
     0
  9
$DIMLIM
 70
     0
  9
$DIMTIH
 70
     0
  9
$DIMTOH
 70
     0
  9
$DIMSE1
 70
     0
  9
$DIMSE2
 70
     0
  9
$DIMTAD
 70
     2
  9
$DIMZIN
 70
     8
  9
$DIMBLK
  1

  9
$DIMASO
 70
     1
  9
$DIMSHO
 70
     1
  9
$DIMPOST
  1

  9
$DIMAPOST
  1

  9
$DIMALT
 70
     0
  9
$DIMALTD
 70
     4
  9
$DIMALTF
 40
0.0394
  9
$DIMLFAC
 40
1.0
  9
$DIMTOFL
 70
     1
  9
$DIMTVP
 40
0.0
  9
$DIMTIX
 70
     0
  9
$DIMSOXD
 70
     0
  9
$DIMSAH
 70
     1
  9
$DIMBLK1
  1
DOT
  9
$DIMBLK2
  1
DOT
  9
$DIMSTYLE
  2
STANDARD
  9
$DIMCLRD
 70
     0
  9
$DIMCLRE
 70
     0
  9
$DIMCLRT
 70
     0
  9
$DIMTFAC
 40
1.0
  9
$DIMGAP
 40
0.1
  9
$DIMJUST
 70
     0
  9
$DIMSD1
 70
     0
  9
$DIMSD2
 70
     0
  9
$DIMTOLJ
 70
     1
  9
$DIMTZIN
 70
     0
  9
$DIMALTZ
 70
     0
  9
$DIMALTTZ
 70
     0
  9
$DIMUPT
 70
     0
  9
$DIMDEC
 70
     8
  9
$DIMTDEC
 70
     8
  9
$DIMALTU
 70
     8
  9
$DIMALTTD
 70
     4
  9
$DIMTXSTY
  7
Standard
  9
$DIMAUNIT
 70
     0
  9
$DIMADEC
 70
     0
  9
$DIMALTRND
 40
0.0
  9
$DIMAZIN
 70
     0
  9
$DIMDSEP
 70
    46
  9
$DIMATFIT
 70
     3
  9
$DIMFRAC
 70
     0
  9
$DIMLDRBLK
  1
DOT
  9
$DIMLUNIT
 70
     2
  9
$DIMLWD
 70
    -2
  9
$DIMLWE
 70
    -2
  9
$DIMTMOVE
 70
     1
  9
$LUNITS
 70
     2
  9
$LUPREC
 70
     8
  9
$SKETCHINC
 40
1.0
  9
$FILLETRAD
 40
10.0
  9
$AUNITS
 70
     0
  9
$AUPREC
 70
     8
  9
$MENU
  1
.
  9
$ELEVATION
 40
0.0
  9
$PELEVATION
 40
0.0
  9
$THICKNESS
 40
0.0
  9
$LIMCHECK
 70
     0
  9
$CHAMFERA
 40
20.0
  9
$CHAMFERB
 40
20.0
  9
$CHAMFERC
 40
20.0
  9
$CHAMFERD
 40
0.0
  9
$SKPOLY
 70
     0
  9
$TDCREATE
 40
2453276.413761574
  9
$TDUCREATE
 40
2453276.038766620
  9
$TDUPDATE
 40
2459971.675219907
  9
$TDUUPDATE
 40
2459971.300219907
  9
$TDINDWG
 40
0.3923196528
  9
$TDUSRTIMER
 40
0.3923196528
  9
$USRTIMER
 70
     1
  9
$ANGBASE
 50
0.0
  9
$ANGDIR
 70
     0
  9
$PDMODE
 70
     0
  9
$PDSIZE
 40
0.0
  9
$PLINEWID
 40
0.0
  9
$SPLFRAME
 70
     0
  9
$SPLINETYPE
 70
     6
  9
$SPLINESEGS
 70
     8
  9
$HANDSEED
  5
41FB
  9
$SURFTAB1
 70
     6
  9
$SURFTAB2
 70
     6
  9
$SURFTYPE
 70
     6
  9
$SURFU
 70
     6
  9
$SURFV
 70
     6
  9
$UCSBASE
  2

  9
$UCSNAME
  2

  9
$UCSORG
 10
0.0
 20
0.0
 30
0.0
  9
$UCSXDIR
 10
1.0
 20
0.0
 30
0.0
  9
$UCSYDIR
 10
0.0
 20
1.0
 30
0.0
  9
$UCSORTHOREF
  2

  9
$UCSORTHOVIEW
 70
     0
  9
$UCSORGTOP
 10
0.0
 20
0.0
 30
0.0
  9
$UCSORGBOTTOM
 10
0.0
 20
0.0
 30
0.0
  9
$UCSORGLEFT
 10
0.0
 20
0.0
 30
0.0
  9
$UCSORGRIGHT
 10
0.0
 20
0.0
 30
0.0
  9
$UCSORGFRONT
 10
0.0
 20
0.0
 30
0.0
  9
$UCSORGBACK
 10
0.0
 20
0.0
 30
0.0
  9
$PUCSBASE
  2

  9
$PUCSNAME
  2

  9
$PUCSORG
 10
0.0
 20
0.0
 30
0.0
  9
$PUCSXDIR
 10
1.0
 20
0.0
 30
0.0
  9
$PUCSYDIR
 10
0.0
 20
1.0
 30
0.0
  9
$PUCSORTHOREF
  2

  9
$PUCSORTHOVIEW
 70
     0
  9
$PUCSORGTOP
 10
0.0
 20
0.0
 30
0.0
  9
$PUCSORGBOTTOM
 10
0.0
 20
0.0
 30
0.0
  9
$PUCSORGLEFT
 10
0.0
 20
0.0
 30
0.0
  9
$PUCSORGRIGHT
 10
0.0
 20
0.0
 30
0.0
  9
$PUCSORGFRONT
 10
0.0
 20
0.0
 30
0.0
  9
$PUCSORGBACK
 10
0.0
 20
0.0
 30
0.0
  9
$USERI1
 70
     0
  9
$USERI2
 70
     0
  9
$USERI3
 70
     0
  9
$USERI4
 70
     0
  9
$USERI5
 70
     0
  9
$USERR1
 40
0.0
  9
$USERR2
 40
0.0
  9
$USERR3
 40
0.0
  9
$USERR4
 40
0.0
  9
$USERR5
 40
0.0
  9
$WORLDVIEW
 70
     1
  9
$SHADEDGE
 70
     2
  9
$SHADEDIF
 70
    70
  9
$TILEMODE
 70
     1
  9
$MAXACTVP
 70
    64
  9
$PINSBASE
 10
0.0
 20
0.0
 30
0.0
  9
$PLIMCHECK
 70
     0
  9
$PEXTMIN
 10
0.0
 20
0.0
 30
0.0
  9
$PEXTMAX
 10
0.0
 20
0.0
 30
0.0
  9
$PLIMMIN
 10
0.0
 20
0.0
  9
$PLIMMAX
 10
12.0
 20
9.0
  9
$UNITMODE
 70
     0
  9
$VISRETAIN
 70
     1
  9
$PLINEGEN
 70
     0
  9
$PSLTSCALE
 70
     1
  9
$TREEDEPTH
 70
  3020
  9
$CMLSTYLE
  2
Standard
  9
$CMLJUST
 70
     0
  9
$CMLSCALE
 40
20.0
  9
$PROXYGRAPHICS
 70
     1
  9
$MEASUREMENT
 70
     1
  9
$CELWEIGHT
370
    -1
  9
$ENDCAPS
280
     0
  9
$JOINSTYLE
280
     0
  9
$LWDISPLAY
290
     0
  9
$INSUNITS
 70
     4
  9
$HYPERLINKBASE
  1

  9
$STYLESHEET
  1
monochrome.stb
  9
$XEDIT
290
     1
  9
$CEPSNTYPE
380
     0
  9
$PSTYLEMODE
290
     1
  9
$FINGERPRINTGUID
  2
{B4E61C12-08AD-407D-A83C-7C7812CA1D8B}
  9
$VERSIONGUID
  2
{A76B3D04-A325-7A40-ACC9-C84877F2AB2A}
  9
$EXTNAMES
290
     1
  9
$PSVPSCALE
 40
0.0
  9
$OLESTARTUP
290
     0
  0
ENDSEC
  0
SECTION
  2
CLASSES
  0
CLASS
  1
ACDBDICTIONARYWDFLT
  2
AcDbDictionaryWithDefault
  3
ObjectDBX Classes
 90
        0
280
     0
281
     0
  0
CLASS
  1
ACDBPLACEHOLDER
  2
AcDbPlaceHolder
  3
ObjectDBX Classes
 90
        0
280
     0
281
     0
  0
CLASS
  1
LAYOUT
  2
AcDbLayout
  3
ObjectDBX Classes
 90
        0
280
     0
281
     0
  0
CLASS
  1
DICTIONARYVAR
  2
AcDbDictionaryVar
  3
ObjectDBX Classes
 90
        0
280
     0
281
     0
  0
CLASS
  1
SORTENTSTABLE
  2
AcDbSortentsTable
  3
ObjectDBX Classes
 90
        0
280
     0
281
     0
  0
CLASS
  1
MATERIAL
  2
AcDbMaterial
  3
ObjectDBX Classes
 90
     1153
280
     0
281
     0
  0
CLASS
  1
VISUALSTYLE
  2
AcDbVisualStyle
  3
ObjectDBX Classes
 90
     4095
280
     0
281
     0
  0
CLASS
  1
TABLESTYLE
  2
AcDbTableStyle
  3
ObjectDBX Classes
 90
     4095
280
     0
281
     0
  0
CLASS
  1
SCALE
  2
AcDbScale
  3
ObjectDBX Classes
 90
     1153
280
     0
281
     0
  0
CLASS
  1
MLEADERSTYLE
  2
AcDbMLeaderStyle
  3
ACDB_MLEADERSTYLE_CLASS
 90
     4095
280
     0
281
     0
  0
CLASS
  1
CELLSTYLEMAP
  2
AcDbCellStyleMap
  3
ObjectDBX Classes
 90
     1152
280
     0
281
     0
  0
CLASS
  1
ACDBSECTIONVIEWSTYLE
  2
AcDbSectionViewStyle
  3
ObjectDBX Classes
 90
     1025
280
     0
281
     0
  0
CLASS
  1
ACDBDETAILVIEWSTYLE
  2
AcDbDetailViewStyle
  3
ObjectDBX Classes
 90
     1025
280
     0
281
     0
  0
ENDSEC
  0
SECTION
  2
TABLES
  0
TABLE
  2
VPORT
  5
8
102
{ACAD_XDICTIONARY
360
3841
102
}
330
0
100
AcDbSymbolTable
 70
     1
  0
VPORT
  5
37CE
330
8
100
AcDbSymbolTableRecord
100
AcDbViewportTableRecord
  2
*Active
 70
     0
 10
0.0
 20
0.0
 11
1.0
 21
1.0
 12
1380.001235015994
 22
954.9998575844384
 13
0.0
 23
0.0
 14
10.0
 24
10.0
 15
10.0
 25
10.0
 16
0.0
 26
0.0
 36
1.0
 17
0.0
 27
0.0
 37
0.0
 40
1925.667992124359
 41
1.753721244925575
 42
50.0
 43
0.0
 44
0.0
 50
0.0
 51
0.0
 71
     0
 72
   100
 73
     1
 74
     3
 75
     0
 76
     0
 77
     0
 78
     0
281
     0
 65
     1
110
0.0
120
0.0
130
0.0
111
1.0
121
0.0
131
0.0
112
0.0
122
1.0
132
0.0
 79
     0
146
0.0
1001
ACAD_NAV_VCDISPLAY
1070
     3
  0
ENDTAB
  0
TABLE
  2
LTYPE
  5
5
330
0
100
AcDbSymbolTable
 70
     2
  0
LTYPE
  5
14
330
5
100
AcDbSymbolTableRecord
100
AcDbLinetypeTableRecord
  2
ByBlock
 70
     0
  3

 72
    65
 73
     0
 40
0.0
  0
LTYPE
  5
15
330
5
100
AcDbSymbolTableRecord
100
AcDbLinetypeTableRecord
  2
ByLayer
 70
     0
  3

 72
    65
 73
     0
 40
0.0
  0
LTYPE
  5
16
330
5
100
AcDbSymbolTableRecord
100
AcDbLinetypeTableRecord
  2
Continuous
 70
     0
  3
Solid line
 72
    65
 73
     0
 40
0.0
  0
LTYPE
  5
255D
330
5
100
AcDbSymbolTableRecord
100
AcDbLinetypeTableRecord
  2
DASHED
 70
     0
  3
Dashed __ __ __ __ __ __ __ __ __ __ __ __ __ _
 72
    65
 73
     2
 40
19.05
 49
12.7
 74
     0
 49
-6.349999999999999
 74
     0
  0
ENDTAB
  0
TABLE
  2
LAYER
  5
2
102
{ACAD_XDICTIONARY
360
2D
102
}
330
0
100
AcDbSymbolTable
 70
    11
  0
LAYER
  5
10
102
{ACAD_XDICTIONARY
360
3829
102
}
330
2
100
AcDbSymbolTableRecord
100
AcDbLayerTableRecord
  2
0
 70
     0
 62
     7
  6
Continuous
290
     0
370
    -3
390
29
  0
LAYER
  5
2294
102
{ACAD_XDICTIONARY
360
382B
102
}
330
2
100
AcDbSymbolTableRecord
100
AcDbLayerTableRecord
  2
HATCH
 70
     0
 62
     9
  6
Continuous
370
    -3
390
29
  0
LAYER
  5
2301
330
2
100
AcDbSymbolTableRecord
100
AcDbLayerTableRecord
  2
Defpoints
 70
     0
 62
     7
  6
Continuous
290
     0
370
    -3
390
F
  0
LAYER
  5
235F
102
{ACAD_XDICTIONARY
360
382D
102
}
330
2
100
AcDbSymbolTableRecord
100
AcDbLayerTableRecord
  2
KUTAI
 70
     0
 62
     3
  6
Continuous
370
    -3
390
29
  0
LAYER
  5
2360
102
{ACAD_XDICTIONARY
360
382F
102
}
330
2
100
AcDbSymbolTableRecord
100
AcDbLayerTableRecord
  2
BOUSUI
 70
     0
 62
     1
  6
Continuous
370
    -3
390
29
  0
LAYER
  5
2361
102
{ACAD_XDICTIONARY
360
3831
102
}
330
2
100
AcDbSymbolTableRecord
100
AcDbLayerTableRecord
  2
MOJI
 70
     0
 62
     7
  6
Continuous
370
    -3
390
29
  0
LAYER
  5
2363
102
{ACAD_XDICTIONARY
360
3833
102
}
330
2
100
AcDbSymbolTableRecord
100
AcDbLayerTableRecord
  2
sunpo
 70
     0
 62
     7
  6
Continuous
370
    -3
390
29
  0
LAYER
  5
2364
102
{ACAD_XDICTIONARY
360
3835
102
}
330
2
100
AcDbSymbolTableRecord
100
AcDbLayerTableRecord
  2
KANAMONO_SCREW
 70
     0
 62
     4
  6
Continuous
370
    -3
390
29
  0
LAYER
  5
2501
102
{ACAD_XDICTIONARY
360
3837
102
}
330
2
100
AcDbSymbolTableRecord
100
AcDbLayerTableRecord
  2
dannnetu
 70
     0
 62
     6
  6
Continuous
370
    -3
390
F
  0
LAYER
  5
27C0
102
{ACAD_XDICTIONARY
360
3839
102
}
330
2
100
AcDbSymbolTableRecord
100
AcDbLayerTableRecord
  2
KANAMONO
 70
     0
 62
     4
  6
Continuous
370
    -3
390
29
  0
LAYER
  5
2E95
102
{ACAD_XDICTIONARY
360
383B
102
}
330
2
100
AcDbSymbolTableRecord
100
AcDbLayerTableRecord
  2
WAKU
 70
     0
 62
     7
  6
Continuous
370
    -3
390
29
  0
ENDTAB
  0
TABLE
  2
STYLE
  5
3
330
0
100
AcDbSymbolTable
 70
     2
  0
STYLE
  5
11
330
3
100
AcDbSymbolTableRecord
100
AcDbTextStyleTableRecord
  2
Standard
 70
     0
 40
0.0
 41
1.0
 50
0.0
 71
     0
 42
2.5
  3

  4

1001
ACAD
1000
MS Gothic
1071
    32817
  0
STYLE
  5
39A2
330
3
100
AcDbSymbolTableRecord
100
AcDbTextStyleTableRecord
  2
MSゴシック
 70
     0
 40
0.0
 41
1.0
 50
0.0
 71
     0
 42
2.5
  3

  4

1001
ACAD
1000
MS Gothic
1071
    32817
  0
ENDTAB
  0
TABLE
  2
VIEW
  5
6
330
0
100
AcDbSymbolTable
 70
     0
  0
ENDTAB
  0
TABLE
  2
UCS
  5
7
330
0
100
AcDbSymbolTable
 70
     0
  0
ENDTAB
  0
TABLE
  2
APPID
  5
9
330
0
100
AcDbSymbolTable
 70
     7
  0
APPID
  5
12
330
9
100
AcDbSymbolTableRecord
100
AcDbRegAppTableRecord
  2
ACAD
 70
     0
  0
APPID
  5
381F
330
9
100
AcDbSymbolTableRecord
100
AcDbRegAppTableRecord
  2
ACAD_EXEMPT_FROM_CAD_STANDARDS
 70
     0
  0
APPID
  5
3871
330
9
100
AcDbSymbolTableRecord
100
AcDbRegAppTableRecord
  2
ACAD_MLEADERVER
 70
     0
  0
APPID
  5
3956
330
9
100
AcDbSymbolTableRecord
100
AcDbRegAppTableRecord
  2
ACAD_NAV_VCDISPLAY
 70
     0
  0
APPID
  5
39A3
330
9
100
AcDbSymbolTableRecord
100
AcDbRegAppTableRecord
  2
ACAD_PSEXT
 70
     0
  0
APPID
  5
3ED8
330
9
100
AcDbSymbolTableRecord
100
AcDbRegAppTableRecord
  2
AcadAnnoPO
 70
     0
  0
APPID
  5
3F22
330
9
100
AcDbSymbolTableRecord
100
AcDbRegAppTableRecord
  2
Acad_TC
 70
     0
  0
ENDTAB
  0
TABLE
  2
DIMSTYLE
  5
A
330
0
100
AcDbSymbolTable
 70
     1
100
AcDbDimStyleTable
 71
     1
340
22E4
  0
DIMSTYLE
105
22E4
330
A
100
AcDbSymbolTableRecord
100
AcDbDimStyleTableRecord
  2
STANDARD
 70
     0
 40
10.0
 41
0.8
 42
1.0
 43
0.0
 44
0.0
 73
     0
 74
     0
 77
     2
 78
     8
140
2.0
141
2.5
143
0.0394
147
0.1
171
     4
172
     1
173
     1
271
     8
272
     8
273
     8
274
     4
279
     1
340
11
341
903
343
903
344
903
  0
ENDTAB
  0
TABLE
  2
BLOCK_RECORD
  5
1
330
0
100
AcDbSymbolTable
 70
    11
  0
BLOCK_RECORD
  5
1F
102
{ACAD_XDICTIONARY
360
1C62
102
}
330
1
100
AcDbSymbolTableRecord
100
AcDbBlockTableRecord
  2
*Model_Space
340
22
  0
BLOCK_RECORD
  5
1CD0
330
1
100
AcDbSymbolTableRecord
100
AcDbBlockTableRecord
  2
*Paper_Space
340
1CD1
  0
BLOCK_RECORD
  5
903
330
1
100
AcDbSymbolTableRecord
100
AcDbBlockTableRecord
  2
_DOT
340
0
102
{BLKREFS
331
3F7A
331
3F7B
331
402F
331
4030
331
4039
331
403A
331
403F
331
4040
331
4045
331
4046
331
404C
331
404D
331
4054
331
4055
331
4074
331
4075
331
407D
331
407E
331
4083
331
4084
331
3F83
331
3F84
331
3F8C
331
3F8D
331
3F95
331
3F96
331
3F9F
331
3FA0
331
3FAA
331
3FAB
331
3FB2
331
3FB3
331
3FBC
331
3FBD
331
3FC5
331
3FC6
102
}
  0
BLOCK_RECORD
  5
2A1C
330
1
100
AcDbSymbolTableRecord
100
AcDbBlockTableRecord
  2
hps-5-10-30
340
0
310
2800000020000000200000000100080000000000000400000000000000000000000000000000000000000000000080000080000000808000800000008000800080800000C0C0C000C0DCC000F0CAA6000020400000206000002080000020A0000020C0000020E00000400000004020000040400000406000004080000040A0
310
000040C0000040E00000600000006020000060400000606000006080000060A0000060C0000060E00000800000008020000080400000806000008080000080A0000080C0000080E00000A0000000A0200000A0400000A0600000A0800000A0A00000A0C00000A0E00000C0000000C0200000C0400000C0600000C0800000C0
310
A00000C0C00000C0E00000E0000000E0200000E0400000E0600000E0800000E0A00000E0C00000E0E00040000000400020004000400040006000400080004000A0004000C0004000E00040200000402020004020400040206000402080004020A0004020C0004020E000404000004040200040404000404060004040800040
310
40A0004040C0004040E00040600000406020004060400040606000406080004060A0004060C0004060E00040800000408020004080400040806000408080004080A0004080C0004080E00040A0000040A0200040A0400040A0600040A0800040A0A00040A0C00040A0E00040C0000040C0200040C0400040C0600040C08000
310
40C0A00040C0C00040C0E00040E0000040E0200040E0400040E0600040E0800040E0A00040E0C00040E0E00080000000800020008000400080006000800080008000A0008000C0008000E00080200000802020008020400080206000802080008020A0008020C0008020E00080400000804020008040400080406000804080
310
008040A0008040C0008040E00080600000806020008060400080606000806080008060A0008060C0008060E00080800000808020008080400080806000808080008080A0008080C0008080E00080A0000080A0200080A0400080A0600080A0800080A0A00080A0C00080A0E00080C0000080C0200080C0400080C0600080C0
310
800080C0A00080C0C00080C0E00080E0000080E0200080E0400080E0600080E0800080E0A00080E0C00080E0E000C0000000C0002000C0004000C0006000C0008000C000A000C000C000C000E000C0200000C0202000C0204000C0206000C0208000C020A000C020C000C020E000C0400000C0402000C0404000C0406000C0
310
408000C040A000C040C000C040E000C0600000C0602000C0604000C0606000C0608000C060A000C060C000C060E000C0800000C0802000C0804000C0806000C0808000C080A000C080C000C080E000C0A00000C0A02000C0A04000C0A06000C0A08000C0A0A000C0A0C000C0A0E000C0C00000C0C02000C0C04000C0C06000
310
C0C08000C0C0A000F0FBFF00A4A0A000808080000000FF0000FF000000FFFF00FF000000FF00FF00FFFF0000FFFFFF00FFFFFFFFFFFFFFFFFFFFFFFFFFFFFFFFFFFFFFFFFFFFFFFFFFFFFFFFFFFFFFFFFFFFFFFFFFFFFFFFFFFFFFFFFFFFFFFFFFFFFFFFFFFFFFFFFFFFFFFFFFFFFFFFFFFFFFFFFFFFFFFFFFFFFFFFFFFFFF
310
FEFEFFFFFFFFFFFFFFFFFFFFFFFFFFFFFFFFFFFFFFFFFFFFFFFFFFFFFFFFFFFFFEFFFEFFFFFFFFFFFFFFFFFFFFFFFFFFFFFFFFFFFFFFFFFFFFFFFFFFFFFFFEFEFEFEFEFEFFFFFFFFFFFFFFFFFFFFFFFFFFFFFFFFFFFFFFFFFFFFFFFFFFFFFEFFFEFEFFFEFFFFFFFFFFFFFFFFFFFFFFFFFFFFFFFFFFFFFFFFFFFFFFFFFFFFFE
310
FFFEFEFFFEFFFFFFFFFFFFFFFFFFFFFFFFFFFFFFFFFFFFFFFFFFFFFFFFFFFFFEFFFEFEFFFEFFFFFFFFFFFFFFFFFFFFFFFFFFFFFFFFFFFFFFFFFFFFFFFFFFFFFEFFFEFEFFFEFFFFFFFFFFFFFFFFFFFFFFFFFFFFFFFFFFFFFFFFFFFFFFFFFFFFFEFFFEFEFFFEFFFFFFFFFFFFFFFFFFFFFFFFFFFFFFFFFFFFFFFFFFFFFFFFFFFF
310
FEFFFEFEFFFEFFFFFFFFFFFFFFFFFFFFFFFFFFFFFFFFFFFFFFFFFFFFFFFFFFFFFEFFFEFEFFFEFFFFFFFFFFFFFFFFFFFFFFFFFFFFFFFFFFFFFFFFFFFFFFFFFFFFFEFFFEFEFFFEFFFFFFFFFFFFFFFFFFFFFFFFFFFFFFFFFFFFFFFFFFFFFFFFFFFFFEFFFEFEFFFEFFFFFFFFFFFFFFFFFFFFFFFFFFFFFFFFFFFFFFFFFFFFFFFFFF
310
FFFEFFFEFEFFFEFFFFFFFFFFFFFFFFFFFFFFFFFFFFFFFFFFFFFFFFFFFFFFFFFFFFFEFFFEFEFFFEFFFFFFFFFFFFFFFFFFFFFFFFFFFFFFFFFFFFFFFFFFFFFFFFFFFFFEFFFEFEFFFEFFFFFFFFFFFFFFFFFFFFFFFFFFFFFFFFFFFFFFFFFFFFFFFFFFFFFEFFFEFEFFFEFFFFFFFFFFFFFFFFFFFFFFFFFFFFFFFFFFFFFFFFFFFFFFFF
310
FFFFFEFEFEFEFEFEFFFFFFFFFFFFFFFFFFFFFFFFFFFFFFFFFFFFFFFFFFFFFFFFFFFFFEFFFFFFFFFEFFFFFFFFFFFFFFFFFFFFFFFFFFFFFFFFFFFFFFFFFFFFFFFFFFFFFEFEFEFEFEFEFFFFFFFFFFFFFFFFFFFFFFFFFFFFFFFFFFFFFFFFFFFFFFFFFFFFFEFFFFFFFFFEFFFFFFFFFFFFFFFFFFFFFFFFFFFFFFFFFFFFFFFFFFFFFF
310
FFFFFFFEFFFFFFFFFEFFFFFFFFFFFFFFFFFFFFFFFFFFFFFFFFFFFFFFFFFFFFFFFFFFFFFEFFFFFFFFFEFFFFFFFFFFFFFFFFFFFFFFFFFFFFFFFFFFFFFFFFFFFFFFFFFFFFFEFFFFFFFFFEFFFFFFFFFFFFFFFFFFFFFFFFFFFFFFFFFFFFFFFFFFFFFFFFFFFFFEFFFFFFFFFEFFFFFFFFFFFFFFFFFFFFFFFFFFFFFFFFFFFFFFFFFFFF
310
FFFFFFFFFEFFFFFFFFFEFFFFFFFFFFFFFFFFFFFFFFFFFFFFFFFFFFFFFFFFFFFFFFFFFFFFFEFFFFFFFFFEFFFFFFFFFFFFFFFFFFFFFFFFFFFFFFFFFFFFFFFFFFFFFFFFFEFEFEFEFEFEFEFEFEFEFFFFFFFFFFFFFFFFFFFFFFFFFFFFFFFFFFFFFFFFFFFFFEFEFEFEFEFEFEFEFEFEFFFFFFFFFFFFFFFFFFFFFFFFFFFFFFFFFFFFFF
310
FFFFFFFFFFFEFEFEFEFEFEFFFFFFFFFFFFFFFFFFFFFFFFFFFFFFFFFFFFFFFFFFFFFFFFFFFFFFFFFFFFFFFFFFFFFFFFFFFFFFFFFFFFFFFFFF
1001
ACAD
1000
DesignCenter Data
1002
{
1070
     1
1070
     4
1002
}
  0
BLOCK_RECORD
  5
2F92
330
1
100
AcDbSymbolTableRecord
100
AcDbBlockTableRecord
  2
*D2
340
0
  0
BLOCK_RECORD
  5
2FAA
330
1
100
AcDbSymbolTableRecord
100
AcDbBlockTableRecord
  2
*D3
340
0
  0
BLOCK_RECORD
  5
2FB6
330
1
100
AcDbSymbolTableRecord
100
AcDbBlockTableRecord
  2
*D4
340
0
  0
BLOCK_RECORD
  5
2FC2
330
1
100
AcDbSymbolTableRecord
100
AcDbBlockTableRecord
  2
*D5
340
0
  0
BLOCK_RECORD
  5
2FCE
330
1
100
AcDbSymbolTableRecord
100
AcDbBlockTableRecord
  2
*D6
340
0
  0
BLOCK_RECORD
  5
2FDA
330
1
100
AcDbSymbolTableRecord
100
AcDbBlockTableRecord
  2
*D7
340
0
  0
BLOCK_RECORD
  5
3183
330
1
100
AcDbSymbolTableRecord
100
AcDbBlockTableRecord
  2
*D8
340
0
  0
BLOCK_RECORD
  5
318F
330
1
100
AcDbSymbolTableRecord
100
AcDbBlockTableRecord
  2
*D9
340
0
  0
BLOCK_RECORD
  5
319B
330
1
100
AcDbSymbolTableRecord
100
AcDbBlockTableRecord
  2
*D10
340
0
  0
ENDTAB
  0
ENDSEC
  0
SECTION
  2
BLOCKS
  0
BLOCK
  5
20
330
1F
100
AcDbEntity
  8
0
100
AcDbBlockBegin
  2
*Model_Space
 70
     0
 10
0.0
 20
0.0
 30
0.0
  3
*Model_Space
  1

  0
ENDBLK
  5
21
330
1F
100
AcDbEntity
  8
0
100
AcDbBlockEnd
  0
BLOCK
  5
1CD2
330
1CD0
100
AcDbEntity
 67
     1
  8
0
100
AcDbBlockBegin
  2
*Paper_Space
 70
     0
 10
0.0
 20
0.0
 30
0.0
  3
*Paper_Space
  1

  0
ENDBLK
  5
1CD3
330
1CD0
100
AcDbEntity
 67
     1
  8
0
100
AcDbBlockEnd
  0
BLOCK
  5
906
330
903
100
AcDbEntity
  8
0
100
AcDbBlockBegin
  2
_DOT
 70
     0
 10
0.0
 20
0.0
 30
0.0
  3
_DOT
  1

  0
LWPOLYLINE
  5
904
330
903
100
AcDbEntity
  8
0
  6
ByBlock
 62
     0
100
AcDbPolyline
 90
        2
 70
     1
 43
0.5
 10
-0.25
 20
0.0
 42
1.0
 10
0.25
 20
0.0
 42
1.0
  0
LINE
  5
905
330
903
100
AcDbEntity
  8
0
  6
ByBlock
 62
     0
100
AcDbLine
 10
-0.5
 20
0.0
 30
0.0
 11
-1.0
 21
0.0
 31
0.0
  0
ENDBLK
  5
907
330
903
100
AcDbEntity
  8
0
100
AcDbBlockEnd
  0
BLOCK
  5
2A53
330
2A1C
100
AcDbEntity
  8
0
 48
20.0
100
AcDbBlockBegin
  2
hps-5-10-30
 70
     0
 10
0.0
 20
0.0
 30
0.0
  3
hps-5-10-30
  1

  0
LINE
  5
2A1D
330
2A1C
100
AcDbEntity
  8
KANAMONO_SCREW
 48
20.0
100
AcDbLine
 10
-2.628551427289778
 20
-15.56980343716732
 30
0.0
 11
-3.074324324324322
 21
-25.67398910328466
 31
0.0
  0
LINE
  5
2A1E
330
2A1C
100
AcDbEntity
  8
KANAMONO_SCREW
 48
20.0
100
AcDbLine
 10
2.628551427297225
 20
-15.56980343716701
 30
0.0
 11
3.074324324324322
 21
-25.67398910328466
 31
0.0
  0
LINE
  5
2A1F
330
2A1C
100
AcDbEntity
  8
KANAMONO_SCREW
 48
20.0
100
AcDbLine
 10
0.2083333333333144
 20
-12.65597108526664
 30
0.0
 11
0.8333333333333143
 21
-26.8226377519333
 31
0.0
  0
LINE
  5
2A20
330
2A1C
100
AcDbEntity
  8
KANAMONO_SCREW
 48
20.0
100
AcDbLine
 10
-0.2083333333333144
 20
-12.65597108526664
 30
0.0
 11
-0.8333333333333143
 21
-26.8226377519333
 31
0.0
  0
LINE
  5
2A21
330
2A1C
100
AcDbEntity
  8
KANAMONO_SCREW
 48
20.0
100
AcDbLine
 10
-1.594514301521201
 20
-26.8226377519333
 30
0.0
 11
-0.3849498143908931
 21
-29.74278476348546
 31
0.0
  0
LINE
  5
2A22
330
2A1C
100
AcDbEntity
  8
KANAMONO_SCREW
 48
20.0
100
AcDbLine
 10
1.594514301521201
 20
-26.8226377519333
 30
0.0
 11
0.38494979603513
 21
-29.74278476348546
 31
0.0
  0
ARC
  5
2A23
330
2A1C
100
AcDbEntity
  8
KANAMONO_SCREW
 48
20.0
100
AcDbCircle
 10
-0.0000000091778816
 20
-29.58333333333333
 30
0.0
 40
0.4166666666666667
100
AcDbArc
 50
202.5000000000006
 51
337.4999999999994
  0
LINE
  5
2A24
330
2A1C
100
AcDbEntity
  8
KANAMONO_SCREW
 48
20.0
100
AcDbLine
 10
0.8333333333333143
 20
-26.8226377519333
 30
0.0
 11
2.5
 21
-26.8226377519333
 31
0.0
  0
LINE
  5
2A25
330
2A1C
100
AcDbEntity
  8
KANAMONO_SCREW
 48
20.0
100
AcDbLine
 10
-0.8333333333333143
 20
-26.8226377519333
 30
0.0
 11
-2.5
 21
-26.8226377519333
 31
0.0
  0
LINE
  5
2A26
330
2A1C
100
AcDbEntity
  8
KANAMONO_SCREW
 48
20.0
100
AcDbLine
 10
-2.5
 20
-26.8226377519333
 30
0.0
 11
-3.074324324324322
 21
-25.67398910328466
 31
0.0
  0
LINE
  5
2A27
330
2A1C
100
AcDbEntity
  8
KANAMONO_SCREW
 48
20.0
100
AcDbLine
 10
-0.7984944745110738
 20
-26.03295695196111
 30
0.0
 11
0.7810727768853099
 21
-25.63806513911202
 31
0.0
  0
LINE
  5
2A28
330
2A1C
100
AcDbEntity
  8
KANAMONO_SCREW
 48
20.0
100
AcDbLine
 10
-0.7427323927266798
 20
-24.76901643151503
 30
0.0
 11
0.7265273223398481
 21
-24.40170150274837
 31
0.0
  0
LINE
  5
2A29
330
2A1C
100
AcDbEntity
  8
KANAMONO_SCREW
 48
20.0
100
AcDbLine
 10
-1.347040089409006
 20
-27.42009335568558
 30
0.0
 11
1.042782325600171
 21
-26.8226377519333
 31
0.0
  0
LINE
  5
2A2A
330
2A1C
100
AcDbEntity
  8
KANAMONO_SCREW
 48
20.0
100
AcDbLine
 10
-0.6869703109422858
 20
-23.50507591106889
 30
0.0
 11
0.6719818677943863
 21
-23.16533786638472
 31
0.0
  0
LINE
  5
2A2B
330
2A1C
100
AcDbEntity
  8
KANAMONO_SCREW
 48
20.0
100
AcDbLine
 10
-0.4639219838047098
 20
-18.44931382928449
 30
0.0
 11
0.4538000496125961
 21
-18.21988332093018
 31
0.0
  0
LINE
  5
2A2C
330
2A1C
100
AcDbEntity
  8
KANAMONO_SCREW
 48
20.0
100
AcDbLine
 10
-0.6312082291578918
 20
-22.2411353906228
 30
0.0
 11
0.6174364132489245
 21
-21.92897423002107
 31
0.0
  0
LINE
  5
2A2D
330
2A1C
100
AcDbEntity
  8
KANAMONO_SCREW
 48
20.0
100
AcDbLine
 10
-0.5754461473734978
 20
-20.97719487017669
 30
0.0
 11
0.5628909587035196
 21
-20.69261059365742
 31
0.0
  0
LINE
  5
2A2E
330
2A1C
100
AcDbEntity
  8
KANAMONO_SCREW
 48
20.0
100
AcDbLine
 10
-0.5196840655891038
 20
-19.71325434973063
 30
0.0
 11
0.5083455041580578
 21
-19.45624695729383
 31
0.0
  0
LINE
  5
2A2F
330
2A1C
100
AcDbEntity
  8
KANAMONO_SCREW
 48
20.0
100
AcDbLine
 10
2.5
 20
-26.8226377519333
 30
0.0
 11
3.074324324324322
 21
-25.67398910328466
 31
0.0
  0
LINE
  5
2A30
330
2A1C
100
AcDbEntity
  8
KANAMONO_SCREW
 48
20.0
100
AcDbLine
 10
-2.5
 20
-0.8333333333333285
 30
0.0
 11
-2.5
 21
-12.6559710852661
 31
0.0
  0
LINE
  5
2A31
330
2A1C
100
AcDbEntity
  8
KANAMONO_SCREW
 48
20.0
100
AcDbLine
 10
2.5
 20
-0.833333333333357
 30
0.0
 11
2.5
 21
-12.6559710852661
 31
0.0
  0
LINE
  5
2A32
330
2A1C
100
AcDbEntity
  8
KANAMONO_SCREW
 48
20.0
100
AcDbLine
 10
-2.5
 20
-10.98930441859944
 30
0.0
 11
2.5
 21
-10.98930441859944
 31
0.0
  0
LINE
  5
2A33
330
2A1C
100
AcDbEntity
  8
KANAMONO_SCREW
 48
20.0
100
AcDbLine
 10
-2.5
 20
-8.489304418599445
 30
0.0
 11
2.5
 21
-8.489304418599445
 31
0.0
  0
LINE
  5
2A34
330
2A1C
100
AcDbEntity
  8
KANAMONO_SCREW
 48
20.0
100
AcDbLine
 10
-2.291869117721319
 20
-12.66515333007304
 30
0.0
 11
-2.5
 21
-12.6559710852661
 31
0.0
  0
LINE
  5
2A35
330
2A1C
100
AcDbEntity
  8
KANAMONO_SCREW
 48
20.0
100
AcDbLine
 10
-2.301051362528312
 20
-12.87328421235169
 30
0.0
 11
-2.509182244806879
 21
-12.86410196754472
 31
0.0
  0
LINE
  5
2A36
330
2A1C
100
AcDbEntity
  8
KANAMONO_SCREW
 48
20.0
100
AcDbLine
 10
-2.411238300211664
 20
-15.37085479969532
 30
0.0
 11
-2.619369182490231
 21
-15.36167255488836
 31
0.0
  0
LINE
  5
2A37
330
2A1C
100
AcDbEntity
  8
KANAMONO_SCREW
 48
20.0
100
AcDbLine
 10
-2.420420545018544
 20
-15.57898568197394
 30
0.0
 11
-2.628551427297225
 21
-15.56980343716701
 31
0.0
  0
LINE
  5
2A38
330
2A1C
100
AcDbEntity
  8
KANAMONO_SCREW
 48
20.0
100
AcDbLine
 10
-2.509182244806424
 20
-12.86410196754475
 30
0.0
 11
-2.619369182483353
 21
-15.3616725548887
 31
0.0
  0
LINE
  5
2A39
330
2A1C
100
AcDbEntity
  8
KANAMONO_SCREW
 48
20.0
100
AcDbLine
 10
-2.291869117721319
 20
-12.66515333007304
 30
0.0
 11
-2.420420545011097
 21
-15.57898568197429
 31
0.0
  0
LINE
  5
2A3A
330
2A1C
100
AcDbEntity
  8
KANAMONO_SCREW
 48
20.0
100
AcDbLine
 10
-0.2083333333333144
 20
-12.65597108526664
 30
0.0
 11
0.2083333333333144
 21
-12.65597108526664
 31
0.0
  0
LINE
  5
2A3B
330
2A1C
100
AcDbEntity
  8
KANAMONO_SCREW
 48
20.0
100
AcDbLine
 10
-0.2408736566671905
 20
-13.39355174750015
 30
0.0
 11
0.2356182314308057
 21
-13.27442877547567
 31
0.0
  0
LINE
  5
2A3C
330
2A1C
100
AcDbEntity
  8
KANAMONO_SCREW
 48
20.0
100
AcDbLine
 10
-0.4081599020203158
 20
-17.18537330883843
 30
0.0
 11
0.3992545950671342
 21
-16.98351968456656
 31
0.0
  0
LINE
  5
2A3D
330
2A1C
100
AcDbEntity
  8
KANAMONO_SCREW
 48
20.0
100
AcDbLine
 10
-0.3523978202359785
 20
-15.92143278839232
 30
0.0
 11
0.3447091405216724
 21
-15.74715604820291
 31
0.0
  0
LINE
  5
2A3E
330
2A1C
100
AcDbEntity
  8
KANAMONO_SCREW
 48
20.0
100
AcDbLine
 10
-0.2966357384515845
 20
-14.65749226794621
 30
0.0
 11
0.2901636859762107
 21
-14.51079241183926
 31
0.0
  0
LINE
  5
2A3F
330
2A1C
100
AcDbEntity
  8
KANAMONO_SCREW
 48
20.0
100
AcDbLine
 10
2.301051362528312
 20
-12.87328421235169
 30
0.0
 11
2.509182244806879
 21
-12.86410196754472
 31
0.0
  0
LINE
  5
2A40
330
2A1C
100
AcDbEntity
  8
KANAMONO_SCREW
 48
20.0
100
AcDbLine
 10
2.291869117721319
 20
-12.66515333007304
 30
0.0
 11
2.5
 21
-12.6559710852661
 31
0.0
  0
LINE
  5
2A41
330
2A1C
100
AcDbEntity
  8
KANAMONO_SCREW
 48
20.0
100
AcDbLine
 10
2.420420545018544
 20
-15.57898568197394
 30
0.0
 11
2.628551427297225
 21
-15.56980343716701
 31
0.0
  0
LINE
  5
2A42
330
2A1C
100
AcDbEntity
  8
KANAMONO_SCREW
 48
20.0
100
AcDbLine
 10
2.411238300211664
 20
-15.37085479969532
 30
0.0
 11
2.619369182490231
 21
-15.36167255488836
 31
0.0
  0
LINE
  5
2A43
330
2A1C
100
AcDbEntity
  8
KANAMONO_SCREW
 48
20.0
100
AcDbLine
 10
2.291869117721319
 20
-12.66515333007304
 30
0.0
 11
2.420420545011097
 21
-15.57898568197429
 31
0.0
  0
LINE
  5
2A44
330
2A1C
100
AcDbEntity
  8
KANAMONO_SCREW
 48
20.0
100
AcDbLine
 10
2.509182244806424
 20
-12.86410196754475
 30
0.0
 11
2.619369182483353
 21
-15.3616725548887
 31
0.0
  0
LINE
  5
2A45
330
2A1C
100
AcDbEntity
  8
KANAMONO_SCREW
 48
20.0
100
AcDbLine
 10
-3.333333333333314
 20
0.0000000000000142
 30
0.0
 11
3.333333333333314
 21
-0.0000000000000142
 31
0.0
  0
LINE
  5
2A46
330
2A1C
100
AcDbEntity
  8
KANAMONO_SCREW
 48
20.0
100
AcDbLine
 10
3.541666666666685
 20
2.083333333333328
 30
0.0
 11
-3.541666666666685
 21
2.083333333333328
 31
0.0
  0
LINE
  5
2A47
330
2A1C
100
AcDbEntity
  8
KANAMONO_SCREW
 48
20.0
100
AcDbLine
 10
2.5
 20
2.291666666666642
 30
0.0
 11
-2.5
 21
2.291666666666642
 31
0.0
  0
LINE
  5
2A48
330
2A1C
100
AcDbEntity
  8
KANAMONO_SCREW
 48
20.0
100
AcDbLine
 10
-4.583333333333314
 20
1.666666666666642
 30
0.0
 11
4.583333333333314
 21
1.666666666666642
 31
0.0
  0
LINE
  5
2A49
330
2A1C
100
AcDbEntity
  8
KANAMONO_SCREW
 48
20.0
100
AcDbLine
 10
-3.541666666666685
 20
2.083333333333328
 30
0.0
 11
-3.541666666666685
 21
1.666666666666642
 31
0.0
  0
LINE
  5
2A4A
330
2A1C
100
AcDbEntity
  8
KANAMONO_SCREW
 48
20.0
100
AcDbLine
 10
-3.541666666666685
 20
2.083333333333328
 30
0.0
 11
-2.5
 21
2.291666666666642
 31
0.0
  0
ARC
  5
2A4B
330
2A1C
100
AcDbEntity
  8
KANAMONO_SCREW
 48
20.0
100
AcDbCircle
 10
-3.333333333333314
 20
-0.8333333333333285
 30
0.0
 40
0.8333333333333333
100
AcDbArc
 50
0.0
 51
90.0
  0
LINE
  5
2A4C
330
2A1C
100
AcDbEntity
  8
KANAMONO_SCREW
 48
20.0
100
AcDbLine
 10
-4.583333333333314
 20
-0.0000000000000142
 30
0.0
 11
-3.333333333333314
 21
0.0000000000000142
 31
0.0
  0
LINE
  5
2A4D
330
2A1C
100
AcDbEntity
  8
KANAMONO_SCREW
 48
20.0
100
AcDbLine
 10
-4.583333333333314
 20
-0.0000000000000142
 30
0.0
 11
-4.583333333333314
 21
1.666666666666642
 31
0.0
  0
LINE
  5
2A4E
330
2A1C
100
AcDbEntity
  8
KANAMONO_SCREW
 48
20.0
100
AcDbLine
 10
4.583333333333314
 20
1.666666666666642
 30
0.0
 11
4.583333333333314
 21
-0.0000000000000142
 31
0.0
  0
LINE
  5
2A4F
330
2A1C
100
AcDbEntity
  8
KANAMONO_SCREW
 48
20.0
100
AcDbLine
 10
3.541666666666685
 20
1.666666666666642
 30
0.0
 11
3.541666666666685
 21
2.083333333333328
 31
0.0
  0
LINE
  5
2A50
330
2A1C
100
AcDbEntity
  8
KANAMONO_SCREW
 48
20.0
100
AcDbLine
 10
2.5
 20
2.291666666666642
 30
0.0
 11
3.541666666666685
 21
2.083333333333328
 31
0.0
  0
ARC
  5
2A51
330
2A1C
100
AcDbEntity
  8
KANAMONO_SCREW
 48
20.0
100
AcDbCircle
 10
3.333333333333314
 20
-0.833333333333357
 30
0.0
 40
0.8333333333333333
100
AcDbArc
 50
90.0
 51
180.0
  0
LINE
  5
2A52
330
2A1C
100
AcDbEntity
  8
KANAMONO_SCREW
 48
20.0
100
AcDbLine
 10
3.333333333333314
 20
-0.0000000000000142
 30
0.0
 11
4.583333333333314
 21
-0.0000000000000142
 31
0.0
  0
ENDBLK
  5
2A54
330
2A1C
100
AcDbEntity
  8
0
 48
20.0
100
AcDbBlockEnd
  0
BLOCK
  5
2F9C
330
2F92
100
AcDbEntity
  8
0
100
AcDbBlockBegin
  2
*D2
 70
     1
 10
0.0
 20
0.0
 30
0.0
  3
*D2
  1

  0
LINE
  5
3F77
330
2F92
100
AcDbEntity
  8
sunpo
 62
     0
370
    -2
100
AcDbLine
 10
1271.921247040959
 20
945.0000000000004
 30
0.0
 11
1311.921247040959
 21
945.0000000000006
 31
0.0
  0
LINE
  5
3F78
330
2F92
100
AcDbEntity
  8
sunpo
 62
     0
370
    -2
100
AcDbLine
 10
1266.921247040959
 20
545.0000000000001
 30
0.0
 11
1311.921247040959
 21
545.0000000000003
 31
0.0
  0
LINE
  5
3F79
330
2F92
100
AcDbEntity
  8
sunpo
 62
     0
370
    -2
100
AcDbLine
 10
1311.921247040959
 20
937.0000000000006
 30
0.0
 11
1311.921247040959
 21
553.0000000000003
 31
0.0
  0
INSERT
  5
3F7A
330
2F92
100
AcDbEntity
  8
sunpo
 62
     0
370
    -2
100
AcDbBlockReference
  2
_DOT
 10
1311.921247040959
 20
945.0000000000006
 30
0.0
 41
8.0
 42
8.0
 43
8.0
 50
90.0
  0
INSERT
  5
3F7B
330
2F92
100
AcDbEntity
  8
sunpo
 62
     0
370
    -2
100
AcDbBlockReference
  2
_DOT
 10
1311.921247040959
 20
545.0000000000003
 30
0.0
 41
8.0
 42
8.0
 43
8.0
 50
270.0
  0
MTEXT
  5
3F7C
330
2F92
100
AcDbEntity
  8
sunpo
 62
     0
100
AcDbMText
 10
1324.393328259233
 20
744.9999999999999
 30
0.0
 40
20.0
 41
0.0
 71
     5
 72
     1
  1
\A1;400以上（水上）
  7
MSゴシック
 11
0.0000000000000001
 21
1.0
 31
0.0
 73
     1
 44
1.0
1001
ACAD
1000
MTEXTBEGIN
1070
    73
1070
     1
1070
    44
1040
1.0
1070
    74
1070
     0
1000
MTEXTEND
  0
POINT
  5
3F7D
330
2F92
100
AcDbEntity
  8
Defpoints
 62
     0
100
AcDbPoint
 10
1266.921247040959
 20
945.0000000000004
 30
0.0
  0
POINT
  5
3F7E
330
2F92
100
AcDbEntity
  8
Defpoints
 62
     0
100
AcDbPoint
 10
1261.921247040959
 20
545.0000000000001
 30
0.0
  0
POINT
  5
3F7F
330
2F92
100
AcDbEntity
  8
Defpoints
 62
     0
100
AcDbPoint
 10
1311.921247040959
 20
545.0000000000003
 30
0.0
  0
ENDBLK
  5
2F9D
330
2F92
100
AcDbEntity
  8
0
100
AcDbBlockEnd
  0
BLOCK
  5
2FB4
330
2FAA
100
AcDbEntity
  8
0
100
AcDbBlockBegin
  2
*D3
 70
     1
 10
0.0
 20
0.0
 30
0.0
  3
*D3
  1

  0
LINE
  5
3F80
330
2FAA
100
AcDbEntity
  8
sunpo
 62
     0
370
    -2
100
AcDbLine
 10
1266.921247040959
 20
1125.0
 30
0.0
 11
1311.921247040959
 21
1125.0
 31
0.0
  0
LINE
  5
3F81
330
2FAA
100
AcDbEntity
  8
sunpo
 62
     0
370
    -2
100
AcDbLine
 10
1266.921247040959
 20
945.0000000000004
 30
0.0
 11
1311.921247040959
 21
945.0000000000006
 31
0.0
  0
LINE
  5
3F82
330
2FAA
100
AcDbEntity
  8
sunpo
 62
     0
370
    -2
100
AcDbLine
 10
1311.921247040959
 20
1117.0
 30
0.0
 11
1311.921247040959
 21
953.0000000000006
 31
0.0
  0
INSERT
  5
3F83
330
2FAA
100
AcDbEntity
  8
sunpo
 62
     0
370
    -2
100
AcDbBlockReference
  2
_DOT
 10
1311.921247040959
 20
1125.0
 30
0.0
 41
8.0
 42
8.0
 43
8.0
 50
90.0
  0
INSERT
  5
3F84
330
2FAA
100
AcDbEntity
  8
sunpo
 62
     0
370
    -2
100
AcDbBlockReference
  2
_DOT
 10
1311.921247040959
 20
945.0000000000006
 30
0.0
 41
8.0
 42
8.0
 43
8.0
 50
270.0
  0
MTEXT
  5
3F85
330
2FAA
100
AcDbEntity
  8
sunpo
 62
     0
100
AcDbMText
 10
1322.921247040959
 20
1035.0
 30
0.0
 40
20.0
 41
0.0
 71
     5
 72
     1
  1
\A1;180
  7
MSゴシック
 11
0.0000000000000001
 21
1.0
 31
0.0
 73
     1
 44
1.0
1001
ACAD
1000
MTEXTBEGIN
1070
    73
1070
     1
1070
    44
1040
1.0
1070
    74
1070
     0
1000
MTEXTEND
  0
POINT
  5
3F86
330
2FAA
100
AcDbEntity
  8
Defpoints
 62
     0
100
AcDbPoint
 10
1261.921247040959
 20
1125.0
 30
0.0
  0
POINT
  5
3F87
330
2FAA
100
AcDbEntity
  8
Defpoints
 62
     0
100
AcDbPoint
 10
1261.921247040959
 20
945.0000000000004
 30
0.0
  0
POINT
  5
3F88
330
2FAA
100
AcDbEntity
  8
Defpoints
 62
     0
100
AcDbPoint
 10
1311.921247040959
 20
945.0000000000006
 30
0.0
  0
ENDBLK
  5
2FB5
330
2FAA
100
AcDbEntity
  8
0
100
AcDbBlockEnd
  0
BLOCK
  5
2FC0
330
2FB6
100
AcDbEntity
  8
0
100
AcDbBlockBegin
  2
*D4
 70
     1
 10
0.0
 20
0.0
 30
0.0
  3
*D4
  1

  0
LINE
  5
3F89
330
2FB6
100
AcDbEntity
  8
sunpo
 62
     0
370
    -2
100
AcDbLine
 10
1130.0
 20
959.9999999999996
 30
0.0
 11
1130.0
 21
1029.601777935245
 31
0.0
  0
LINE
  5
3F8A
330
2FB6
100
AcDbEntity
  8
sunpo
 62
     0
370
    -2
100
AcDbLine
 10
1060.0
 20
957.0710678118658
 30
0.0
 11
1060.0
 21
1029.601777935245
 31
0.0
  0
LINE
  5
3F8B
330
2FB6
100
AcDbEntity
  8
sunpo
 62
     0
370
    -2
100
AcDbLine
 10
1122.0
 20
1029.601777935245
 30
0.0
 11
1068.0
 21
1029.601777935245
 31
0.0
  0
INSERT
  5
3F8C
330
2FB6
100
AcDbEntity
  8
sunpo
 62
     0
370
    -2
100
AcDbBlockReference
  2
_DOT
 10
1130.0
 20
1029.601777935245
 30
0.0
 41
8.0
 42
8.0
 43
8.0
  0
INSERT
  5
3F8D
330
2FB6
100
AcDbEntity
  8
sunpo
 62
     0
370
    -2
100
AcDbBlockReference
  2
_DOT
 10
1060.0
 20
1029.601777935245
 30
0.0
 41
8.0
 42
8.0
 43
8.0
 50
180.0
  0
MTEXT
  5
3F8E
330
2FB6
100
AcDbEntity
  8
sunpo
 62
     0
100
AcDbMText
 10
1095.0
 20
1040.601777935245
 30
0.0
 40
20.0
 41
0.0
 71
     5
 72
     1
  1
\A1;70
  7
MSゴシック
 73
     1
 44
1.0
1001
ACAD
1000
MTEXTBEGIN
1070
    73
1070
     1
1070
    44
1040
1.0
1070
    74
1070
     0
1000
MTEXTEND
  0
POINT
  5
3F8F
330
2FB6
100
AcDbEntity
  8
Defpoints
 62
     0
100
AcDbPoint
 10
1130.0
 20
954.9999999999995
 30
0.0
  0
POINT
  5
3F90
330
2FB6
100
AcDbEntity
  8
Defpoints
 62
     0
100
AcDbPoint
 10
1060.0
 20
952.0710678118657
 30
0.0
  0
POINT
  5
3F91
330
2FB6
100
AcDbEntity
  8
Defpoints
 62
     0
100
AcDbPoint
 10
1060.0
 20
1029.601777935245
 30
0.0
  0
ENDBLK
  5
2FC1
330
2FB6
100
AcDbEntity
  8
0
100
AcDbBlockEnd
  0
BLOCK
  5
2FCC
330
2FC2
100
AcDbEntity
  8
0
100
AcDbBlockBegin
  2
*D5
 70
     1
 10
0.0
 20
0.0
 30
0.0
  3
*D5
  1

  0
LINE
  5
3F92
330
2FC2
100
AcDbEntity
  8
sunpo
 62
     0
370
    -2
100
AcDbLine
 10
1060.0
 20
957.0710678118658
 30
0.0
 11
1060.0
 21
1029.601777935245
 31
0.0
  0
LINE
  5
3F93
330
2FC2
100
AcDbEntity
  8
sunpo
 62
     0
370
    -2
100
AcDbLine
 10
980.0
 20
957.0710678118658
 30
0.0
 11
980.0
 21
1029.601777935245
 31
0.0
  0
LINE
  5
3F94
330
2FC2
100
AcDbEntity
  8
sunpo
 62
     0
370
    -2
100
AcDbLine
 10
1052.0
 20
1029.601777935245
 30
0.0
 11
988.0
 21
1029.601777935245
 31
0.0
  0
INSERT
  5
3F95
330
2FC2
100
AcDbEntity
  8
sunpo
 62
     0
370
    -2
100
AcDbBlockReference
  2
_DOT
 10
1060.0
 20
1029.601777935245
 30
0.0
 41
8.0
 42
8.0
 43
8.0
  0
INSERT
  5
3F96
330
2FC2
100
AcDbEntity
  8
sunpo
 62
     0
370
    -2
100
AcDbBlockReference
  2
_DOT
 10
980.0
 20
1029.601777935245
 30
0.0
 41
8.0
 42
8.0
 43
8.0
 50
180.0
  0
MTEXT
  5
3F97
330
2FC2
100
AcDbEntity
  8
sunpo
 62
     0
100
AcDbMText
 10
1020.0
 20
1040.601777935245
 30
0.0
 40
20.0
 41
0.0
 71
     5
 72
     1
  1
\A1;80
  7
MSゴシック
 73
     1
 44
1.0
1001
ACAD
1000
MTEXTBEGIN
1070
    73
1070
     1
1070
    44
1040
1.0
1070
    74
1070
     0
1000
MTEXTEND
  0
POINT
  5
3F98
330
2FC2
100
AcDbEntity
  8
Defpoints
 62
     0
100
AcDbPoint
 10
1060.0
 20
952.0710678118657
 30
0.0
  0
POINT
  5
3F99
330
2FC2
100
AcDbEntity
  8
Defpoints
 62
     0
100
AcDbPoint
 10
980.0
 20
952.0710678118657
 30
0.0
  0
POINT
  5
3F9A
330
2FC2
100
AcDbEntity
  8
Defpoints
 62
     0
100
AcDbPoint
 10
980.0
 20
1029.601777935245
 30
0.0
  0
ENDBLK
  5
2FCD
330
2FC2
100
AcDbEntity
  8
0
100
AcDbBlockEnd
  0
BLOCK
  5
2FD8
330
2FCE
100
AcDbEntity
  8
0
100
AcDbBlockBegin
  2
*D6
 70
     1
 10
0.0
 20
0.0
 30
0.0
  3
*D6
  1

  0
LINE
  5
3F9B
330
2FCE
100
AcDbEntity
  8
sunpo
 62
     0
370
    -2
100
AcDbLine
 10
1266.921247040959
 20
1145.0
 30
0.0
 11
1311.921247040959
 21
1145.0
 31
0.0
  0
LINE
  5
3F9C
330
2FCE
100
AcDbEntity
  8
sunpo
 62
     0
370
    -2
100
AcDbLine
 10
1266.921247040959
 20
1125.0
 30
0.0
 11
1311.921247040959
 21
1125.0
 31
0.0
  0
LINE
  5
3F9D
330
2FCE
100
AcDbEntity
  8
sunpo
 62
     0
370
    -2
100
AcDbLine
 10
1311.921247040959
 20
1137.0
 30
0.0
 11
1311.921247040959
 21
1133.0
 31
0.0
  0
MTEXT
  5
3F9E
330
2FCE
100
AcDbEntity
  8
sunpo
 62
     0
100
AcDbMText
 10
1292.771249481423
 20
1106.394919602712
 30
0.0
 40
20.0
 41
0.0
 71
     5
 72
     1
  1
\A1;20
  7
MSゴシック
 11
0.0000000000000001
 21
1.0
 31
0.0
 73
     1
 44
1.0
1001
ACAD
1000
MTEXTBEGIN
1070
    73
1070
     1
1070
    44
1040
1.0
1070
    74
1070
     0
1000
MTEXTEND
  0
INSERT
  5
3F9F
330
2FCE
100
AcDbEntity
  8
sunpo
 62
     0
370
    -2
100
AcDbBlockReference
  2
_DOT
 10
1311.921247040959
 20
1145.0
 30
0.0
 41
8.0
 42
8.0
 43
8.0
 50
90.0
  0
INSERT
  5
3FA0
330
2FCE
100
AcDbEntity
  8
sunpo
 62
     0
370
    -2
100
AcDbBlockReference
  2
_DOT
 10
1311.921247040959
 20
1125.0
 30
0.0
 41
8.0
 42
8.0
 43
8.0
 50
270.0
  0
POINT
  5
3FA1
330
2FCE
100
AcDbEntity
  8
Defpoints
 62
     0
100
AcDbPoint
 10
1261.921247040959
 20
1145.0
 30
0.0
  0
POINT
  5
3FA2
330
2FCE
100
AcDbEntity
  8
Defpoints
 62
     0
100
AcDbPoint
 10
1261.921247040959
 20
1125.0
 30
0.0
  0
POINT
  5
3FA3
330
2FCE
100
AcDbEntity
  8
Defpoints
 62
     0
100
AcDbPoint
 10
1311.921247040959
 20
1125.0
 30
0.0
  0
ENDBLK
  5
2FD9
330
2FCE
100
AcDbEntity
  8
0
100
AcDbBlockEnd
  0
BLOCK
  5
2FE4
330
2FDA
100
AcDbEntity
  8
0
100
AcDbBlockBegin
  2
*D7
 70
     1
 10
0.0
 20
0.0
 30
0.0
  3
*D7
  1

  0
LINE
  5
3FA4
330
2FDA
100
AcDbEntity
  8
sunpo
 62
     0
370
    -2
100
AcDbLine
 10
1266.921247040959
 20
1160.0
 30
0.0
 11
1311.921247040959
 21
1160.0
 31
0.0
  0
LINE
  5
3FA5
330
2FDA
100
AcDbEntity
  8
sunpo
 62
     0
370
    -2
100
AcDbLine
 10
1266.921247040959
 20
1145.0
 30
0.0
 11
1311.921247040959
 21
1145.0
 31
0.0
  0
LINE
  5
3FA6
330
2FDA
100
AcDbEntity
  8
sunpo
 62
     0
370
    -2
100
AcDbLine
 10
1311.921247040959
 20
1168.0
 30
0.0
 11
1311.921247040959
 21
1176.0
 31
0.0
  0
LINE
  5
3FA7
330
2FDA
100
AcDbEntity
  8
sunpo
 62
     0
370
    -2
100
AcDbLine
 10
1311.921247040959
 20
1137.0
 30
0.0
 11
1311.921247040959
 21
1129.0
 31
0.0
  0
MTEXT
  5
3FA8
330
2FDA
100
AcDbEntity
  8
sunpo
 62
     0
100
AcDbMText
 10
1292.152150986402
 20
1178.500091346355
 30
0.0
 40
20.0
 41
0.0
 71
     5
 72
     1
  1
\A1;15
  7
MSゴシック
 11
0.0000000000000001
 21
1.0
 31
0.0
 73
     1
 44
1.0
1001
ACAD
1000
MTEXTBEGIN
1070
    73
1070
     1
1070
    44
1040
1.0
1070
    74
1070
     0
1000
MTEXTEND
  0
LINE
  5
3FA9
330
2FDA
100
AcDbEntity
  8
sunpo
 62
     0
370
    -2
100
AcDbLine
 10
1311.921247040959
 20
1160.0
 30
0.0
 11
1311.921247040959
 21
1145.0
 31
0.0
  0
INSERT
  5
3FAA
330
2FDA
100
AcDbEntity
  8
sunpo
 62
     0
370
    -2
100
AcDbBlockReference
  2
_DOT
 10
1311.921247040959
 20
1160.0
 30
0.0
 41
8.0
 42
8.0
 43
8.0
 50
270.0
  0
INSERT
  5
3FAB
330
2FDA
100
AcDbEntity
  8
sunpo
 62
     0
370
    -2
100
AcDbBlockReference
  2
_DOT
 10
1311.921247040959
 20
1145.0
 30
0.0
 41
8.0
 42
8.0
 43
8.0
 50
90.0
  0
POINT
  5
3FAC
330
2FDA
100
AcDbEntity
  8
Defpoints
 62
     0
100
AcDbPoint
 10
1261.921247040959
 20
1160.0
 30
0.0
  0
POINT
  5
3FAD
330
2FDA
100
AcDbEntity
  8
Defpoints
 62
     0
100
AcDbPoint
 10
1261.921247040959
 20
1145.0
 30
0.0
  0
POINT
  5
3FAE
330
2FDA
100
AcDbEntity
  8
Defpoints
 62
     0
100
AcDbPoint
 10
1311.921247040959
 20
1145.0
 30
0.0
  0
ENDBLK
  5
2FE5
330
2FDA
100
AcDbEntity
  8
0
100
AcDbBlockEnd
  0
BLOCK
  5
318D
330
3183
100
AcDbEntity
  8
0
100
AcDbBlockBegin
  2
*D8
 70
     1
 10
0.0
 20
0.0
 30
0.0
  3
*D8
  1

  0
LINE
  5
3FAF
330
3183
100
AcDbEntity
  8
sunpo
 62
     0
370
    -2
100
AcDbLine
 10
980.0000000000004
 20
1410.39239956242
 30
0.0
 11
980.0000000000004
 21
1449.45876857882
 31
0.0
  0
LINE
  5
3FB0
330
3183
100
AcDbEntity
  8
sunpo
 62
     0
370
    -2
100
AcDbLine
 10
800.0000000000005
 20
1410.39239956242
 30
0.0
 11
800.0000000000005
 21
1449.45876857882
 31
0.0
  0
LINE
  5
3FB1
330
3183
100
AcDbEntity
  8
sunpo
 62
     0
370
    -2
100
AcDbLine
 10
972.0000000000004
 20
1449.45876857882
 30
0.0
 11
808.0000000000005
 21
1449.45876857882
 31
0.0
  0
INSERT
  5
3FB2
330
3183
100
AcDbEntity
  8
sunpo
 62
     0
370
    -2
100
AcDbBlockReference
  2
_DOT
 10
980.0000000000004
 20
1449.45876857882
 30
0.0
 41
8.0
 42
8.0
 43
8.0
  0
INSERT
  5
3FB3
330
3183
100
AcDbEntity
  8
sunpo
 62
     0
370
    -2
100
AcDbBlockReference
  2
_DOT
 10
800.0000000000005
 20
1449.45876857882
 30
0.0
 41
8.0
 42
8.0
 43
8.0
 50
180.0
  0
MTEXT
  5
3FB4
330
3183
100
AcDbEntity
  8
sunpo
 62
     0
100
AcDbMText
 10
890.0000000000003
 20
1461.321712741257
 30
0.0
 40
20.0
 41
0.0
 71
     5
 72
     1
  1
\A1;≧180
  7
MSゴシック
 73
     1
 44
1.0
1001
ACAD
1000
MTEXTBEGIN
1070
    73
1070
     1
1070
    44
1040
1.0
1070
    74
1070
     0
1000
MTEXTEND
  0
POINT
  5
3FB5
330
3183
100
AcDbEntity
  8
Defpoints
 62
     0
100
AcDbPoint
 10
980.0000000000004
 20
1405.39239956242
 30
0.0
  0
POINT
  5
3FB6
330
3183
100
AcDbEntity
  8
Defpoints
 62
     0
100
AcDbPoint
 10
800.0000000000005
 20
1405.39239956242
 30
0.0
  0
POINT
  5
3FB7
330
3183
100
AcDbEntity
  8
Defpoints
 62
     0
100
AcDbPoint
 10
800.0000000000005
 20
1449.45876857882
 30
0.0
  0
ENDBLK
  5
318E
330
3183
100
AcDbEntity
  8
0
100
AcDbBlockEnd
  0
BLOCK
  5
3199
330
318F
100
AcDbEntity
  8
0
100
AcDbBlockBegin
  2
*D9
 70
     1
 10
0.0
 20
0.0
 30
0.0
  3
*D9
  1

  0
LINE
  5
3FB8
330
318F
100
AcDbEntity
  8
sunpo
 62
     0
370
    -2
100
AcDbLine
 10
1130.0
 20
1175.0
 30
0.0
 11
1130.0
 21
1192.949710263232
 31
0.0
  0
LINE
  5
3FB9
330
318F
100
AcDbEntity
  8
sunpo
 62
     0
370
    -2
100
AcDbLine
 10
980.0000000000004
 20
1175.0
 30
0.0
 11
980.0000000000004
 21
1192.949710263232
 31
0.0
  0
LINE
  5
3FBA
330
318F
100
AcDbEntity
  8
sunpo
 62
     0
370
    -2
100
AcDbLine
 10
1122.0
 20
1192.949710263232
 30
0.0
 11
988.0000000000004
 21
1192.949710263232
 31
0.0
  0
MTEXT
  5
3FBB
330
318F
100
AcDbEntity
  8
sunpo
 62
     0
100
AcDbMText
 10
1063.50823827975
 20
1206.030040975334
 30
0.0
 40
20.0
 41
0.0
 71
     5
 72
     1
  1
\A1;150
  7
MSゴシック
 73
     1
 44
1.0
1001
ACAD
1000
MTEXTBEGIN
1070
    73
1070
     1
1070
    44
1040
1.0
1070
    74
1070
     0
1000
MTEXTEND
  0
INSERT
  5
3FBC
330
318F
100
AcDbEntity
  8
sunpo
 62
     0
370
    -2
100
AcDbBlockReference
  2
_DOT
 10
1130.0
 20
1192.949710263232
 30
0.0
 41
8.0
 42
8.0
 43
8.0
  0
INSERT
  5
3FBD
330
318F
100
AcDbEntity
  8
sunpo
 62
     0
370
    -2
100
AcDbBlockReference
  2
_DOT
 10
980.0000000000004
 20
1192.949710263232
 30
0.0
 41
8.0
 42
8.0
 43
8.0
 50
180.0
  0
POINT
  5
3FBE
330
318F
100
AcDbEntity
  8
Defpoints
 62
     0
100
AcDbPoint
 10
1130.0
 20
1170.0
 30
0.0
  0
POINT
  5
3FBF
330
318F
100
AcDbEntity
  8
Defpoints
 62
     0
100
AcDbPoint
 10
980.0000000000004
 20
1170.0
 30
0.0
  0
POINT
  5
3FC0
330
318F
100
AcDbEntity
  8
Defpoints
 62
     0
100
AcDbPoint
 10
980.0000000000004
 20
1192.949710263232
 30
0.0
  0
ENDBLK
  5
319A
330
318F
100
AcDbEntity
  8
0
100
AcDbBlockEnd
  0
BLOCK
  5
31A5
330
319B
100
AcDbEntity
  8
0
100
AcDbBlockBegin
  2
*D10
 70
     1
 10
0.0
 20
0.0
 30
0.0
  3
*D10
  1

  0
LINE
  5
3FC1
330
319B
100
AcDbEntity
  8
sunpo
 62
     0
370
    -2
100
AcDbLine
 10
1000.0
 20
1405.39239956242
 30
0.0
 11
1000.0
 21
1449.45876857882
 31
0.0
  0
LINE
  5
3FC2
330
319B
100
AcDbEntity
  8
sunpo
 62
     0
370
    -2
100
AcDbLine
 10
980.0000000000004
 20
1405.39239956242
 30
0.0
 11
980.0000000000004
 21
1449.45876857882
 31
0.0
  0
LINE
  5
3FC3
330
319B
100
AcDbEntity
  8
sunpo
 62
     0
370
    -2
100
AcDbLine
 10
992.0000000000005
 20
1449.45876857882
 30
0.0
 11
988.0000000000004
 21
1449.45876857882
 31
0.0
  0
MTEXT
  5
3FC4
330
319B
100
AcDbEntity
  8
sunpo
 62
     0
100
AcDbMText
 10
990.0000000000003
 20
1460.95876857882
 30
0.0
 40
20.0
 41
0.0
 71
     5
 72
     1
  1
\A1;20
  7
MSゴシック
 73
     1
 44
1.0
1001
ACAD
1000
MTEXTBEGIN
1070
    73
1070
     1
1070
    44
1040
1.0
1070
    74
1070
     0
1000
MTEXTEND
  0
INSERT
  5
3FC5
330
319B
100
AcDbEntity
  8
sunpo
 62
     0
370
    -2
100
AcDbBlockReference
  2
_DOT
 10
1000.0
 20
1449.45876857882
 30
0.0
 41
8.0
 42
8.0
 43
8.0
  0
INSERT
  5
3FC6
330
319B
100
AcDbEntity
  8
sunpo
 62
     0
370
    -2
100
AcDbBlockReference
  2
_DOT
 10
980.0000000000004
 20
1449.45876857882
 30
0.0
 41
8.0
 42
8.0
 43
8.0
 50
180.0
  0
POINT
  5
3FC7
330
319B
100
AcDbEntity
  8
Defpoints
 62
     0
100
AcDbPoint
 10
1000.0
 20
1400.39239956242
 30
0.0
  0
POINT
  5
3FC8
330
319B
100
AcDbEntity
  8
Defpoints
 62
     0
100
AcDbPoint
 10
980.0000000000004
 20
1400.39239956242
 30
0.0
  0
POINT
  5
3FC9
330
319B
100
AcDbEntity
  8
Defpoints
 62
     0
100
AcDbPoint
 10
980.0000000000004
 20
1449.45876857882
 30
0.0
  0
ENDBLK
  5
31A6
330
319B
100
AcDbEntity
  8
0
100
AcDbBlockEnd
  0
ENDSEC
  0
SECTION
  2
ENTITIES
  0
LINE
  5
24F1
330
1F
100
AcDbEntity
  8
KUTAI
100
AcDbLine
 10
2280.000000000001
 20
545.0
 30
0.0
 11
980.0000000000004
 21
545.0
 31
0.0
  0
LINE
  5
24F2
330
1F
100
AcDbEntity
  8
KUTAI
100
AcDbLine
 10
980.0000000000004
 20
545.0
 30
0.0
 11
980.0000000000004
 21
945.0
 31
0.0
  0
LINE
  5
24F4
330
1F
100
AcDbEntity
  8
KUTAI
100
AcDbLine
 10
800.0000000000005
 20
1495.0
 30
0.0
 11
800.0000000000005
 21
695.0000000000002
 31
0.0
  0
LINE
  5
24F5
330
1F
100
AcDbEntity
  8
KUTAI
100
AcDbLine
 10
2280.000000000001
 20
395.0
 30
0.0
 11
980.0000000000004
 21
394.9999999999999
 31
0.0
  0
LINE
  5
2502
330
1F
100
AcDbEntity
  8
BOUSUI
100
AcDbLine
 10
2280.000000000001
 20
547.0
 30
0.0
 11
980.0000000000004
 21
547.0
 31
0.0
  0
LINE
  5
2511
330
1F
100
AcDbEntity
  8
dannnetu
100
AcDbLine
 10
2280.000000000001
 20
582.0
 30
0.0
 11
980.0000000000004
 21
582.0
 31
0.0
  0
TEXT
  5
289F
330
1F
100
AcDbEntity
  8
MOJI
100
AcDbText
 10
1612.923267782677
 20
727.9284873471997
 30
0.0
 40
20.0
  1
防湿層
  7
MSゴシック
 11
1612.923267782677
 21
737.9284873471997
 31
0.0
100
AcDbText
 73
     2
  0
TEXT
  5
28A1
330
1F
100
AcDbEntity
  8
MOJI
100
AcDbText
 10
1636.017278550262
 20
767.9284873471997
 30
0.0
 40
20.0
  1
断熱材：ギルフォーム
  7
MSゴシック
 11
1636.017278550262
 21
777.9284873471997
 31
0.0
100
AcDbText
 73
     2
  0
CIRCLE
  5
28B4
102
{ACAD_REACTORS
330
28B5
102
}
330
1F
100
AcDbEntity
  8
MOJI
100
AcDbCircle
 10
995.6442183584799
 20
600.4646303020172
 30
0.0
 40
4.0
  0
HATCH
  5
28B5
330
1F
100
AcDbEntity
  8
MOJI
100
AcDbHatch
 10
0.0
 20
0.0
 30
0.0
210
0.0
220
0.0
230
1.0
  2
SOLID
 70
     1
 71
     1
 91
        1
 92
        1
 93
        1
 72
     2
 10
995.6442183584799
 20
600.4646303020172
 40
4.0
 50
0.0
 51
360.0
 73
     1
 97
        1
330
28B4
 75
     0
 76
     1
 98
        1
 10
-714.5860671013356
 20
-326.7117434243699
  0
CIRCLE
  5
28B8
102
{ACAD_REACTORS
330
28B9
102
}
330
1F
100
AcDbEntity
  8
MOJI
100
AcDbCircle
 10
1449.221645082597
 20
546.1876523503424
 30
0.0
 40
4.0
  0
HATCH
  5
28B9
330
1F
100
AcDbEntity
  8
MOJI
100
AcDbHatch
 10
0.0
 20
0.0
 30
0.0
210
0.0
220
0.0
230
1.0
  2
SOLID
 70
     1
 71
     1
 91
        1
 92
        1
 93
        1
 72
     2
 10
1449.221645082597
 20
546.1876523503424
 40
4.0
 50
0.0
 51
360.0
 73
     1
 97
        1
330
28B8
 75
     0
 76
     1
 98
        1
 10
-261.008640377218
 20
-380.9887213760447
  0
CIRCLE
  5
28BA
102
{ACAD_REACTORS
330
28BB
102
}
330
1F
100
AcDbEntity
  8
MOJI
100
AcDbCircle
 10
1458.718918226088
 20
562.6374119682286
 30
0.0
 40
4.0
  0
HATCH
  5
28BB
330
1F
100
AcDbEntity
  8
MOJI
100
AcDbHatch
 10
0.0
 20
0.0
 30
0.0
210
0.0
220
0.0
230
1.0
  2
SOLID
 70
     1
 71
     1
 91
        1
 92
        1
 93
        1
 72
     2
 10
1458.718918226088
 20
562.6374119682286
 40
4.0
 50
0.0
 51
360.0
 73
     1
 97
        1
330
28BA
 75
     0
 76
     1
 98
        1
 10
-251.5113672337261
 20
-364.5389617581586
  0
HATCH
  5
28BD
330
1F
100
AcDbEntity
  8
MOJI
100
AcDbHatch
 10
0.0
 20
0.0
 30
0.0
210
0.0
220
0.0
230
1.0
  2
SOLID
 70
     1
 71
     1
 91
        1
 92
        1
 93
        1
 72
     2
 10
1473.748839933935
 20
588.6700000000001
 40
4.0
 50
0.0
 51
360.0
 73
     1
 97
        1
330
28BE
 75
     0
 76
     1
 98
        1
 10
-236.4814455258807
 20
-338.5063737263872
  0
CIRCLE
  5
28BE
102
{ACAD_REACTORS
330
28BD
102
}
330
1F
100
AcDbEntity
  8
MOJI
100
AcDbCircle
 10
1473.748839933935
 20
588.6700000000001
 30
0.0
 40
4.0
  0
LINE
  5
28BF
330
1F
100
AcDbEntity
  8
MOJI
  6
Continuous
100
AcDbLine
 10
1559.923267782677
 20
737.9284873471997
 30
0.0
 11
1609.923267782677
 21
737.9284873471997
 31
0.0
  0
LINE
  5
28C0
330
1F
100
AcDbEntity
  8
MOJI
  6
Continuous
100
AcDbLine
 10
1583.017278550262
 20
777.9284873471997
 30
0.0
 11
1633.017278550262
 21
777.9284873471997
 31
0.0
  0
CIRCLE
  5
28C1
102
{ACAD_REACTORS
330
28C2
102
}
330
1F
100
AcDbEntity
  8
MOJI
100
AcDbCircle
 10
991.1599031707023
 20
1264.633619036327
 30
0.0
 40
4.0
  0
HATCH
  5
28C2
330
1F
100
AcDbEntity
  8
MOJI
100
AcDbHatch
 10
0.0
 20
0.0
 30
0.0
210
0.0
220
0.0
230
1.0
  2
SOLID
 70
     1
 71
     1
 91
        1
 92
        1
 93
        1
 72
     2
 10
991.1599031707023
 20
1264.633619036327
 40
4.0
 50
0.0
 51
360.0
 73
     1
 97
        1
330
28C1
 75
     0
 76
     1
 98
        1
 10
-719.0703822891132
 20
337.4572453099404
  0
TEXT
  5
28CA
330
1F
100
AcDbEntity
  8
MOJI
100
AcDbText
 10
586.0081213952371
 20
1226.989624453799
 30
0.0
 40
20.0
  1
（室内）
  7
MSゴシック
100
AcDbText
  0
TEXT
  5
28D5
330
1F
100
AcDbEntity
  8
MOJI
100
AcDbText
 10
1114.23408101152
 20
1352.268587087174
 30
0.0
 40
20.0
  1
打増し
  7
MSゴシック
 11
1114.23408101152
 21
1362.268587087174
 31
0.0
100
AcDbText
 73
     2
  0
TEXT
  5
28D6
330
1F
100
AcDbEntity
  8
MOJI
100
AcDbText
 10
1114.23408101152
 20
1376.005655355241
 30
0.0
 40
20.0
  1
コンクリート
  7
MSゴシック
 11
1114.23408101152
 21
1386.005655355241
 31
0.0
100
AcDbText
 73
     2
  0
LINE
  5
28EA
330
1F
100
AcDbEntity
  8
MOJI
100
AcDbLine
 10
2044.638020414542
 20
993.6268308030003
 30
0.0
 11
1916.259188110158
 21
1022.132926867729
 31
0.0
  0
LINE
  5
28EB
330
1F
100
AcDbEntity
  8
MOJI
100
AcDbLine
 10
1916.259188110158
 20
993.6268308030003
 30
0.0
 11
2044.638020414542
 21
993.6268308030003
 31
0.0
  0
LINE
  5
28EC
330
1F
100
AcDbEntity
  8
MOJI
100
AcDbLine
 10
1916.259188110158
 20
1022.132926867729
 30
0.0
 11
1916.259188110158
 21
993.6268308030003
 31
0.0
  0
TEXT
  5
28ED
330
1F
100
AcDbEntity
  8
MOJI
100
AcDbText
 10
1937.644626827719
 20
963.3592397906186
 30
0.0
 40
20.0
  1
水勾配
  7
MSゴシック
100
AcDbText
  0
TEXT
  5
28EE
330
1F
100
AcDbEntity
  8
MOJI
100
AcDbText
 10
1976.977535232876
 20
1024.677951508643
 30
0.0
 40
20.0
  1
1/50～1/20
  7
MSゴシック
100
AcDbText
  0
LINE
  5
2A0D
330
1F
100
AcDbEntity
  8
KUTAI
100
AcDbLine
 10
580.0000000000004
 20
545.0000000000001
 30
0.0
 11
580.0000000000003
 21
295.0
 31
0.0
  0
LINE
  5
2A0E
330
1F
100
AcDbEntity
  8
KUTAI
100
AcDbLine
 10
980.0000000000004
 20
394.9999999999999
 30
0.0
 11
980.0000000000004
 21
294.9999999999999
 31
0.0
  0
LINE
  5
2A0F
330
1F
100
AcDbEntity
  8
KUTAI
100
AcDbLine
 10
580.0000000000004
 20
545.0000000000001
 30
0.0
 11
480.0000000000002
 21
545.0000000000001
 31
0.0
  0
LINE
  5
2A10
330
1F
100
AcDbEntity
  8
KUTAI
100
AcDbLine
 10
800.0000000000005
 20
695.0000000000002
 30
0.0
 11
480.0000000000002
 21
695.0000000000002
 31
0.0
  0
LINE
  5
2A15
330
1F
100
AcDbEntity
  8
KUTAI
100
AcDbLine
 10
1000.0
 20
1170.0
 30
0.0
 11
1000.0
 21
1495.0
 31
0.0
  0
LINE
  5
2CAE
330
1F
100
AcDbEntity
  8
KUTAI
  6
DASHED
100
AcDbLine
 10
980.0000000000004
 20
1139.900248757758
 30
0.0
 11
980.0000000000002
 21
1495.0
 31
0.0
  0
LINE
  5
2DF0
330
1F
100
AcDbEntity
  8
HATCH
100
AcDbLine
 10
800.0000000000005
 20
1249.999999088009
 30
0.0
 11
1000.0
 21
1449.999999088008
 31
0.0
  0
LINE
  5
2DF1
330
1F
100
AcDbEntity
  8
HATCH
100
AcDbLine
 10
800.0000000000005
 20
1239.999999088009
 30
0.0
 11
1000.0
 21
1439.999999088009
 31
0.0
  0
LINE
  5
2DF2
330
1F
100
AcDbEntity
  8
HATCH
100
AcDbLine
 10
800.0000000000005
 20
1229.999999088009
 30
0.0
 11
1000.0
 21
1429.999999088009
 31
0.0
  0
LINE
  5
2DF6
330
1F
100
AcDbEntity
  8
HATCH
100
AcDbLine
 10
845.0000009119916
 20
295.0
 30
0.0
 11
1095.000000911992
 21
545.0
 31
0.0
  0
LINE
  5
2DF7
330
1F
100
AcDbEntity
  8
HATCH
100
AcDbLine
 10
855.0000009119917
 20
295.0
 30
0.0
 11
1105.000000911992
 21
545.0
 31
0.0
  0
LINE
  5
2DF8
330
1F
100
AcDbEntity
  8
HATCH
100
AcDbLine
 10
865.0000009119917
 20
295.0
 30
0.0
 11
1115.000000911992
 21
545.0
 31
0.0
  0
LINE
  5
2E02
330
1F
100
AcDbEntity
  8
HATCH
100
AcDbLine
 10
800.0000000000005
 20
749.9999990880086
 30
0.0
 11
980.0000000000004
 21
929.9999990880085
 31
0.0
  0
LINE
  5
2E03
330
1F
100
AcDbEntity
  8
HATCH
100
AcDbLine
 10
800.0000000000005
 20
729.9999990880086
 30
0.0
 11
980.0000000000004
 21
909.9999990880085
 31
0.0
  0
LINE
  5
2E04
330
1F
100
AcDbEntity
  8
HATCH
100
AcDbLine
 10
800.0000000000005
 20
739.9999990880086
 30
0.0
 11
980.0000000000004
 21
919.9999990880085
 31
0.0
  0
LINE
  5
2E05
330
1F
100
AcDbEntity
  8
HATCH
100
AcDbLine
 10
580.0000000000004
 20
519.9999990880087
 30
0.0
 11
755.000000911992
 21
695.0000000000002
 31
0.0
  0
LINE
  5
2E06
330
1F
100
AcDbEntity
  8
HATCH
100
AcDbLine
 10
580.0000000000004
 20
529.9999990880087
 30
0.0
 11
745.000000911992
 21
695.0000000000002
 31
0.0
  0
LINE
  5
2E07
330
1F
100
AcDbEntity
  8
HATCH
100
AcDbLine
 10
580.0000000000004
 20
509.9999990880087
 30
0.0
 11
765.0000009119921
 21
695.0000000000002
 31
0.0
  0
LINE
  5
2E08
330
1F
100
AcDbEntity
  8
HATCH
100
AcDbLine
 10
1465.000000911991
 20
394.9999999999998
 30
0.0
 11
1615.000000911991
 21
545.0
 31
0.0
  0
LINE
  5
2E09
330
1F
100
AcDbEntity
  8
HATCH
100
AcDbLine
 10
1445.000000911991
 20
394.9999999999998
 30
0.0
 11
1595.000000911991
 21
545.0
 31
0.0
  0
LINE
  5
2E0A
330
1F
100
AcDbEntity
  8
HATCH
100
AcDbLine
 10
1455.000000911991
 20
394.9999999999998
 30
0.0
 11
1605.000000911991
 21
545.0
 31
0.0
  0
LINE
  5
2E0B
330
1F
100
AcDbEntity
  8
HATCH
100
AcDbLine
 10
1965.000000911992
 20
394.9999999999999
 30
0.0
 11
2115.000000911992
 21
545.0
 31
0.0
  0
LINE
  5
2E0C
330
1F
100
AcDbEntity
  8
HATCH
100
AcDbLine
 10
1955.000000911992
 20
394.9999999999999
 30
0.0
 11
2105.000000911992
 21
545.0
 31
0.0
  0
LINE
  5
2E0D
330
1F
100
AcDbEntity
  8
HATCH
100
AcDbLine
 10
1945.000000911992
 20
394.9999999999999
 30
0.0
 11
2095.000000911992
 21
545.0
 31
0.0
  0
TEXT
  5
2F46
330
1F
100
AcDbEntity
  8
MOJI
100
AcDbText
 10
596.377212058107
 20
1060.672224168797
 30
0.0
 40
20.0
  1
強力ガムシール
  7
MSゴシック
 72
     2
 11
778.3061460682593
 21
1070.672224168797
 31
0.0
100
AcDbText
 73
     2
  0
TEXT
  5
2F47
330
1F
100
AcDbEntity
  8
MOJI
100
AcDbText
 10
596.5941385676033
 20
1024.32989979534
 30
0.0
 40
20.0
  1
アルミアングル
  7
MSゴシック
 72
     2
 11
778.5230725777555
 21
1034.32989979534
 31
0.0
100
AcDbText
 73
     2
  0
CIRCLE
  5
2F4A
102
{ACAD_REACTORS
330
2F4B
102
}
330
1F
100
AcDbEntity
  8
MOJI
100
AcDbCircle
 10
990.5286042612567
 20
917.4144000543167
 30
0.0
 40
4.0
  0
HATCH
  5
2F4B
330
1F
100
AcDbEntity
  8
MOJI
100
AcDbHatch
 10
0.0
 20
0.0
 30
0.0
210
0.0
220
0.0
230
1.0
  2
SOLID
 70
     1
 71
     1
 91
        1
 92
        1
 93
        1
 72
     2
 10
990.5286042612567
 20
917.4144000543167
 40
4.0
 50
0.0
 51
360.0
 73
     1
 97
        1
330
2F4A
 75
     0
 76
     1
 98
        1
 10
-719.7016811985584
 20
-9.761973672070553
  0
CIRCLE
  5
2F4D
102
{ACAD_REACTORS
330
2F4E
102
}
330
1F
100
AcDbEntity
  8
MOJI
100
AcDbCircle
 10
994.7383705404091
 20
939.4457939185068
 30
0.0
 40
4.0
  0
HATCH
  5
2F4E
330
1F
100
AcDbEntity
  8
MOJI
100
AcDbHatch
 10
0.0
 20
0.0
 30
0.0
210
0.0
220
0.0
230
1.0
  2
SOLID
 70
     1
 71
     1
 91
        1
 92
        1
 93
        1
 72
     2
 10
994.7383705404091
 20
939.4457939185068
 40
4.0
 50
0.0
 51
360.0
 73
     1
 97
        1
330
2F4D
 75
     0
 76
     1
 98
        1
 10
-715.4919149194061
 20
12.26942019211947
  0
LINE
  5
2F53
330
1F
100
AcDbEntity
  8
KUTAI
100
AcDbLine
 10
980.0000000000004
 20
945.0
 30
0.0
 11
1047.5
 21
945.0
 31
0.0
  0
LINE
  5
2F54
330
1F
100
AcDbEntity
  8
KUTAI
100
AcDbLine
 10
1067.5
 20
945.0
 30
0.0
 11
1067.5
 21
965.0
 31
0.0
  0
LINE
  5
2F55
330
1F
100
AcDbEntity
  8
KUTAI
100
AcDbLine
 10
1067.5
 20
965.0
 30
0.0
 11
1052.5
 21
965.0
 31
0.0
  0
LINE
  5
2F56
330
1F
100
AcDbEntity
  8
KUTAI
100
AcDbLine
 10
1052.5
 20
965.0
 30
0.0
 11
1047.5
 21
945.0
 31
0.0
  0
LINE
  5
2F57
330
1F
100
AcDbEntity
  8
KUTAI
100
AcDbLine
 10
1067.5
 20
945.0
 30
0.0
 11
1120.0
 21
945.0
 31
0.0
  0
LINE
  5
2F58
330
1F
100
AcDbEntity
  8
KUTAI
100
AcDbLine
 10
1120.0
 20
945.0
 30
0.0
 11
1130.0
 21
955.0
 31
0.0
  0
LINE
  5
2F5D
330
1F
100
AcDbEntity
  8
BOUSUI
100
AcDbLine
 10
1120.0
 20
945.0
 30
0.0
 11
1122.828427124747
 21
945.0
 31
0.0
  0
LINE
  5
2F5E
330
1F
100
AcDbEntity
  8
BOUSUI
100
AcDbLine
 10
989.5000000000004
 20
935.0
 30
0.0
 11
979.5000000000005
 21
935.0
 31
0.0
  0
ARC
  5
2F5F
330
1F
100
AcDbEntity
  8
BOUSUI
100
AcDbCircle
 10
1023.43003827245
 20
940.4309779794935
 30
0.0
 40
19.69370129788075
100
AcDbArc
 50
166.5849020393919
 51
196.0080455277994
  0
TEXT
  5
311D
330
1F
100
AcDbEntity
  8
MOJI
100
AcDbText
 10
1139.143329157287
 20
1321.037047118521
 30
0.0
 40
20.0
  1
シーリング　10×20
  7
MSゴシック
 11
1139.143329157287
 21
1331.037047118521
 31
0.0
100
AcDbText
 73
     2
  0
CIRCLE
  5
313D
102
{ACAD_REACTORS
330
313E
102
}
330
1F
100
AcDbEntity
  8
MOJI
100
AcDbCircle
 10
1134.027221374602
 20
1073.903874399508
 30
0.0
 40
4.0
  0
HATCH
  5
313E
330
1F
100
AcDbEntity
  8
MOJI
100
AcDbHatch
 10
0.0
 20
0.0
 30
0.0
210
0.0
220
0.0
230
1.0
  2
SOLID
 70
     1
 71
     1
 91
        1
 92
        1
 93
        1
 72
     2
 10
1134.027221374602
 20
1073.903874399508
 40
4.0
 50
0.0
 51
360.0
 73
     1
 97
        1
330
313D
 75
     0
 76
     1
 98
        1
 10
-576.203064085213
 20
146.7275006731213
  0
CIRCLE
  5
3143
102
{ACAD_REACTORS
330
3144
102
}
330
1F
100
AcDbEntity
  8
MOJI
100
AcDbCircle
 10
990.3582100896423
 20
1165.132354284325
 30
0.0
 40
4.0
  0
HATCH
  5
3144
330
1F
100
AcDbEntity
  8
MOJI
100
AcDbHatch
 10
0.0
 20
0.0
 30
0.0
210
0.0
220
0.0
230
1.0
  2
SOLID
 70
     1
 71
     1
 91
        1
 92
        1
 93
        1
 72
     2
 10
990.3582100896423
 20
1165.132354284325
 40
4.0
 50
0.0
 51
360.0
 73
     1
 97
        1
330
3143
 75
     0
 76
     1
 98
        1
 10
-719.8720753701727
 20
237.9559805579386
  0
TEXT
  5
3160
330
1F
100
AcDbEntity
  8
MOJI
  6
Continuous
100
AcDbText
 10
1268.981677583046
 20
1205.853156459211
 30
0.0
 40
20.0
  1
塗膜防水
  7
MSゴシック
 11
1268.981677583046
 21
1215.853156459211
 31
0.0
100
AcDbText
 73
     2
  0
LINE
  5
32C3
330
1F
100
AcDbEntity
  8
KUTAI
100
AcDbLine
 10
980.0000000000004
 20
1170.0
 30
0.0
 11
1000.0
 21
1170.0
 31
0.0
  0
LINE
  5
32C4
330
1F
100
AcDbEntity
  8
BOUSUI
100
AcDbLine
 10
1000.0
 20
1170.0
 30
0.0
 11
1000.0
 21
1158.0
 31
0.0
  0
LINE
  5
32E1
330
1F
100
AcDbEntity
  8
MOJI
100
AcDbLine
 10
1070.724268177408
 20
663.4419502398015
 30
0.0
 11
1032.004190977401
 21
663.4419502398015
 31
0.0
  0
LINE
  5
39B7
330
1F
100
AcDbEntity
  8
0
100
AcDbLine
 10
0.0
 20
1849.999999999998
 30
0.0
 11
2760.000000000001
 21
1849.999999999995
 31
0.0
  0
TEXT
  5
39B8
330
1F
100
AcDbEntity
  8
WAKU
100
AcDbText
 10
2608.553299492387
 20
1860.0
 30
0.0
 40
30.0
  1
asr-2-3
  7
MSゴシック
 72
     2
 11
2745.000000000001
 21
1860.0
 31
0.0
100
AcDbText
  0
TEXT
  5
39BA
330
1F
100
AcDbEntity
  8
WAKU
100
AcDbText
 10
15.0
 20
1860.0
 30
0.0
 40
40.0
  1
アスファルト防水／露出仕上げ
  7
MSゴシック
100
AcDbText
  0
TEXT
  5
39BB
330
1F
100
AcDbEntity
  8
WAKU
100
AcDbText
 10
15.0
 20
1800.000000000004
 30
0.0
 40
30.0
  1
一般部／壁立上り／コンクリートアゴ／断熱
  7
MSゴシック
100
AcDbText
  0
TEXT
  5
39BC
330
1F
100
AcDbEntity
  8
WAKU
100
AcDbText
 10
2589.060913705585
 20
1800.000000000005
 30
0.0
 40
30.0
  1
1/10(A4)
  7
MSゴシック
 72
     2
 11
2745.000000000001
 21
1800.000000000005
 31
0.0
100
AcDbText
  0
TEXT
  5
3B8B
330
1F
100
AcDbEntity
  8
MOJI
100
AcDbText
 10
1659.111289317847
 20
807.9284873471998
 30
0.0
 40
20.0
  1
アスファルト防水層
  7
MSゴシック
 11
1659.111289317847
 21
817.9284873471997
 31
0.0
100
AcDbText
 73
     2
  0
TEXT
  5
3BA3
330
1F
100
AcDbEntity
  8
MOJI
100
AcDbText
 10
1073.724268177408
 20
653.4419502398016
 30
0.0
 40
20.0
  1
ギルキャント
  7
MSゴシック
 11
1073.724268177408
 21
663.4419502398015
 31
0.0
100
AcDbText
 73
     2
  0
TEXT
  5
3C04
330
1F
100
AcDbEntity
  8
MOJI
100
AcDbText
 10
480.0
 20
265.0
 30
0.0
 40
20.0
  1
※こちらの図は熱工法とストライプ工法の場合の形状です。その他の工法については出入隅の形状等一部が異なります。
  7
MSゴシック
 11
480.0
 21
275.0
 31
0.0
100
AcDbText
 73
     2
  0
LINE
  5
3C87
330
1F
100
AcDbEntity
  8
MOJI
100
AcDbLine
 10
1032.004190977401
 20
663.4419502398015
 30
0.0
 11
995.6442183584799
 21
600.4646303020172
 31
0.0
  0
LINE
  5
400F
330
1F
100
AcDbEntity
  8
0
100
AcDbLine
 10
480.0000000000002
 20
295.0
 30
0.0
 11
2280.000000000001
 21
295.0
 31
0.0
  0
LINE
  5
4010
330
1F
100
AcDbEntity
  8
0
100
AcDbLine
 10
2280.000000000001
 20
295.0
 30
0.0
 11
2280.000000000001
 21
1495.0
 31
0.0
  0
LINE
  5
4011
330
1F
100
AcDbEntity
  8
0
100
AcDbLine
 10
2280.000000000001
 20
1495.0
 30
0.0
 11
480.0000000000002
 21
1495.0
 31
0.0
  0
LINE
  5
4012
330
1F
100
AcDbEntity
  8
0
100
AcDbLine
 10
480.0000000000002
 20
1495.0
 30
0.0
 11
480.0000000000002
 21
295.0
 31
0.0
  0
LINE
  5
4013
330
1F
100
AcDbEntity
  8
dannnetu
100
AcDbLine
 10
980.0000000000004
 20
631.4974746830582
 30
0.0
 11
1029.497474683059
 21
582.0
 31
0.0
  0
LINE
  5
4014
330
1F
100
AcDbEntity
  8
dannnetu
100
AcDbLine
 10
1029.497474683059
 20
582.0
 30
0.0
 11
994.1421356237315
 21
582.0
 31
0.0
  0
LINE
  5
4015
330
1F
100
AcDbEntity
  8
dannnetu
100
AcDbLine
 10
994.1421356237315
 20
582.0
 30
0.0
 11
980.0000000000004
 21
596.142135623731
 31
0.0
  0
LINE
  5
4016
330
1F
100
AcDbEntity
  8
dannnetu
100
AcDbLine
 10
980.0000000000004
 20
596.142135623731
 30
0.0
 11
980.0000000000004
 21
631.4974746830582
 31
0.0
  0
LINE
  5
4017
330
1F
100
AcDbEntity
  8
HATCH
  6
Continuous
100
AcDbLine
 10
980.0000000000007
 20
622.4738530943406
 30
0.0
 11
984.5118107943596
 21
626.9856638886993
 31
0.0
  0
LINE
  5
4018
330
1F
100
AcDbEntity
  8
HATCH
  6
Continuous
100
AcDbLine
 10
980.0000000000006
 20
609.0034689127366
 30
0.0
 11
991.2470028851613
 21
620.2504717978975
 31
0.0
  0
LINE
  5
4019
330
1F
100
AcDbEntity
  8
HATCH
  6
Continuous
100
AcDbLine
 10
980.3045254462997
 20
595.837610177432
 30
0.0
 11
997.9821949759632
 21
613.5152797070956
 31
0.0
  0
LINE
  5
401A
330
1F
100
AcDbEntity
  8
HATCH
  6
Continuous
100
AcDbLine
 10
987.0397175371016
 20
589.1024180866302
 30
0.0
 11
1004.717387066765
 21
606.7800876162936
 31
0.0
  0
LINE
  5
401B
330
1F
100
AcDbEntity
  8
HATCH
  6
Continuous
100
AcDbLine
 10
993.7749096279034
 20
582.3672259958284
 30
0.0
 11
1011.452579157567
 21
600.0448955254921
 31
0.0
  0
LINE
  5
401C
330
1F
100
AcDbEntity
  8
HATCH
  6
Continuous
100
AcDbLine
 10
1006.878067813679
 20
582.0000000000002
 30
0.0
 11
1018.187771248369
 21
593.30970343469
 31
0.0
  0
LINE
  5
401D
330
1F
100
AcDbEntity
  8
HATCH
  6
Continuous
100
AcDbLine
 10
1020.348451995283
 20
582.0000000000002
 30
0.0
 11
1024.922963339171
 21
586.5745113438881
 31
0.0
  0
LINE
  5
401E
330
1F
100
AcDbEntity
  8
HATCH
  6
Continuous
100
AcDbLine
 10
998.5018645165038
 20
581.9999999999997
 30
0.0
 11
980.0000000000004
 21
600.5018645165031
 31
0.0
  0
LINE
  5
401F
330
1F
100
AcDbEntity
  8
HATCH
  6
Continuous
100
AcDbLine
 10
1011.972248698107
 20
581.9999999999999
 30
0.0
 11
980.0000000000004
 21
613.9722486981069
 31
0.0
  0
LINE
  5
4020
330
1F
100
AcDbEntity
  8
HATCH
  6
Continuous
100
AcDbLine
 10
1025.442632879711
 20
581.9999999999999
 30
0.0
 11
980.0000000000004
 21
627.4426328797106
 31
0.0
  0
LINE
  5
4021
330
1F
100
AcDbEntity
  8
MOJI
100
AcDbLine
 10
1656.111289317847
 20
817.9284873471997
 30
0.0
 11
1606.111289317847
 21
817.9284873471997
 31
0.0
  0
LINE
  5
4022
330
1F
100
AcDbEntity
  8
MOJI
100
AcDbLine
 10
1606.111289317847
 20
817.9284873471997
 30
0.0
 11
1449.221645082597
 21
546.1876523503424
 31
0.0
  0
ARC
  5
4023
330
1F
100
AcDbEntity
  8
MOJI
  6
ByBlock
 62
     0
100
AcDbCircle
 10
1473.748839933935
 20
588.6699999999998
 30
0.0
 40
1.999999999999967
100
AcDbArc
 50
59.99999999999946
 51
239.9999999999995
  0
ARC
  5
4024
330
1F
100
AcDbEntity
  8
MOJI
  6
ByBlock
 62
     0
100
AcDbCircle
 10
1473.748839933935
 20
588.6699999999998
 30
0.0
 40
1.999999999999967
100
AcDbArc
 50
239.9999999999995
 51
59.99999999999946
  0
ARC
  5
4025
330
1F
100
AcDbEntity
  8
MOJI
  6
ByBlock
 62
     0
100
AcDbCircle
 10
1458.718918226088
 20
562.6374119682284
 30
0.0
 40
1.999999999999967
100
AcDbArc
 50
59.99999999999946
 51
239.9999999999995
  0
ARC
  5
4026
330
1F
100
AcDbEntity
  8
MOJI
  6
ByBlock
 62
     0
100
AcDbCircle
 10
1458.718918226088
 20
562.6374119682284
 30
0.0
 40
1.999999999999967
100
AcDbArc
 50
239.9999999999995
 51
59.99999999999946
  0
LINE
  5
4027
330
1F
100
AcDbEntity
  8
MOJI
100
AcDbLine
 10
1111.23408101152
 20
1386.005655355241
 30
0.0
 11
1061.23408101152
 21
1386.005655355241
 31
0.0
  0
LINE
  5
4028
330
1F
100
AcDbEntity
  8
MOJI
100
AcDbLine
 10
1061.23408101152
 20
1386.005655355241
 30
0.0
 11
991.1599031707023
 21
1264.633619036327
 31
0.0
  0
LINE
  5
4029
330
1F
100
AcDbEntity
  8
BOUSUI
100
AcDbLine
 10
2280.000000000001
 20
592.0
 30
0.0
 11
1033.639610306789
 21
592.0
 31
0.0
  0
LINE
  5
402A
330
1F
100
AcDbEntity
  8
BOUSUI
100
AcDbLine
 10
1033.639610306789
 20
592.0
 30
0.0
 11
990.0000000000007
 21
635.6396103067888
 31
0.0
  0
LINE
  5
402B
330
1F
100
AcDbEntity
  8
BOUSUI
100
AcDbLine
 10
990.0000000000007
 20
635.6396103067888
 30
0.0
 11
990.0000000000003
 21
905.0
 31
0.0
  0
LINE
  5
402C
330
1F
100
AcDbEntity
  8
sunpo
100
AcDbLine
 10
1271.921247040959
 20
945.0000000000004
 30
0.0
 11
1311.921247040959
 21
945.0000000000006
 31
0.0
  0
LINE
  5
402D
330
1F
100
AcDbEntity
  8
sunpo
100
AcDbLine
 10
1266.921247040959
 20
545.0000000000001
 30
0.0
 11
1311.921247040959
 21
545.0000000000003
 31
0.0
  0
LINE
  5
402E
330
1F
100
AcDbEntity
  8
sunpo
100
AcDbLine
 10
1311.921247040959
 20
937.0000000000006
 30
0.0
 11
1311.921247040959
 21
553.0000000000003
 31
0.0
  0
INSERT
  5
402F
330
1F
100
AcDbEntity
  8
sunpo
100
AcDbBlockReference
  2
_DOT
 10
1311.921247040959
 20
945.0000000000006
 30
0.0
 41
8.0
 42
8.0
 43
8.0
 50
90.0
  0
INSERT
  5
4030
330
1F
100
AcDbEntity
  8
sunpo
100
AcDbBlockReference
  2
_DOT
 10
1311.921247040959
 20
545.0000000000003
 30
0.0
 41
8.0
 42
8.0
 43
8.0
 50
270.0
  0
MTEXT
  5
4031
330
1F
100
AcDbEntity
  8
sunpo
100
AcDbMText
 10
1324.393328259233
 20
744.9999999999999
 30
0.0
 40
20.0
 41
0.0
 71
     5
 72
     1
  1
\A1;400以上（水上）
  7
MSゴシック
 11
0.0000000000000001
 21
1.0
 31
0.0
 73
     1
 44
1.0
1001
ACAD
1000
MTEXTBEGIN
1070
    73
1070
     1
1070
    44
1040
1.0
1070
    74
1070
     0
1000
MTEXTEND
  0
LINE
  5
4032
330
1F
100
AcDbEntity
  8
MOJI
100
AcDbLine
 10
781.5230725777555
 20
1034.32989979534
 30
0.0
 11
923.0274090133375
 21
1034.32989979534
 31
0.0
  0
LINE
  5
4033
330
1F
100
AcDbEntity
  8
MOJI
100
AcDbLine
 10
923.0274090133375
 20
1034.32989979534
 30
0.0
 11
990.5286042612567
 21
917.4144000543167
 31
0.0
  0
LINE
  5
4034
330
1F
100
AcDbEntity
  8
MOJI
100
AcDbLine
 10
781.3061460682592
 20
1070.672224168797
 30
0.0
 11
918.9747557106098
 21
1070.672224168797
 31
0.0
  0
LINE
  5
4035
330
1F
100
AcDbEntity
  8
MOJI
100
AcDbLine
 10
918.9747557106098
 20
1070.672224168797
 30
0.0
 11
994.7383705404091
 21
939.4457939185068
 31
0.0
  0
LINE
  5
4036
330
1F
100
AcDbEntity
  8
sunpo
100
AcDbLine
 10
1266.921247040959
 20
1125.0
 30
0.0
 11
1311.921247040959
 21
1125.0
 31
0.0
  0
LINE
  5
4037
330
1F
100
AcDbEntity
  8
sunpo
100
AcDbLine
 10
1266.921247040959
 20
945.0000000000004
 30
0.0
 11
1311.921247040959
 21
945.0000000000006
 31
0.0
  0
LINE
  5
4038
330
1F
100
AcDbEntity
  8
sunpo
100
AcDbLine
 10
1311.921247040959
 20
1117.0
 30
0.0
 11
1311.921247040959
 21
953.0000000000006
 31
0.0
  0
INSERT
  5
4039
330
1F
100
AcDbEntity
  8
sunpo
100
AcDbBlockReference
  2
_DOT
 10
1311.921247040959
 20
1125.0
 30
0.0
 41
8.0
 42
8.0
 43
8.0
 50
90.0
  0
INSERT
  5
403A
330
1F
100
AcDbEntity
  8
sunpo
100
AcDbBlockReference
  2
_DOT
 10
1311.921247040959
 20
945.0000000000006
 30
0.0
 41
8.0
 42
8.0
 43
8.0
 50
270.0
  0
MTEXT
  5
403B
330
1F
100
AcDbEntity
  8
sunpo
100
AcDbMText
 10
1322.921247040959
 20
1035.0
 30
0.0
 40
20.0
 41
0.0
 71
     5
 72
     1
  1
\A1;180
  7
MSゴシック
 11
0.0000000000000001
 21
1.0
 31
0.0
 73
     1
 44
1.0
1001
ACAD
1000
MTEXTBEGIN
1070
    73
1070
     1
1070
    44
1040
1.0
1070
    74
1070
     0
1000
MTEXTEND
  0
LINE
  5
403C
330
1F
100
AcDbEntity
  8
sunpo
100
AcDbLine
 10
1130.0
 20
959.9999999999996
 30
0.0
 11
1130.0
 21
1029.601777935245
 31
0.0
  0
LINE
  5
403D
330
1F
100
AcDbEntity
  8
sunpo
100
AcDbLine
 10
1060.0
 20
957.0710678118658
 30
0.0
 11
1060.0
 21
1029.601777935245
 31
0.0
  0
LINE
  5
403E
330
1F
100
AcDbEntity
  8
sunpo
100
AcDbLine
 10
1122.0
 20
1029.601777935245
 30
0.0
 11
1068.0
 21
1029.601777935245
 31
0.0
  0
INSERT
  5
403F
330
1F
100
AcDbEntity
  8
sunpo
100
AcDbBlockReference
  2
_DOT
 10
1130.0
 20
1029.601777935245
 30
0.0
 41
8.0
 42
8.0
 43
8.0
  0
INSERT
  5
4040
330
1F
100
AcDbEntity
  8
sunpo
100
AcDbBlockReference
  2
_DOT
 10
1060.0
 20
1029.601777935245
 30
0.0
 41
8.0
 42
8.0
 43
8.0
 50
180.0
  0
MTEXT
  5
4041
330
1F
100
AcDbEntity
  8
sunpo
100
AcDbMText
 10
1095.0
 20
1040.601777935245
 30
0.0
 40
20.0
 41
0.0
 71
     5
 72
     1
  1
\A1;70
  7
MSゴシック
 73
     1
 44
1.0
1001
ACAD
1000
MTEXTBEGIN
1070
    73
1070
     1
1070
    44
1040
1.0
1070
    74
1070
     0
1000
MTEXTEND
  0
LINE
  5
4042
330
1F
100
AcDbEntity
  8
sunpo
100
AcDbLine
 10
1060.0
 20
957.0710678118658
 30
0.0
 11
1060.0
 21
1029.601777935245
 31
0.0
  0
LINE
  5
4043
330
1F
100
AcDbEntity
  8
sunpo
100
AcDbLine
 10
980.0
 20
957.0710678118658
 30
0.0
 11
980.0
 21
1029.601777935245
 31
0.0
  0
LINE
  5
4044
330
1F
100
AcDbEntity
  8
sunpo
100
AcDbLine
 10
1052.0
 20
1029.601777935245
 30
0.0
 11
988.0
 21
1029.601777935245
 31
0.0
  0
INSERT
  5
4045
330
1F
100
AcDbEntity
  8
sunpo
100
AcDbBlockReference
  2
_DOT
 10
1060.0
 20
1029.601777935245
 30
0.0
 41
8.0
 42
8.0
 43
8.0
  0
INSERT
  5
4046
330
1F
100
AcDbEntity
  8
sunpo
100
AcDbBlockReference
  2
_DOT
 10
980.0
 20
1029.601777935245
 30
0.0
 41
8.0
 42
8.0
 43
8.0
 50
180.0
  0
MTEXT
  5
4047
330
1F
100
AcDbEntity
  8
sunpo
100
AcDbMText
 10
1020.0
 20
1040.601777935245
 30
0.0
 40
20.0
 41
0.0
 71
     5
 72
     1
  1
\A1;80
  7
MSゴシック
 73
     1
 44
1.0
1001
ACAD
1000
MTEXTBEGIN
1070
    73
1070
     1
1070
    44
1040
1.0
1070
    74
1070
     0
1000
MTEXTEND
  0
LINE
  5
4048
330
1F
100
AcDbEntity
  8
sunpo
100
AcDbLine
 10
1266.921247040959
 20
1145.0
 30
0.0
 11
1311.921247040959
 21
1145.0
 31
0.0
  0
LINE
  5
4049
330
1F
100
AcDbEntity
  8
sunpo
100
AcDbLine
 10
1266.921247040959
 20
1125.0
 30
0.0
 11
1311.921247040959
 21
1125.0
 31
0.0
  0
LINE
  5
404A
330
1F
100
AcDbEntity
  8
sunpo
100
AcDbLine
 10
1311.921247040959
 20
1137.0
 30
0.0
 11
1311.921247040959
 21
1133.0
 31
0.0
  0
MTEXT
  5
404B
330
1F
100
AcDbEntity
  8
sunpo
100
AcDbMText
 10
1292.771249481423
 20
1106.394919602712
 30
0.0
 40
20.0
 41
0.0
 71
     5
 72
     1
  1
\A1;20
  7
MSゴシック
 11
0.0000000000000001
 21
1.0
 31
0.0
 73
     1
 44
1.0
1001
ACAD
1000
MTEXTBEGIN
1070
    73
1070
     1
1070
    44
1040
1.0
1070
    74
1070
     0
1000
MTEXTEND
  0
INSERT
  5
404C
330
1F
100
AcDbEntity
  8
sunpo
100
AcDbBlockReference
  2
_DOT
 10
1311.921247040959
 20
1145.0
 30
0.0
 41
8.0
 42
8.0
 43
8.0
 50
90.0
  0
INSERT
  5
404D
330
1F
100
AcDbEntity
  8
sunpo
100
AcDbBlockReference
  2
_DOT
 10
1311.921247040959
 20
1125.0
 30
0.0
 41
8.0
 42
8.0
 43
8.0
 50
270.0
  0
LINE
  5
404E
330
1F
100
AcDbEntity
  8
sunpo
100
AcDbLine
 10
1266.921247040959
 20
1160.0
 30
0.0
 11
1311.921247040959
 21
1160.0
 31
0.0
  0
LINE
  5
404F
330
1F
100
AcDbEntity
  8
sunpo
100
AcDbLine
 10
1266.921247040959
 20
1145.0
 30
0.0
 11
1311.921247040959
 21
1145.0
 31
0.0
  0
LINE
  5
4050
330
1F
100
AcDbEntity
  8
sunpo
100
AcDbLine
 10
1311.921247040959
 20
1168.0
 30
0.0
 11
1311.921247040959
 21
1176.0
 31
0.0
  0
LINE
  5
4051
330
1F
100
AcDbEntity
  8
sunpo
100
AcDbLine
 10
1311.921247040959
 20
1137.0
 30
0.0
 11
1311.921247040959
 21
1129.0
 31
0.0
  0
MTEXT
  5
4052
330
1F
100
AcDbEntity
  8
sunpo
100
AcDbMText
 10
1292.152150986402
 20
1178.500091346355
 30
0.0
 40
20.0
 41
0.0
 71
     5
 72
     1
  1
\A1;15
  7
MSゴシック
 11
0.0000000000000001
 21
1.0
 31
0.0
 73
     1
 44
1.0
1001
ACAD
1000
MTEXTBEGIN
1070
    73
1070
     1
1070
    44
1040
1.0
1070
    74
1070
     0
1000
MTEXTEND
  0
LINE
  5
4053
330
1F
100
AcDbEntity
  8
sunpo
100
AcDbLine
 10
1311.921247040959
 20
1160.0
 30
0.0
 11
1311.921247040959
 21
1145.0
 31
0.0
  0
INSERT
  5
4054
330
1F
100
AcDbEntity
  8
sunpo
100
AcDbBlockReference
  2
_DOT
 10
1311.921247040959
 20
1160.0
 30
0.0
 41
8.0
 42
8.0
 43
8.0
 50
270.0
  0
INSERT
  5
4055
330
1F
100
AcDbEntity
  8
sunpo
100
AcDbBlockReference
  2
_DOT
 10
1311.921247040959
 20
1145.0
 30
0.0
 41
8.0
 42
8.0
 43
8.0
 50
90.0
  0
LINE
  5
4056
330
1F
100
AcDbEntity
  8
KUTAI
100
AcDbLine
 10
1130.0
 20
955.0
 30
0.0
 11
1130.0
 21
1135.0
 31
0.0
  0
LINE
  5
4057
330
1F
100
AcDbEntity
  8
KUTAI
100
AcDbLine
 10
1130.0
 20
1135.0
 30
0.0
 11
1120.0496280979
 21
1145.99503719021
 31
0.0
  0
LINE
  5
4058
330
1F
100
AcDbEntity
  8
KUTAI
100
AcDbLine
 10
1120.0496280979
 20
1145.99503719021
 30
0.0
 11
980.0000000000004
 21
1160.0
 31
0.0
  0
LINE
  5
4059
330
1F
100
AcDbEntity
  8
KUTAI
  6
DASHED
100
AcDbLine
 10
1110.0
 20
945.0
 30
0.0
 11
1110.0
 21
1126.900248757758
 31
0.0
  0
LINE
  5
405A
330
1F
100
AcDbEntity
  8
KUTAI
  6
DASHED
100
AcDbLine
 10
1110.0
 20
1126.900248757758
 30
0.0
 11
980.0000000000004
 21
1139.900248757758
 31
0.0
  0
LINE
  5
405B
330
1F
100
AcDbEntity
  8
BOUSUI
100
AcDbLine
 10
1122.828427124747
 20
945.0
 30
0.0
 11
1132.0
 21
954.1715728752537
 31
0.0
  0
LINE
  5
405C
330
1F
100
AcDbEntity
  8
BOUSUI
100
AcDbLine
 10
1132.0
 20
954.1715728752537
 30
0.0
 11
1132.0
 21
1135.77062717224
 31
0.0
  0
LINE
  5
405D
330
1F
100
AcDbEntity
  8
BOUSUI
100
AcDbLine
 10
1132.0
 20
1135.77062717224
 30
0.0
 11
1121.015438232108
 21
1147.908431301013
 31
0.0
  0
LINE
  5
405E
330
1F
100
AcDbEntity
  8
BOUSUI
100
AcDbLine
 10
1121.015438232108
 20
1147.908431301013
 30
0.0
 11
1000.0
 21
1160.009975124224
 31
0.0
  0
LINE
  5
405F
330
1F
100
AcDbEntity
  8
HATCH
  6
Continuous
100
AcDbLine
 10
980.0000000000004
 20
942.2532015133642
 30
0.0
 11
982.7467984866361
 21
945.0
 31
0.0
  0
LINE
  5
4060
330
1F
100
AcDbEntity
  8
HATCH
  6
Continuous
100
AcDbLine
 10
980.0000000000007
 20
937.7630734528299
 30
0.0
 11
987.2369265471709
 21
945.0000000000002
 31
0.0
  0
LINE
  5
4061
330
1F
100
AcDbEntity
  8
HATCH
  6
Continuous
100
AcDbLine
 10
981.7270546077054
 20
935.0000000000003
 30
0.0
 11
991.7270546077052
 21
945.0
 31
0.0
  0
LINE
  5
4062
330
1F
100
AcDbEntity
  8
HATCH
  6
Continuous
100
AcDbLine
 10
986.2171826682397
 20
935.0
 30
0.0
 11
996.21718266824
 21
945.0000000000002
 31
0.0
  0
LINE
  5
4063
330
1F
100
AcDbEntity
  8
HATCH
  6
Continuous
100
AcDbLine
 10
990.7073107287745
 20
935.0000000000003
 30
0.0
 11
1000.707310728774
 21
945.0
 31
0.0
  0
LINE
  5
4064
330
1F
100
AcDbEntity
  8
HATCH
  6
Continuous
100
AcDbLine
 10
995.1974387893088
 20
934.9999999999999
 30
0.0
 11
1004.03282522921
 21
943.8353864399015
 31
0.0
  0
LINE
  5
4065
330
1F
100
AcDbEntity
  8
HATCH
  6
Continuous
100
AcDbLine
 10
999.6875668498436
 20
935.0000000000001
 30
0.0
 11
1003.781759093199
 21
939.0941922433555
 31
0.0
  0
LINE
  5
4066
330
1F
100
AcDbEntity
  8
HATCH
  6
Continuous
100
AcDbLine
 10
1004.177694910378
 20
935.0000000000001
 30
0.0
 11
1004.429549952227
 21
935.2518550418496
 31
0.0
  0
LINE
  5
4067
330
1F
100
AcDbEntity
  8
HATCH
  6
Continuous
100
AcDbLine
 10
981.2812129355281
 20
934.9999999999999
 30
0.0
 11
980.0000000000002
 21
936.2812129355278
 31
0.0
  0
LINE
  5
4068
330
1F
100
AcDbEntity
  8
HATCH
  6
Continuous
100
AcDbLine
 10
985.7713409960629
 20
934.9999999999999
 30
0.0
 11
980.0000000000004
 21
940.7713409960622
 31
0.0
  0
LINE
  5
4069
330
1F
100
AcDbEntity
  8
HATCH
  6
Continuous
100
AcDbLine
 10
990.2614690565973
 20
934.9999999999999
 30
0.0
 11
980.2614690565974
 21
944.9999999999999
 31
0.0
  0
LINE
  5
406A
330
1F
100
AcDbEntity
  8
HATCH
  6
Continuous
100
AcDbLine
 10
994.7515971171318
 20
934.9999999999999
 30
0.0
 11
984.7515971171318
 21
944.9999999999999
 31
0.0
  0
LINE
  5
406B
330
1F
100
AcDbEntity
  8
HATCH
  6
Continuous
100
AcDbLine
 10
999.2417251776663
 20
934.9999999999999
 30
0.0
 11
989.2417251776663
 21
944.9999999999999
 31
0.0
  0
LINE
  5
406C
330
1F
100
AcDbEntity
  8
HATCH
  6
Continuous
100
AcDbLine
 10
1003.731853238201
 20
934.9999999999997
 30
0.0
 11
993.7318532382008
 21
944.9999999999999
 31
0.0
  0
LINE
  5
406D
330
1F
100
AcDbEntity
  8
HATCH
  6
Continuous
100
AcDbLine
 10
1003.760200242242
 20
939.4617810564927
 30
0.0
 11
998.2219812987356
 21
944.9999999999997
 31
0.0
  0
LINE
  5
406E
330
1F
100
AcDbEntity
  8
HATCH
  6
Continuous
100
AcDbLine
 10
1004.00991882768
 20
943.70219053159
 30
0.0
 11
1002.71210935927
 21
944.9999999999997
 31
0.0
  0
LINE
  5
406F
330
1F
100
AcDbEntity
  8
MOJI
100
AcDbLine
 10
1265.981677583046
 20
1215.853156459211
 30
0.0
 11
1215.981677583046
 21
1215.853156459211
 31
0.0
  0
LINE
  5
4070
330
1F
100
AcDbEntity
  8
MOJI
100
AcDbLine
 10
1215.981677583046
 20
1215.853156459211
 30
0.0
 11
1134.027221374602
 21
1073.903874399508
 31
0.0
  0
LINE
  5
4071
330
1F
100
AcDbEntity
  8
sunpo
100
AcDbLine
 10
980.0000000000004
 20
1410.39239956242
 30
0.0
 11
980.0000000000004
 21
1449.45876857882
 31
0.0
  0
LINE
  5
4072
330
1F
100
AcDbEntity
  8
sunpo
100
AcDbLine
 10
800.0000000000005
 20
1410.39239956242
 30
0.0
 11
800.0000000000005
 21
1449.45876857882
 31
0.0
  0
LINE
  5
4073
330
1F
100
AcDbEntity
  8
sunpo
100
AcDbLine
 10
972.0000000000004
 20
1449.45876857882
 30
0.0
 11
808.0000000000005
 21
1449.45876857882
 31
0.0
  0
INSERT
  5
4074
330
1F
100
AcDbEntity
  8
sunpo
100
AcDbBlockReference
  2
_DOT
 10
980.0000000000004
 20
1449.45876857882
 30
0.0
 41
8.0
 42
8.0
 43
8.0
  0
INSERT
  5
4075
330
1F
100
AcDbEntity
  8
sunpo
100
AcDbBlockReference
  2
_DOT
 10
800.0000000000005
 20
1449.45876857882
 30
0.0
 41
8.0
 42
8.0
 43
8.0
 50
180.0
  0
MTEXT
  5
4076
330
1F
100
AcDbEntity
  8
sunpo
100
AcDbMText
 10
890.0000000000003
 20
1461.321712741257
 30
0.0
 40
20.0
 41
0.0
 71
     5
 72
     1
  1
\A1;≧180
  7
MSゴシック
 73
     1
 44
1.0
1001
ACAD
1000
MTEXTBEGIN
1070
    73
1070
     1
1070
    44
1040
1.0
1070
    74
1070
     0
1000
MTEXTEND
  0
LINE
  5
4077
330
1F
100
AcDbEntity
  8
MOJI
100
AcDbLine
 10
1136.143329157287
 20
1331.037047118521
 30
0.0
 11
1086.143329157287
 21
1331.037047118521
 31
0.0
  0
LINE
  5
4078
330
1F
100
AcDbEntity
  8
MOJI
100
AcDbLine
 10
1086.143329157287
 20
1331.037047118521
 30
0.0
 11
990.3582100896423
 21
1165.132354284325
 31
0.0
  0
LINE
  5
4079
330
1F
100
AcDbEntity
  8
sunpo
100
AcDbLine
 10
1130.0
 20
1175.0
 30
0.0
 11
1130.0
 21
1192.949710263232
 31
0.0
  0
LINE
  5
407A
330
1F
100
AcDbEntity
  8
sunpo
100
AcDbLine
 10
980.0000000000004
 20
1175.0
 30
0.0
 11
980.0000000000004
 21
1192.949710263232
 31
0.0
  0
LINE
  5
407B
330
1F
100
AcDbEntity
  8
sunpo
100
AcDbLine
 10
1122.0
 20
1192.949710263232
 30
0.0
 11
988.0000000000004
 21
1192.949710263232
 31
0.0
  0
MTEXT
  5
407C
330
1F
100
AcDbEntity
  8
sunpo
100
AcDbMText
 10
1063.50823827975
 20
1206.030040975334
 30
0.0
 40
20.0
 41
0.0
 71
     5
 72
     1
  1
\A1;150
  7
MSゴシック
 73
     1
 44
1.0
1001
ACAD
1000
MTEXTBEGIN
1070
    73
1070
     1
1070
    44
1040
1.0
1070
    74
1070
     0
1000
MTEXTEND
  0
INSERT
  5
407D
330
1F
100
AcDbEntity
  8
sunpo
100
AcDbBlockReference
  2
_DOT
 10
1130.0
 20
1192.949710263232
 30
0.0
 41
8.0
 42
8.0
 43
8.0
  0
INSERT
  5
407E
330
1F
100
AcDbEntity
  8
sunpo
100
AcDbBlockReference
  2
_DOT
 10
980.0000000000004
 20
1192.949710263232
 30
0.0
 41
8.0
 42
8.0
 43
8.0
 50
180.0
  0
LINE
  5
407F
330
1F
100
AcDbEntity
  8
sunpo
100
AcDbLine
 10
1000.0
 20
1405.39239956242
 30
0.0
 11
1000.0
 21
1449.45876857882
 31
0.0
  0
LINE
  5
4080
330
1F
100
AcDbEntity
  8
sunpo
100
AcDbLine
 10
980.0000000000004
 20
1405.39239956242
 30
0.0
 11
980.0000000000004
 21
1449.45876857882
 31
0.0
  0
LINE
  5
4081
330
1F
100
AcDbEntity
  8
sunpo
100
AcDbLine
 10
992.0000000000005
 20
1449.45876857882
 30
0.0
 11
988.0000000000004
 21
1449.45876857882
 31
0.0
  0
MTEXT
  5
4082
330
1F
100
AcDbEntity
  8
sunpo
100
AcDbMText
 10
990.0000000000003
 20
1460.95876857882
 30
0.0
 40
20.0
 41
0.0
 71
     5
 72
     1
  1
\A1;20
  7
MSゴシック
 73
     1
 44
1.0
1001
ACAD
1000
MTEXTBEGIN
1070
    73
1070
     1
1070
    44
1040
1.0
1070
    74
1070
     0
1000
MTEXTEND
  0
INSERT
  5
4083
330
1F
100
AcDbEntity
  8
sunpo
100
AcDbBlockReference
  2
_DOT
 10
1000.0
 20
1449.45876857882
 30
0.0
 41
8.0
 42
8.0
 43
8.0
  0
INSERT
  5
4084
330
1F
100
AcDbEntity
  8
sunpo
100
AcDbBlockReference
  2
_DOT
 10
980.0000000000004
 20
1449.45876857882
 30
0.0
 41
8.0
 42
8.0
 43
8.0
 50
180.0
  0
LINE
  5
4085
330
1F
100
AcDbEntity
  8
BOUSUI
  6
Continuous
100
AcDbLine
 10
980.0000000000004
 20
1167.976787208332
 30
0.0
 11
982.023212791668
 21
1170.0
 31
0.0
  0
LINE
  5
4086
330
1F
100
AcDbEntity
  8
BOUSUI
  6
Continuous
100
AcDbLine
 10
980.0000000000004
 20
1163.486659147798
 30
0.0
 11
986.5133408522027
 21
1170.0
 31
0.0
  0
LINE
  5
4087
330
1F
100
AcDbEntity
  8
BOUSUI
  6
Continuous
100
AcDbLine
 10
980.9122444661248
 20
1159.908775553388
 30
0.0
 11
991.0034689127371
 21
1170.0
 31
0.0
  0
LINE
  5
4088
330
1F
100
AcDbEntity
  8
BOUSUI
  6
Continuous
100
AcDbLine
 10
984.9941790666107
 20
1159.500582093339
 30
0.0
 11
995.4935969732719
 21
1170.0
 31
0.0
  0
LINE
  5
4089
330
1F
100
AcDbEntity
  8
BOUSUI
  6
Continuous
100
AcDbLine
 10
989.0761136670969
 20
1159.092388633291
 30
0.0
 11
999.9837250338066
 21
1170.0
 31
0.0
  0
LINE
  5
408A
330
1F
100
AcDbEntity
  8
BOUSUI
  6
Continuous
100
AcDbLine
 10
993.1580482675828
 20
1158.684195173242
 30
0.0
 11
1000.0
 21
1165.526146905659
 31
0.0
  0
LINE
  5
408B
330
1F
100
AcDbEntity
  8
BOUSUI
  6
Continuous
100
AcDbLine
 10
997.2399828680689
 20
1158.276001713193
 30
0.0
 11
1000.0
 21
1161.036018845125
 31
0.0
  0
LINE
  5
408C
330
1F
100
AcDbEntity
  8
BOUSUI
  6
Continuous
100
AcDbLine
 10
982.2275540338845
 20
1159.777244596611
 30
0.0
 11
980.0000000000004
 21
1162.004798630495
 31
0.0
  0
LINE
  5
408D
330
1F
100
AcDbEntity
  8
BOUSUI
  6
Continuous
100
AcDbLine
 10
987.2165852122563
 20
1159.278341478774
 30
0.0
 11
980.0000000000004
 21
1166.49492669103
 31
0.0
  0
LINE
  5
408E
330
1F
100
AcDbEntity
  8
BOUSUI
  6
Continuous
100
AcDbLine
 10
992.205616390628
 20
1158.779438360937
 30
0.0
 11
980.9850547515653
 21
1169.999999999999
 31
0.0
  0
LINE
  5
408F
330
1F
100
AcDbEntity
  8
BOUSUI
  6
Continuous
100
AcDbLine
 10
997.194647569
 20
1158.2805352431
 30
0.0
 11
985.4751828120999
 21
1170.0
 31
0.0
  0
LINE
  5
4090
330
1F
100
AcDbEntity
  8
BOUSUI
  6
Continuous
100
AcDbLine
 10
1000.0
 20
1159.965310872634
 30
0.0
 11
989.9653108726345
 21
1170.0
 31
0.0
  0
LINE
  5
4091
330
1F
100
AcDbEntity
  8
BOUSUI
  6
Continuous
100
AcDbLine
 10
1000.0
 20
1164.455438933168
 30
0.0
 11
994.4554389331692
 21
1169.999999999999
 31
0.0
  0
LINE
  5
4092
330
1F
100
AcDbEntity
  8
BOUSUI
  6
Continuous
100
AcDbLine
 10
1000.0
 20
1168.945566993703
 30
0.0
 11
998.9455669937038
 21
1169.999999999999
 31
0.0
  0
LINE
  5
4093
330
1F
100
AcDbEntity
  8
HATCH
  6
Continuous
100
AcDbLine
 10
980.0000000000007
 20
579.7700112783031
 30
0.0
 11
982.2299887216983
 21
582.0000000000009
 31
0.0
  0
LINE
  5
4094
330
1F
100
AcDbEntity
  8
HATCH
  6
Continuous
100
AcDbLine
 10
980.0000000000006
 20
566.2996270966995
 30
0.0
 11
995.700372903302
 21
582.000000000001
 31
0.0
  0
LINE
  5
4095
330
1F
100
AcDbEntity
  8
HATCH
  6
Continuous
100
AcDbLine
 10
980.0000000000007
 20
552.8292429150958
 30
0.0
 11
1009.170757084906
 21
582.000000000001
 31
0.0
  0
LINE
  5
4096
330
1F
100
AcDbEntity
  8
HATCH
  6
Continuous
100
AcDbLine
 10
987.6411412665087
 20
547.0
 30
0.0
 11
1022.641141266509
 21
582.0000000000009
 31
0.0
  0
LINE
  5
4097
330
1F
100
AcDbEntity
  8
HATCH
  6
Continuous
100
AcDbLine
 10
1001.111525448112
 20
547.0
 30
0.0
 11
1036.111525448113
 21
582.000000000001
 31
0.0
  0
LINE
  5
4098
330
1F
100
AcDbEntity
  8
HATCH
  6
Continuous
100
AcDbLine
 10
1014.581909629716
 20
547.0000000000002
 30
0.0
 11
1049.581909629717
 21
582.0000000000009
 31
0.0
  0
LINE
  5
4099
330
1F
100
AcDbEntity
  8
HATCH
  6
Continuous
100
AcDbLine
 10
1028.05229381132
 20
547.0000000000001
 30
0.0
 11
1063.05229381132
 21
582.0000000000008
 31
0.0
  0
LINE
  5
409A
330
1F
100
AcDbEntity
  8
HATCH
  6
Continuous
100
AcDbLine
 10
1041.522677992923
 20
547.0000000000001
 30
0.0
 11
1076.522677992924
 21
582.0000000000009
 31
0.0
  0
LINE
  5
409B
330
1F
100
AcDbEntity
  8
HATCH
  6
Continuous
100
AcDbLine
 10
1054.993062174527
 20
547.0
 30
0.0
 11
1089.993062174528
 21
582.0000000000009
 31
0.0
  0
LINE
  5
409C
330
1F
100
AcDbEntity
  8
HATCH
  6
Continuous
100
AcDbLine
 10
1068.463446356131
 20
547.0
 30
0.0
 11
1103.463446356132
 21
582.0000000000009
 31
0.0
  0
LINE
  5
409D
330
1F
100
AcDbEntity
  8
HATCH
  6
Continuous
100
AcDbLine
 10
1081.933830537735
 20
547.0000000000002
 30
0.0
 11
1116.933830537735
 21
582.0000000000009
 31
0.0
  0
LINE
  5
409E
330
1F
100
AcDbEntity
  8
HATCH
  6
Continuous
100
AcDbLine
 10
1095.404214719338
 20
547.0000000000001
 30
0.0
 11
1130.404214719339
 21
582.0000000000008
 31
0.0
  0
LINE
  5
409F
330
1F
100
AcDbEntity
  8
HATCH
  6
Continuous
100
AcDbLine
 10
1108.874598900942
 20
547.0000000000001
 30
0.0
 11
1143.874598900943
 21
582.0000000000006
 31
0.0
  0
LINE
  5
40A0
330
1F
100
AcDbEntity
  8
HATCH
  6
Continuous
100
AcDbLine
 10
1122.344983082546
 20
547.0
 30
0.0
 11
1157.344983082546
 21
582.0000000000008
 31
0.0
  0
LINE
  5
40A1
330
1F
100
AcDbEntity
  8
HATCH
  6
Continuous
100
AcDbLine
 10
1135.815367264149
 20
547.0
 30
0.0
 11
1170.81536726415
 21
582.0000000000009
 31
0.0
  0
LINE
  5
40A2
330
1F
100
AcDbEntity
  8
HATCH
  6
Continuous
100
AcDbLine
 10
1149.285751445753
 20
547.0000000000002
 30
0.0
 11
1184.285751445754
 21
582.0000000000006
 31
0.0
  0
LINE
  5
40A3
330
1F
100
AcDbEntity
  8
HATCH
  6
Continuous
100
AcDbLine
 10
1162.756135627357
 20
547.0000000000001
 30
0.0
 11
1197.756135627358
 21
582.0000000000008
 31
0.0
  0
LINE
  5
40A4
330
1F
100
AcDbEntity
  8
HATCH
  6
Continuous
100
AcDbLine
 10
1176.22651980896
 20
547.0000000000001
 30
0.0
 11
1211.226519808962
 21
582.0000000000009
 31
0.0
  0
LINE
  5
40A5
330
1F
100
AcDbEntity
  8
HATCH
  6
Continuous
100
AcDbLine
 10
1189.696903990564
 20
547.0
 30
0.0
 11
1224.696903990565
 21
582.0000000000009
 31
0.0
  0
LINE
  5
40A6
330
1F
100
AcDbEntity
  8
HATCH
  6
Continuous
100
AcDbLine
 10
1203.167288172168
 20
547.0
 30
0.0
 11
1238.167288172169
 21
582.0000000000006
 31
0.0
  0
LINE
  5
40A7
330
1F
100
AcDbEntity
  8
HATCH
  6
Continuous
100
AcDbLine
 10
1216.637672353772
 20
547.0000000000002
 30
0.0
 11
1251.637672353773
 21
582.0000000000006
 31
0.0
  0
LINE
  5
40A8
330
1F
100
AcDbEntity
  8
HATCH
  6
Continuous
100
AcDbLine
 10
1230.108056535376
 20
547.0000000000001
 30
0.0
 11
1265.108056535376
 21
582.0000000000006
 31
0.0
  0
LINE
  5
40A9
330
1F
100
AcDbEntity
  8
HATCH
  6
Continuous
100
AcDbLine
 10
1243.578440716979
 20
547.0000000000001
 30
0.0
 11
1278.57844071698
 21
582.0000000000006
 31
0.0
  0
LINE
  5
40AA
330
1F
100
AcDbEntity
  8
HATCH
  6
Continuous
100
AcDbLine
 10
1257.048824898583
 20
547.0000000000002
 30
0.0
 11
1292.048824898584
 21
582.0000000000009
 31
0.0
  0
LINE
  5
40AB
330
1F
100
AcDbEntity
  8
HATCH
  6
Continuous
100
AcDbLine
 10
1270.519209080187
 20
547.0000000000002
 30
0.0
 11
1305.519209080188
 21
582.0000000000006
 31
0.0
  0
LINE
  5
40AC
330
1F
100
AcDbEntity
  8
HATCH
  6
Continuous
100
AcDbLine
 10
1283.989593261791
 20
547.0000000000002
 30
0.0
 11
1318.989593261791
 21
582.0000000000006
 31
0.0
  0
LINE
  5
40AD
330
1F
100
AcDbEntity
  8
HATCH
  6
Continuous
100
AcDbLine
 10
1297.459977443394
 20
547.0000000000001
 30
0.0
 11
1332.459977443395
 21
582.0000000000006
 31
0.0
  0
LINE
  5
40AE
330
1F
100
AcDbEntity
  8
HATCH
  6
Continuous
100
AcDbLine
 10
1310.930361624998
 20
547.0000000000001
 30
0.0
 11
1345.930361624999
 21
582.0000000000006
 31
0.0
  0
LINE
  5
40AF
330
1F
100
AcDbEntity
  8
HATCH
  6
Continuous
100
AcDbLine
 10
1324.400745806602
 20
547.0000000000002
 30
0.0
 11
1359.400745806602
 21
582.0000000000006
 31
0.0
  0
LINE
  5
40B0
330
1F
100
AcDbEntity
  8
HATCH
  6
Continuous
100
AcDbLine
 10
1337.871129988206
 20
547.0
 30
0.0
 11
1372.871129988206
 21
582.0000000000006
 31
0.0
  0
LINE
  5
40B1
330
1F
100
AcDbEntity
  8
HATCH
  6
Continuous
100
AcDbLine
 10
1351.341514169809
 20
547.0000000000002
 30
0.0
 11
1386.34151416981
 21
582.0000000000006
 31
0.0
  0
LINE
  5
40B2
330
1F
100
AcDbEntity
  8
HATCH
  6
Continuous
100
AcDbLine
 10
1364.811898351413
 20
547.0000000000001
 30
0.0
 11
1399.811898351414
 21
582.0000000000005
 31
0.0
  0
LINE
  5
40B3
330
1F
100
AcDbEntity
  8
HATCH
  6
Continuous
100
AcDbLine
 10
1378.282282533017
 20
547.0000000000002
 30
0.0
 11
1413.282282533017
 21
582.0000000000006
 31
0.0
  0
LINE
  5
40B4
330
1F
100
AcDbEntity
  8
HATCH
  6
Continuous
100
AcDbLine
 10
1391.75266671462
 20
547.0000000000002
 30
0.0
 11
1426.752666714621
 21
582.0000000000004
 31
0.0
  0
LINE
  5
40B5
330
1F
100
AcDbEntity
  8
HATCH
  6
Continuous
100
AcDbLine
 10
1405.223050896224
 20
547.0
 30
0.0
 11
1440.223050896225
 21
582.0000000000004
 31
0.0
  0
LINE
  5
40B6
330
1F
100
AcDbEntity
  8
HATCH
  6
Continuous
100
AcDbLine
 10
1418.693435077828
 20
547.0
 30
0.0
 11
1453.693435077828
 21
582.0000000000004
 31
0.0
  0
LINE
  5
40B7
330
1F
100
AcDbEntity
  8
HATCH
  6
Continuous
100
AcDbLine
 10
1432.163819259432
 20
547.0000000000001
 30
0.0
 11
1467.163819259432
 21
582.0000000000003
 31
0.0
  0
LINE
  5
40B8
330
1F
100
AcDbEntity
  8
HATCH
  6
Continuous
100
AcDbLine
 10
1445.634203441035
 20
547.0000000000002
 30
0.0
 11
1480.634203441036
 21
582.0000000000004
 31
0.0
  0
LINE
  5
40B9
330
1F
100
AcDbEntity
  8
HATCH
  6
Continuous
100
AcDbLine
 10
1459.104587622639
 20
547.0000000000002
 30
0.0
 11
1494.104587622639
 21
582.0000000000004
 31
0.0
  0
LINE
  5
40BA
330
1F
100
AcDbEntity
  8
HATCH
  6
Continuous
100
AcDbLine
 10
1472.574971804243
 20
547.0
 30
0.0
 11
1507.574971804243
 21
582.0000000000002
 31
0.0
  0
LINE
  5
40BB
330
1F
100
AcDbEntity
  8
HATCH
  6
Continuous
100
AcDbLine
 10
1486.045355985846
 20
547.0
 30
0.0
 11
1521.045355985847
 21
582.0000000000004
 31
0.0
  0
LINE
  5
40BC
330
1F
100
AcDbEntity
  8
HATCH
  6
Continuous
100
AcDbLine
 10
1499.51574016745
 20
547.0000000000001
 30
0.0
 11
1534.515740167451
 21
582.0000000000005
 31
0.0
  0
LINE
  5
40BD
330
1F
100
AcDbEntity
  8
HATCH
  6
Continuous
100
AcDbLine
 10
1512.986124349054
 20
547.0
 30
0.0
 11
1547.986124349054
 21
582.0000000000004
 31
0.0
  0
LINE
  5
40BE
330
1F
100
AcDbEntity
  8
HATCH
  6
Continuous
100
AcDbLine
 10
1526.456508530658
 20
547.0
 30
0.0
 11
1561.456508530658
 21
582.0000000000004
 31
0.0
  0
LINE
  5
40BF
330
1F
100
AcDbEntity
  8
HATCH
  6
Continuous
100
AcDbLine
 10
1539.926892712261
 20
547.0000000000001
 30
0.0
 11
1574.926892712261
 21
582.0000000000003
 31
0.0
  0
LINE
  5
40C0
330
1F
100
AcDbEntity
  8
HATCH
  6
Continuous
100
AcDbLine
 10
1553.397276893865
 20
547.0
 30
0.0
 11
1588.397276893865
 21
582.0000000000002
 31
0.0
  0
LINE
  5
40C1
330
1F
100
AcDbEntity
  8
HATCH
  6
Continuous
100
AcDbLine
 10
1566.867661075469
 20
546.9999999999998
 30
0.0
 11
1601.867661075469
 21
582.0000000000003
 31
0.0
  0
LINE
  5
40C2
330
1F
100
AcDbEntity
  8
HATCH
  6
Continuous
100
AcDbLine
 10
1580.338045257073
 20
547.0
 30
0.0
 11
1615.338045257073
 21
582.0000000000004
 31
0.0
  0
LINE
  5
40C3
330
1F
100
AcDbEntity
  8
HATCH
  6
Continuous
100
AcDbLine
 10
1593.808429438676
 20
547.0
 30
0.0
 11
1628.808429438677
 21
582.0000000000004
 31
0.0
  0
LINE
  5
40C4
330
1F
100
AcDbEntity
  8
HATCH
  6
Continuous
100
AcDbLine
 10
1607.27881362028
 20
546.9999999999998
 30
0.0
 11
1642.27881362028
 21
582.0000000000003
 31
0.0
  0
LINE
  5
40C5
330
1F
100
AcDbEntity
  8
HATCH
  6
Continuous
100
AcDbLine
 10
1620.749197801884
 20
547.0
 30
0.0
 11
1655.749197801884
 21
582.0000000000002
 31
0.0
  0
LINE
  5
40C6
330
1F
100
AcDbEntity
  8
HATCH
  6
Continuous
100
AcDbLine
 10
1634.219581983487
 20
546.9999999999998
 30
0.0
 11
1669.219581983488
 21
582.0000000000001
 31
0.0
  0
LINE
  5
40C7
330
1F
100
AcDbEntity
  8
HATCH
  6
Continuous
100
AcDbLine
 10
1647.689966165091
 20
546.9999999999997
 30
0.0
 11
1682.689966165091
 21
582.0000000000002
 31
0.0
  0
LINE
  5
40C8
330
1F
100
AcDbEntity
  8
HATCH
  6
Continuous
100
AcDbLine
 10
1661.160350346695
 20
547.0
 30
0.0
 11
1696.160350346695
 21
582.0000000000004
 31
0.0
  0
LINE
  5
40C9
330
1F
100
AcDbEntity
  8
HATCH
  6
Continuous
100
AcDbLine
 10
1674.630734528298
 20
546.9999999999998
 30
0.0
 11
1709.630734528299
 21
582.0000000000003
 31
0.0
  0
LINE
  5
40CA
330
1F
100
AcDbEntity
  8
HATCH
  6
Continuous
100
AcDbLine
 10
1688.101118709902
 20
546.9999999999997
 30
0.0
 11
1723.101118709903
 21
582.0000000000002
 31
0.0
  0
LINE
  5
40CB
330
1F
100
AcDbEntity
  8
HATCH
  6
Continuous
100
AcDbLine
 10
1701.571502891506
 20
546.9999999999998
 30
0.0
 11
1736.571502891506
 21
582.0000000000001
 31
0.0
  0
LINE
  5
40CC
330
1F
100
AcDbEntity
  8
HATCH
  6
Continuous
100
AcDbLine
 10
1715.04188707311
 20
546.9999999999998
 30
0.0
 11
1750.04188707311
 21
582.0000000000001
 31
0.0
  0
LINE
  5
40CD
330
1F
100
AcDbEntity
  8
HATCH
  6
Continuous
100
AcDbLine
 10
1728.512271254713
 20
547.0
 30
0.0
 11
1763.512271254714
 21
582.0000000000002
 31
0.0
  0
LINE
  5
40CE
330
1F
100
AcDbEntity
  8
HATCH
  6
Continuous
100
AcDbLine
 10
1741.982655436317
 20
546.9999999999998
 30
0.0
 11
1776.982655436318
 21
582.0000000000003
 31
0.0
  0
LINE
  5
40CF
330
1F
100
AcDbEntity
  8
HATCH
  6
Continuous
100
AcDbLine
 10
1755.453039617921
 20
546.9999999999997
 30
0.0
 11
1790.453039617921
 21
582.0000000000002
 31
0.0
  0
LINE
  5
40D0
330
1F
100
AcDbEntity
  8
HATCH
  6
Continuous
100
AcDbLine
 10
1768.923423799525
 20
546.9999999999997
 30
0.0
 11
1803.923423799525
 21
582.0000000000001
 31
0.0
  0
LINE
  5
40D1
330
1F
100
AcDbEntity
  8
HATCH
  6
Continuous
100
AcDbLine
 10
1782.393807981128
 20
546.9999999999998
 30
0.0
 11
1817.393807981128
 21
582.0000000000001
 31
0.0
  0
LINE
  5
40D2
330
1F
100
AcDbEntity
  8
HATCH
  6
Continuous
100
AcDbLine
 10
1795.864192162732
 20
546.9999999999997
 30
0.0
 11
1830.864192162732
 21
582.0
 31
0.0
  0
LINE
  5
40D3
330
1F
100
AcDbEntity
  8
HATCH
  6
Continuous
100
AcDbLine
 10
1809.334576344336
 20
546.9999999999998
 30
0.0
 11
1844.334576344336
 21
582.0000000000001
 31
0.0
  0
LINE
  5
40D4
330
1F
100
AcDbEntity
  8
HATCH
  6
Continuous
100
AcDbLine
 10
1822.80496052594
 20
546.9999999999997
 30
0.0
 11
1857.80496052594
 21
582.0000000000002
 31
0.0
  0
LINE
  5
40D5
330
1F
100
AcDbEntity
  8
HATCH
  6
Continuous
100
AcDbLine
 10
1836.275344707543
 20
546.9999999999997
 30
0.0
 11
1871.275344707544
 21
582.0000000000001
 31
0.0
  0
LINE
  5
40D6
330
1F
100
AcDbEntity
  8
HATCH
  6
Continuous
100
AcDbLine
 10
1849.745728889146
 20
546.9999999999997
 30
0.0
 11
1884.745728889147
 21
582.0000000000001
 31
0.0
  0
LINE
  5
40D7
330
1F
100
AcDbEntity
  8
HATCH
  6
Continuous
100
AcDbLine
 10
1863.216113070751
 20
546.9999999999997
 30
0.0
 11
1898.216113070751
 21
582.0
 31
0.0
  0
LINE
  5
40D8
330
1F
100
AcDbEntity
  8
HATCH
  6
Continuous
100
AcDbLine
 10
1876.686497252354
 20
546.9999999999997
 30
0.0
 11
1911.686497252354
 21
581.9999999999999
 31
0.0
  0
LINE
  5
40D9
330
1F
100
AcDbEntity
  8
HATCH
  6
Continuous
100
AcDbLine
 10
1890.156881433958
 20
546.9999999999997
 30
0.0
 11
1925.156881433958
 21
582.0
 31
0.0
  0
LINE
  5
40DA
330
1F
100
AcDbEntity
  8
HATCH
  6
Continuous
100
AcDbLine
 10
1903.627265615562
 20
546.9999999999997
 30
0.0
 11
1938.627265615562
 21
582.0000000000001
 31
0.0
  0
LINE
  5
40DB
330
1F
100
AcDbEntity
  8
HATCH
  6
Continuous
100
AcDbLine
 10
1917.097649797165
 20
546.9999999999997
 30
0.0
 11
1952.097649797166
 21
582.0000000000001
 31
0.0
  0
LINE
  5
40DC
330
1F
100
AcDbEntity
  8
HATCH
  6
Continuous
100
AcDbLine
 10
1930.568033978769
 20
546.9999999999995
 30
0.0
 11
1965.56803397877
 21
582.0
 31
0.0
  0
LINE
  5
40DD
330
1F
100
AcDbEntity
  8
HATCH
  6
Continuous
100
AcDbLine
 10
1944.038418160373
 20
546.9999999999997
 30
0.0
 11
1979.038418160373
 21
581.9999999999999
 31
0.0
  0
LINE
  5
40DE
330
1F
100
AcDbEntity
  8
HATCH
  6
Continuous
100
AcDbLine
 10
1957.508802341976
 20
546.9999999999995
 30
0.0
 11
1992.508802341977
 21
582.0
 31
0.0
  0
LINE
  5
40DF
330
1F
100
AcDbEntity
  8
HATCH
  6
Continuous
100
AcDbLine
 10
1970.97918652358
 20
546.9999999999997
 30
0.0
 11
2005.979186523581
 21
582.0000000000002
 31
0.0
  0
LINE
  5
40E0
330
1F
100
AcDbEntity
  8
HATCH
  6
Continuous
100
AcDbLine
 10
1984.449570705184
 20
546.9999999999997
 30
0.0
 11
2019.449570705185
 21
582.0000000000001
 31
0.0
  0
LINE
  5
40E1
330
1F
100
AcDbEntity
  8
HATCH
  6
Continuous
100
AcDbLine
 10
1997.919954886788
 20
546.9999999999995
 30
0.0
 11
2032.919954886788
 21
582.0
 31
0.0
  0
LINE
  5
40E2
330
1F
100
AcDbEntity
  8
HATCH
  6
Continuous
100
AcDbLine
 10
2011.390339068391
 20
546.9999999999994
 30
0.0
 11
2046.390339068392
 21
581.9999999999999
 31
0.0
  0
LINE
  5
40E3
330
1F
100
AcDbEntity
  8
HATCH
  6
Continuous
100
AcDbLine
 10
2024.860723249995
 20
546.9999999999995
 30
0.0
 11
2059.860723249996
 21
582.0000000000002
 31
0.0
  0
LINE
  5
40E4
330
1F
100
AcDbEntity
  8
HATCH
  6
Continuous
100
AcDbLine
 10
2038.331107431599
 20
546.9999999999995
 30
0.0
 11
2073.3311074316
 21
582.0000000000002
 31
0.0
  0
LINE
  5
40E5
330
1F
100
AcDbEntity
  8
HATCH
  6
Continuous
100
AcDbLine
 10
2051.801491613202
 20
546.9999999999994
 30
0.0
 11
2086.801491613203
 21
582.0000000000001
 31
0.0
  0
LINE
  5
40E6
330
1F
100
AcDbEntity
  8
HATCH
  6
Continuous
100
AcDbLine
 10
2065.271875794806
 20
546.9999999999995
 30
0.0
 11
2100.271875794807
 21
582.0
 31
0.0
  0
LINE
  5
40E7
330
1F
100
AcDbEntity
  8
HATCH
  6
Continuous
100
AcDbLine
 10
2078.74225997641
 20
546.9999999999994
 30
0.0
 11
2113.74225997641
 21
581.9999999999999
 31
0.0
  0
LINE
  5
40E8
330
1F
100
AcDbEntity
  8
HATCH
  6
Continuous
100
AcDbLine
 10
2092.212644158014
 20
546.9999999999995
 30
0.0
 11
2127.212644158015
 21
582.0000000000002
 31
0.0
  0
LINE
  5
40E9
330
1F
100
AcDbEntity
  8
HATCH
  6
Continuous
100
AcDbLine
 10
2105.683028339618
 20
546.9999999999995
 30
0.0
 11
2140.683028339619
 21
582.0000000000002
 31
0.0
  0
LINE
  5
40EA
330
1F
100
AcDbEntity
  8
HATCH
  6
Continuous
100
AcDbLine
 10
2119.153412521221
 20
546.9999999999994
 30
0.0
 11
2154.153412521222
 21
582.0000000000001
 31
0.0
  0
LINE
  5
40EB
330
1F
100
AcDbEntity
  8
HATCH
  6
Continuous
100
AcDbLine
 10
2132.623796702825
 20
546.9999999999993
 30
0.0
 11
2167.623796702826
 21
582.0
 31
0.0
  0
LINE
  5
40EC
330
1F
100
AcDbEntity
  8
HATCH
  6
Continuous
100
AcDbLine
 10
2146.094180884428
 20
546.9999999999994
 30
0.0
 11
2181.094180884429
 21
581.9999999999999
 31
0.0
  0
LINE
  5
40ED
330
1F
100
AcDbEntity
  8
HATCH
  6
Continuous
100
AcDbLine
 10
2159.564565066033
 20
546.9999999999993
 30
0.0
 11
2194.564565066034
 21
582.0000000000002
 31
0.0
  0
LINE
  5
40EE
330
1F
100
AcDbEntity
  8
HATCH
  6
Continuous
100
AcDbLine
 10
2173.034949247636
 20
546.9999999999995
 30
0.0
 11
2208.034949247637
 21
582.0000000000002
 31
0.0
  0
LINE
  5
40EF
330
1F
100
AcDbEntity
  8
HATCH
  6
Continuous
100
AcDbLine
 10
2186.50533342924
 20
546.9999999999994
 30
0.0
 11
2221.505333429241
 21
582.0000000000001
 31
0.0
  0
LINE
  5
40F0
330
1F
100
AcDbEntity
  8
HATCH
  6
Continuous
100
AcDbLine
 10
2199.975717610843
 20
546.9999999999993
 30
0.0
 11
2234.975717610844
 21
582.0
 31
0.0
  0
LINE
  5
40F1
330
1F
100
AcDbEntity
  8
HATCH
  6
Continuous
100
AcDbLine
 10
2213.446101792447
 20
546.9999999999991
 30
0.0
 11
2248.446101792448
 21
582.0000000000001
 31
0.0
  0
LINE
  5
40F2
330
1F
100
AcDbEntity
  8
HATCH
  6
Continuous
100
AcDbLine
 10
2226.916485974051
 20
546.9999999999994
 30
0.0
 11
2261.916485974052
 21
582.0000000000003
 31
0.0
  0
LINE
  5
40F3
330
1F
100
AcDbEntity
  8
HATCH
  6
Continuous
100
AcDbLine
 10
2240.386870155655
 20
546.9999999999993
 30
0.0
 11
2275.386870155656
 21
582.0000000000002
 31
0.0
  0
LINE
  5
40F4
330
1F
100
AcDbEntity
  8
HATCH
  6
Continuous
100
AcDbLine
 10
2253.857254337258
 20
546.9999999999991
 30
0.0
 11
2280.000000000001
 21
573.1427456627415
 31
0.0
  0
LINE
  5
40F5
330
1F
100
AcDbEntity
  8
HATCH
  6
Continuous
100
AcDbLine
 10
2267.327638518862
 20
546.9999999999993
 30
0.0
 11
2280.000000000001
 21
559.6723614811378
 31
0.0
  0
LINE
  5
40F6
330
1F
100
AcDbEntity
  8
HATCH
  6
Continuous
100
AcDbLine
 10
993.3276385188626
 20
547.0
 30
0.0
 11
980.0000000000004
 21
560.3276385188622
 31
0.0
  0
LINE
  5
40F7
330
1F
100
AcDbEntity
  8
HATCH
  6
Continuous
100
AcDbLine
 10
1006.798022700466
 20
547.0000000000001
 30
0.0
 11
980.0000000000004
 21
573.798022700466
 31
0.0
  0
LINE
  5
40F8
330
1F
100
AcDbEntity
  8
HATCH
  6
Continuous
100
AcDbLine
 10
1020.26840688207
 20
547.0
 30
0.0
 11
985.268406882071
 21
581.9999999999988
 31
0.0
  0
LINE
  5
40F9
330
1F
100
AcDbEntity
  8
HATCH
  6
Continuous
100
AcDbLine
 10
1033.738791063674
 20
547.0
 30
0.0
 11
998.7387910636748
 21
581.9999999999988
 31
0.0
  0
LINE
  5
40FA
330
1F
100
AcDbEntity
  8
HATCH
  6
Continuous
100
AcDbLine
 10
1047.209175245278
 20
547.0
 30
0.0
 11
1012.209175245279
 21
581.9999999999989
 31
0.0
  0
LINE
  5
40FB
330
1F
100
AcDbEntity
  8
HATCH
  6
Continuous
100
AcDbLine
 10
1060.679559426881
 20
547.0
 30
0.0
 11
1025.679559426882
 21
581.9999999999991
 31
0.0
  0
LINE
  5
40FC
330
1F
100
AcDbEntity
  8
HATCH
  6
Continuous
100
AcDbLine
 10
1074.149943608485
 20
547.0000000000001
 30
0.0
 11
1039.149943608486
 21
581.9999999999989
 31
0.0
  0
LINE
  5
40FD
330
1F
100
AcDbEntity
  8
HATCH
  6
Continuous
100
AcDbLine
 10
1087.620327790089
 20
547.0
 30
0.0
 11
1052.62032779009
 21
581.9999999999989
 31
0.0
  0
LINE
  5
40FE
330
1F
100
AcDbEntity
  8
HATCH
  6
Continuous
100
AcDbLine
 10
1101.090711971692
 20
547.0
 30
0.0
 11
1066.090711971693
 21
581.9999999999991
 31
0.0
  0
LINE
  5
40FF
330
1F
100
AcDbEntity
  8
HATCH
  6
Continuous
100
AcDbLine
 10
1114.561096153296
 20
547.0
 30
0.0
 11
1079.561096153297
 21
581.9999999999989
 31
0.0
  0
LINE
  5
4100
330
1F
100
AcDbEntity
  8
HATCH
  6
Continuous
100
AcDbLine
 10
1128.0314803349
 20
547.0
 30
0.0
 11
1093.031480334901
 21
581.9999999999991
 31
0.0
  0
LINE
  5
4101
330
1F
100
AcDbEntity
  8
HATCH
  6
Continuous
100
AcDbLine
 10
1141.501864516504
 20
547.0
 30
0.0
 11
1106.501864516505
 21
581.9999999999991
 31
0.0
  0
LINE
  5
4102
330
1F
100
AcDbEntity
  8
HATCH
  6
Continuous
100
AcDbLine
 10
1154.972248698107
 20
547.0
 30
0.0
 11
1119.972248698108
 21
581.9999999999989
 31
0.0
  0
LINE
  5
4103
330
1F
100
AcDbEntity
  8
HATCH
  6
Continuous
100
AcDbLine
 10
1168.442632879711
 20
547.0
 30
0.0
 11
1133.442632879712
 21
581.9999999999991
 31
0.0
  0
LINE
  5
4104
330
1F
100
AcDbEntity
  8
HATCH
  6
Continuous
100
AcDbLine
 10
1181.913017061315
 20
547.0
 30
0.0
 11
1146.913017061315
 21
581.9999999999991
 31
0.0
  0
LINE
  5
4105
330
1F
100
AcDbEntity
  8
HATCH
  6
Continuous
100
AcDbLine
 10
1195.383401242919
 20
547.0
 30
0.0
 11
1160.383401242919
 21
581.9999999999991
 31
0.0
  0
LINE
  5
4106
330
1F
100
AcDbEntity
  8
HATCH
  6
Continuous
100
AcDbLine
 10
1208.853785424522
 20
547.0
 30
0.0
 11
1173.853785424523
 21
581.9999999999991
 31
0.0
  0
LINE
  5
4107
330
1F
100
AcDbEntity
  8
HATCH
  6
Continuous
100
AcDbLine
 10
1222.324169606126
 20
547.0
 30
0.0
 11
1187.324169606127
 21
581.9999999999991
 31
0.0
  0
LINE
  5
4108
330
1F
100
AcDbEntity
  8
HATCH
  6
Continuous
100
AcDbLine
 10
1235.79455378773
 20
547.0
 30
0.0
 11
1200.79455378773
 21
581.9999999999991
 31
0.0
  0
LINE
  5
4109
330
1F
100
AcDbEntity
  8
HATCH
  6
Continuous
100
AcDbLine
 10
1249.264937969333
 20
547.0
 30
0.0
 11
1214.264937969334
 21
581.9999999999993
 31
0.0
  0
LINE
  5
410A
330
1F
100
AcDbEntity
  8
HATCH
  6
Continuous
100
AcDbLine
 10
1262.735322150937
 20
546.9999999999997
 30
0.0
 11
1227.735322150938
 21
581.9999999999991
 31
0.0
  0
LINE
  5
410B
330
1F
100
AcDbEntity
  8
HATCH
  6
Continuous
100
AcDbLine
 10
1276.205706332541
 20
547.0
 30
0.0
 11
1241.205706332541
 21
581.9999999999991
 31
0.0
  0
LINE
  5
410C
330
1F
100
AcDbEntity
  8
HATCH
  6
Continuous
100
AcDbLine
 10
1289.676090514145
 20
546.9999999999997
 30
0.0
 11
1254.676090514145
 21
581.9999999999993
 31
0.0
  0
LINE
  5
410D
330
1F
100
AcDbEntity
  8
HATCH
  6
Continuous
100
AcDbLine
 10
1303.146474695748
 20
547.0
 30
0.0
 11
1268.146474695749
 21
581.9999999999993
 31
0.0
  0
LINE
  5
410E
330
1F
100
AcDbEntity
  8
HATCH
  6
Continuous
100
AcDbLine
 10
1316.616858877352
 20
547.0
 30
0.0
 11
1281.616858877353
 21
581.9999999999994
 31
0.0
  0
LINE
  5
410F
330
1F
100
AcDbEntity
  8
HATCH
  6
Continuous
100
AcDbLine
 10
1330.087243058956
 20
546.9999999999998
 30
0.0
 11
1295.087243058956
 21
581.9999999999991
 31
0.0
  0
LINE
  5
4110
330
1F
100
AcDbEntity
  8
HATCH
  6
Continuous
100
AcDbLine
 10
1343.557627240559
 20
547.0
 30
0.0
 11
1308.55762724056
 21
581.9999999999993
 31
0.0
  0
LINE
  5
4111
330
1F
100
AcDbEntity
  8
HATCH
  6
Continuous
100
AcDbLine
 10
1357.028011422163
 20
547.0
 30
0.0
 11
1322.028011422164
 21
581.9999999999994
 31
0.0
  0
LINE
  5
4112
330
1F
100
AcDbEntity
  8
HATCH
  6
Continuous
100
AcDbLine
 10
1370.498395603767
 20
547.0
 30
0.0
 11
1335.498395603768
 21
581.9999999999993
 31
0.0
  0
LINE
  5
4113
330
1F
100
AcDbEntity
  8
HATCH
  6
Continuous
100
AcDbLine
 10
1383.968779785371
 20
547.0
 30
0.0
 11
1348.968779785371
 21
581.9999999999994
 31
0.0
  0
LINE
  5
4114
330
1F
100
AcDbEntity
  8
HATCH
  6
Continuous
100
AcDbLine
 10
1397.439163966974
 20
546.9999999999998
 30
0.0
 11
1362.439163966975
 21
581.9999999999993
 31
0.0
  0
LINE
  5
4115
330
1F
100
AcDbEntity
  8
HATCH
  6
Continuous
100
AcDbLine
 10
1410.909548148578
 20
547.0000000000001
 30
0.0
 11
1375.909548148579
 21
581.9999999999994
 31
0.0
  0
LINE
  5
4116
330
1F
100
AcDbEntity
  8
HATCH
  6
Continuous
100
AcDbLine
 10
1424.379932330182
 20
547.0000000000001
 30
0.0
 11
1389.379932330182
 21
581.9999999999994
 31
0.0
  0
LINE
  5
4117
330
1F
100
AcDbEntity
  8
HATCH
  6
Continuous
100
AcDbLine
 10
1437.850316511785
 20
547.0
 30
0.0
 11
1402.850316511786
 21
581.9999999999993
 31
0.0
  0
LINE
  5
4118
330
1F
100
AcDbEntity
  8
HATCH
  6
Continuous
100
AcDbLine
 10
1451.320700693389
 20
547.0
 30
0.0
 11
1416.32070069339
 21
581.9999999999993
 31
0.0
  0
LINE
  5
4119
330
1F
100
AcDbEntity
  8
HATCH
  6
Continuous
100
AcDbLine
 10
1464.791084874993
 20
547.0
 30
0.0
 11
1429.791084874994
 21
581.9999999999993
 31
0.0
  0
LINE
  5
411A
330
1F
100
AcDbEntity
  8
HATCH
  6
Continuous
100
AcDbLine
 10
1478.261469056596
 20
547.0
 30
0.0
 11
1443.261469056597
 21
581.9999999999993
 31
0.0
  0
LINE
  5
411B
330
1F
100
AcDbEntity
  8
HATCH
  6
Continuous
100
AcDbLine
 10
1491.7318532382
 20
547.0000000000001
 30
0.0
 11
1456.731853238201
 21
581.9999999999993
 31
0.0
  0
LINE
  5
411C
330
1F
100
AcDbEntity
  8
HATCH
  6
Continuous
100
AcDbLine
 10
1505.202237419804
 20
547.0000000000001
 30
0.0
 11
1470.202237419805
 21
581.9999999999993
 31
0.0
  0
LINE
  5
411D
330
1F
100
AcDbEntity
  8
HATCH
  6
Continuous
100
AcDbLine
 10
1518.672621601408
 20
547.0000000000002
 30
0.0
 11
1483.672621601408
 21
581.9999999999995
 31
0.0
  0
LINE
  5
411E
330
1F
100
AcDbEntity
  8
HATCH
  6
Continuous
100
AcDbLine
 10
1532.143005783012
 20
547.0
 30
0.0
 11
1497.143005783012
 21
581.9999999999993
 31
0.0
  0
LINE
  5
411F
330
1F
100
AcDbEntity
  8
HATCH
  6
Continuous
100
AcDbLine
 10
1545.613389964615
 20
547.0
 30
0.0
 11
1510.613389964616
 21
581.9999999999993
 31
0.0
  0
LINE
  5
4120
330
1F
100
AcDbEntity
  8
HATCH
  6
Continuous
100
AcDbLine
 10
1559.083774146219
 20
547.0000000000002
 30
0.0
 11
1524.08377414622
 21
581.9999999999995
 31
0.0
  0
LINE
  5
4121
330
1F
100
AcDbEntity
  8
HATCH
  6
Continuous
100
AcDbLine
 10
1572.554158327823
 20
547.0000000000001
 30
0.0
 11
1537.554158327824
 21
581.9999999999993
 31
0.0
  0
LINE
  5
4122
330
1F
100
AcDbEntity
  8
HATCH
  6
Continuous
100
AcDbLine
 10
1586.024542509426
 20
547.0000000000003
 30
0.0
 11
1551.024542509427
 21
581.9999999999995
 31
0.0
  0
LINE
  5
4123
330
1F
100
AcDbEntity
  8
HATCH
  6
Continuous
100
AcDbLine
 10
1599.49492669103
 20
547.0000000000002
 30
0.0
 11
1564.494926691031
 21
581.9999999999995
 31
0.0
  0
LINE
  5
4124
330
1F
100
AcDbEntity
  8
HATCH
  6
Continuous
100
AcDbLine
 10
1612.965310872634
 20
547.0
 30
0.0
 11
1577.965310872635
 21
581.9999999999993
 31
0.0
  0
LINE
  5
4125
330
1F
100
AcDbEntity
  8
HATCH
  6
Continuous
100
AcDbLine
 10
1626.435695054237
 20
547.0000000000003
 30
0.0
 11
1591.435695054238
 21
581.9999999999995
 31
0.0
  0
LINE
  5
4126
330
1F
100
AcDbEntity
  8
HATCH
  6
Continuous
100
AcDbLine
 10
1639.906079235841
 20
547.0000000000003
 30
0.0
 11
1604.906079235842
 21
581.9999999999995
 31
0.0
  0
LINE
  5
4127
330
1F
100
AcDbEntity
  8
HATCH
  6
Continuous
100
AcDbLine
 10
1653.376463417445
 20
547.0000000000003
 30
0.0
 11
1618.376463417446
 21
581.9999999999995
 31
0.0
  0
LINE
  5
4128
330
1F
100
AcDbEntity
  8
HATCH
  6
Continuous
100
AcDbLine
 10
1666.846847599049
 20
547.0000000000003
 30
0.0
 11
1631.846847599049
 21
581.9999999999995
 31
0.0
  0
LINE
  5
4129
330
1F
100
AcDbEntity
  8
HATCH
  6
Continuous
100
AcDbLine
 10
1680.317231780652
 20
547.0000000000002
 30
0.0
 11
1645.317231780653
 21
581.9999999999993
 31
0.0
  0
LINE
  5
412A
330
1F
100
AcDbEntity
  8
HATCH
  6
Continuous
100
AcDbLine
 10
1693.787615962256
 20
547.0000000000003
 30
0.0
 11
1658.787615962257
 21
581.9999999999996
 31
0.0
  0
LINE
  5
412B
330
1F
100
AcDbEntity
  8
HATCH
  6
Continuous
100
AcDbLine
 10
1707.25800014386
 20
547.0000000000003
 30
0.0
 11
1672.25800014386
 21
581.9999999999996
 31
0.0
  0
LINE
  5
412C
330
1F
100
AcDbEntity
  8
HATCH
  6
Continuous
100
AcDbLine
 10
1720.728384325463
 20
547.0000000000005
 30
0.0
 11
1685.728384325464
 21
581.9999999999996
 31
0.0
  0
LINE
  5
412D
330
1F
100
AcDbEntity
  8
HATCH
  6
Continuous
100
AcDbLine
 10
1734.198768507067
 20
547.0000000000003
 30
0.0
 11
1699.198768507068
 21
581.9999999999995
 31
0.0
  0
LINE
  5
412E
330
1F
100
AcDbEntity
  8
HATCH
  6
Continuous
100
AcDbLine
 10
1747.669152688671
 20
547.0000000000003
 30
0.0
 11
1712.669152688671
 21
581.9999999999995
 31
0.0
  0
LINE
  5
412F
330
1F
100
AcDbEntity
  8
HATCH
  6
Continuous
100
AcDbLine
 10
1761.139536870275
 20
547.0000000000005
 30
0.0
 11
1726.139536870276
 21
581.9999999999996
 31
0.0
  0
LINE
  5
4130
330
1F
100
AcDbEntity
  8
HATCH
  6
Continuous
100
AcDbLine
 10
1774.609921051879
 20
547.0000000000003
 30
0.0
 11
1739.609921051879
 21
581.9999999999996
 31
0.0
  0
LINE
  5
4131
330
1F
100
AcDbEntity
  8
HATCH
  6
Continuous
100
AcDbLine
 10
1788.080305233482
 20
547.0000000000003
 30
0.0
 11
1753.080305233483
 21
581.9999999999996
 31
0.0
  0
LINE
  5
4132
330
1F
100
AcDbEntity
  8
HATCH
  6
Continuous
100
AcDbLine
 10
1801.550689415085
 20
547.0000000000005
 30
0.0
 11
1766.550689415086
 21
581.9999999999996
 31
0.0
  0
LINE
  5
4133
330
1F
100
AcDbEntity
  8
HATCH
  6
Continuous
100
AcDbLine
 10
1815.02107359669
 20
547.0000000000003
 30
0.0
 11
1780.02107359669
 21
581.9999999999995
 31
0.0
  0
LINE
  5
4134
330
1F
100
AcDbEntity
  8
HATCH
  6
Continuous
100
AcDbLine
 10
1828.491457778293
 20
547.0000000000005
 30
0.0
 11
1793.491457778294
 21
581.9999999999997
 31
0.0
  0
LINE
  5
4135
330
1F
100
AcDbEntity
  8
HATCH
  6
Continuous
100
AcDbLine
 10
1841.961841959897
 20
547.0000000000005
 30
0.0
 11
1806.961841959898
 21
581.9999999999996
 31
0.0
  0
LINE
  5
4136
330
1F
100
AcDbEntity
  8
HATCH
  6
Continuous
100
AcDbLine
 10
1855.4322261415
 20
547.0000000000003
 30
0.0
 11
1820.432226141501
 21
581.9999999999996
 31
0.0
  0
LINE
  5
4137
330
1F
100
AcDbEntity
  8
HATCH
  6
Continuous
100
AcDbLine
 10
1868.902610323104
 20
547.0000000000005
 30
0.0
 11
1833.902610323105
 21
581.9999999999999
 31
0.0
  0
LINE
  5
4138
330
1F
100
AcDbEntity
  8
HATCH
  6
Continuous
100
AcDbLine
 10
1882.372994504708
 20
547.0000000000005
 30
0.0
 11
1847.372994504709
 21
581.9999999999996
 31
0.0
  0
LINE
  5
4139
330
1F
100
AcDbEntity
  8
HATCH
  6
Continuous
100
AcDbLine
 10
1895.843378686311
 20
547.0000000000005
 30
0.0
 11
1860.843378686312
 21
581.9999999999997
 31
0.0
  0
LINE
  5
413A
330
1F
100
AcDbEntity
  8
HATCH
  6
Continuous
100
AcDbLine
 10
1909.313762867915
 20
547.0000000000005
 30
0.0
 11
1874.313762867916
 21
581.9999999999997
 31
0.0
  0
LINE
  5
413B
330
1F
100
AcDbEntity
  8
HATCH
  6
Continuous
100
AcDbLine
 10
1922.784147049519
 20
547.0000000000005
 30
0.0
 11
1887.78414704952
 21
581.9999999999996
 31
0.0
  0
LINE
  5
413C
330
1F
100
AcDbEntity
  8
HATCH
  6
Continuous
100
AcDbLine
 10
1936.254531231123
 20
547.0000000000005
 30
0.0
 11
1901.254531231124
 21
581.9999999999999
 31
0.0
  0
LINE
  5
413D
330
1F
100
AcDbEntity
  8
HATCH
  6
Continuous
100
AcDbLine
 10
1949.724915412726
 20
547.0000000000005
 30
0.0
 11
1914.724915412727
 21
581.9999999999999
 31
0.0
  0
LINE
  5
413E
330
1F
100
AcDbEntity
  8
HATCH
  6
Continuous
100
AcDbLine
 10
1963.19529959433
 20
547.0000000000005
 30
0.0
 11
1928.195299594331
 21
581.9999999999999
 31
0.0
  0
LINE
  5
413F
330
1F
100
AcDbEntity
  8
HATCH
  6
Continuous
100
AcDbLine
 10
1976.665683775934
 20
547.0000000000005
 30
0.0
 11
1941.665683775935
 21
581.9999999999997
 31
0.0
  0
LINE
  5
4140
330
1F
100
AcDbEntity
  8
HATCH
  6
Continuous
100
AcDbLine
 10
1990.136067957538
 20
547.0000000000005
 30
0.0
 11
1955.136067957539
 21
581.9999999999997
 31
0.0
  0
LINE
  5
4141
330
1F
100
AcDbEntity
  8
HATCH
  6
Continuous
100
AcDbLine
 10
2003.606452139142
 20
547.0000000000006
 30
0.0
 11
1968.606452139142
 21
581.9999999999999
 31
0.0
  0
LINE
  5
4142
330
1F
100
AcDbEntity
  8
HATCH
  6
Continuous
100
AcDbLine
 10
2017.076836320745
 20
547.0000000000005
 30
0.0
 11
1982.076836320746
 21
581.9999999999999
 31
0.0
  0
LINE
  5
4143
330
1F
100
AcDbEntity
  8
HATCH
  6
Continuous
100
AcDbLine
 10
2030.547220502349
 20
547.0000000000007
 30
0.0
 11
1995.54722050235
 21
581.9999999999999
 31
0.0
  0
LINE
  5
4144
330
1F
100
AcDbEntity
  8
HATCH
  6
Continuous
100
AcDbLine
 10
2044.017604683952
 20
547.0000000000007
 30
0.0
 11
2009.017604683954
 21
581.9999999999997
 31
0.0
  0
LINE
  5
4145
330
1F
100
AcDbEntity
  8
HATCH
  6
Continuous
100
AcDbLine
 10
2057.487988865557
 20
547.0000000000005
 30
0.0
 11
2022.487988865558
 21
581.9999999999997
 31
0.0
  0
LINE
  5
4146
330
1F
100
AcDbEntity
  8
HATCH
  6
Continuous
100
AcDbLine
 10
2070.95837304716
 20
547.0000000000009
 30
0.0
 11
2035.958373047161
 21
582.0
 31
0.0
  0
LINE
  5
4147
330
1F
100
AcDbEntity
  8
HATCH
  6
Continuous
100
AcDbLine
 10
2084.428757228764
 20
547.0000000000009
 30
0.0
 11
2049.428757228765
 21
581.9999999999999
 31
0.0
  0
LINE
  5
4148
330
1F
100
AcDbEntity
  8
HATCH
  6
Continuous
100
AcDbLine
 10
2097.899141410367
 20
547.0000000000005
 30
0.0
 11
2062.899141410369
 21
581.9999999999999
 31
0.0
  0
LINE
  5
4149
330
1F
100
AcDbEntity
  8
HATCH
  6
Continuous
100
AcDbLine
 10
2111.369525591971
 20
547.0000000000007
 30
0.0
 11
2076.369525591973
 21
581.9999999999997
 31
0.0
  0
LINE
  5
414A
330
1F
100
AcDbEntity
  8
HATCH
  6
Continuous
100
AcDbLine
 10
2124.839909773575
 20
547.0000000000005
 30
0.0
 11
2089.839909773576
 21
581.9999999999997
 31
0.0
  0
LINE
  5
414B
330
1F
100
AcDbEntity
  8
HATCH
  6
Continuous
100
AcDbLine
 10
2138.310293955179
 20
547.0000000000009
 30
0.0
 11
2103.31029395518
 21
581.9999999999999
 31
0.0
  0
LINE
  5
414C
330
1F
100
AcDbEntity
  8
HATCH
  6
Continuous
100
AcDbLine
 10
2151.780678136782
 20
547.0000000000009
 30
0.0
 11
2116.780678136784
 21
581.9999999999999
 31
0.0
  0
LINE
  5
414D
330
1F
100
AcDbEntity
  8
HATCH
  6
Continuous
100
AcDbLine
 10
2165.251062318386
 20
547.0000000000009
 30
0.0
 11
2130.251062318387
 21
581.9999999999999
 31
0.0
  0
LINE
  5
414E
330
1F
100
AcDbEntity
  8
HATCH
  6
Continuous
100
AcDbLine
 10
2178.72144649999
 20
547.0000000000007
 30
0.0
 11
2143.721446499991
 21
581.9999999999997
 31
0.0
  0
LINE
  5
414F
330
1F
100
AcDbEntity
  8
HATCH
  6
Continuous
100
AcDbLine
 10
2192.191830681593
 20
547.0000000000007
 30
0.0
 11
2157.191830681595
 21
581.9999999999997
 31
0.0
  0
LINE
  5
4150
330
1F
100
AcDbEntity
  8
HATCH
  6
Continuous
100
AcDbLine
 10
2205.662214863197
 20
547.0000000000009
 30
0.0
 11
2170.662214863198
 21
581.9999999999999
 31
0.0
  0
LINE
  5
4151
330
1F
100
AcDbEntity
  8
HATCH
  6
Continuous
100
AcDbLine
 10
2219.132599044801
 20
547.0000000000009
 30
0.0
 11
2184.132599044803
 21
581.9999999999999
 31
0.0
  0
LINE
  5
4152
330
1F
100
AcDbEntity
  8
HATCH
  6
Continuous
100
AcDbLine
 10
2232.602983226405
 20
547.0000000000009
 30
0.0
 11
2197.602983226406
 21
581.9999999999995
 31
0.0
  0
LINE
  5
4153
330
1F
100
AcDbEntity
  8
HATCH
  6
Continuous
100
AcDbLine
 10
2246.073367408008
 20
547.0000000000011
 30
0.0
 11
2211.07336740801
 21
581.9999999999997
 31
0.0
  0
LINE
  5
4154
330
1F
100
AcDbEntity
  8
HATCH
  6
Continuous
100
AcDbLine
 10
2259.543751589612
 20
547.0000000000007
 30
0.0
 11
2224.543751589613
 21
581.9999999999997
 31
0.0
  0
LINE
  5
4155
330
1F
100
AcDbEntity
  8
HATCH
  6
Continuous
100
AcDbLine
 10
2273.014135771216
 20
547.000000000001
 30
0.0
 11
2238.014135771217
 21
581.9999999999999
 31
0.0
  0
LINE
  5
4156
330
1F
100
AcDbEntity
  8
HATCH
  6
Continuous
100
AcDbLine
 10
2280.0
 20
553.4845199528202
 30
0.0
 11
2251.484519952821
 21
581.9999999999999
 31
0.0
  0
LINE
  5
4157
330
1F
100
AcDbEntity
  8
HATCH
  6
Continuous
100
AcDbLine
 10
2280.0
 20
566.9549041344238
 30
0.0
 11
2264.954904134425
 21
581.9999999999995
 31
0.0
  0
LINE
  5
4158
330
1F
100
AcDbEntity
  8
HATCH
  6
Continuous
100
AcDbLine
 10
2280.0
 20
580.4252883160278
 30
0.0
 11
2278.425288316029
 21
581.9999999999997
 31
0.0
  0
LINE
  5
4159
330
1F
100
AcDbEntity
  8
KANAMONO
100
AcDbLine
 10
992.0000000000012
 20
919.7499999999999
 30
0.0
 11
991.8308430594679
 21
919.8123372237867
 31
0.0
  0
ARC
  5
415A
330
1F
100
AcDbEntity
  8
KANAMONO
100
AcDbCircle
 10
991.9000000000012
 20
920.0
 30
0.0
 40
0.2000000000000165
100
AcDbArc
 50
110.2297042878543
 51
249.7702957121457
  0
LINE
  5
415B
330
1F
100
AcDbEntity
  8
KANAMONO
100
AcDbLine
 10
991.8308430594679
 20
920.1876627762132
 30
0.0
 11
992.0000000000005
 21
920.2499999999995
 31
0.0
  0
LINE
  5
415C
330
1F
100
AcDbEntity
  8
KANAMONO
100
AcDbLine
 10
992.0000000000005
 20
920.2499999999995
 30
0.0
 11
992.0000000000005
 21
933.0
 31
0.0
  0
LINE
  5
415D
330
1F
100
AcDbEntity
  8
KANAMONO
100
AcDbLine
 10
992.0000000000005
 20
933.0
 30
0.0
 11
1004.5
 21
933.0
 31
0.0
  0
LINE
  5
415E
330
1F
100
AcDbEntity
  8
KANAMONO
100
AcDbLine
 10
1004.5
 20
933.0
 30
0.0
 11
1004.5
 21
935.0
 31
0.0
  0
LINE
  5
415F
330
1F
100
AcDbEntity
  8
KANAMONO
100
AcDbLine
 10
1004.5
 20
935.0
 30
0.0
 11
989.5000000000004
 21
935.0
 31
0.0
  0
LINE
  5
4160
330
1F
100
AcDbEntity
  8
KANAMONO
100
AcDbLine
 10
989.5000000000004
 20
935.0
 30
0.0
 11
989.5000000000004
 21
933.0
 31
0.0
  0
LINE
  5
4161
330
1F
100
AcDbEntity
  8
KANAMONO
100
AcDbLine
 10
989.5000000000004
 20
933.0
 30
0.0
 11
990.0000000000003
 21
933.0
 31
0.0
  0
LINE
  5
4162
330
1F
100
AcDbEntity
  8
KANAMONO
100
AcDbLine
 10
990.0000000000003
 20
933.0
 30
0.0
 11
990.0000000000002
 21
922.0
 31
0.0
  0
LINE
  5
4163
330
1F
100
AcDbEntity
  8
KANAMONO
100
AcDbLine
 10
990.0000000000002
 20
922.0
 30
0.0
 11
989.5741992477928
 21
921.6554804513249
 31
0.0
  0
ARC
  5
4164
330
1F
100
AcDbEntity
  8
KANAMONO
100
AcDbCircle
 10
989.7000000000003
 20
921.5000000000001
 30
0.0
 40
0.2000000000001147
100
AcDbArc
 50
128.9766600186954
 51
231.0233399813045
  0
LINE
  5
4165
330
1F
100
AcDbEntity
  8
KANAMONO
100
AcDbLine
 10
989.5741992477928
 20
921.3445195486755
 30
0.0
 11
990.0000000000003
 21
921.0
 31
0.0
  0
LINE
  5
4166
330
1F
100
AcDbEntity
  8
KANAMONO
100
AcDbLine
 10
990.0000000000003
 20
921.0
 30
0.0
 11
990.0000000000003
 21
919.0
 31
0.0
  0
LINE
  5
4167
330
1F
100
AcDbEntity
  8
KANAMONO
100
AcDbLine
 10
990.0000000000003
 20
919.0
 30
0.0
 11
989.5741992477928
 21
918.6554804513248
 31
0.0
  0
ARC
  5
4168
330
1F
100
AcDbEntity
  8
KANAMONO
100
AcDbCircle
 10
989.7000000000003
 20
918.5000000000002
 30
0.0
 40
0.2000000000001147
100
AcDbArc
 50
128.9766600186954
 51
231.0233399813045
  0
LINE
  5
4169
330
1F
100
AcDbEntity
  8
KANAMONO
100
AcDbLine
 10
989.5741992477928
 20
918.3445195486756
 30
0.0
 11
990.0000000000003
 21
918.0
 31
0.0
  0
LINE
  5
416A
330
1F
100
AcDbEntity
  8
KANAMONO
100
AcDbLine
 10
990.0000000000003
 20
918.0
 30
0.0
 11
990.0000000000003
 21
916.0
 31
0.0
  0
LINE
  5
416B
330
1F
100
AcDbEntity
  8
KANAMONO
100
AcDbLine
 10
990.0000000000003
 20
916.0
 30
0.0
 11
989.5741992477928
 21
915.6554804513248
 31
0.0
  0
ARC
  5
416C
330
1F
100
AcDbEntity
  8
KANAMONO
100
AcDbCircle
 10
989.7000000000003
 20
915.5000000000002
 30
0.0
 40
0.2000000000001147
100
AcDbArc
 50
128.9766600186954
 51
231.0233399813045
  0
LINE
  5
416D
330
1F
100
AcDbEntity
  8
KANAMONO
100
AcDbLine
 10
989.5741992477928
 20
915.3445195486757
 30
0.0
 11
990.0000000000003
 21
915.0000000000002
 31
0.0
  0
LINE
  5
416E
330
1F
100
AcDbEntity
  8
KANAMONO
100
AcDbLine
 10
990.0000000000003
 20
915.0000000000002
 30
0.0
 11
990.0000000000003
 21
913.0
 31
0.0
  0
LINE
  5
416F
330
1F
100
AcDbEntity
  8
KANAMONO
100
AcDbLine
 10
990.0000000000003
 20
913.0
 30
0.0
 11
989.5741992477928
 21
912.6554804513247
 31
0.0
  0
ARC
  5
4170
330
1F
100
AcDbEntity
  8
KANAMONO
100
AcDbCircle
 10
989.7000000000003
 20
912.5000000000001
 30
0.0
 40
0.2000000000001862
100
AcDbArc
 50
128.9766600187208
 51
231.0233399812792
  0
LINE
  5
4171
330
1F
100
AcDbEntity
  8
KANAMONO
100
AcDbLine
 10
989.5741992477928
 20
912.3445195486755
 30
0.0
 11
990.0000000000003
 21
912.0000000000002
 31
0.0
  0
LINE
  5
4172
330
1F
100
AcDbEntity
  8
KANAMONO
100
AcDbLine
 10
990.0000000000003
 20
912.0000000000002
 30
0.0
 11
990.0000000000003
 21
910.0
 31
0.0
  0
LINE
  5
4173
330
1F
100
AcDbEntity
  8
KANAMONO
100
AcDbLine
 10
990.0000000000003
 20
910.0
 30
0.0
 11
989.5741992477928
 21
909.6554804513248
 31
0.0
  0
ARC
  5
4174
330
1F
100
AcDbEntity
  8
KANAMONO
100
AcDbCircle
 10
989.7000000000003
 20
909.5000000000002
 30
0.0
 40
0.2000000000001862
100
AcDbArc
 50
128.9766600187208
 51
231.0233399812792
  0
LINE
  5
4175
330
1F
100
AcDbEntity
  8
KANAMONO
100
AcDbLine
 10
989.5741992477928
 20
909.3445195486756
 30
0.0
 11
990.0000000000003
 21
909.0
 31
0.0
  0
LINE
  5
4176
330
1F
100
AcDbEntity
  8
KANAMONO
100
AcDbLine
 10
990.0000000000003
 20
909.0
 30
0.0
 11
990.0000000000003
 21
905.0
 31
0.0
  0
LINE
  5
4177
330
1F
100
AcDbEntity
  8
KANAMONO
100
AcDbLine
 10
990.0000000000003
 20
905.0
 30
0.0
 11
992.0000000000005
 21
905.0
 31
0.0
  0
LINE
  5
4178
330
1F
100
AcDbEntity
  8
KANAMONO
100
AcDbLine
 10
992.0000000000005
 20
905.0
 30
0.0
 11
992.0000000000012
 21
919.7499999999999
 31
0.0
  0
LINE
  5
4179
330
1F
100
AcDbEntity
  8
KANAMONO_SCREW
 48
20.0
100
AcDbLine
 10
976.430196562833
 20
922.6285514272898
 30
0.0
 11
966.3260108967158
 21
923.0743243243244
 31
0.0
  0
LINE
  5
417A
330
1F
100
AcDbEntity
  8
KANAMONO_SCREW
 48
20.0
100
AcDbLine
 10
976.4301965628334
 20
917.3714485727028
 30
0.0
 11
966.3260108967158
 21
916.9256756756757
 31
0.0
  0
LINE
  5
417B
330
1F
100
AcDbEntity
  8
KANAMONO_SCREW
 48
20.0
100
AcDbLine
 10
979.3440289147339
 20
919.7916666666667
 30
0.0
 11
965.1773622480671
 21
919.1666666666668
 31
0.0
  0
LINE
  5
417C
330
1F
100
AcDbEntity
  8
KANAMONO_SCREW
 48
20.0
100
AcDbLine
 10
979.3440289147339
 20
920.2083333333334
 30
0.0
 11
965.1773622480671
 21
920.8333333333333
 31
0.0
  0
LINE
  5
417D
330
1F
100
AcDbEntity
  8
KANAMONO_SCREW
 48
20.0
100
AcDbLine
 10
965.1773622480671
 20
921.5945143015213
 30
0.0
 11
962.2572152365149
 21
920.3849498143908
 31
0.0
  0
LINE
  5
417E
330
1F
100
AcDbEntity
  8
KANAMONO_SCREW
 48
20.0
100
AcDbLine
 10
965.1773622480671
 20
918.4054856984788
 30
0.0
 11
962.2572152365149
 21
919.6150502039648
 31
0.0
  0
ARC
  5
417F
330
1F
100
AcDbEntity
  8
KANAMONO_SCREW
 48
20.0
100
AcDbCircle
 10
962.416666666667
 20
920.000000009178
 30
0.0
 40
0.4166666666666667
100
AcDbArc
 50
112.4999999999997
 51
247.5000000000002
  0
LINE
  5
4180
330
1F
100
AcDbEntity
  8
KANAMONO_SCREW
 48
20.0
100
AcDbLine
 10
965.1773622480671
 20
919.1666666666668
 30
0.0
 11
965.1773622480671
 21
917.5
 31
0.0
  0
LINE
  5
4181
330
1F
100
AcDbEntity
  8
KANAMONO_SCREW
 48
20.0
100
AcDbLine
 10
965.1773622480671
 20
920.8333333333333
 30
0.0
 11
965.1773622480671
 21
922.4999999999999
 31
0.0
  0
LINE
  5
4182
330
1F
100
AcDbEntity
  8
KANAMONO_SCREW
 48
20.0
100
AcDbLine
 10
965.1773622480671
 20
922.4999999999999
 30
0.0
 11
966.3260108967158
 21
923.0743243243244
 31
0.0
  0
LINE
  5
4183
330
1F
100
AcDbEntity
  8
KANAMONO_SCREW
 48
20.0
100
AcDbLine
 10
965.9670430480394
 20
920.7984944745112
 30
0.0
 11
966.3619348608884
 21
919.2189272231146
 31
0.0
  0
LINE
  5
4184
330
1F
100
AcDbEntity
  8
KANAMONO_SCREW
 48
20.0
100
AcDbLine
 10
967.2309835684854
 20
920.7427323927266
 30
0.0
 11
967.598298497252
 21
919.2734726776601
 31
0.0
  0
LINE
  5
4185
330
1F
100
AcDbEntity
  8
KANAMONO_SCREW
 48
20.0
100
AcDbLine
 10
964.5799066443148
 20
921.347040089409
 30
0.0
 11
965.1773622480671
 21
918.9572176743999
 31
0.0
  0
LINE
  5
4186
330
1F
100
AcDbEntity
  8
KANAMONO_SCREW
 48
20.0
100
AcDbLine
 10
968.4949240889316
 20
920.6869703109424
 30
0.0
 11
968.8346621336158
 21
919.3280181322057
 31
0.0
  0
LINE
  5
4187
330
1F
100
AcDbEntity
  8
KANAMONO_SCREW
 48
20.0
100
AcDbLine
 10
973.5506861707159
 20
920.4639219838048
 30
0.0
 11
973.7801166790703
 21
919.5461999503875
 31
0.0
  0
LINE
  5
4188
330
1F
100
AcDbEntity
  8
KANAMONO_SCREW
 48
20.0
100
AcDbLine
 10
969.7588646093775
 20
920.6312082291578
 30
0.0
 11
970.0710257699794
 21
919.382563586751
 31
0.0
  0
LINE
  5
4189
330
1F
100
AcDbEntity
  8
KANAMONO_SCREW
 48
20.0
100
AcDbLine
 10
971.0228051298237
 20
920.5754461473736
 30
0.0
 11
971.307389406343
 21
919.4371090412964
 31
0.0
  0
LINE
  5
418A
330
1F
100
AcDbEntity
  8
KANAMONO_SCREW
 48
20.0
100
AcDbLine
 10
972.2867456502697
 20
920.519684065589
 30
0.0
 11
972.5437530427067
 21
919.491654495842
 31
0.0
  0
LINE
  5
418B
330
1F
100
AcDbEntity
  8
KANAMONO_SCREW
 48
20.0
100
AcDbLine
 10
965.1773622480671
 20
917.5
 30
0.0
 11
966.3260108967158
 21
916.9256756756757
 31
0.0
  0
LINE
  5
418C
330
1F
100
AcDbEntity
  8
KANAMONO_SCREW
 48
20.0
100
AcDbLine
 10
991.166666666667
 20
922.4999999999999
 30
0.0
 11
979.3440289147344
 21
922.4999999999999
 31
0.0
  0
LINE
  5
418D
330
1F
100
AcDbEntity
  8
KANAMONO_SCREW
 48
20.0
100
AcDbLine
 10
991.166666666667
 20
917.5
 30
0.0
 11
979.3440289147344
 21
917.5
 31
0.0
  0
LINE
  5
418E
330
1F
100
AcDbEntity
  8
KANAMONO_SCREW
 48
20.0
100
AcDbLine
 10
981.010695581401
 20
922.4999999999999
 30
0.0
 11
981.010695581401
 21
917.5
 31
0.0
  0
LINE
  5
418F
330
1F
100
AcDbEntity
  8
KANAMONO_SCREW
 48
20.0
100
AcDbLine
 10
983.510695581401
 20
922.4999999999999
 30
0.0
 11
983.510695581401
 21
917.5
 31
0.0
  0
LINE
  5
4190
330
1F
100
AcDbEntity
  8
KANAMONO_SCREW
 48
20.0
100
AcDbLine
 10
979.3348466699274
 20
922.2918691177213
 30
0.0
 11
979.3440289147344
 21
922.4999999999999
 31
0.0
  0
LINE
  5
4191
330
1F
100
AcDbEntity
  8
KANAMONO_SCREW
 48
20.0
100
AcDbLine
 10
979.1267157876488
 20
922.3010513625283
 30
0.0
 11
979.1358980324558
 21
922.5091822448069
 31
0.0
  0
LINE
  5
4192
330
1F
100
AcDbEntity
  8
KANAMONO_SCREW
 48
20.0
100
AcDbLine
 10
976.6291452003052
 20
922.4112383002116
 30
0.0
 11
976.638327445112
 21
922.6193691824901
 31
0.0
  0
LINE
  5
4193
330
1F
100
AcDbEntity
  8
KANAMONO_SCREW
 48
20.0
100
AcDbLine
 10
976.4210143180266
 20
922.4204205450186
 30
0.0
 11
976.4301965628334
 21
922.6285514272971
 31
0.0
  0
LINE
  5
4194
330
1F
100
AcDbEntity
  8
KANAMONO_SCREW
 48
20.0
100
AcDbLine
 10
979.1358980324556
 20
922.5091822448064
 30
0.0
 11
976.6383274451117
 21
922.6193691824834
 31
0.0
  0
LINE
  5
4195
330
1F
100
AcDbEntity
  8
KANAMONO_SCREW
 48
20.0
100
AcDbLine
 10
979.3348466699274
 20
922.2918691177213
 30
0.0
 11
976.4210143180262
 21
922.420420545011
 31
0.0
  0
LINE
  5
4196
330
1F
100
AcDbEntity
  8
KANAMONO_SCREW
 48
20.0
100
AcDbLine
 10
979.3440289147339
 20
920.2083333333334
 30
0.0
 11
979.3440289147339
 21
919.7916666666667
 31
0.0
  0
LINE
  5
4197
330
1F
100
AcDbEntity
  8
KANAMONO_SCREW
 48
20.0
100
AcDbLine
 10
978.6064482525002
 20
920.2408736566672
 30
0.0
 11
978.7255712245247
 21
919.7643817685692
 31
0.0
  0
LINE
  5
4198
330
1F
100
AcDbEntity
  8
KANAMONO_SCREW
 48
20.0
100
AcDbLine
 10
974.814626691162
 20
920.4081599020202
 30
0.0
 11
975.0164803154339
 21
919.6007454049329
 31
0.0
  0
LINE
  5
4199
330
1F
100
AcDbEntity
  8
KANAMONO_SCREW
 48
20.0
100
AcDbLine
 10
976.0785672116082
 20
920.352397820236
 30
0.0
 11
976.2528439517975
 21
919.6552908594783
 31
0.0
  0
LINE
  5
419A
330
1F
100
AcDbEntity
  8
KANAMONO_SCREW
 48
20.0
100
AcDbLine
 10
977.3425077320542
 20
920.2966357384516
 30
0.0
 11
977.4892075881611
 21
919.7098363140238
 31
0.0
  0
LINE
  5
419B
330
1F
100
AcDbEntity
  8
KANAMONO_SCREW
 48
20.0
100
AcDbLine
 10
979.1267157876488
 20
917.6989486374717
 30
0.0
 11
979.1358980324558
 21
917.490817755193
 31
0.0
  0
LINE
  5
419C
330
1F
100
AcDbEntity
  8
KANAMONO_SCREW
 48
20.0
100
AcDbLine
 10
979.3348466699274
 20
917.7081308822787
 30
0.0
 11
979.3440289147344
 21
917.5
 31
0.0
  0
LINE
  5
419D
330
1F
100
AcDbEntity
  8
KANAMONO_SCREW
 48
20.0
100
AcDbLine
 10
976.4210143180266
 20
917.5795794549815
 30
0.0
 11
976.4301965628334
 21
917.3714485727028
 31
0.0
  0
LINE
  5
419E
330
1F
100
AcDbEntity
  8
KANAMONO_SCREW
 48
20.0
100
AcDbLine
 10
976.6291452003052
 20
917.5887616997883
 30
0.0
 11
976.638327445112
 21
917.3806308175098
 31
0.0
  0
LINE
  5
419F
330
1F
100
AcDbEntity
  8
KANAMONO_SCREW
 48
20.0
100
AcDbLine
 10
979.3348466699274
 20
917.7081308822787
 30
0.0
 11
976.4210143180262
 21
917.5795794549889
 31
0.0
  0
LINE
  5
41A0
330
1F
100
AcDbEntity
  8
KANAMONO_SCREW
 48
20.0
100
AcDbLine
 10
979.1358980324556
 20
917.4908177551936
 30
0.0
 11
976.6383274451117
 21
917.3806308175167
 31
0.0
  0
LINE
  5
41A1
330
1F
100
AcDbEntity
  8
KANAMONO_SCREW
 48
20.0
100
AcDbLine
 10
992.0000000000005
 20
923.3333333333332
 30
0.0
 11
992.0000000000005
 21
916.6666666666667
 31
0.0
  0
LINE
  5
41A2
330
1F
100
AcDbEntity
  8
KANAMONO_SCREW
 48
20.0
100
AcDbLine
 10
994.0833333333339
 20
916.4583333333332
 30
0.0
 11
994.0833333333339
 21
923.5416666666665
 31
0.0
  0
LINE
  5
41A3
330
1F
100
AcDbEntity
  8
KANAMONO_SCREW
 48
20.0
100
AcDbLine
 10
994.291666666667
 20
917.5
 30
0.0
 11
994.291666666667
 21
922.4999999999999
 31
0.0
  0
LINE
  5
41A4
330
1F
100
AcDbEntity
  8
KANAMONO_SCREW
 48
20.0
100
AcDbLine
 10
993.666666666667
 20
924.5833333333333
 30
0.0
 11
993.666666666667
 21
915.4166666666666
 31
0.0
  0
LINE
  5
41A5
330
1F
100
AcDbEntity
  8
KANAMONO_SCREW
 48
20.0
100
AcDbLine
 10
994.0833333333339
 20
923.5416666666665
 30
0.0
 11
993.666666666667
 21
923.5416666666665
 31
0.0
  0
LINE
  5
41A6
330
1F
100
AcDbEntity
  8
KANAMONO_SCREW
 48
20.0
100
AcDbLine
 10
994.0833333333339
 20
923.5416666666665
 30
0.0
 11
994.291666666667
 21
922.4999999999999
 31
0.0
  0
ARC
  5
41A7
330
1F
100
AcDbEntity
  8
KANAMONO_SCREW
 48
20.0
100
AcDbCircle
 10
991.166666666667
 20
923.3333333333332
 30
0.0
 40
0.8333333333333333
100
AcDbArc
 50
270.0
 51
0.0
  0
LINE
  5
41A8
330
1F
100
AcDbEntity
  8
KANAMONO_SCREW
 48
20.0
100
AcDbLine
 10
992.0000000000005
 20
924.5833333333333
 30
0.0
 11
992.0000000000005
 21
923.3333333333332
 31
0.0
  0
LINE
  5
41A9
330
1F
100
AcDbEntity
  8
KANAMONO_SCREW
 48
20.0
100
AcDbLine
 10
992.0000000000005
 20
924.5833333333333
 30
0.0
 11
993.666666666667
 21
924.5833333333333
 31
0.0
  0
LINE
  5
41AA
330
1F
100
AcDbEntity
  8
KANAMONO_SCREW
 48
20.0
100
AcDbLine
 10
993.666666666667
 20
915.4166666666666
 30
0.0
 11
992.0000000000005
 21
915.4166666666666
 31
0.0
  0
LINE
  5
41AB
330
1F
100
AcDbEntity
  8
KANAMONO_SCREW
 48
20.0
100
AcDbLine
 10
993.666666666667
 20
916.4583333333332
 30
0.0
 11
994.0833333333339
 21
916.4583333333332
 31
0.0
  0
LINE
  5
41AC
330
1F
100
AcDbEntity
  8
KANAMONO_SCREW
 48
20.0
100
AcDbLine
 10
994.291666666667
 20
917.5
 30
0.0
 11
994.0833333333339
 21
916.4583333333332
 31
0.0
  0
ARC
  5
41AD
330
1F
100
AcDbEntity
  8
KANAMONO_SCREW
 48
20.0
100
AcDbCircle
 10
991.166666666667
 20
916.6666666666667
 30
0.0
 40
0.8333333333333333
100
AcDbArc
 50
0.0
 51
90.0
  0
LINE
  5
41AE
330
1F
100
AcDbEntity
  8
KANAMONO_SCREW
 48
20.0
100
AcDbLine
 10
992.0000000000005
 20
916.6666666666667
 30
0.0
 11
992.0000000000005
 21
915.4166666666666
 31
0.0
  0
LINE
  5
41AF
330
1F
100
AcDbEntity
  8
WAKU
100
AcDbLine
 10
2760.000000000001
 20
1790.0
 30
0.0
 11
0.0
 21
1790.0
 31
0.0
  0
LINE
  5
41B0
330
1F
100
AcDbEntity
  8
WAKU
100
AcDbLine
 10
0.0
 20
1790.0
 30
0.0
 11
0.0
 21
1910.0
 31
0.0
  0
LINE
  5
41B1
330
1F
100
AcDbEntity
  8
WAKU
100
AcDbLine
 10
0.0
 20
1910.0
 30
0.0
 11
2760.000000000001
 21
1910.0
 31
0.0
  0
LINE
  5
41B2
330
1F
100
AcDbEntity
  8
WAKU
100
AcDbLine
 10
2760.000000000001
 20
1910.0
 30
0.0
 11
2760.000000000001
 21
1790.0
 31
0.0
  0
LINE
  5
41B3
330
1F
100
AcDbEntity
  8
WAKU
100
AcDbLine
 10
0.0
 20
0.0
 30
0.0
 11
2760.000000000001
 21
0.0
 31
0.0
  0
LINE
  5
41B4
330
1F
100
AcDbEntity
  8
WAKU
100
AcDbLine
 10
2760.000000000001
 20
0.0
 30
0.0
 11
2760.000000000001
 21
1910.0
 31
0.0
  0
LINE
  5
41B5
330
1F
100
AcDbEntity
  8
WAKU
100
AcDbLine
 10
2760.000000000001
 20
1910.0
 30
0.0
 11
0.0
 21
1910.0
 31
0.0
  0
LINE
  5
41B6
330
1F
100
AcDbEntity
  8
WAKU
100
AcDbLine
 10
0.0
 20
1910.0
 30
0.0
 11
0.0
 21
0.0
 31
0.0
  0
ENDSEC
  0
SECTION
  2
OBJECTS
  0
DICTIONARY
  5
C
330
0
100
AcDbDictionary
281
     1
  3
ACAD_CIP_PREVIOUS_PRODUCT_INFO
350
392E
  3
ACAD_COLOR
350
37FD
  3
ACAD_DETAILVIEWSTYLE
350
3929
  3
ACAD_GROUP
350
D
  3
ACAD_LAYOUT
350
1A
  3
ACAD_MATERIAL
350
37D0
  3
ACAD_MLEADERSTYLE
350
3812
  3
ACAD_MLINESTYLE
350
17
  3
ACAD_PLOTSETTINGS
350
19
  3
ACAD_PLOTSTYLENAME
350
E
  3
ACAD_SCALELIST
350
3800
  3
ACAD_SECTIONVIEWSTYLE
350
3927
  3
ACAD_TABLESTYLE
350
37FE
  3
ACAD_VISUALSTYLE
350
37E9
  3
ACDB_RECOMPOSE_DATA
350
41B9
  3
AcDbVariableDictionary
350
1835
  3
AEC_PROPERTY_SET_DEFS
350
39B3
  3
DWGPROPS
350
41BA
  0
DICTIONARY
  5
3841
330
8
100
AcDbDictionary
280
     1
281
     1
  0
DICTIONARY
  5
2D
330
2
100
AcDbDictionary
280
     1
281
     1
  3
ACAD_LAYERFILTERS
360
2E
  3
ACAD_LAYERSTATES
360
918
  0
DICTIONARY
  5
3829
330
10
100
AcDbDictionary
280
     1
281
     1
  3
ADSK_XREC_LAYER_RECONCILED
360
382A
  0
DICTIONARY
  5
382B
330
2294
100
AcDbDictionary
280
     1
281
     1
  3
ADSK_XREC_LAYER_RECONCILED
360
382C
  0
DICTIONARY
  5
382D
330
235F
100
AcDbDictionary
280
     1
281
     1
  3
ADSK_XREC_LAYER_RECONCILED
360
382E
  0
DICTIONARY
  5
382F
330
2360
100
AcDbDictionary
280
     1
281
     1
  3
ADSK_XREC_LAYER_RECONCILED
360
3830
  0
DICTIONARY
  5
3831
330
2361
100
AcDbDictionary
280
     1
281
     1
  3
ADSK_XREC_LAYER_RECONCILED
360
3832
  0
DICTIONARY
  5
3833
330
2363
100
AcDbDictionary
280
     1
281
     1
  3
ADSK_XREC_LAYER_RECONCILED
360
3834
  0
DICTIONARY
  5
3835
330
2364
100
AcDbDictionary
280
     1
281
     1
  3
ADSK_XREC_LAYER_RECONCILED
360
3836
  0
DICTIONARY
  5
3837
330
2501
100
AcDbDictionary
280
     1
281
     1
  3
ADSK_XREC_LAYER_RECONCILED
360
3838
  0
DICTIONARY
  5
3839
330
27C0
100
AcDbDictionary
280
     1
281
     1
  3
ADSK_XREC_LAYER_RECONCILED
360
383A
  0
DICTIONARY
  5
383B
330
2E95
100
AcDbDictionary
280
     1
281
     1
  3
ADSK_XREC_LAYER_RECONCILED
360
383C
  0
DICTIONARY
  5
1C62
330
1F
100
AcDbDictionary
280
     1
281
     1
  3
ACAD_SORTENTS
360
1C63
  0
XRECORD
  5
392E
102
{ACAD_REACTORS
330
C
102
}
330
C
100
AcDbXrecord
280
     1
300
ACD
300
2022
300

  0
DICTIONARY
  5
37FD
102
{ACAD_REACTORS
330
C
102
}
330
C
100
AcDbDictionary
281
     1
  0
DICTIONARY
  5
3929
102
{ACAD_REACTORS
330
C
102
}
330
C
100
AcDbDictionary
281
     1
  3
Metric50
350
392A
  0
DICTIONARY
  5
D
102
{ACAD_REACTORS
330
C
102
}
330
C
100
AcDbDictionary
281
     1
  0
DICTIONARY
  5
1A
102
{ACAD_REACTORS
330
C
102
}
330
C
100
AcDbDictionary
281
     1
  3
Model
350
22
  3
\U+FF9A\U+FF72\U+FF71\U+FF73\U+FF841
350
1CD1
  0
DICTIONARY
  5
37D0
102
{ACAD_REACTORS
330
C
102
}
330
C
100
AcDbDictionary
281
     1
  3
ByBlock
350
37D9
  3
ByLayer
350
37D1
  3
Global
350
37E1
  0
DICTIONARY
  5
3812
102
{ACAD_REACTORS
330
C
102
}
330
C
100
AcDbDictionary
281
     1
  3
Standard
350
3813
  0
DICTIONARY
  5
17
102
{ACAD_REACTORS
330
C
102
}
330
C
100
AcDbDictionary
281
     1
  3
Standard
350
18
  0
DICTIONARY
  5
19
102
{ACAD_REACTORS
330
C
102
}
330
C
100
AcDbDictionary
281
     1
  0
ACDBDICTIONARYWDFLT
  5
E
102
{ACAD_REACTORS
330
C
102
}
330
C
100
AcDbDictionary
281
     1
  3
Normal
350
F
  3
通常
350
29
100
AcDbDictionaryWithDefault
340
F
  0
DICTIONARY
  5
3800
102
{ACAD_REACTORS
330
C
102
}
330
C
100
AcDbDictionary
281
     1
  3
A0
350
3801
  3
A1
350
3802
  3
A2
350
3803
  3
A3
350
3804
  3
A4
350
3805
  3
A5
350
3806
  3
A6
350
3807
  3
A7
350
3808
  3
A8
350
3809
  3
A9
350
380A
  3
B0
350
380B
  3
B1
350
380C
  3
B2
350
380D
  3
B3
350
380E
  3
B4
350
380F
  3
B5
350
3810
  3
B6
350
3811
  0
DICTIONARY
  5
3927
102
{ACAD_REACTORS
330
C
102
}
330
C
100
AcDbDictionary
281
     1
  3
Metric50
350
3928
  0
DICTIONARY
  5
37FE
102
{ACAD_REACTORS
330
C
102
}
330
C
100
AcDbDictionary
281
     1
  3
Standard
350
37FF
  0
DICTIONARY
  5
37E9
102
{ACAD_REACTORS
330
C
102
}
330
C
100
AcDbDictionary
281
     1
  3
2dWireframe
350
37EF
  3
3D Hidden
350
37F1
  3
3dWireframe
350
37F0
  3
Basic
350
37EE
  3
Brighten
350
37F5
  3
ColorChange
350
37F9
  3
Conceptual
350
37F2
  3
Dim
350
37F4
  3
EdgeColorOff
350
37FC
  3
Facepattern
350
37F8
  3
Flat
350
37EA
  3
FlatWithEdges
350
37EB
  3
Gouraud
350
37EC
  3
GouraudWithEdges
350
37ED
  3
Hidden
350
3921
  3
JitterOff
350
37FA
  3
Linepattern
350
37F7
  3
OverhangOff
350
37FB
  3
Realistic
350
37F3
  3
Shaded
350
3926
  3
Shaded with edges
350
3925
  3
Shades of Gray
350
3922
  3
Sketchy
350
3923
  3
Thicken
350
37F6
  3
Wireframe
350
3920
  3
X-Ray
350
3924
  0
XRECORD
  5
41B9
102
{ACAD_REACTORS
330
C
102
}
330
C
100
AcDbXrecord
280
     1
 90
        1
330
37FF
  0
DICTIONARY
  5
1835
102
{ACAD_REACTORS
330
C
102
}
330
C
100
AcDbDictionary
281
     1
  3
CANNOSCALE
350
3874
  3
CMLEADERSTYLE
350
3873
  3
CTABLESTYLE
350
3872
  3
CVIEWDETAILSTYLE
350
399B
  3
CVIEWSECTIONSTYLE
350
399C
  3
DIMASSOC
350
3876
  3
INDEXCTL
350
3875
  3
SORTENTS
350
1836
  3
XCLIPFRAME
350
41B7
  0
DICTIONARY
  5
39B3
102
{ACAD_REACTORS
330
C
102
}
330
C
100
AcDbDictionary
281
     1
  0
XRECORD
  5
41BA
102
{ACAD_REACTORS
330
C
102
}
330
C
100
AcDbXrecord
280
     1
  1
DWGPROPS COOKIE
  2

  3

  4

  6

  7

  8
2020009
  9

300
=
301
=
302
=
303
=
304
=
305
=
306
=
307
=
308
=
309
=
 40
0.3923196527777778
 41
2453276.413761574
 42
2459971.675219907
  1

 90
        0
  0
DICTIONARY
  5
2E
102
{ACAD_REACTORS
330
2D
102
}
330
2D
100
AcDbDictionary
280
     1
281
     1
  0
DICTIONARY
  5
918
102
{ACAD_REACTORS
330
2D
102
}
330
2D
100
AcDbDictionary
281
     1
  0
XRECORD
  5
382A
102
{ACAD_REACTORS
330
3829
102
}
330
3829
100
AcDbXrecord
280
     1
290
     1
  0
XRECORD
  5
382C
102
{ACAD_REACTORS
330
382B
102
}
330
382B
100
AcDbXrecord
280
     1
290
     1
  0
XRECORD
  5
382E
102
{ACAD_REACTORS
330
382D
102
}
330
382D
100
AcDbXrecord
280
     1
290
     1
  0
XRECORD
  5
3830
102
{ACAD_REACTORS
330
382F
102
}
330
382F
100
AcDbXrecord
280
     1
290
     1
  0
XRECORD
  5
3832
102
{ACAD_REACTORS
330
3831
102
}
330
3831
100
AcDbXrecord
280
     1
290
     1
  0
XRECORD
  5
3834
102
{ACAD_REACTORS
330
3833
102
}
330
3833
100
AcDbXrecord
280
     1
290
     1
  0
XRECORD
  5
3836
102
{ACAD_REACTORS
330
3835
102
}
330
3835
100
AcDbXrecord
280
     1
290
     1
  0
XRECORD
  5
3838
102
{ACAD_REACTORS
330
3837
102
}
330
3837
100
AcDbXrecord
280
     1
290
     1
  0
XRECORD
  5
383A
102
{ACAD_REACTORS
330
3839
102
}
330
3839
100
AcDbXrecord
280
     1
290
     1
  0
XRECORD
  5
383C
102
{ACAD_REACTORS
330
383B
102
}
330
383B
100
AcDbXrecord
280
     1
290
     1
  0
SORTENTSTABLE
  5
1C63
102
{ACAD_REACTORS
330
1C62
102
}
330
1C62
100
AcDbSortentsTable
330
1F
331
24F1
  5
2502
331
24F2
  5
2511
331
24F4
  5
289F
331
24F5
  5
28A1
331
2502
  5
28B4
331
2511
  5
28B8
331
289F
  5
2A0E
331
28A1
  5
2A0F
331
28B4
  5
2A10
331
28B8
  5
2DF2
331
28BA
  5
2DF6
331
28BE
  5
2E02
331
28BF
  5
2E03
331
28C0
  5
2E04
331
28C1
  5
2E05
331
28CA
  5
2E06
331
28D5
  5
2E09
331
28D6
  5
2E0A
331
28EA
  5
2E0B
331
28EB
  5
2E0C
331
28EC
  5
2E0D
331
28ED
  5
2F46
331
28EE
  5
2F47
331
2A0D
  5
2F4A
331
2A0E
  5
2F4D
331
2A0F
  5
2F53
331
2A10
  5
2F54
331
2A15
  5
2F55
331
2CAE
  5
2F5D
331
2DF0
  5
2F5E
331
2DF1
  5
2F5F
331
2DF2
  5
311D
331
2DF6
  5
313D
331
2DF7
  5
3143
331
2DF8
  5
3160
331
2E02
  5
32C3
331
2E03
  5
32C4
331
2E04
  5
32E1
331
2E05
  5
335E
331
2E06
  5
39B8
331
2E07
  5
39B9
331
2E08
  5
39BB
331
2E09
  5
39BC
331
2E0A
  5
3B78
331
2E0B
  5
3B8C
331
2E0C
  5
3BA4
331
2E0D
  5
3C87
331
2F46
  5
4019
331
2F47
  5
401A
331
2F4A
  5
4027
331
2F4D
  5
402E
331
2F53
  5
403D
331
2F54
  5
403E
331
2F55
  5
403F
331
2F56
  5
4040
331
2F57
  5
4041
331
2F58
  5
4042
331
2F5D
  5
404C
331
2F5E
  5
404D
331
2F5F
  5
404E
331
311D
  5
4061
331
313D
  5
4062
331
3143
  5
4071
331
3160
  5
4078
331
32C3
  5
4079
331
32C4
  5
407A
331
32E1
  5
4089
331
39B7
  5
41AB
331
39B8
  5
41AC
331
39BA
  5
41B1
331
39BB
  5
41B2
331
39BC
  5
41B3
331
3B8B
  5
41B4
331
3BA3
  5
41B5
331
3C04
  5
41B6
331
3C87
  5
408A
331
400F
  5
24F1
331
4010
  5
24F2
331
4011
  5
24F4
331
4012
  5
24F5
331
4013
  5
28BA
331
4014
  5
28BE
331
4015
  5
28BF
331
4016
  5
28C0
331
4017
  5
28C1
331
4018
  5
28CA
331
4019
  5
28D5
331
401A
  5
28D6
331
401B
  5
28EA
331
401C
  5
28EB
331
401D
  5
28EC
331
401E
  5
28ED
331
401F
  5
28EE
331
4020
  5
2A0D
331
4021
  5
2A15
331
4022
  5
2CAE
331
4023
  5
2DF0
331
4024
  5
2DF1
331
4025
  5
2DF7
331
4026
  5
2DF8
331
4027
  5
2E07
331
4028
  5
2E08
331
4029
  5
2F56
331
402A
  5
2F57
331
402B
  5
2F58
331
402C
  5
400F
331
402D
  5
4010
331
402E
  5
4011
331
402F
  5
4012
331
4030
  5
4013
331
4031
  5
4014
331
4032
  5
4015
331
4033
  5
4016
331
4034
  5
4017
331
4035
  5
4018
331
4036
  5
401B
331
4037
  5
401C
331
4038
  5
401D
331
4039
  5
401E
331
403A
  5
401F
331
403B
  5
4020
331
403C
  5
4021
331
403D
  5
4022
331
403E
  5
4023
331
403F
  5
4024
331
4040
  5
4025
331
4041
  5
4026
331
4042
  5
4028
331
4043
  5
4029
331
4044
  5
402A
331
4045
  5
402B
331
4046
  5
402C
331
4047
  5
402D
331
4048
  5
402F
331
4049
  5
4030
331
404A
  5
4031
331
404B
  5
4032
331
404C
  5
4033
331
404D
  5
4034
331
404E
  5
4035
331
404F
  5
4036
331
4050
  5
4037
331
4051
  5
4038
331
4052
  5
4039
331
4053
  5
403A
331
4054
  5
403B
331
4055
  5
403C
331
4056
  5
4043
331
4057
  5
4044
331
4058
  5
4045
331
4059
  5
4046
331
405A
  5
4047
331
405B
  5
4048
331
405C
  5
4049
331
405D
  5
404A
331
405E
  5
404B
331
405F
  5
404F
331
4060
  5
4050
331
4061
  5
4051
331
4062
  5
4052
331
4063
  5
4053
331
4064
  5
4054
331
4065
  5
4055
331
4066
  5
4056
331
4067
  5
4057
331
4068
  5
4058
331
4069
  5
4059
331
406A
  5
405A
331
406B
  5
405B
331
406C
  5
405C
331
406D
  5
405D
331
406E
  5
405E
331
406F
  5
405F
331
4070
  5
4060
331
4071
  5
4063
331
4072
  5
4064
331
4073
  5
4065
331
4074
  5
4066
331
4075
  5
4067
331
4076
  5
4068
331
4077
  5
4069
331
4078
  5
406A
331
4079
  5
406B
331
407A
  5
406C
331
407B
  5
406D
331
407C
  5
406E
331
407D
  5
406F
331
407E
  5
4070
331
407F
  5
4072
331
4080
  5
4073
331
4081
  5
4074
331
4082
  5
4075
331
4083
  5
4076
331
4084
  5
4077
331
4085
  5
407B
331
4086
  5
407C
331
4087
  5
407D
331
4088
  5
407E
331
4089
  5
407F
331
408A
  5
4080
331
408B
  5
4081
331
408C
  5
4082
331
408D
  5
4083
331
408E
  5
4084
331
408F
  5
4085
331
4090
  5
4086
331
4091
  5
4087
331
4092
  5
4088
331
4093
  5
408B
331
4094
  5
408C
331
4095
  5
408D
331
4096
  5
408E
331
4097
  5
408F
331
4098
  5
4090
331
4099
  5
4091
331
409A
  5
4092
331
409B
  5
4093
331
409C
  5
4094
331
409D
  5
4095
331
409E
  5
4096
331
409F
  5
4097
331
40A0
  5
4098
331
40A1
  5
4099
331
40A2
  5
409A
331
40A3
  5
409B
331
40A4
  5
409C
331
40A5
  5
409D
331
40A6
  5
409E
331
40A7
  5
409F
331
40A8
  5
40A0
331
40A9
  5
40A1
331
40AA
  5
40A2
331
40AB
  5
40A3
331
40AC
  5
40A4
331
40AD
  5
40A5
331
40AE
  5
40A6
331
40AF
  5
40A7
331
40B0
  5
40A8
331
40B1
  5
40A9
331
40B2
  5
40AA
331
40B3
  5
40AB
331
40B4
  5
40AC
331
40B5
  5
40AD
331
40B6
  5
40AE
331
40B7
  5
40AF
331
40B8
  5
40B0
331
40B9
  5
40B1
331
40BA
  5
40B2
331
40BB
  5
40B3
331
40BC
  5
40B4
331
40BD
  5
40B5
331
40BE
  5
40B6
331
40BF
  5
40B7
331
40C0
  5
40B8
331
40C1
  5
40B9
331
40C2
  5
40BA
331
40C3
  5
40BB
331
40C4
  5
40BC
331
40C5
  5
40BD
331
40C6
  5
40BE
331
40C7
  5
40BF
331
40C8
  5
40C0
331
40C9
  5
40C1
331
40CA
  5
40C2
331
40CB
  5
40C3
331
40CC
  5
40C4
331
40CD
  5
40C5
331
40CE
  5
40C6
331
40CF
  5
40C7
331
40D0
  5
40C8
331
40D1
  5
40C9
331
40D2
  5
40CA
331
40D3
  5
40CB
331
40D4
  5
40CC
331
40D5
  5
40CD
331
40D6
  5
40CE
331
40D7
  5
40CF
331
40D8
  5
40D0
331
40D9
  5
40D1
331
40DA
  5
40D2
331
40DB
  5
40D3
331
40DC
  5
40D4
331
40DD
  5
40D5
331
40DE
  5
40D6
331
40DF
  5
40D7
331
40E0
  5
40D8
331
40E1
  5
40D9
331
40E2
  5
40DA
331
40E3
  5
40DB
331
40E4
  5
40DC
331
40E5
  5
40DD
331
40E6
  5
40DE
331
40E7
  5
40DF
331
40E8
  5
40E0
331
40E9
  5
40E1
331
40EA
  5
40E2
331
40EB
  5
40E3
331
40EC
  5
40E4
331
40ED
  5
40E5
331
40EE
  5
40E6
331
40EF
  5
40E7
331
40F0
  5
40E8
331
40F1
  5
40E9
331
40F2
  5
40EA
331
40F3
  5
40EB
331
40F4
  5
40EC
331
40F5
  5
40ED
331
40F6
  5
40EE
331
40F7
  5
40EF
331
40F8
  5
40F0
331
40F9
  5
40F1
331
40FA
  5
40F2
331
40FB
  5
40F3
331
40FC
  5
40F4
331
40FD
  5
40F5
331
40FE
  5
40F6
331
40FF
  5
40F7
331
4100
  5
40F8
331
4101
  5
40F9
331
4102
  5
40FA
331
4103
  5
40FB
331
4104
  5
40FC
331
4105
  5
40FD
331
4106
  5
40FE
331
4107
  5
40FF
331
4108
  5
4100
331
4109
  5
4101
331
410A
  5
4102
331
410B
  5
4103
331
410C
  5
4104
331
410D
  5
4105
331
410E
  5
4106
331
410F
  5
4107
331
4110
  5
4108
331
4111
  5
4109
331
4112
  5
410A
331
4113
  5
410B
331
4114
  5
410C
331
4115
  5
410D
331
4116
  5
410E
331
4117
  5
410F
331
4118
  5
4110
331
4119
  5
4111
331
411A
  5
4112
331
411B
  5
4113
331
411C
  5
4114
331
411D
  5
4115
331
411E
  5
4116
331
411F
  5
4117
331
4120
  5
4118
331
4121
  5
4119
331
4122
  5
411A
331
4123
  5
411B
331
4124
  5
411C
331
4125
  5
411D
331
4126
  5
411E
331
4127
  5
411F
331
4128
  5
4120
331
4129
  5
4121
331
412A
  5
4122
331
412B
  5
4123
331
412C
  5
4124
331
412D
  5
4125
331
412E
  5
4126
331
412F
  5
4127
331
4130
  5
4128
331
4131
  5
4129
331
4132
  5
412A
331
4133
  5
412B
331
4134
  5
412C
331
4135
  5
412D
331
4136
  5
412E
331
4137
  5
412F
331
4138
  5
4130
331
4139
  5
4131
331
413A
  5
4132
331
413B
  5
4133
331
413C
  5
4134
331
413D
  5
4135
331
413E
  5
4136
331
413F
  5
4137
331
4140
  5
4138
331
4141
  5
4139
331
4142
  5
413A
331
4143
  5
413B
331
4144
  5
413C
331
4145
  5
413D
331
4146
  5
413E
331
4147
  5
413F
331
4148
  5
4140
331
4149
  5
4141
331
414A
  5
4142
331
414B
  5
4143
331
414C
  5
4144
331
414D
  5
4145
331
414E
  5
4146
331
414F
  5
4147
331
4150
  5
4148
331
4151
  5
4149
331
4152
  5
414A
331
4153
  5
414B
331
4154
  5
414C
331
4155
  5
414D
331
4156
  5
414E
331
4157
  5
414F
331
4158
  5
4150
331
4159
  5
4151
331
415A
  5
4152
331
415B
  5
4153
331
415C
  5
4154
331
415D
  5
4155
331
415E
  5
4156
331
415F
  5
4157
331
4160
  5
4158
331
4161
  5
4159
331
4162
  5
415A
331
4163
  5
415B
331
4164
  5
415C
331
4165
  5
415D
331
4166
  5
415E
331
4167
  5
415F
331
4168
  5
4160
331
4169
  5
4161
331
416A
  5
4162
331
416B
  5
4163
331
416C
  5
4164
331
416D
  5
4165
331
416E
  5
4166
331
416F
  5
4167
331
4170
  5
4168
331
4171
  5
4169
331
4172
  5
416A
331
4173
  5
416B
331
4174
  5
416C
331
4175
  5
416D
331
4176
  5
416E
331
4177
  5
416F
331
4178
  5
4170
331
4179
  5
4171
331
417A
  5
4172
331
417B
  5
4173
331
417C
  5
4174
331
417D
  5
4175
331
417E
  5
4176
331
417F
  5
4177
331
4180
  5
4178
331
4181
  5
4179
331
4182
  5
417A
331
4183
  5
417B
331
4184
  5
417C
331
4185
  5
417D
331
4186
  5
417E
331
4187
  5
417F
331
4188
  5
4180
331
4189
  5
4181
331
418A
  5
4182
331
418B
  5
4183
331
418C
  5
4184
331
418D
  5
4185
331
418E
  5
4186
331
418F
  5
4187
331
4190
  5
4188
331
4191
  5
4189
331
4192
  5
418A
331
4193
  5
418B
331
4194
  5
418C
331
4195
  5
418D
331
4196
  5
418E
331
4197
  5
418F
331
4198
  5
4190
331
4199
  5
4191
331
419A
  5
4192
331
419B
  5
4193
331
419C
  5
4194
331
419D
  5
4195
331
419E
  5
4196
331
419F
  5
4197
331
41A0
  5
4198
331
41A1
  5
4199
331
41A2
  5
419A
331
41A3
  5
419B
331
41A4
  5
419C
331
41A5
  5
419D
331
41A6
  5
419E
331
41A7
  5
419F
331
41A8
  5
41A0
331
41A9
  5
41A1
331
41AA
  5
41A2
331
41AB
  5
41A3
331
41AC
  5
41A4
331
41AD
  5
41A5
331
41AE
  5
41A6
331
41AF
  5
41A7
331
41B0
  5
41A8
331
41B1
  5
41A9
331
41B2
  5
41AA
331
41B3
  5
41AD
331
41B4
  5
41AE
331
41B5
  5
41AF
331
41B6
  5
41B0
  0
ACDBDETAILVIEWSTYLE
  5
392A
102
{ACAD_XDICTIONARY
360
41F9
102
}
102
{ACAD_REACTORS
330
3929
102
}
330
3929
100
AcDbModelDocViewStyle
 70
     0
  3
Metric50
290
     0
100
AcDbDetailViewStyle
 70
     0
 71
     0
 90
        3
 71
     1
340
11
 40
5.0
340
0
 40
5.0
300

 40
0.0
280
     1
 71
     2
340
16
 90
       25
 71
     3
340
11
 40
5.0
 90
        0
 40
15.0
 90
        1
300
%<\AcVar ViewDetailId>% (%<\AcVar ViewScale \f "%sn">%)
 71
     4
340
16
 90
       25
340
16
 90
       25
280
     0
1001
ACAD
1000
AcRTDxfName
1000
ACDBDETAILVIEWSTYLE
1000
AcRTDxfName
1000
ACDBDETAILVIEWSTYLE
  0
LAYOUT
  5
22
102
{ACAD_XDICTIONARY
360
41BB
102
}
102
{ACAD_REACTORS
330
1A
102
}
330
1A
100
AcDbPlotSettings
  1

  2
Canon LBP3800 LIPSLX
  4
A4
  6

 40
5.873749732971191
 41
5.873747825622558
 42
5.873748779296875
 43
5.873748779296875
 44
209.9733276367187
 45
296.9259948730469
 46
0.61
 47
0.59
 48
444.9983463649091
 49
-1090.000000918417
140
2395.001653364909
141
1659.999999081583
142
1.0
143
10.0
 70
 11940
 72
     1
 73
     1
 74
     2
  7
monochrome.ctb
 75
     0
147
0.1
148
0.0
149
0.0
100
AcDbLayout
  1
Model
 70
     1
 71
     0
 10
0.0
 20
0.0
 11
12.0
 21
9.0
 12
0.0
 22
0.0
 32
0.0
 14
0.0
 24
0.0
 34
0.0
 15
0.0
 25
0.0
 35
0.0
146
0.0
 13
0.0
 23
0.0
 33
0.0
 16
1.0
 26
0.0
 36
0.0
 17
0.0
 27
1.0
 37
0.0
 76
     0
330
1F
331
37CE
  0
LAYOUT
  5
1CD1
102
{ACAD_XDICTIONARY
360
41BD
102
}
102
{ACAD_REACTORS
330
1A
102
}
330
1A
100
AcDbPlotSettings
  1

  2
\\ek_srv\Canon LBP-880 LIPS4
  4

  6

 40
0.0
 41
0.0
 42
0.0
 43
0.0
 44
0.0
 45
0.0
 46
0.0
 47
0.0
 48
0.0
 49
0.0
140
0.0
141
0.0
142
1.0
143
1.0
 70
   688
 72
     0
 73
     0
 74
     5
  7
monochrome.ctb
 75
    16
147
1.0
148
0.0
149
0.0
100
AcDbLayout
  1
\U+FF9A\U+FF72\U+FF71\U+FF73\U+FF841
 70
     1
 71
     1
 10
0.0
 20
0.0
 11
12.0
 21
9.0
 12
0.0
 22
0.0
 32
0.0
 14
0.0
 24
0.0
 34
0.0
 15
0.0
 25
0.0
 35
0.0
146
0.0
 13
0.0
 23
0.0
 33
0.0
 16
1.0
 26
0.0
 36
0.0
 17
0.0
 27
1.0
 37
0.0
 76
     0
330
1CD0
  0
MATERIAL
  5
37D9
102
{ACAD_XDICTIONARY
360
37DA
102
}
102
{ACAD_REACTORS
330
37D0
102
}
330
37D0
100
AcDbMaterial
  1
ByBlock
 72
     0
 43
0.0008202099737533
 43
0.0
 43
0.0
 43
0.0
 43
0.0
 43
0.0008202099737533
 43
0.0
 43
0.0
 43
0.0
 43
0.0
 43
1.0
 43
0.0
 43
0.0
 43
0.0
 43
0.0
 43
1.0
 77
     0
 47
0.0008202099737533
 47
0.0
 47
0.0
 47
0.0
 47
0.0
 47
0.0008202099737533
 47
0.0
 47
0.0
 47
0.0
 47
0.0
 47
1.0
 47
0.0
 47
0.0
 47
0.0
 47
0.0
 47
1.0
171
     0
 49
0.0008202099737533
 49
0.0
 49
0.0
 49
0.0
 49
0.0
 49
0.0008202099737533
 49
0.0
 49
0.0
 49
0.0
 49
0.0
 49
1.0
 49
0.0
 49
0.0
 49
0.0
 49
0.0
 49
1.0
175
     0
142
0.0008202099737533
142
0.0
142
0.0
142
0.0
142
0.0
142
0.0008202099737533
142
0.0
142
0.0
142
0.0
142
0.0
142
1.0
142
0.0
142
0.0
142
0.0
142
0.0
142
1.0
179
     0
144
0.0008202099737533
144
0.0
144
0.0
144
0.0
144
0.0
144
0.0008202099737533
144
0.0
144
0.0
144
0.0
144
0.0
144
1.0
144
0.0
144
0.0
144
0.0
144
0.0
144
1.0
147
0.0008202099737533
147
0.0
147
0.0
147
0.0
147
0.0
147
0.0008202099737533
147
0.0
147
0.0
147
0.0
147
0.0
147
1.0
147
0.0
147
0.0
147
0.0
147
0.0
147
1.0
  0
MATERIAL
  5
37D1
102
{ACAD_XDICTIONARY
360
37D2
102
}
102
{ACAD_REACTORS
330
37D0
102
}
330
37D0
100
AcDbMaterial
  1
ByLayer
 72
     0
 43
0.0008202099737533
 43
0.0
 43
0.0
 43
0.0
 43
0.0
 43
0.0008202099737533
 43
0.0
 43
0.0
 43
0.0
 43
0.0
 43
1.0
 43
0.0
 43
0.0
 43
0.0
 43
0.0
 43
1.0
 77
     0
 47
0.0008202099737533
 47
0.0
 47
0.0
 47
0.0
 47
0.0
 47
0.0008202099737533
 47
0.0
 47
0.0
 47
0.0
 47
0.0
 47
1.0
 47
0.0
 47
0.0
 47
0.0
 47
0.0
 47
1.0
171
     0
 49
0.0008202099737533
 49
0.0
 49
0.0
 49
0.0
 49
0.0
 49
0.0008202099737533
 49
0.0
 49
0.0
 49
0.0
 49
0.0
 49
1.0
 49
0.0
 49
0.0
 49
0.0
 49
0.0
 49
1.0
175
     0
142
0.0008202099737533
142
0.0
142
0.0
142
0.0
142
0.0
142
0.0008202099737533
142
0.0
142
0.0
142
0.0
142
0.0
142
1.0
142
0.0
142
0.0
142
0.0
142
0.0
142
1.0
179
     0
144
0.0008202099737533
144
0.0
144
0.0
144
0.0
144
0.0
144
0.0008202099737533
144
0.0
144
0.0
144
0.0
144
0.0
144
1.0
144
0.0
144
0.0
144
0.0
144
0.0
144
1.0
147
0.0008202099737533
147
0.0
147
0.0
147
0.0
147
0.0
147
0.0008202099737533
147
0.0
147
0.0
147
0.0
147
0.0
147
1.0
147
0.0
147
0.0
147
0.0
147
0.0
147
1.0
  0
MATERIAL
  5
37E1
102
{ACAD_XDICTIONARY
360
37E2
102
}
102
{ACAD_REACTORS
330
37D0
102
}
330
37D0
100
AcDbMaterial
  1
Global
 72
     0
 43
0.0008202099737533
 43
0.0
 43
0.0
 43
0.0
 43
0.0
 43
0.0008202099737533
 43
0.0
 43
0.0
 43
0.0
 43
0.0
 43
1.0
 43
0.0
 43
0.0
 43
0.0
 43
0.0
 43
1.0
 77
     0
 47
0.0008202099737533
 47
0.0
 47
0.0
 47
0.0
 47
0.0
 47
0.0008202099737533
 47
0.0
 47
0.0
 47
0.0
 47
0.0
 47
1.0
 47
0.0
 47
0.0
 47
0.0
 47
0.0
 47
1.0
171
     0
 49
0.0008202099737533
 49
0.0
 49
0.0
 49
0.0
 49
0.0
 49
0.0008202099737533
 49
0.0
 49
0.0
 49
0.0
 49
0.0
 49
1.0
 49
0.0
 49
0.0
 49
0.0
 49
0.0
 49
1.0
175
     0
142
0.0008202099737533
142
0.0
142
0.0
142
0.0
142
0.0
142
0.0008202099737533
142
0.0
142
0.0
142
0.0
142
0.0
142
1.0
142
0.0
142
0.0
142
0.0
142
0.0
142
1.0
179
     0
144
0.0008202099737533
144
0.0
144
0.0
144
0.0
144
0.0
144
0.0008202099737533
144
0.0
144
0.0
144
0.0
144
0.0
144
1.0
144
0.0
144
0.0
144
0.0
144
0.0
144
1.0
147
0.0008202099737533
147
0.0
147
0.0
147
0.0
147
0.0
147
0.0008202099737533
147
0.0
147
0.0
147
0.0
147
0.0
147
1.0
147
0.0
147
0.0
147
0.0
147
0.0
147
1.0
  0
MLEADERSTYLE
  5
3813
102
{ACAD_REACTORS
330
3812
102
}
330
3812
100
AcDbMLeaderStyle
170
     2
171
     1
172
     0
 90
        2
 40
0.0
 41
0.0
173
     1
 91
-1056964608
340
14
 92
       -2
290
     1
 42
2.0
291
     1
 43
0.36
  3
Standard
 44
4.0
300

342
11
174
     1
178
     6
175
     1
176
     0
 93
-1056964608
 45
4.0
292
     0
297
     0
 46
4.0
 94
-1056964608
 47
1.0
 49
1.0
140
1.0
293
     1
141
0.0
294
     1
177
     0
142
1.0
295
     0
296
     0
143
0.125
1001
ACAD_MLEADERVER
1070
     2
  0
MLINESTYLE
  5
18
102
{ACAD_REACTORS
330
17
102
}
330
17
100
AcDbMlineStyle
  2
STANDARD
 70
     0
  3

 62
   256
 51
90.0
 52
90.0
 71
     2
 49
0.5
 62
   256
  6
BYLAYER
 49
-0.5
 62
   256
  6
BYLAYER
  0
ACDBPLACEHOLDER
  5
F
102
{ACAD_REACTORS
330
E
102
}
330
E
  0
ACDBPLACEHOLDER
  5
29
102
{ACAD_REACTORS
330
E
102
}
330
E
  0
SCALE
  5
3801
102
{ACAD_REACTORS
330
3800
102
}
330
3800
100
AcDbScale
 70
     0
300
1:1
140
1.0
141
1.0
290
     1
  0
SCALE
  5
3802
102
{ACAD_REACTORS
330
3800
102
}
330
3800
100
AcDbScale
 70
     0
300
1:2
140
1.0
141
2.0
290
     0
  0
SCALE
  5
3803
102
{ACAD_REACTORS
330
3800
102
}
330
3800
100
AcDbScale
 70
     0
300
1:4
140
1.0
141
4.0
290
     0
  0
SCALE
  5
3804
102
{ACAD_REACTORS
330
3800
102
}
330
3800
100
AcDbScale
 70
     0
300
1:5
140
1.0
141
5.0
290
     0
  0
SCALE
  5
3805
102
{ACAD_REACTORS
330
3800
102
}
330
3800
100
AcDbScale
 70
     0
300
1:8
140
1.0
141
8.0
290
     0
  0
SCALE
  5
3806
102
{ACAD_REACTORS
330
3800
102
}
330
3800
100
AcDbScale
 70
     0
300
1:10
140
1.0
141
10.0
290
     0
  0
SCALE
  5
3807
102
{ACAD_REACTORS
330
3800
102
}
330
3800
100
AcDbScale
 70
     0
300
1:16
140
1.0
141
16.0
290
     0
  0
SCALE
  5
3808
102
{ACAD_REACTORS
330
3800
102
}
330
3800
100
AcDbScale
 70
     0
300
1:20
140
1.0
141
20.0
290
     0
  0
SCALE
  5
3809
102
{ACAD_REACTORS
330
3800
102
}
330
3800
100
AcDbScale
 70
     0
300
1:30
140
1.0
141
30.0
290
     0
  0
SCALE
  5
380A
102
{ACAD_REACTORS
330
3800
102
}
330
3800
100
AcDbScale
 70
     0
300
1:40
140
1.0
141
40.0
290
     0
  0
SCALE
  5
380B
102
{ACAD_REACTORS
330
3800
102
}
330
3800
100
AcDbScale
 70
     0
300
1:50
140
1.0
141
50.0
290
     0
  0
SCALE
  5
380C
102
{ACAD_REACTORS
330
3800
102
}
330
3800
100
AcDbScale
 70
     0
300
1:100
140
1.0
141
100.0
290
     0
  0
SCALE
  5
380D
102
{ACAD_REACTORS
330
3800
102
}
330
3800
100
AcDbScale
 70
     0
300
2:1
140
2.0
141
1.0
290
     0
  0
SCALE
  5
380E
102
{ACAD_REACTORS
330
3800
102
}
330
3800
100
AcDbScale
 70
     0
300
4:1
140
4.0
141
1.0
290
     0
  0
SCALE
  5
380F
102
{ACAD_REACTORS
330
3800
102
}
330
3800
100
AcDbScale
 70
     0
300
8:1
140
8.0
141
1.0
290
     0
  0
SCALE
  5
3810
102
{ACAD_REACTORS
330
3800
102
}
330
3800
100
AcDbScale
 70
     0
300
10:1
140
10.0
141
1.0
290
     0
  0
SCALE
  5
3811
102
{ACAD_REACTORS
330
3800
102
}
330
3800
100
AcDbScale
 70
     0
300
100:1
140
100.0
141
1.0
290
     0
  0
ACDBSECTIONVIEWSTYLE
  5
3928
102
{ACAD_XDICTIONARY
360
41F7
102
}
102
{ACAD_REACTORS
330
3927
102
}
330
3927
100
AcDbModelDocViewStyle
 70
     0
  3
Metric50
290
     0
100
AcDbSectionViewStyle
 70
     0
 71
     0
 90
      102
 71
     1
340
11
 40
5.0
340
0
340
0
 40
5.0
300
I, O, Q, S, X, Z
 40
10.0
 90
        0
 40
2.5
 90
        0
 71
     2
340
16
 90
       25
340
16
 90
       50
 40
5.0
 40
2.5
 40
5.0
 71
     3
340
11
 40
5.0
 90
        0
 40
15.0
 90
        1
300
%<\AcVar ViewSectionStartId>%-%<\AcVar ViewSectionEndId>% (%<\AcVar ViewScale \f "%sn">%)
 71
     4
300
ANSI31
 40
1.0
 90
        0
290
     0
290
     0
 90
        6
 40
0.0
 40
1.570796326794896
 40
0.2617993877991494
 40
1.308996938995747
 40
-0.2617993877991494
 40
1.832595714594046
1001
ACAD
1000
AcRTDxfName
1000
ACDBSECTIONVIEWSTYLE
1000
AcRTDxfName
1000
ACDBSECTIONVIEWSTYLE
  0
TABLESTYLE
  5
37FF
102
{ACAD_XDICTIONARY
360
383D
102
}
102
{ACAD_REACTORS
330
37FE
102
}
330
37FE
100
AcDbTableStyle
  3
Standard
 70
     0
 71
     0
 40
1.5
 41
1.5
280
     0
281
     0
  7
Standard
140
4.5
170
     2
 62
     0
 63
     7
283
     0
274
    -2
284
     1
 64
     0
275
    -2
285
     1
 65
     0
276
    -2
286
     1
 66
     0
277
    -2
287
     1
 67
     0
278
    -2
288
     1
 68
     0
279
    -2
289
     1
 69
     0
  7
Standard
140
6.0
170
     5
 62
     0
 63
     7
283
     0
274
    -2
284
     1
 64
     0
275
    -2
285
     1
 65
     0
276
    -2
286
     1
 66
     0
277
    -2
287
     1
 67
     0
278
    -2
288
     1
 68
     0
279
    -2
289
     1
 69
     0
  7
Standard
140
4.5
170
     5
 62
     0
 63
     7
283
     0
274
    -2
284
     1
 64
     0
275
    -2
285
     1
 65
     0
276
    -2
286
     1
 66
     0
277
    -2
287
     1
 67
     0
278
    -2
288
     1
 68
     0
279
    -2
289
     1
 69
     0
  0
VISUALSTYLE
  5
37EF
102
{ACAD_XDICTIONARY
360
41CC
102
}
102
{ACAD_REACTORS
330
37E9
102
}
330
37E9
100
AcDbVisualStyle
  2
2dWireframe
 70
     4
 71
     0
 72
     2
 73
     0
 90
        0
 40
-0.6
 41
-30.0
 62
     5
 63
     7
 74
     1
 91
        4
 64
     7
 65
   257
 75
     1
175
     1
 42
1.0
 92
        0
 66
   257
 43
1.0
 76
     1
 77
     6
 78
     2
 67
     7
 79
     5
170
     0
171
     0
290
     0
174
     0
 93
        1
 44
0.0
173
     0
291
     0
 45
0.0
1001
ACAD
1000
AcDbSavedByObjectVersion
1070
     0
  0
VISUALSTYLE
  5
37F1
102
{ACAD_XDICTIONARY
360
41D0
102
}
102
{ACAD_REACTORS
330
37E9
102
}
330
37E9
100
AcDbVisualStyle
  2
3D Hidden
 70
     6
 71
     1
 72
     2
 73
     2
 90
        0
 40
-0.6
 41
-30.0
 62
     5
 63
     7
 74
     2
 91
        2
 64
     7
 65
   257
 75
     2
175
     1
 42
179.0
 92
        0
 66
   257
 43
1.0
 76
     1
 77
     6
 78
     2
 67
     7
 79
     3
170
     0
171
     0
290
     0
174
     0
 93
        1
 44
0.0
173
     0
291
     0
 45
0.0
1001
ACAD
1000
AcDbSavedByObjectVersion
1070
     0
  0
VISUALSTYLE
  5
37F0
102
{ACAD_XDICTIONARY
360
41CE
102
}
102
{ACAD_REACTORS
330
37E9
102
}
330
37E9
100
AcDbVisualStyle
  2
3dWireframe
 70
     5
 71
     0
 72
     2
 73
     0
 90
        0
 40
-0.6
 41
-30.0
 62
     5
 63
     7
 74
     1
 91
        4
 64
     7
 65
   257
 75
     1
175
     1
 42
1.0
 92
        0
 66
   257
 43
1.0
 76
     1
 77
     6
 78
     2
 67
     7
 79
     5
170
     0
171
     0
290
     0
174
     0
 93
        1
 44
0.0
173
     0
291
     0
 45
0.0
1001
ACAD
1000
AcDbSavedByObjectVersion
1070
     0
  0
VISUALSTYLE
  5
37EE
102
{ACAD_XDICTIONARY
360
41CA
102
}
102
{ACAD_REACTORS
330
37E9
102
}
330
37E9
100
AcDbVisualStyle
  2
Basic
 70
     7
 71
     1
 72
     0
 73
     1
 90
        0
 40
-0.6
 41
-30.0
 62
     5
 63
     7
 74
     0
 91
        4
 64
     7
 65
   257
 75
     1
175
     1
 42
1.0
 92
        8
 66
     7
 43
1.0
 76
     1
 77
     6
 78
     2
 67
     7
 79
     5
170
     0
171
     0
290
     0
174
     0
 93
        1
 44
0.0
173
     0
291
     1
 45
0.0
1001
ACAD
1000
AcDbSavedByObjectVersion
1070
     0
  0
VISUALSTYLE
  5
37F5
102
{ACAD_XDICTIONARY
360
41D8
102
}
102
{ACAD_REACTORS
330
37E9
102
}
330
37E9
100
AcDbVisualStyle
  2
Brighten
 70
    12
 71
     2
 72
     2
 73
     0
 90
        0
 40
-0.6
 41
-30.0
 62
     5
 63
     7
 74
     1
 91
        4
 64
     7
 65
   257
 75
     1
175
     1
 42
1.0
 92
        8
 66
     7
 43
1.0
 76
     1
 77
     6
 78
     2
 67
     7
 79
     5
170
     0
171
     0
290
     0
174
     0
 93
        1
 44
50.0
173
     0
291
     1
 45
0.0
1001
ACAD
1000
AcDbSavedByObjectVersion
1070
     0
  0
VISUALSTYLE
  5
37F9
102
{ACAD_XDICTIONARY
360
41E0
102
}
102
{ACAD_REACTORS
330
37E9
102
}
330
37E9
100
AcDbVisualStyle
  2
ColorChange
 70
    16
 71
     2
 72
     2
 73
     3
 90
        0
 40
-0.6
 41
-30.0
 62
     5
 63
     8
 74
     1
 91
        4
 64
     7
 65
   257
 75
     1
175
     1
 42
1.0
 92
        8
 66
     8
 43
1.0
 76
     1
 77
     6
 78
     2
 67
     7
 79
     5
170
     0
171
     0
290
     0
174
     0
 93
        1
 44
0.0
173
     0
291
     1
 45
0.0
1001
ACAD
1000
AcDbSavedByObjectVersion
1070
     0
  0
VISUALSTYLE
  5
37F2
102
{ACAD_XDICTIONARY
360
41D2
102
}
102
{ACAD_REACTORS
330
37E9
102
}
330
37E9
100
AcDbVisualStyle
  2
Conceptual
 70
     9
 71
     3
 72
     2
 73
     0
 90
        0
 40
-0.6
 41
-30.0
 62
     5
 63
     7
 74
     2
 91
        2
 64
     7
 65
   257
 75
     1
175
     1
 42
179.0
 92
        8
 66
     7
 43
1.0
 76
     1
 77
     6
 78
     2
 67
     7
 79
     3
170
     0
171
     0
290
     0
174
     0
 93
        1
 44
0.0
173
     0
291
     0
 45
0.0
1001
ACAD
1000
AcDbSavedByObjectVersion
1070
     0
  0
VISUALSTYLE
  5
37F4
102
{ACAD_XDICTIONARY
360
41D6
102
}
102
{ACAD_REACTORS
330
37E9
102
}
330
37E9
100
AcDbVisualStyle
  2
Dim
 70
    11
 71
     2
 72
     2
 73
     0
 90
        0
 40
-0.6
 41
-30.0
 62
     5
 63
     7
 74
     1
 91
        4
 64
     7
 65
   257
 75
     1
175
     1
 42
1.0
 92
        8
 66
     7
 43
1.0
 76
     1
 77
     6
 78
     2
 67
     7
 79
     5
170
     0
171
     0
290
     0
174
     0
 93
        1
 44
-50.0
173
     0
291
     1
 45
0.0
1001
ACAD
1000
AcDbSavedByObjectVersion
1070
     0
  0
VISUALSTYLE
  5
37FC
102
{ACAD_XDICTIONARY
360
41E6
102
}
102
{ACAD_REACTORS
330
37E9
102
}
330
37E9
100
AcDbVisualStyle
  2
EdgeColorOff
 70
    22
 71
     2
 72
     2
 73
     0
 90
        0
 40
-0.6
 41
-30.0
 62
     5
 63
     7
 74
     1
 91
        4
 64
     7
 65
   257
 75
     1
175
     1
 42
1.0
 92
        8
 66
     7
 43
1.0
 76
     1
 77
     6
 78
     2
 67
     7
 79
     5
170
     0
171
     0
290
     0
174
     0
 93
        1
 44
0.0
173
     0
291
     1
 45
0.0
1001
ACAD
1000
AcDbSavedByObjectVersion
1070
     0
  0
VISUALSTYLE
  5
37F8
102
{ACAD_XDICTIONARY
360
41DE
102
}
102
{ACAD_REACTORS
330
37E9
102
}
330
37E9
100
AcDbVisualStyle
  2
Facepattern
 70
    15
 71
     2
 72
     2
 73
     0
 90
        0
 40
-0.6
 41
-30.0
 62
     5
 63
     7
 74
     1
 91
        4
 64
     7
 65
   257
 75
     1
175
     1
 42
1.0
 92
        8
 66
     7
 43
1.0
 76
     1
 77
     6
 78
     2
 67
     7
 79
     5
170
     0
171
     0
290
     0
174
     0
 93
        1
 44
0.0
173
     0
291
     1
 45
0.0
1001
ACAD
1000
AcDbSavedByObjectVersion
1070
     0
  0
VISUALSTYLE
  5
37EA
102
{ACAD_XDICTIONARY
360
41C2
102
}
102
{ACAD_REACTORS
330
37E9
102
}
330
37E9
100
AcDbVisualStyle
  2
Flat
 70
     0
 71
     2
 72
     1
 73
     1
 90
        2
 40
-0.6
 41
30.0
 62
     5
 63
     7
 74
     0
 91
        4
 64
     7
 65
   257
 75
     1
175
     1
 42
1.0
 92
        8
 66
     7
 43
1.0
 76
     1
 77
     6
 78
     2
 67
     7
 79
     5
170
     0
171
     0
290
     0
174
     0
 93
       13
 44
0.0
173
     0
291
     1
 45
0.0
1001
ACAD
1000
AcDbSavedByObjectVersion
1070
     0
  0
VISUALSTYLE
  5
37EB
102
{ACAD_XDICTIONARY
360
41C4
102
}
102
{ACAD_REACTORS
330
37E9
102
}
330
37E9
100
AcDbVisualStyle
  2
FlatWithEdges
 70
     1
 71
     2
 72
     1
 73
     1
 90
        2
 40
-0.6
 41
30.0
 62
     5
 63
     7
 74
     1
 91
        4
 64
     7
 65
   257
 75
     1
175
     1
 42
1.0
 92
        0
 66
   257
 43
1.0
 76
     1
 77
     6
 78
     2
 67
     7
 79
     5
170
     0
171
     0
290
     0
174
     0
 93
       13
 44
0.0
173
     0
291
     1
 45
0.0
1001
ACAD
1000
AcDbSavedByObjectVersion
1070
     0
  0
VISUALSTYLE
  5
37EC
102
{ACAD_XDICTIONARY
360
41C6
102
}
102
{ACAD_REACTORS
330
37E9
102
}
330
37E9
100
AcDbVisualStyle
  2
Gouraud
 70
     2
 71
     2
 72
     2
 73
     1
 90
        2
 40
-0.6
 41
30.0
 62
     5
 63
     7
 74
     0
 91
        4
 64
     7
 65
   257
 75
     1
175
     1
 42
1.0
 92
        0
 66
     7
 43
1.0
 76
     1
 77
     6
 78
     2
 67
     7
 79
     5
170
     0
171
     0
290
     0
174
     0
 93
       13
 44
0.0
173
     0
291
     1
 45
0.0
1001
ACAD
1000
AcDbSavedByObjectVersion
1070
     0
  0
VISUALSTYLE
  5
37ED
102
{ACAD_XDICTIONARY
360
41C8
102
}
102
{ACAD_REACTORS
330
37E9
102
}
330
37E9
100
AcDbVisualStyle
  2
GouraudWithEdges
 70
     3
 71
     2
 72
     2
 73
     1
 90
        2
 40
-0.6
 41
30.0
 62
     5
 63
     7
 74
     1
 91
        4
 64
     7
 65
   257
 75
     1
175
     1
 42
1.0
 92
        0
 66
   257
 43
1.0
 76
     1
 77
     6
 78
     2
 67
     7
 79
     5
170
     0
171
     0
290
     0
174
     0
 93
       13
 44
0.0
173
     0
291
     1
 45
0.0
1001
ACAD
1000
AcDbSavedByObjectVersion
1070
     0
  0
VISUALSTYLE
  5
3921
102
{ACAD_XDICTIONARY
360
41EB
102
}
102
{ACAD_REACTORS
330
37E9
102
}
330
37E9
100
AcDbVisualStyle
  2
Hidden
 70
     6
 71
     1
 72
     2
 73
     2
 90
        0
 40
-0.6
 41
-30.0
 62
     5
 63
     7
 74
     2
 91
        2
 64
     7
 65
   257
 75
     2
175
     1
 42
40.0
 92
        0
 66
   257
 43
1.0
 76
     1
 77
     6
 78
     2
 67
     7
 79
     3
170
     0
171
     0
290
     0
174
     0
 93
        1
 44
0.0
173
     0
291
     0
 45
0.0
1001
ACAD
1000
AcDbSavedByObjectVersion
1070
     0
  0
VISUALSTYLE
  5
37FA
102
{ACAD_XDICTIONARY
360
41E2
102
}
102
{ACAD_REACTORS
330
37E9
102
}
330
37E9
100
AcDbVisualStyle
  2
JitterOff
 70
    20
 71
     2
 72
     2
 73
     0
 90
        0
 40
-0.6
 41
-30.0
 62
     5
 63
     7
 74
     1
 91
        4
 64
     7
 65
   257
 75
     1
175
     1
 42
1.0
 92
       10
 66
     7
 43
1.0
 76
     1
 77
     6
 78
     2
 67
     7
 79
     5
170
     0
171
     0
290
     0
174
     0
 93
        1
 44
0.0
173
     0
291
     1
 45
0.0
1001
ACAD
1000
AcDbSavedByObjectVersion
1070
     0
  0
VISUALSTYLE
  5
37F7
102
{ACAD_XDICTIONARY
360
41DC
102
}
102
{ACAD_REACTORS
330
37E9
102
}
330
37E9
100
AcDbVisualStyle
  2
Linepattern
 70
    14
 71
     2
 72
     2
 73
     0
 90
        0
 40
-0.6
 41
-30.0
 62
     5
 63
     7
 74
     1
 91
        4
 64
     7
 65
   257
 75
     7
175
     7
 42
1.0
 92
        8
 66
     7
 43
1.0
 76
     1
 77
     6
 78
     2
 67
     7
 79
     5
170
     0
171
     0
290
     0
174
     0
 93
        1
 44
0.0
173
     0
291
     1
 45
0.0
1001
ACAD
1000
AcDbSavedByObjectVersion
1070
     0
  0
VISUALSTYLE
  5
37FB
102
{ACAD_XDICTIONARY
360
41E4
102
}
102
{ACAD_REACTORS
330
37E9
102
}
330
37E9
100
AcDbVisualStyle
  2
OverhangOff
 70
    21
 71
     2
 72
     2
 73
     0
 90
        0
 40
-0.6
 41
-30.0
 62
     5
 63
     7
 74
     1
 91
        4
 64
     7
 65
   257
 75
     1
175
     1
 42
1.0
 92
        9
 66
     7
 43
1.0
 76
     1
 77
     6
 78
     2
 67
     7
 79
     5
170
     0
171
     0
290
     0
174
     0
 93
        1
 44
0.0
173
     0
291
     1
 45
0.0
1001
ACAD
1000
AcDbSavedByObjectVersion
1070
     0
  0
VISUALSTYLE
  5
37F3
102
{ACAD_XDICTIONARY
360
41D4
102
}
102
{ACAD_REACTORS
330
37E9
102
}
330
37E9
100
AcDbVisualStyle
  2
Realistic
 70
     8
 71
     2
 72
     2
 73
     0
 90
        0
 40
-0.6
 41
-30.0
 62
     5
 63
     7
 74
     1
 91
        0
 64
     7
 65
   257
 75
     1
175
     1
 42
1.0
 92
        8
 66
     8
 43
1.0
 76
     1
 77
     6
 78
     2
 67
     7
 79
     5
170
     0
171
     0
290
     0
174
     0
 93
       13
 44
0.0
173
     0
291
     0
 45
0.0
1001
ACAD
1000
AcDbSavedByObjectVersion
1070
     0
  0
VISUALSTYLE
  5
3926
102
{ACAD_XDICTIONARY
360
41F5
102
}
102
{ACAD_REACTORS
330
37E9
102
}
330
37E9
100
AcDbVisualStyle
  2
Shaded
 70
    27
 71
     2
 72
     2
 73
     1
 90
        2
 40
-0.6
 41
30.0
 62
     5
 63
     7
 74
     0
 91
        4
 64
     7
 65
   257
 75
     1
175
     1
 42
1.0
 92
        8
 66
   257
 43
1.0
 76
     1
 77
     6
 78
     2
 67
     8
 79
     3
170
     0
171
     0
290
     0
174
     0
 93
        5
 44
0.0
173
     0
291
     0
 45
0.0
1001
ACAD
1000
AcDbSavedByObjectVersion
1070
     0
  0
VISUALSTYLE
  5
3925
102
{ACAD_XDICTIONARY
360
41F3
102
}
102
{ACAD_REACTORS
330
37E9
102
}
330
37E9
100
AcDbVisualStyle
  2
Shaded with edges
 70
    26
 71
     2
 72
     2
 73
     1
 90
        2
 40
-0.6
 41
30.0
 62
     5
 63
     7
 74
     1
 91
        2
 64
     7
 65
   257
 75
     2
175
     1
 42
1.0
 92
        8
 66
   257
 43
1.0
 76
     1
 77
     6
 78
     2
 67
     7
 79
     3
170
     0
171
     0
290
     0
174
     0
 93
        5
 44
0.0
173
     0
291
     0
 45
0.0
1001
ACAD
1000
AcDbSavedByObjectVersion
1070
     0
  0
VISUALSTYLE
  5
3922
102
{ACAD_XDICTIONARY
360
41ED
102
}
102
{ACAD_REACTORS
330
37E9
102
}
330
37E9
100
AcDbVisualStyle
  2
Shades of Gray
 70
    23
 71
     2
 72
     2
 73
     3
 90
        0
 40
-0.6
 41
-30.0
 62
     5
 63
     7
 74
     2
 91
        2
 64
     7
 65
     7
 75
     1
175
     1
 42
40.0
 92
        8
 66
     7
 43
1.0
 76
     1
 77
     6
 78
     2
 67
     7
 79
     3
170
     0
171
     0
290
     0
174
     0
 93
        1
 44
0.0
173
     0
291
     0
 45
0.0
1001
ACAD
1000
AcDbSavedByObjectVersion
1070
     0
  0
VISUALSTYLE
  5
3923
102
{ACAD_XDICTIONARY
360
41EF
102
}
102
{ACAD_REACTORS
330
37E9
102
}
330
37E9
100
AcDbVisualStyle
  2
Sketchy
 70
    24
 71
     1
 72
     2
 73
     2
 90
        0
 40
-0.6
 41
-30.0
 62
     5
 63
     7
 74
     2
 91
        2
 64
     7
 65
     7
 75
     1
175
     1
 42
40.0
 92
       11
 66
     7
 43
1.0
 76
     1
 77
     6
 78
     2
 67
     7
 79
     6
170
     0
171
     0
290
     0
174
     0
 93
        1
 44
0.0
173
     0
291
     0
 45
0.0
1001
ACAD
1000
AcDbSavedByObjectVersion
1070
     0
  0
VISUALSTYLE
  5
37F6
102
{ACAD_XDICTIONARY
360
41DA
102
}
102
{ACAD_REACTORS
330
37E9
102
}
330
37E9
100
AcDbVisualStyle
  2
Thicken
 70
    13
 71
     2
 72
     2
 73
     0
 90
        0
 40
-0.6
 41
-30.0
 62
     5
 63
     7
 74
     1
 91
        4
 64
     7
 65
   257
 75
     1
175
     1
 42
1.0
 92
       12
 66
     7
 43
1.0
 76
     1
 77
     6
 78
     2
 67
     7
 79
     5
170
     0
171
     0
290
     0
174
     0
 93
        1
 44
0.0
173
     0
291
     1
 45
0.0
1001
ACAD
1000
AcDbSavedByObjectVersion
1070
     0
  0
VISUALSTYLE
  5
3920
102
{ACAD_XDICTIONARY
360
41E9
102
}
102
{ACAD_REACTORS
330
37E9
102
}
330
37E9
100
AcDbVisualStyle
  2
Wireframe
 70
     5
 71
     0
 72
     2
 73
     0
 90
        0
 40
-0.6
 41
-30.0
 62
     5
 63
     7
 74
     1
 91
        4
 64
     7
 65
   257
 75
     1
175
     1
 42
1.0
 92
        0
 66
   257
 43
1.0
 76
     1
 77
     6
 78
     2
 67
     7
 79
     3
170
     0
171
     0
290
     0
174
     0
 93
        1
 44
0.0
173
     0
291
     0
 45
0.0
1001
ACAD
1000
AcDbSavedByObjectVersion
1070
     0
  0
VISUALSTYLE
  5
3924
102
{ACAD_XDICTIONARY
360
41F1
102
}
102
{ACAD_REACTORS
330
37E9
102
}
330
37E9
100
AcDbVisualStyle
  2
X-Ray
 70
    25
 71
     2
 72
     2
 73
     1
 90
        1
 40
0.5
 41
-30.0
 62
     5
 63
     7
 74
     1
 91
        0
 64
     7
 65
   257
 75
     1
175
     1
 42
1.0
 92
        8
 66
     7
 43
1.0
 76
     1
 77
     6
 78
     2
 67
     7
 79
     3
170
     0
171
     0
290
     0
174
     0
 93
       13
 44
0.0
173
     0
291
     0
 45
0.0
1001
ACAD
1000
AcDbSavedByObjectVersion
1070
     0
  0
DICTIONARYVAR
  5
3874
102
{ACAD_REACTORS
330
1835
102
}
330
1835
100
DictionaryVariables
280
     0
  1
1:1
  0
DICTIONARYVAR
  5
3873
102
{ACAD_REACTORS
330
1835
102
}
330
1835
100
DictionaryVariables
280
     0
  1
STANDARD
  0
DICTIONARYVAR
  5
3872
102
{ACAD_REACTORS
330
1835
102
}
330
1835
100
DictionaryVariables
280
     0
  1
STANDARD
  0
DICTIONARYVAR
  5
399B
102
{ACAD_REACTORS
330
1835
102
}
330
1835
100
DictionaryVariables
280
     0
  1
Metric50
  0
DICTIONARYVAR
  5
399C
102
{ACAD_REACTORS
330
1835
102
}
330
1835
100
DictionaryVariables
280
     0
  1
Metric50
  0
DICTIONARYVAR
  5
3876
102
{ACAD_REACTORS
330
1835
102
}
330
1835
100
DictionaryVariables
280
     0
  1
1
  0
DICTIONARYVAR
  5
3875
102
{ACAD_REACTORS
330
1835
102
}
330
1835
100
DictionaryVariables
280
     0
  1
0
  0
DICTIONARYVAR
  5
1836
102
{ACAD_REACTORS
330
1835
102
}
330
1835
100
DictionaryVariables
280
     0
  1
127
  0
DICTIONARYVAR
  5
41B7
102
{ACAD_REACTORS
330
1835
102
}
330
1835
100
DictionaryVariables
280
     0
  1
2
  0
DICTIONARY
  5
41F9
330
392A
100
AcDbDictionary
280
     1
281
     1
  3
ACAD_XREC_ROUNDTRIP
360
41FA
  0
DICTIONARY
  5
41BB
330
22
100
AcDbDictionary
280
     1
281
     1
  3
ACAD_XREC_ROUNDTRIP
360
41BC
  0
DICTIONARY
  5
41BD
330
1CD1
100
AcDbDictionary
280
     1
281
     1
  3
ACAD_XREC_ROUNDTRIP
360
41BE
  0
DICTIONARY
  5
37DA
330
37D9
100
AcDbDictionary
280
     1
281
     1
  3
ACAD_XREC_ROUNDTRIP
360
41C0
  3
BUMPTILE
360
37DC
  3
DIFFUSETILE
360
37DB
  3
OPACITYTILE
360
37DF
  3
REFLECTIONTILE
360
37DE
  3
REFRACTIONTILE
360
37E0
  3
SPECULARTILE
360
37DD
  0
DICTIONARY
  5
37D2
330
37D1
100
AcDbDictionary
280
     1
281
     1
  3
ACAD_XREC_ROUNDTRIP
360
41BF
  3
BUMPTILE
360
37D4
  3
DIFFUSETILE
360
37D3
  3
OPACITYTILE
360
37D7
  3
REFLECTIONTILE
360
37D6
  3
REFRACTIONTILE
360
37D8
  3
SPECULARTILE
360
37D5
  0
DICTIONARY
  5
37E2
330
37E1
100
AcDbDictionary
280
     1
281
     1
  3
ACAD_XREC_ROUNDTRIP
360
41C1
  3
BUMPTILE
360
37E4
  3
DIFFUSETILE
360
37E3
  3
OPACITYTILE
360
37E7
  3
REFLECTIONTILE
360
37E6
  3
REFRACTIONTILE
360
37E8
  3
SPECULARTILE
360
37E5
  0
DICTIONARY
  5
41F7
330
3928
100
AcDbDictionary
280
     1
281
     1
  3
ACAD_XREC_ROUNDTRIP
360
41F8
  0
DICTIONARY
  5
383D
330
37FF
100
AcDbDictionary
280
     1
281
     1
  3
ACAD_ROUNDTRIP_2008_TABLESTYLE_CELLSTYLEMAP
360
41B8
  3
ACAD_XREC_ROUNDTRIP
360
41E8
  0
DICTIONARY
  5
41CC
330
37EF
100
AcDbDictionary
280
     1
281
     1
  3
ACAD_XREC_ROUNDTRIP
360
41CD
  0
DICTIONARY
  5
41D0
330
37F1
100
AcDbDictionary
280
     1
281
     1
  3
ACAD_XREC_ROUNDTRIP
360
41D1
  0
DICTIONARY
  5
41CE
330
37F0
100
AcDbDictionary
280
     1
281
     1
  3
ACAD_XREC_ROUNDTRIP
360
41CF
  0
DICTIONARY
  5
41CA
330
37EE
100
AcDbDictionary
280
     1
281
     1
  3
ACAD_XREC_ROUNDTRIP
360
41CB
  0
DICTIONARY
  5
41D8
330
37F5
100
AcDbDictionary
280
     1
281
     1
  3
ACAD_XREC_ROUNDTRIP
360
41D9
  0
DICTIONARY
  5
41E0
330
37F9
100
AcDbDictionary
280
     1
281
     1
  3
ACAD_XREC_ROUNDTRIP
360
41E1
  0
DICTIONARY
  5
41D2
330
37F2
100
AcDbDictionary
280
     1
281
     1
  3
ACAD_XREC_ROUNDTRIP
360
41D3
  0
DICTIONARY
  5
41D6
330
37F4
100
AcDbDictionary
280
     1
281
     1
  3
ACAD_XREC_ROUNDTRIP
360
41D7
  0
DICTIONARY
  5
41E6
330
37FC
100
AcDbDictionary
280
     1
281
     1
  3
ACAD_XREC_ROUNDTRIP
360
41E7
  0
DICTIONARY
  5
41DE
330
37F8
100
AcDbDictionary
280
     1
281
     1
  3
ACAD_XREC_ROUNDTRIP
360
41DF
  0
DICTIONARY
  5
41C2
330
37EA
100
AcDbDictionary
280
     1
281
     1
  3
ACAD_XREC_ROUNDTRIP
360
41C3
  0
DICTIONARY
  5
41C4
330
37EB
100
AcDbDictionary
280
     1
281
     1
  3
ACAD_XREC_ROUNDTRIP
360
41C5
  0
DICTIONARY
  5
41C6
330
37EC
100
AcDbDictionary
280
     1
281
     1
  3
ACAD_XREC_ROUNDTRIP
360
41C7
  0
DICTIONARY
  5
41C8
330
37ED
100
AcDbDictionary
280
     1
281
     1
  3
ACAD_XREC_ROUNDTRIP
360
41C9
  0
DICTIONARY
  5
41EB
330
3921
100
AcDbDictionary
280
     1
281
     1
  3
ACAD_XREC_ROUNDTRIP
360
41EC
  0
DICTIONARY
  5
41E2
330
37FA
100
AcDbDictionary
280
     1
281
     1
  3
ACAD_XREC_ROUNDTRIP
360
41E3
  0
DICTIONARY
  5
41DC
330
37F7
100
AcDbDictionary
280
     1
281
     1
  3
ACAD_XREC_ROUNDTRIP
360
41DD
  0
DICTIONARY
  5
41E4
330
37FB
100
AcDbDictionary
280
     1
281
     1
  3
ACAD_XREC_ROUNDTRIP
360
41E5
  0
DICTIONARY
  5
41D4
330
37F3
100
AcDbDictionary
280
     1
281
     1
  3
ACAD_XREC_ROUNDTRIP
360
41D5
  0
DICTIONARY
  5
41F5
330
3926
100
AcDbDictionary
280
     1
281
     1
  3
ACAD_XREC_ROUNDTRIP
360
41F6
  0
DICTIONARY
  5
41F3
330
3925
100
AcDbDictionary
280
     1
281
     1
  3
ACAD_XREC_ROUNDTRIP
360
41F4
  0
DICTIONARY
  5
41ED
330
3922
100
AcDbDictionary
280
     1
281
     1
  3
ACAD_XREC_ROUNDTRIP
360
41EE
  0
DICTIONARY
  5
41EF
330
3923
100
AcDbDictionary
280
     1
281
     1
  3
ACAD_XREC_ROUNDTRIP
360
41F0
  0
DICTIONARY
  5
41DA
330
37F6
100
AcDbDictionary
280
     1
281
     1
  3
ACAD_XREC_ROUNDTRIP
360
41DB
  0
DICTIONARY
  5
41E9
330
3920
100
AcDbDictionary
280
     1
281
     1
  3
ACAD_XREC_ROUNDTRIP
360
41EA
  0
DICTIONARY
  5
41F1
330
3924
100
AcDbDictionary
280
     1
281
     1
  3
ACAD_XREC_ROUNDTRIP
360
41F2
  0
XRECORD
  5
41FA
102
{ACAD_REACTORS
330
41F9
102
}
330
41F9
100
AcDbXrecord
280
     1
102
DISPLAYNAME
  1
Metric50
102
FLAGS
 90
        0
  0
XRECORD
  5
41BC
102
{ACAD_REACTORS
330
41BB
102
}
330
41BB
100
AcDbXrecord
280
     1
102
SHADEPLOT
 70
     0
102
SHADEPLOTRESLEVEL
 70
     2
102
SHADEPLOTCUSTOMDPI
 70
   300
  0
XRECORD
  5
41BE
102
{ACAD_REACTORS
330
41BD
102
}
330
41BD
100
AcDbXrecord
280
     1
102
SHADEPLOT
 70
     0
102
SHADEPLOTRESLEVEL
 70
     2
102
SHADEPLOTCUSTOMDPI
 70
   300
  0
XRECORD
  5
41C0
102
{ACAD_REACTORS
330
37DA
102
}
330
37DA
100
AcDbXrecord
280
     1
102
MATERIAL
148
0.0
149
0.0
149
0.0
 93
        0
 94
      127
282
     0
 72
     0
 77
     0
171
     0
175
     0
179
     0
273
     0
  0
XRECORD
  5
37DC
102
{ACAD_REACTORS
330
37DA
102
}
330
37DA
100
AcDbXrecord
280
     1
270
     1
271
     1
  0
XRECORD
  5
37DB
102
{ACAD_REACTORS
330
37DA
102
}
330
37DA
100
AcDbXrecord
280
     1
270
     1
271
     1
  0
XRECORD
  5
37DF
102
{ACAD_REACTORS
330
37DA
102
}
330
37DA
100
AcDbXrecord
280
     1
270
     1
271
     1
  0
XRECORD
  5
37DE
102
{ACAD_REACTORS
330
37DA
102
}
330
37DA
100
AcDbXrecord
280
     1
270
     1
271
     1
  0
XRECORD
  5
37E0
102
{ACAD_REACTORS
330
37DA
102
}
330
37DA
100
AcDbXrecord
280
     1
270
     1
271
     1
  0
XRECORD
  5
37DD
102
{ACAD_REACTORS
330
37DA
102
}
330
37DA
100
AcDbXrecord
280
     1
270
     1
271
     1
  0
XRECORD
  5
41BF
102
{ACAD_REACTORS
330
37D2
102
}
330
37D2
100
AcDbXrecord
280
     1
102
MATERIAL
148
0.0
149
0.0
149
0.0
 93
        0
 94
      127
282
     0
 72
     0
 77
     0
171
     0
175
     0
179
     0
273
     0
  0
XRECORD
  5
37D4
102
{ACAD_REACTORS
330
37D2
102
}
330
37D2
100
AcDbXrecord
280
     1
270
     1
271
     1
  0
XRECORD
  5
37D3
102
{ACAD_REACTORS
330
37D2
102
}
330
37D2
100
AcDbXrecord
280
     1
270
     1
271
     1
  0
XRECORD
  5
37D7
102
{ACAD_REACTORS
330
37D2
102
}
330
37D2
100
AcDbXrecord
280
     1
270
     1
271
     1
  0
XRECORD
  5
37D6
102
{ACAD_REACTORS
330
37D2
102
}
330
37D2
100
AcDbXrecord
280
     1
270
     1
271
     1
  0
XRECORD
  5
37D8
102
{ACAD_REACTORS
330
37D2
102
}
330
37D2
100
AcDbXrecord
280
     1
270
     1
271
     1
  0
XRECORD
  5
37D5
102
{ACAD_REACTORS
330
37D2
102
}
330
37D2
100
AcDbXrecord
280
     1
270
     1
271
     1
  0
XRECORD
  5
41C1
102
{ACAD_REACTORS
330
37E2
102
}
330
37E2
100
AcDbXrecord
280
     1
102
MATERIAL
148
0.0
149
0.0
149
0.0
 93
        0
 94
      127
282
     0
 72
     0
 77
     0
171
     0
175
     0
179
     0
273
     0
  0
XRECORD
  5
37E4
102
{ACAD_REACTORS
330
37E2
102
}
330
37E2
100
AcDbXrecord
280
     1
270
     1
271
     1
  0
XRECORD
  5
37E3
102
{ACAD_REACTORS
330
37E2
102
}
330
37E2
100
AcDbXrecord
280
     1
270
     1
271
     1
  0
XRECORD
  5
37E7
102
{ACAD_REACTORS
330
37E2
102
}
330
37E2
100
AcDbXrecord
280
     1
270
     1
271
     1
  0
XRECORD
  5
37E6
102
{ACAD_REACTORS
330
37E2
102
}
330
37E2
100
AcDbXrecord
280
     1
270
     1
271
     1
  0
XRECORD
  5
37E8
102
{ACAD_REACTORS
330
37E2
102
}
330
37E2
100
AcDbXrecord
280
     1
270
     1
271
     1
  0
XRECORD
  5
37E5
102
{ACAD_REACTORS
330
37E2
102
}
330
37E2
100
AcDbXrecord
280
     1
270
     1
271
     1
  0
XRECORD
  5
41F8
102
{ACAD_REACTORS
330
41F7
102
}
330
41F7
100
AcDbXrecord
280
     1
102
DISPLAYNAME
  1
Metric50
102
FLAGS
 90
        0
  0
CELLSTYLEMAP
  5
41B8
102
{ACAD_REACTORS
330
383D
102
}
330
383D
100
AcDbCellStyleMap
 90
        3
300
CELLSTYLE
  1
TABLEFORMAT_BEGIN
 90
        5
170
     1
 91
        0
 92
    32768
 62
   257
 93
        1
300
CONTENTFORMAT
  1
CONTENTFORMAT_BEGIN
 90
        0
 91
        0
 92
      512
 93
        0
300

 40
0.0
140
1.0
 94
        5
 62
     0
340
11
144
6.0
309
CONTENTFORMAT_END
171
     1
301
MARGIN
  1
CELLMARGIN_BEGIN
 40
1.5
 40
1.5
 40
1.5
 40
1.5
 40
4.5
 40
4.5
309
CELLMARGIN_END
 94
        6
 95
        1
302
GRIDFORMAT
  1
GRIDFORMAT_BEGIN
 90
        0
 91
        1
 62
     0
 92
       -2
340
0
 93
        0
 40
1.125
309
GRIDFORMAT_END
 95
        2
302
GRIDFORMAT
  1
GRIDFORMAT_BEGIN
 90
        0
 91
        1
 62
     0
 92
       -2
340
0
 93
        0
 40
1.125
309
GRIDFORMAT_END
 95
        4
302
GRIDFORMAT
  1
GRIDFORMAT_BEGIN
 90
        0
 91
        1
 62
     0
 92
       -2
340
0
 93
        0
 40
1.125
309
GRIDFORMAT_END
 95
        8
302
GRIDFORMAT
  1
GRIDFORMAT_BEGIN
 90
        0
 91
        1
 62
     0
 92
       -2
340
0
 93
        0
 40
1.125
309
GRIDFORMAT_END
 95
       16
302
GRIDFORMAT
  1
GRIDFORMAT_BEGIN
 90
        0
 91
        1
 62
     0
 92
       -2
340
0
 93
        0
 40
1.125
309
GRIDFORMAT_END
 95
       32
302
GRIDFORMAT
  1
GRIDFORMAT_BEGIN
 90
        0
 91
        1
 62
     0
 92
       -2
340
0
 93
        0
 40
1.125
309
GRIDFORMAT_END
309
TABLEFORMAT_END
  1
CELLSTYLE_BEGIN
 90
        1
 91
        1
300
_TITLE
309
CELLSTYLE_END
300
CELLSTYLE
  1
TABLEFORMAT_BEGIN
 90
        5
170
     1
 91
        0
 92
        0
 62
   257
 93
        1
300
CONTENTFORMAT
  1
CONTENTFORMAT_BEGIN
 90
        0
 91
        0
 92
      512
 93
        0
300

 40
0.0
140
1.0
 94
        5
 62
     0
340
11
144
4.5
309
CONTENTFORMAT_END
171
     1
301
MARGIN
  1
CELLMARGIN_BEGIN
 40
1.5
 40
1.5
 40
1.5
 40
1.5
 40
4.5
 40
4.5
309
CELLMARGIN_END
 94
        6
 95
        1
302
GRIDFORMAT
  1
GRIDFORMAT_BEGIN
 90
        0
 91
        1
 62
     0
 92
       -2
340
0
 93
        0
 40
1.125
309
GRIDFORMAT_END
 95
        2
302
GRIDFORMAT
  1
GRIDFORMAT_BEGIN
 90
        0
 91
        1
 62
     0
 92
       -2
340
0
 93
        0
 40
1.125
309
GRIDFORMAT_END
 95
        4
302
GRIDFORMAT
  1
GRIDFORMAT_BEGIN
 90
        0
 91
        1
 62
     0
 92
       -2
340
0
 93
        0
 40
1.125
309
GRIDFORMAT_END
 95
        8
302
GRIDFORMAT
  1
GRIDFORMAT_BEGIN
 90
        0
 91
        1
 62
     0
 92
       -2
340
0
 93
        0
 40
1.125
309
GRIDFORMAT_END
 95
       16
302
GRIDFORMAT
  1
GRIDFORMAT_BEGIN
 90
        0
 91
        1
 62
     0
 92
       -2
340
0
 93
        0
 40
1.125
309
GRIDFORMAT_END
 95
       32
302
GRIDFORMAT
  1
GRIDFORMAT_BEGIN
 90
        0
 91
        1
 62
     0
 92
       -2
340
0
 93
        0
 40
1.125
309
GRIDFORMAT_END
309
TABLEFORMAT_END
  1
CELLSTYLE_BEGIN
 90
        2
 91
        1
300
_HEADER
309
CELLSTYLE_END
300
CELLSTYLE
  1
TABLEFORMAT_BEGIN
 90
        5
170
     1
 91
        0
 92
        0
 62
   257
 93
        1
300
CONTENTFORMAT
  1
CONTENTFORMAT_BEGIN
 90
        0
 91
        0
 92
      512
 93
        0
300

 40
0.0
140
1.0
 94
        2
 62
     0
340
11
144
4.5
309
CONTENTFORMAT_END
171
     1
301
MARGIN
  1
CELLMARGIN_BEGIN
 40
1.5
 40
1.5
 40
1.5
 40
1.5
 40
4.5
 40
4.5
309
CELLMARGIN_END
 94
        6
 95
        1
302
GRIDFORMAT
  1
GRIDFORMAT_BEGIN
 90
        0
 91
        1
 62
     0
 92
       -2
340
0
 93
        0
 40
1.125
309
GRIDFORMAT_END
 95
        2
302
GRIDFORMAT
  1
GRIDFORMAT_BEGIN
 90
        0
 91
        1
 62
     0
 92
       -2
340
0
 93
        0
 40
1.125
309
GRIDFORMAT_END
 95
        4
302
GRIDFORMAT
  1
GRIDFORMAT_BEGIN
 90
        0
 91
        1
 62
     0
 92
       -2
340
0
 93
        0
 40
1.125
309
GRIDFORMAT_END
 95
        8
302
GRIDFORMAT
  1
GRIDFORMAT_BEGIN
 90
        0
 91
        1
 62
     0
 92
       -2
340
0
 93
        0
 40
1.125
309
GRIDFORMAT_END
 95
       16
302
GRIDFORMAT
  1
GRIDFORMAT_BEGIN
 90
        0
 91
        1
 62
     0
 92
       -2
340
0
 93
        0
 40
1.125
309
GRIDFORMAT_END
 95
       32
302
GRIDFORMAT
  1
GRIDFORMAT_BEGIN
 90
        0
 91
        1
 62
     0
 92
       -2
340
0
 93
        0
 40
1.125
309
GRIDFORMAT_END
309
TABLEFORMAT_END
  1
CELLSTYLE_BEGIN
 90
        3
 91
        2
300
_DATA
309
CELLSTYLE_END
  0
XRECORD
  5
41E8
102
{ACAD_REACTORS
330
383D
102
}
330
383D
100
AcDbXrecord
280
     1
102
ACAD_ROUNDTRIP_PRE2007_TABLESTYLE
 90
      512
 91
        0
  1

 92
      512
 93
        0
  2

 94
      512
 95
        0
  3

  0
XRECORD
  5
41CD
102
{ACAD_REACTORS
330
41CC
102
}
330
41CC
100
AcDbXrecord
280
     1
102
RTVSPost2010Prop28
280
     1
102
RTVSPost2010PropOp28
 70
     1
102
RTVSPost2010Prop29
280
     1
102
RTVSPost2010PropOp29
 70
     1
102
RTVSPost2010Prop30
280
     0
102
RTVSPost2010PropOp30
 70
     1
102
RTVSPost2010Prop31
280
     0
102
RTVSPost2010PropOp31
 70
     1
102
RTVSPost2010Prop32
280
     0
102
RTVSPost2010PropOp32
 70
     1
102
RTVSPost2010Prop33
280
     0
102
RTVSPost2010PropOp33
 70
     1
102
RTVSPost2010Prop34
280
     0
102
RTVSPost2010PropOp34
 70
     1
102
RTVSPost2010Prop35
280
     0
102
RTVSPost2010PropOp35
 70
     1
102
RTVSPost2010Prop36
280
     0
102
RTVSPost2010PropOp36
 70
     1
102
RTVSPost2010Prop37
 90
       50
102
RTVSPost2010PropOp37
 70
     1
102
RTVSPost2010Prop38
140
0.0
102
RTVSPost2010PropOp38
 70
     1
102
RTVSPost2010Prop39
140
1.0
102
RTVSPost2010PropOp39
 70
     1
102
RTVSPost2010Prop40
 90
        0
102
RTVSPost2010PropOp40
 70
     1
102
RTVSPost2010Prop41ColorIndex
 90
       18
102
RTVSPost2010Prop41ColorRGB
 90
        0
102
RTVSPost2010PropOp41
 70
     1
102
RTVSPost2010Prop42
 90
       50
102
RTVSPost2010PropOp42
 70
     1
102
RTVSPost2010Prop43
 90
        3
102
RTVSPost2010PropOp43
 70
     1
102
RTVSPost2010Prop44ColorIndex
 90
        5
102
RTVSPost2010Prop44ColorRGB
 90
      255
102
RTVSPost2010PropOp44
 70
     1
102
RTVSPost2010Prop45
280
     0
102
RTVSPost2010PropOp45
 70
     1
102
RTVSPost2010Prop46
 90
       50
102
RTVSPost2010PropOp46
 70
     1
102
RTVSPost2010Prop47
 90
       50
102
RTVSPost2010PropOp47
 70
     1
102
RTVSPost2010Prop48
 90
       50
102
RTVSPost2010PropOp48
 70
     1
102
RTVSPost2010Prop49
280
     0
102
RTVSPost2010PropOp49
 70
     1
102
RTVSPost2010Prop50
 90
       50
102
RTVSPost2010PropOp50
 70
     1
102
RTVSPost2010Prop51ColorIndex
 90
      256
102
RTVSPost2010Prop51ColorRGB
 90
-16777216
102
RTVSPost2010PropOp51
 70
     0
102
RTVSPost2010Prop52
140
1.0
102
RTVSPost2010PropOp52
 70
     0
102
RTVSPost2010Prop53
 90
        2
102
RTVSPost2010PropOp53
 70
     1
102
RTVSPost2010Prop54
  1
strokes_ogs.tif
102
RTVSPost2010PropOp54
 70
     1
102
RTVSPost2010Prop55
280
     0
102
RTVSPost2010PropOp55
 70
     1
102
RTVSPost2010Prop56
140
1.0
102
RTVSPost2010PropOp56
 70
     1
102
RTVSPost2010Prop57
140
1.0
102
RTVSPost2010PropOp57
 70
     1
102
RTVSPropertyOp0
 70
     1
102
RTVSPropertyOp1
 70
     1
102
RTVSPropertyOp2
 70
     1
102
RTVSPropertyOp3
 70
     1
102
RTVSPropertyOp4
 70
     1
102
RTVSPropertyOp5
 70
     1
102
RTVSPropertyOp6
 70
     1
102
RTVSPropertyOp7
 70
     1
102
RTVSPropertyOp8
 70
     1
102
RTVSPropertyOp9
 70
     1
102
RTVSPropertyOp10
 70
     1
102
RTVSPropertyOp11
 70
     1
102
RTVSPropertyOp12
 70
     1
102
RTVSPropertyOp13
 70
     1
102
RTVSPropertyOp14
 70
     1
102
RTVSPropertyOp15
 70
     1
102
RTVSPropertyOp16
 70
     1
102
RTVSPropertyOp17
 70
     1
102
RTVSPropertyOp18
 70
     1
102
RTVSPropertyOp19
 70
     1
102
RTVSPropertyOp20
 70
     1
102
RTVSPropertyOp21
 70
     1
102
RTVSPropertyOp22
 70
     1
102
RTVSPropertyOp23
 70
     1
102
RTVSPropertyOp24
 70
     1
102
RTVSPropertyOp25
 70
     1
102
RTVSPropertyOp26
 70
     1
102
RTVSPropertyOp27
 70
     1
102
RTVSPropertyOp28
 70
     1
102
RTVSPropertyOp29
 70
     1
102
RTVSPropertyOp30
 70
     1
102
RTVSPropertyOp31
 70
     1
102
RTVSPropertyOp32
 70
     1
102
RTVSPropertyOp33
 70
     1
102
RTVSPropertyOp34
 70
     1
102
RTVSPropertyOp35
 70
     1
102
RTVSPropertyOp36
 70
     1
102
RTVSPropertyOp37
 70
     1
102
RTVSPropertyOp38
 70
     1
102
RTVSPropertyOp39
 70
     1
102
RTVSPropertyOp40
 70
     1
102
RTVSPropertyOp41
 70
     1
102
RTVSPropertyOp42
 70
     1
102
RTVSPropertyOp43
 70
     1
102
RTVSPropertyOp44
 70
     1
102
RTVSPropertyOp45
 70
     1
102
RTVSPropertyOp46
 70
     1
102
RTVSPropertyOp47
 70
     1
102
RTVSPropertyOp48
 70
     1
102
RTVSPropertyOp49
 70
     1
102
RTVSPropertyOp50
 70
     1
102
RTVSPropertyOp51
 70
     0
102
RTVSPropertyOp52
 70
     0
102
RTVSPropertyOp53
 70
     1
102
RTVSPropertyOp54
 70
     1
102
RTVSPropertyOp55
 70
     1
102
RTVSPropertyOp56
 70
     1
102
RTVSPropertyOp57
 70
     1
102
RTVSPropertyOp58
 70
     1
102
RTVSPropertyOp59
 70
     1
102
RTVSPropertyOp60
 70
     1
102
RTVSPropertyOp61
 70
     1
102
RTVSPropertyOp62
 70
     1
  0
XRECORD
  5
41D1
102
{ACAD_REACTORS
330
41D0
102
}
330
41D0
100
AcDbXrecord
280
     1
102
RTVSPost2010Prop28
280
     0
102
RTVSPost2010PropOp28
 70
     1
102
RTVSPost2010Prop29
280
     1
102
RTVSPost2010PropOp29
 70
     1
102
RTVSPost2010Prop30
280
     1
102
RTVSPost2010PropOp30
 70
     1
102
RTVSPost2010Prop31
280
     0
102
RTVSPost2010PropOp31
 70
     1
102
RTVSPost2010Prop32
280
     0
102
RTVSPost2010PropOp32
 70
     1
102
RTVSPost2010Prop33
280
     0
102
RTVSPost2010PropOp33
 70
     1
102
RTVSPost2010Prop34
280
     0
102
RTVSPost2010PropOp34
 70
     1
102
RTVSPost2010Prop35
280
     0
102
RTVSPost2010PropOp35
 70
     1
102
RTVSPost2010Prop36
280
     0
102
RTVSPost2010PropOp36
 70
     1
102
RTVSPost2010Prop37
 90
       50
102
RTVSPost2010PropOp37
 70
     1
102
RTVSPost2010Prop38
140
0.0
102
RTVSPost2010PropOp38
 70
     1
102
RTVSPost2010Prop39
140
1.0
102
RTVSPost2010PropOp39
 70
     1
102
RTVSPost2010Prop40
 90
        0
102
RTVSPost2010PropOp40
 70
     1
102
RTVSPost2010Prop41ColorIndex
 90
       18
102
RTVSPost2010Prop41ColorRGB
 90
        0
102
RTVSPost2010PropOp41
 70
     1
102
RTVSPost2010Prop42
 90
       50
102
RTVSPost2010PropOp42
 70
     1
102
RTVSPost2010Prop43
 90
        3
102
RTVSPost2010PropOp43
 70
     1
102
RTVSPost2010Prop44ColorIndex
 90
        5
102
RTVSPost2010Prop44ColorRGB
 90
      255
102
RTVSPost2010PropOp44
 70
     1
102
RTVSPost2010Prop45
280
     0
102
RTVSPost2010PropOp45
 70
     1
102
RTVSPost2010Prop46
 90
       50
102
RTVSPost2010PropOp46
 70
     1
102
RTVSPost2010Prop47
 90
       50
102
RTVSPost2010PropOp47
 70
     1
102
RTVSPost2010Prop48
 90
       50
102
RTVSPost2010PropOp48
 70
     1
102
RTVSPost2010Prop49
280
     0
102
RTVSPost2010PropOp49
 70
     1
102
RTVSPost2010Prop50
 90
       50
102
RTVSPost2010PropOp50
 70
     1
102
RTVSPost2010Prop51ColorIndex
 90
      256
102
RTVSPost2010Prop51ColorRGB
 90
-16777216
102
RTVSPost2010PropOp51
 70
     0
102
RTVSPost2010Prop52
140
1.0
102
RTVSPost2010PropOp52
 70
     0
102
RTVSPost2010Prop53
 90
        2
102
RTVSPost2010PropOp53
 70
     1
102
RTVSPost2010Prop54
  1
strokes_ogs.tif
102
RTVSPost2010PropOp54
 70
     1
102
RTVSPost2010Prop55
280
     0
102
RTVSPost2010PropOp55
 70
     1
102
RTVSPost2010Prop56
140
1.0
102
RTVSPost2010PropOp56
 70
     1
102
RTVSPost2010Prop57
140
1.0
102
RTVSPost2010PropOp57
 70
     1
102
RTVSPropertyOp0
 70
     1
102
RTVSPropertyOp1
 70
     1
102
RTVSPropertyOp2
 70
     1
102
RTVSPropertyOp3
 70
     1
102
RTVSPropertyOp4
 70
     1
102
RTVSPropertyOp5
 70
     1
102
RTVSPropertyOp6
 70
     1
102
RTVSPropertyOp7
 70
     1
102
RTVSPropertyOp8
 70
     1
102
RTVSPropertyOp9
 70
     1
102
RTVSPropertyOp10
 70
     1
102
RTVSPropertyOp11
 70
     1
102
RTVSPropertyOp12
 70
     1
102
RTVSPropertyOp13
 70
     1
102
RTVSPropertyOp14
 70
     1
102
RTVSPropertyOp15
 70
     1
102
RTVSPropertyOp16
 70
     1
102
RTVSPropertyOp17
 70
     1
102
RTVSPropertyOp18
 70
     1
102
RTVSPropertyOp19
 70
     1
102
RTVSPropertyOp20
 70
     1
102
RTVSPropertyOp21
 70
     1
102
RTVSPropertyOp22
 70
     1
102
RTVSPropertyOp23
 70
     1
102
RTVSPropertyOp24
 70
     1
102
RTVSPropertyOp25
 70
     1
102
RTVSPropertyOp26
 70
     1
102
RTVSPropertyOp27
 70
     1
102
RTVSPropertyOp28
 70
     1
102
RTVSPropertyOp29
 70
     1
102
RTVSPropertyOp30
 70
     1
102
RTVSPropertyOp31
 70
     1
102
RTVSPropertyOp32
 70
     1
102
RTVSPropertyOp33
 70
     1
102
RTVSPropertyOp34
 70
     1
102
RTVSPropertyOp35
 70
     1
102
RTVSPropertyOp36
 70
     1
102
RTVSPropertyOp37
 70
     1
102
RTVSPropertyOp38
 70
     1
102
RTVSPropertyOp39
 70
     1
102
RTVSPropertyOp40
 70
     1
102
RTVSPropertyOp41
 70
     1
102
RTVSPropertyOp42
 70
     1
102
RTVSPropertyOp43
 70
     1
102
RTVSPropertyOp44
 70
     1
102
RTVSPropertyOp45
 70
     1
102
RTVSPropertyOp46
 70
     1
102
RTVSPropertyOp47
 70
     1
102
RTVSPropertyOp48
 70
     1
102
RTVSPropertyOp49
 70
     1
102
RTVSPropertyOp50
 70
     1
102
RTVSPropertyOp51
 70
     0
102
RTVSPropertyOp52
 70
     0
102
RTVSPropertyOp53
 70
     1
102
RTVSPropertyOp54
 70
     1
102
RTVSPropertyOp55
 70
     1
102
RTVSPropertyOp56
 70
     1
102
RTVSPropertyOp57
 70
     1
102
RTVSPropertyOp58
 70
     1
102
RTVSPropertyOp59
 70
     1
102
RTVSPropertyOp60
 70
     1
102
RTVSPropertyOp61
 70
     1
102
RTVSPropertyOp62
 70
     1
  0
XRECORD
  5
41CF
102
{ACAD_REACTORS
330
41CE
102
}
330
41CE
100
AcDbXrecord
280
     1
102
RTVSPost2010Prop28
280
     0
102
RTVSPost2010PropOp28
 70
     1
102
RTVSPost2010Prop29
280
     1
102
RTVSPost2010PropOp29
 70
     1
102
RTVSPost2010Prop30
280
     1
102
RTVSPost2010PropOp30
 70
     1
102
RTVSPost2010Prop31
280
     0
102
RTVSPost2010PropOp31
 70
     1
102
RTVSPost2010Prop32
280
     0
102
RTVSPost2010PropOp32
 70
     1
102
RTVSPost2010Prop33
280
     0
102
RTVSPost2010PropOp33
 70
     1
102
RTVSPost2010Prop34
280
     0
102
RTVSPost2010PropOp34
 70
     1
102
RTVSPost2010Prop35
280
     0
102
RTVSPost2010PropOp35
 70
     1
102
RTVSPost2010Prop36
280
     0
102
RTVSPost2010PropOp36
 70
     1
102
RTVSPost2010Prop37
 90
       50
102
RTVSPost2010PropOp37
 70
     1
102
RTVSPost2010Prop38
140
0.0
102
RTVSPost2010PropOp38
 70
     1
102
RTVSPost2010Prop39
140
1.0
102
RTVSPost2010PropOp39
 70
     1
102
RTVSPost2010Prop40
 90
        0
102
RTVSPost2010PropOp40
 70
     1
102
RTVSPost2010Prop41ColorIndex
 90
       18
102
RTVSPost2010Prop41ColorRGB
 90
        0
102
RTVSPost2010PropOp41
 70
     1
102
RTVSPost2010Prop42
 90
       50
102
RTVSPost2010PropOp42
 70
     1
102
RTVSPost2010Prop43
 90
        3
102
RTVSPost2010PropOp43
 70
     1
102
RTVSPost2010Prop44ColorIndex
 90
        5
102
RTVSPost2010Prop44ColorRGB
 90
      255
102
RTVSPost2010PropOp44
 70
     1
102
RTVSPost2010Prop45
280
     0
102
RTVSPost2010PropOp45
 70
     1
102
RTVSPost2010Prop46
 90
       50
102
RTVSPost2010PropOp46
 70
     1
102
RTVSPost2010Prop47
 90
       50
102
RTVSPost2010PropOp47
 70
     1
102
RTVSPost2010Prop48
 90
       50
102
RTVSPost2010PropOp48
 70
     1
102
RTVSPost2010Prop49
280
     0
102
RTVSPost2010PropOp49
 70
     1
102
RTVSPost2010Prop50
 90
       50
102
RTVSPost2010PropOp50
 70
     1
102
RTVSPost2010Prop51ColorIndex
 90
      256
102
RTVSPost2010Prop51ColorRGB
 90
-16777216
102
RTVSPost2010PropOp51
 70
     0
102
RTVSPost2010Prop52
140
1.0
102
RTVSPost2010PropOp52
 70
     0
102
RTVSPost2010Prop53
 90
        2
102
RTVSPost2010PropOp53
 70
     1
102
RTVSPost2010Prop54
  1
strokes_ogs.tif
102
RTVSPost2010PropOp54
 70
     1
102
RTVSPost2010Prop55
280
     0
102
RTVSPost2010PropOp55
 70
     1
102
RTVSPost2010Prop56
140
1.0
102
RTVSPost2010PropOp56
 70
     1
102
RTVSPost2010Prop57
140
1.0
102
RTVSPost2010PropOp57
 70
     1
102
RTVSPropertyOp0
 70
     1
102
RTVSPropertyOp1
 70
     1
102
RTVSPropertyOp2
 70
     1
102
RTVSPropertyOp3
 70
     1
102
RTVSPropertyOp4
 70
     1
102
RTVSPropertyOp5
 70
     1
102
RTVSPropertyOp6
 70
     1
102
RTVSPropertyOp7
 70
     1
102
RTVSPropertyOp8
 70
     1
102
RTVSPropertyOp9
 70
     1
102
RTVSPropertyOp10
 70
     1
102
RTVSPropertyOp11
 70
     1
102
RTVSPropertyOp12
 70
     1
102
RTVSPropertyOp13
 70
     1
102
RTVSPropertyOp14
 70
     1
102
RTVSPropertyOp15
 70
     1
102
RTVSPropertyOp16
 70
     1
102
RTVSPropertyOp17
 70
     1
102
RTVSPropertyOp18
 70
     1
102
RTVSPropertyOp19
 70
     1
102
RTVSPropertyOp20
 70
     1
102
RTVSPropertyOp21
 70
     1
102
RTVSPropertyOp22
 70
     1
102
RTVSPropertyOp23
 70
     1
102
RTVSPropertyOp24
 70
     1
102
RTVSPropertyOp25
 70
     1
102
RTVSPropertyOp26
 70
     1
102
RTVSPropertyOp27
 70
     1
102
RTVSPropertyOp28
 70
     1
102
RTVSPropertyOp29
 70
     1
102
RTVSPropertyOp30
 70
     1
102
RTVSPropertyOp31
 70
     1
102
RTVSPropertyOp32
 70
     1
102
RTVSPropertyOp33
 70
     1
102
RTVSPropertyOp34
 70
     1
102
RTVSPropertyOp35
 70
     1
102
RTVSPropertyOp36
 70
     1
102
RTVSPropertyOp37
 70
     1
102
RTVSPropertyOp38
 70
     1
102
RTVSPropertyOp39
 70
     1
102
RTVSPropertyOp40
 70
     1
102
RTVSPropertyOp41
 70
     1
102
RTVSPropertyOp42
 70
     1
102
RTVSPropertyOp43
 70
     1
102
RTVSPropertyOp44
 70
     1
102
RTVSPropertyOp45
 70
     1
102
RTVSPropertyOp46
 70
     1
102
RTVSPropertyOp47
 70
     1
102
RTVSPropertyOp48
 70
     1
102
RTVSPropertyOp49
 70
     1
102
RTVSPropertyOp50
 70
     1
102
RTVSPropertyOp51
 70
     0
102
RTVSPropertyOp52
 70
     0
102
RTVSPropertyOp53
 70
     1
102
RTVSPropertyOp54
 70
     1
102
RTVSPropertyOp55
 70
     1
102
RTVSPropertyOp56
 70
     1
102
RTVSPropertyOp57
 70
     1
102
RTVSPropertyOp58
 70
     1
102
RTVSPropertyOp59
 70
     1
102
RTVSPropertyOp60
 70
     1
102
RTVSPropertyOp61
 70
     1
102
RTVSPropertyOp62
 70
     1
  0
XRECORD
  5
41CB
102
{ACAD_REACTORS
330
41CA
102
}
330
41CA
100
AcDbXrecord
280
     1
102
RTVSPost2010Prop28
280
     0
102
RTVSPost2010PropOp28
 70
     1
102
RTVSPost2010Prop29
280
     1
102
RTVSPost2010PropOp29
 70
     1
102
RTVSPost2010Prop30
280
     1
102
RTVSPost2010PropOp30
 70
     1
102
RTVSPost2010Prop31
280
     0
102
RTVSPost2010PropOp31
 70
     1
102
RTVSPost2010Prop32
280
     0
102
RTVSPost2010PropOp32
 70
     1
102
RTVSPost2010Prop33
280
     0
102
RTVSPost2010PropOp33
 70
     1
102
RTVSPost2010Prop34
280
     0
102
RTVSPost2010PropOp34
 70
     1
102
RTVSPost2010Prop35
280
     0
102
RTVSPost2010PropOp35
 70
     1
102
RTVSPost2010Prop36
280
     0
102
RTVSPost2010PropOp36
 70
     1
102
RTVSPost2010Prop37
 90
       50
102
RTVSPost2010PropOp37
 70
     1
102
RTVSPost2010Prop38
140
0.0
102
RTVSPost2010PropOp38
 70
     1
102
RTVSPost2010Prop39
140
1.0
102
RTVSPost2010PropOp39
 70
     1
102
RTVSPost2010Prop40
 90
        0
102
RTVSPost2010PropOp40
 70
     1
102
RTVSPost2010Prop41ColorIndex
 90
       18
102
RTVSPost2010Prop41ColorRGB
 90
        0
102
RTVSPost2010PropOp41
 70
     1
102
RTVSPost2010Prop42
 90
       50
102
RTVSPost2010PropOp42
 70
     1
102
RTVSPost2010Prop43
 90
        3
102
RTVSPost2010PropOp43
 70
     1
102
RTVSPost2010Prop44ColorIndex
 90
        5
102
RTVSPost2010Prop44ColorRGB
 90
      255
102
RTVSPost2010PropOp44
 70
     1
102
RTVSPost2010Prop45
280
     0
102
RTVSPost2010PropOp45
 70
     1
102
RTVSPost2010Prop46
 90
       50
102
RTVSPost2010PropOp46
 70
     1
102
RTVSPost2010Prop47
 90
       50
102
RTVSPost2010PropOp47
 70
     1
102
RTVSPost2010Prop48
 90
       50
102
RTVSPost2010PropOp48
 70
     1
102
RTVSPost2010Prop49
280
     0
102
RTVSPost2010PropOp49
 70
     1
102
RTVSPost2010Prop50
 90
       50
102
RTVSPost2010PropOp50
 70
     1
102
RTVSPost2010Prop51ColorIndex
 90
      256
102
RTVSPost2010Prop51ColorRGB
 90
-16777216
102
RTVSPost2010PropOp51
 70
     0
102
RTVSPost2010Prop52
140
1.0
102
RTVSPost2010PropOp52
 70
     0
102
RTVSPost2010Prop53
 90
        2
102
RTVSPost2010PropOp53
 70
     1
102
RTVSPost2010Prop54
  1
strokes_ogs.tif
102
RTVSPost2010PropOp54
 70
     1
102
RTVSPost2010Prop55
280
     0
102
RTVSPost2010PropOp55
 70
     1
102
RTVSPost2010Prop56
140
1.0
102
RTVSPost2010PropOp56
 70
     1
102
RTVSPost2010Prop57
140
1.0
102
RTVSPost2010PropOp57
 70
     1
102
RTVSPropertyOp0
 70
     1
102
RTVSPropertyOp1
 70
     1
102
RTVSPropertyOp2
 70
     1
102
RTVSPropertyOp3
 70
     1
102
RTVSPropertyOp4
 70
     1
102
RTVSPropertyOp5
 70
     1
102
RTVSPropertyOp6
 70
     1
102
RTVSPropertyOp7
 70
     1
102
RTVSPropertyOp8
 70
     1
102
RTVSPropertyOp9
 70
     1
102
RTVSPropertyOp10
 70
     1
102
RTVSPropertyOp11
 70
     1
102
RTVSPropertyOp12
 70
     1
102
RTVSPropertyOp13
 70
     1
102
RTVSPropertyOp14
 70
     1
102
RTVSPropertyOp15
 70
     1
102
RTVSPropertyOp16
 70
     1
102
RTVSPropertyOp17
 70
     1
102
RTVSPropertyOp18
 70
     1
102
RTVSPropertyOp19
 70
     1
102
RTVSPropertyOp20
 70
     1
102
RTVSPropertyOp21
 70
     1
102
RTVSPropertyOp22
 70
     1
102
RTVSPropertyOp23
 70
     1
102
RTVSPropertyOp24
 70
     1
102
RTVSPropertyOp25
 70
     1
102
RTVSPropertyOp26
 70
     1
102
RTVSPropertyOp27
 70
     1
102
RTVSPropertyOp28
 70
     1
102
RTVSPropertyOp29
 70
     1
102
RTVSPropertyOp30
 70
     1
102
RTVSPropertyOp31
 70
     1
102
RTVSPropertyOp32
 70
     1
102
RTVSPropertyOp33
 70
     1
102
RTVSPropertyOp34
 70
     1
102
RTVSPropertyOp35
 70
     1
102
RTVSPropertyOp36
 70
     1
102
RTVSPropertyOp37
 70
     1
102
RTVSPropertyOp38
 70
     1
102
RTVSPropertyOp39
 70
     1
102
RTVSPropertyOp40
 70
     1
102
RTVSPropertyOp41
 70
     1
102
RTVSPropertyOp42
 70
     1
102
RTVSPropertyOp43
 70
     1
102
RTVSPropertyOp44
 70
     1
102
RTVSPropertyOp45
 70
     1
102
RTVSPropertyOp46
 70
     1
102
RTVSPropertyOp47
 70
     1
102
RTVSPropertyOp48
 70
     1
102
RTVSPropertyOp49
 70
     1
102
RTVSPropertyOp50
 70
     1
102
RTVSPropertyOp51
 70
     0
102
RTVSPropertyOp52
 70
     0
102
RTVSPropertyOp53
 70
     1
102
RTVSPropertyOp54
 70
     1
102
RTVSPropertyOp55
 70
     1
102
RTVSPropertyOp56
 70
     1
102
RTVSPropertyOp57
 70
     1
102
RTVSPropertyOp58
 70
     1
102
RTVSPropertyOp59
 70
     1
102
RTVSPropertyOp60
 70
     1
102
RTVSPropertyOp61
 70
     1
102
RTVSPropertyOp62
 70
     1
  0
XRECORD
  5
41D9
102
{ACAD_REACTORS
330
41D8
102
}
330
41D8
100
AcDbXrecord
280
     1
102
RTVSPost2010Prop28
280
     0
102
RTVSPost2010PropOp28
 70
     1
102
RTVSPost2010Prop29
280
     1
102
RTVSPost2010PropOp29
 70
     1
102
RTVSPost2010Prop30
280
     1
102
RTVSPost2010PropOp30
 70
     1
102
RTVSPost2010Prop31
280
     0
102
RTVSPost2010PropOp31
 70
     1
102
RTVSPost2010Prop32
280
     0
102
RTVSPost2010PropOp32
 70
     1
102
RTVSPost2010Prop33
280
     0
102
RTVSPost2010PropOp33
 70
     1
102
RTVSPost2010Prop34
280
     0
102
RTVSPost2010PropOp34
 70
     1
102
RTVSPost2010Prop35
280
     0
102
RTVSPost2010PropOp35
 70
     1
102
RTVSPost2010Prop36
280
     0
102
RTVSPost2010PropOp36
 70
     1
102
RTVSPost2010Prop37
 90
       50
102
RTVSPost2010PropOp37
 70
     1
102
RTVSPost2010Prop38
140
0.0
102
RTVSPost2010PropOp38
 70
     1
102
RTVSPost2010Prop39
140
1.0
102
RTVSPost2010PropOp39
 70
     1
102
RTVSPost2010Prop40
 90
        0
102
RTVSPost2010PropOp40
 70
     1
102
RTVSPost2010Prop41ColorIndex
 90
       18
102
RTVSPost2010Prop41ColorRGB
 90
        0
102
RTVSPost2010PropOp41
 70
     1
102
RTVSPost2010Prop42
 90
       50
102
RTVSPost2010PropOp42
 70
     1
102
RTVSPost2010Prop43
 90
        3
102
RTVSPost2010PropOp43
 70
     1
102
RTVSPost2010Prop44ColorIndex
 90
        5
102
RTVSPost2010Prop44ColorRGB
 90
      255
102
RTVSPost2010PropOp44
 70
     1
102
RTVSPost2010Prop45
280
     0
102
RTVSPost2010PropOp45
 70
     1
102
RTVSPost2010Prop46
 90
       50
102
RTVSPost2010PropOp46
 70
     1
102
RTVSPost2010Prop47
 90
       50
102
RTVSPost2010PropOp47
 70
     1
102
RTVSPost2010Prop48
 90
       50
102
RTVSPost2010PropOp48
 70
     1
102
RTVSPost2010Prop49
280
     0
102
RTVSPost2010PropOp49
 70
     1
102
RTVSPost2010Prop50
 90
       50
102
RTVSPost2010PropOp50
 70
     1
102
RTVSPost2010Prop51ColorIndex
 90
      256
102
RTVSPost2010Prop51ColorRGB
 90
-16777216
102
RTVSPost2010PropOp51
 70
     0
102
RTVSPost2010Prop52
140
1.0
102
RTVSPost2010PropOp52
 70
     0
102
RTVSPost2010Prop53
 90
        2
102
RTVSPost2010PropOp53
 70
     1
102
RTVSPost2010Prop54
  1
strokes_ogs.tif
102
RTVSPost2010PropOp54
 70
     1
102
RTVSPost2010Prop55
280
     0
102
RTVSPost2010PropOp55
 70
     1
102
RTVSPost2010Prop56
140
1.0
102
RTVSPost2010PropOp56
 70
     1
102
RTVSPost2010Prop57
140
1.0
102
RTVSPost2010PropOp57
 70
     1
102
RTVSPropertyOp0
 70
     1
102
RTVSPropertyOp1
 70
     1
102
RTVSPropertyOp2
 70
     1
102
RTVSPropertyOp3
 70
     1
102
RTVSPropertyOp4
 70
     1
102
RTVSPropertyOp5
 70
     1
102
RTVSPropertyOp6
 70
     1
102
RTVSPropertyOp7
 70
     1
102
RTVSPropertyOp8
 70
     1
102
RTVSPropertyOp9
 70
     1
102
RTVSPropertyOp10
 70
     1
102
RTVSPropertyOp11
 70
     1
102
RTVSPropertyOp12
 70
     1
102
RTVSPropertyOp13
 70
     1
102
RTVSPropertyOp14
 70
     1
102
RTVSPropertyOp15
 70
     1
102
RTVSPropertyOp16
 70
     1
102
RTVSPropertyOp17
 70
     1
102
RTVSPropertyOp18
 70
     1
102
RTVSPropertyOp19
 70
     1
102
RTVSPropertyOp20
 70
     1
102
RTVSPropertyOp21
 70
     1
102
RTVSPropertyOp22
 70
     1
102
RTVSPropertyOp23
 70
     1
102
RTVSPropertyOp24
 70
     1
102
RTVSPropertyOp25
 70
     1
102
RTVSPropertyOp26
 70
     1
102
RTVSPropertyOp27
 70
     1
102
RTVSPropertyOp28
 70
     1
102
RTVSPropertyOp29
 70
     1
102
RTVSPropertyOp30
 70
     1
102
RTVSPropertyOp31
 70
     1
102
RTVSPropertyOp32
 70
     1
102
RTVSPropertyOp33
 70
     1
102
RTVSPropertyOp34
 70
     1
102
RTVSPropertyOp35
 70
     1
102
RTVSPropertyOp36
 70
     1
102
RTVSPropertyOp37
 70
     1
102
RTVSPropertyOp38
 70
     1
102
RTVSPropertyOp39
 70
     1
102
RTVSPropertyOp40
 70
     1
102
RTVSPropertyOp41
 70
     1
102
RTVSPropertyOp42
 70
     1
102
RTVSPropertyOp43
 70
     1
102
RTVSPropertyOp44
 70
     1
102
RTVSPropertyOp45
 70
     1
102
RTVSPropertyOp46
 70
     1
102
RTVSPropertyOp47
 70
     1
102
RTVSPropertyOp48
 70
     1
102
RTVSPropertyOp49
 70
     1
102
RTVSPropertyOp50
 70
     1
102
RTVSPropertyOp51
 70
     0
102
RTVSPropertyOp52
 70
     0
102
RTVSPropertyOp53
 70
     1
102
RTVSPropertyOp54
 70
     1
102
RTVSPropertyOp55
 70
     1
102
RTVSPropertyOp56
 70
     1
102
RTVSPropertyOp57
 70
     1
102
RTVSPropertyOp58
 70
     1
102
RTVSPropertyOp59
 70
     1
102
RTVSPropertyOp60
 70
     1
102
RTVSPropertyOp61
 70
     1
102
RTVSPropertyOp62
 70
     1
  0
XRECORD
  5
41E1
102
{ACAD_REACTORS
330
41E0
102
}
330
41E0
100
AcDbXrecord
280
     1
102
RTVSPost2010Prop28
280
     0
102
RTVSPost2010PropOp28
 70
     1
102
RTVSPost2010Prop29
280
     1
102
RTVSPost2010PropOp29
 70
     1
102
RTVSPost2010Prop30
280
     1
102
RTVSPost2010PropOp30
 70
     1
102
RTVSPost2010Prop31
280
     0
102
RTVSPost2010PropOp31
 70
     1
102
RTVSPost2010Prop32
280
     0
102
RTVSPost2010PropOp32
 70
     1
102
RTVSPost2010Prop33
280
     0
102
RTVSPost2010PropOp33
 70
     1
102
RTVSPost2010Prop34
280
     0
102
RTVSPost2010PropOp34
 70
     1
102
RTVSPost2010Prop35
280
     0
102
RTVSPost2010PropOp35
 70
     1
102
RTVSPost2010Prop36
280
     0
102
RTVSPost2010PropOp36
 70
     1
102
RTVSPost2010Prop37
 90
       50
102
RTVSPost2010PropOp37
 70
     1
102
RTVSPost2010Prop38
140
0.0
102
RTVSPost2010PropOp38
 70
     1
102
RTVSPost2010Prop39
140
1.0
102
RTVSPost2010PropOp39
 70
     1
102
RTVSPost2010Prop40
 90
        0
102
RTVSPost2010PropOp40
 70
     1
102
RTVSPost2010Prop41ColorIndex
 90
       18
102
RTVSPost2010Prop41ColorRGB
 90
        0
102
RTVSPost2010PropOp41
 70
     1
102
RTVSPost2010Prop42
 90
       50
102
RTVSPost2010PropOp42
 70
     1
102
RTVSPost2010Prop43
 90
        3
102
RTVSPost2010PropOp43
 70
     1
102
RTVSPost2010Prop44ColorIndex
 90
        5
102
RTVSPost2010Prop44ColorRGB
 90
      255
102
RTVSPost2010PropOp44
 70
     1
102
RTVSPost2010Prop45
280
     0
102
RTVSPost2010PropOp45
 70
     1
102
RTVSPost2010Prop46
 90
       50
102
RTVSPost2010PropOp46
 70
     1
102
RTVSPost2010Prop47
 90
       50
102
RTVSPost2010PropOp47
 70
     1
102
RTVSPost2010Prop48
 90
       50
102
RTVSPost2010PropOp48
 70
     1
102
RTVSPost2010Prop49
280
     0
102
RTVSPost2010PropOp49
 70
     1
102
RTVSPost2010Prop50
 90
       50
102
RTVSPost2010PropOp50
 70
     1
102
RTVSPost2010Prop51ColorIndex
 90
      256
102
RTVSPost2010Prop51ColorRGB
 90
-16777216
102
RTVSPost2010PropOp51
 70
     0
102
RTVSPost2010Prop52
140
1.0
102
RTVSPost2010PropOp52
 70
     0
102
RTVSPost2010Prop53
 90
        2
102
RTVSPost2010PropOp53
 70
     1
102
RTVSPost2010Prop54
  1
strokes_ogs.tif
102
RTVSPost2010PropOp54
 70
     1
102
RTVSPost2010Prop55
280
     0
102
RTVSPost2010PropOp55
 70
     1
102
RTVSPost2010Prop56
140
1.0
102
RTVSPost2010PropOp56
 70
     1
102
RTVSPost2010Prop57
140
1.0
102
RTVSPost2010PropOp57
 70
     1
102
RTVSPropertyOp0
 70
     1
102
RTVSPropertyOp1
 70
     1
102
RTVSPropertyOp2
 70
     1
102
RTVSPropertyOp3
 70
     1
102
RTVSPropertyOp4
 70
     1
102
RTVSPropertyOp5
 70
     1
102
RTVSPropertyOp6
 70
     1
102
RTVSPropertyOp7
 70
     1
102
RTVSPropertyOp8
 70
     1
102
RTVSPropertyOp9
 70
     1
102
RTVSPropertyOp10
 70
     1
102
RTVSPropertyOp11
 70
     1
102
RTVSPropertyOp12
 70
     1
102
RTVSPropertyOp13
 70
     1
102
RTVSPropertyOp14
 70
     1
102
RTVSPropertyOp15
 70
     1
102
RTVSPropertyOp16
 70
     1
102
RTVSPropertyOp17
 70
     1
102
RTVSPropertyOp18
 70
     1
102
RTVSPropertyOp19
 70
     1
102
RTVSPropertyOp20
 70
     1
102
RTVSPropertyOp21
 70
     1
102
RTVSPropertyOp22
 70
     1
102
RTVSPropertyOp23
 70
     1
102
RTVSPropertyOp24
 70
     1
102
RTVSPropertyOp25
 70
     1
102
RTVSPropertyOp26
 70
     1
102
RTVSPropertyOp27
 70
     1
102
RTVSPropertyOp28
 70
     1
102
RTVSPropertyOp29
 70
     1
102
RTVSPropertyOp30
 70
     1
102
RTVSPropertyOp31
 70
     1
102
RTVSPropertyOp32
 70
     1
102
RTVSPropertyOp33
 70
     1
102
RTVSPropertyOp34
 70
     1
102
RTVSPropertyOp35
 70
     1
102
RTVSPropertyOp36
 70
     1
102
RTVSPropertyOp37
 70
     1
102
RTVSPropertyOp38
 70
     1
102
RTVSPropertyOp39
 70
     1
102
RTVSPropertyOp40
 70
     1
102
RTVSPropertyOp41
 70
     1
102
RTVSPropertyOp42
 70
     1
102
RTVSPropertyOp43
 70
     1
102
RTVSPropertyOp44
 70
     1
102
RTVSPropertyOp45
 70
     1
102
RTVSPropertyOp46
 70
     1
102
RTVSPropertyOp47
 70
     1
102
RTVSPropertyOp48
 70
     1
102
RTVSPropertyOp49
 70
     1
102
RTVSPropertyOp50
 70
     1
102
RTVSPropertyOp51
 70
     0
102
RTVSPropertyOp52
 70
     0
102
RTVSPropertyOp53
 70
     1
102
RTVSPropertyOp54
 70
     1
102
RTVSPropertyOp55
 70
     1
102
RTVSPropertyOp56
 70
     1
102
RTVSPropertyOp57
 70
     1
102
RTVSPropertyOp58
 70
     1
102
RTVSPropertyOp59
 70
     1
102
RTVSPropertyOp60
 70
     1
102
RTVSPropertyOp61
 70
     1
102
RTVSPropertyOp62
 70
     1
  0
XRECORD
  5
41D3
102
{ACAD_REACTORS
330
41D2
102
}
330
41D2
100
AcDbXrecord
280
     1
102
RTVSPost2010Prop28
280
     0
102
RTVSPost2010PropOp28
 70
     1
102
RTVSPost2010Prop29
280
     1
102
RTVSPost2010PropOp29
 70
     1
102
RTVSPost2010Prop30
280
     1
102
RTVSPost2010PropOp30
 70
     1
102
RTVSPost2010Prop31
280
     0
102
RTVSPost2010PropOp31
 70
     1
102
RTVSPost2010Prop32
280
     0
102
RTVSPost2010PropOp32
 70
     1
102
RTVSPost2010Prop33
280
     0
102
RTVSPost2010PropOp33
 70
     1
102
RTVSPost2010Prop34
280
     0
102
RTVSPost2010PropOp34
 70
     1
102
RTVSPost2010Prop35
280
     0
102
RTVSPost2010PropOp35
 70
     1
102
RTVSPost2010Prop36
280
     0
102
RTVSPost2010PropOp36
 70
     1
102
RTVSPost2010Prop37
 90
       50
102
RTVSPost2010PropOp37
 70
     1
102
RTVSPost2010Prop38
140
0.0
102
RTVSPost2010PropOp38
 70
     1
102
RTVSPost2010Prop39
140
1.0
102
RTVSPost2010PropOp39
 70
     1
102
RTVSPost2010Prop40
 90
        0
102
RTVSPost2010PropOp40
 70
     1
102
RTVSPost2010Prop41ColorIndex
 90
       18
102
RTVSPost2010Prop41ColorRGB
 90
        0
102
RTVSPost2010PropOp41
 70
     1
102
RTVSPost2010Prop42
 90
       50
102
RTVSPost2010PropOp42
 70
     1
102
RTVSPost2010Prop43
 90
        3
102
RTVSPost2010PropOp43
 70
     1
102
RTVSPost2010Prop44ColorIndex
 90
        5
102
RTVSPost2010Prop44ColorRGB
 90
      255
102
RTVSPost2010PropOp44
 70
     1
102
RTVSPost2010Prop45
280
     0
102
RTVSPost2010PropOp45
 70
     1
102
RTVSPost2010Prop46
 90
       50
102
RTVSPost2010PropOp46
 70
     1
102
RTVSPost2010Prop47
 90
       50
102
RTVSPost2010PropOp47
 70
     1
102
RTVSPost2010Prop48
 90
       50
102
RTVSPost2010PropOp48
 70
     1
102
RTVSPost2010Prop49
280
     0
102
RTVSPost2010PropOp49
 70
     1
102
RTVSPost2010Prop50
 90
       50
102
RTVSPost2010PropOp50
 70
     1
102
RTVSPost2010Prop51ColorIndex
 90
      256
102
RTVSPost2010Prop51ColorRGB
 90
-16777216
102
RTVSPost2010PropOp51
 70
     0
102
RTVSPost2010Prop52
140
1.0
102
RTVSPost2010PropOp52
 70
     0
102
RTVSPost2010Prop53
 90
        2
102
RTVSPost2010PropOp53
 70
     1
102
RTVSPost2010Prop54
  1
strokes_ogs.tif
102
RTVSPost2010PropOp54
 70
     1
102
RTVSPost2010Prop55
280
     0
102
RTVSPost2010PropOp55
 70
     1
102
RTVSPost2010Prop56
140
1.0
102
RTVSPost2010PropOp56
 70
     1
102
RTVSPost2010Prop57
140
1.0
102
RTVSPost2010PropOp57
 70
     1
102
RTVSPropertyOp0
 70
     1
102
RTVSPropertyOp1
 70
     1
102
RTVSPropertyOp2
 70
     1
102
RTVSPropertyOp3
 70
     1
102
RTVSPropertyOp4
 70
     1
102
RTVSPropertyOp5
 70
     1
102
RTVSPropertyOp6
 70
     1
102
RTVSPropertyOp7
 70
     1
102
RTVSPropertyOp8
 70
     1
102
RTVSPropertyOp9
 70
     1
102
RTVSPropertyOp10
 70
     1
102
RTVSPropertyOp11
 70
     1
102
RTVSPropertyOp12
 70
     1
102
RTVSPropertyOp13
 70
     1
102
RTVSPropertyOp14
 70
     1
102
RTVSPropertyOp15
 70
     1
102
RTVSPropertyOp16
 70
     1
102
RTVSPropertyOp17
 70
     1
102
RTVSPropertyOp18
 70
     1
102
RTVSPropertyOp19
 70
     1
102
RTVSPropertyOp20
 70
     1
102
RTVSPropertyOp21
 70
     1
102
RTVSPropertyOp22
 70
     1
102
RTVSPropertyOp23
 70
     1
102
RTVSPropertyOp24
 70
     1
102
RTVSPropertyOp25
 70
     1
102
RTVSPropertyOp26
 70
     1
102
RTVSPropertyOp27
 70
     1
102
RTVSPropertyOp28
 70
     1
102
RTVSPropertyOp29
 70
     1
102
RTVSPropertyOp30
 70
     1
102
RTVSPropertyOp31
 70
     1
102
RTVSPropertyOp32
 70
     1
102
RTVSPropertyOp33
 70
     1
102
RTVSPropertyOp34
 70
     1
102
RTVSPropertyOp35
 70
     1
102
RTVSPropertyOp36
 70
     1
102
RTVSPropertyOp37
 70
     1
102
RTVSPropertyOp38
 70
     1
102
RTVSPropertyOp39
 70
     1
102
RTVSPropertyOp40
 70
     1
102
RTVSPropertyOp41
 70
     1
102
RTVSPropertyOp42
 70
     1
102
RTVSPropertyOp43
 70
     1
102
RTVSPropertyOp44
 70
     1
102
RTVSPropertyOp45
 70
     1
102
RTVSPropertyOp46
 70
     1
102
RTVSPropertyOp47
 70
     1
102
RTVSPropertyOp48
 70
     1
102
RTVSPropertyOp49
 70
     1
102
RTVSPropertyOp50
 70
     1
102
RTVSPropertyOp51
 70
     0
102
RTVSPropertyOp52
 70
     0
102
RTVSPropertyOp53
 70
     1
102
RTVSPropertyOp54
 70
     1
102
RTVSPropertyOp55
 70
     1
102
RTVSPropertyOp56
 70
     1
102
RTVSPropertyOp57
 70
     1
102
RTVSPropertyOp58
 70
     1
102
RTVSPropertyOp59
 70
     1
102
RTVSPropertyOp60
 70
     1
102
RTVSPropertyOp61
 70
     1
102
RTVSPropertyOp62
 70
     1
  0
XRECORD
  5
41D7
102
{ACAD_REACTORS
330
41D6
102
}
330
41D6
100
AcDbXrecord
280
     1
102
RTVSPost2010Prop28
280
     0
102
RTVSPost2010PropOp28
 70
     1
102
RTVSPost2010Prop29
280
     1
102
RTVSPost2010PropOp29
 70
     1
102
RTVSPost2010Prop30
280
     1
102
RTVSPost2010PropOp30
 70
     1
102
RTVSPost2010Prop31
280
     0
102
RTVSPost2010PropOp31
 70
     1
102
RTVSPost2010Prop32
280
     0
102
RTVSPost2010PropOp32
 70
     1
102
RTVSPost2010Prop33
280
     0
102
RTVSPost2010PropOp33
 70
     1
102
RTVSPost2010Prop34
280
     0
102
RTVSPost2010PropOp34
 70
     1
102
RTVSPost2010Prop35
280
     0
102
RTVSPost2010PropOp35
 70
     1
102
RTVSPost2010Prop36
280
     0
102
RTVSPost2010PropOp36
 70
     1
102
RTVSPost2010Prop37
 90
       50
102
RTVSPost2010PropOp37
 70
     1
102
RTVSPost2010Prop38
140
0.0
102
RTVSPost2010PropOp38
 70
     1
102
RTVSPost2010Prop39
140
1.0
102
RTVSPost2010PropOp39
 70
     1
102
RTVSPost2010Prop40
 90
        0
102
RTVSPost2010PropOp40
 70
     1
102
RTVSPost2010Prop41ColorIndex
 90
       18
102
RTVSPost2010Prop41ColorRGB
 90
        0
102
RTVSPost2010PropOp41
 70
     1
102
RTVSPost2010Prop42
 90
       50
102
RTVSPost2010PropOp42
 70
     1
102
RTVSPost2010Prop43
 90
        3
102
RTVSPost2010PropOp43
 70
     1
102
RTVSPost2010Prop44ColorIndex
 90
        5
102
RTVSPost2010Prop44ColorRGB
 90
      255
102
RTVSPost2010PropOp44
 70
     1
102
RTVSPost2010Prop45
280
     0
102
RTVSPost2010PropOp45
 70
     1
102
RTVSPost2010Prop46
 90
       50
102
RTVSPost2010PropOp46
 70
     1
102
RTVSPost2010Prop47
 90
       50
102
RTVSPost2010PropOp47
 70
     1
102
RTVSPost2010Prop48
 90
       50
102
RTVSPost2010PropOp48
 70
     1
102
RTVSPost2010Prop49
280
     0
102
RTVSPost2010PropOp49
 70
     1
102
RTVSPost2010Prop50
 90
       50
102
RTVSPost2010PropOp50
 70
     1
102
RTVSPost2010Prop51ColorIndex
 90
      256
102
RTVSPost2010Prop51ColorRGB
 90
-16777216
102
RTVSPost2010PropOp51
 70
     0
102
RTVSPost2010Prop52
140
1.0
102
RTVSPost2010PropOp52
 70
     0
102
RTVSPost2010Prop53
 90
        2
102
RTVSPost2010PropOp53
 70
     1
102
RTVSPost2010Prop54
  1
strokes_ogs.tif
102
RTVSPost2010PropOp54
 70
     1
102
RTVSPost2010Prop55
280
     0
102
RTVSPost2010PropOp55
 70
     1
102
RTVSPost2010Prop56
140
1.0
102
RTVSPost2010PropOp56
 70
     1
102
RTVSPost2010Prop57
140
1.0
102
RTVSPost2010PropOp57
 70
     1
102
RTVSPropertyOp0
 70
     1
102
RTVSPropertyOp1
 70
     1
102
RTVSPropertyOp2
 70
     1
102
RTVSPropertyOp3
 70
     1
102
RTVSPropertyOp4
 70
     1
102
RTVSPropertyOp5
 70
     1
102
RTVSPropertyOp6
 70
     1
102
RTVSPropertyOp7
 70
     1
102
RTVSPropertyOp8
 70
     1
102
RTVSPropertyOp9
 70
     1
102
RTVSPropertyOp10
 70
     1
102
RTVSPropertyOp11
 70
     1
102
RTVSPropertyOp12
 70
     1
102
RTVSPropertyOp13
 70
     1
102
RTVSPropertyOp14
 70
     1
102
RTVSPropertyOp15
 70
     1
102
RTVSPropertyOp16
 70
     1
102
RTVSPropertyOp17
 70
     1
102
RTVSPropertyOp18
 70
     1
102
RTVSPropertyOp19
 70
     1
102
RTVSPropertyOp20
 70
     1
102
RTVSPropertyOp21
 70
     1
102
RTVSPropertyOp22
 70
     1
102
RTVSPropertyOp23
 70
     1
102
RTVSPropertyOp24
 70
     1
102
RTVSPropertyOp25
 70
     1
102
RTVSPropertyOp26
 70
     1
102
RTVSPropertyOp27
 70
     1
102
RTVSPropertyOp28
 70
     1
102
RTVSPropertyOp29
 70
     1
102
RTVSPropertyOp30
 70
     1
102
RTVSPropertyOp31
 70
     1
102
RTVSPropertyOp32
 70
     1
102
RTVSPropertyOp33
 70
     1
102
RTVSPropertyOp34
 70
     1
102
RTVSPropertyOp35
 70
     1
102
RTVSPropertyOp36
 70
     1
102
RTVSPropertyOp37
 70
     1
102
RTVSPropertyOp38
 70
     1
102
RTVSPropertyOp39
 70
     1
102
RTVSPropertyOp40
 70
     1
102
RTVSPropertyOp41
 70
     1
102
RTVSPropertyOp42
 70
     1
102
RTVSPropertyOp43
 70
     1
102
RTVSPropertyOp44
 70
     1
102
RTVSPropertyOp45
 70
     1
102
RTVSPropertyOp46
 70
     1
102
RTVSPropertyOp47
 70
     1
102
RTVSPropertyOp48
 70
     1
102
RTVSPropertyOp49
 70
     1
102
RTVSPropertyOp50
 70
     1
102
RTVSPropertyOp51
 70
     0
102
RTVSPropertyOp52
 70
     0
102
RTVSPropertyOp53
 70
     1
102
RTVSPropertyOp54
 70
     1
102
RTVSPropertyOp55
 70
     1
102
RTVSPropertyOp56
 70
     1
102
RTVSPropertyOp57
 70
     1
102
RTVSPropertyOp58
 70
     1
102
RTVSPropertyOp59
 70
     1
102
RTVSPropertyOp60
 70
     1
102
RTVSPropertyOp61
 70
     1
102
RTVSPropertyOp62
 70
     1
  0
XRECORD
  5
41E7
102
{ACAD_REACTORS
330
41E6
102
}
330
41E6
100
AcDbXrecord
280
     1
102
RTVSPost2010Prop28
280
     0
102
RTVSPost2010PropOp28
 70
     1
102
RTVSPost2010Prop29
280
     1
102
RTVSPost2010PropOp29
 70
     1
102
RTVSPost2010Prop30
280
     1
102
RTVSPost2010PropOp30
 70
     1
102
RTVSPost2010Prop31
280
     0
102
RTVSPost2010PropOp31
 70
     1
102
RTVSPost2010Prop32
280
     0
102
RTVSPost2010PropOp32
 70
     1
102
RTVSPost2010Prop33
280
     0
102
RTVSPost2010PropOp33
 70
     1
102
RTVSPost2010Prop34
280
     0
102
RTVSPost2010PropOp34
 70
     1
102
RTVSPost2010Prop35
280
     0
102
RTVSPost2010PropOp35
 70
     1
102
RTVSPost2010Prop36
280
     0
102
RTVSPost2010PropOp36
 70
     1
102
RTVSPost2010Prop37
 90
       50
102
RTVSPost2010PropOp37
 70
     1
102
RTVSPost2010Prop38
140
0.0
102
RTVSPost2010PropOp38
 70
     1
102
RTVSPost2010Prop39
140
1.0
102
RTVSPost2010PropOp39
 70
     1
102
RTVSPost2010Prop40
 90
        0
102
RTVSPost2010PropOp40
 70
     1
102
RTVSPost2010Prop41ColorIndex
 90
       18
102
RTVSPost2010Prop41ColorRGB
 90
        0
102
RTVSPost2010PropOp41
 70
     1
102
RTVSPost2010Prop42
 90
       50
102
RTVSPost2010PropOp42
 70
     1
102
RTVSPost2010Prop43
 90
        3
102
RTVSPost2010PropOp43
 70
     1
102
RTVSPost2010Prop44ColorIndex
 90
        5
102
RTVSPost2010Prop44ColorRGB
 90
      255
102
RTVSPost2010PropOp44
 70
     1
102
RTVSPost2010Prop45
280
     0
102
RTVSPost2010PropOp45
 70
     1
102
RTVSPost2010Prop46
 90
       50
102
RTVSPost2010PropOp46
 70
     1
102
RTVSPost2010Prop47
 90
       50
102
RTVSPost2010PropOp47
 70
     1
102
RTVSPost2010Prop48
 90
       50
102
RTVSPost2010PropOp48
 70
     1
102
RTVSPost2010Prop49
280
     0
102
RTVSPost2010PropOp49
 70
     1
102
RTVSPost2010Prop50
 90
       50
102
RTVSPost2010PropOp50
 70
     1
102
RTVSPost2010Prop51ColorIndex
 90
      256
102
RTVSPost2010Prop51ColorRGB
 90
-16777216
102
RTVSPost2010PropOp51
 70
     0
102
RTVSPost2010Prop52
140
1.0
102
RTVSPost2010PropOp52
 70
     0
102
RTVSPost2010Prop53
 90
        2
102
RTVSPost2010PropOp53
 70
     1
102
RTVSPost2010Prop54
  1
strokes_ogs.tif
102
RTVSPost2010PropOp54
 70
     1
102
RTVSPost2010Prop55
280
     0
102
RTVSPost2010PropOp55
 70
     1
102
RTVSPost2010Prop56
140
1.0
102
RTVSPost2010PropOp56
 70
     1
102
RTVSPost2010Prop57
140
1.0
102
RTVSPost2010PropOp57
 70
     1
102
RTVSPropertyOp0
 70
     0
102
RTVSPropertyOp1
 70
     0
102
RTVSPropertyOp2
 70
     0
102
RTVSPropertyOp3
 70
     0
102
RTVSPropertyOp4
 70
     0
102
RTVSPropertyOp5
 70
     0
102
RTVSPropertyOp6
 70
     0
102
RTVSPropertyOp7
 70
     0
102
RTVSPropertyOp8
 70
     0
102
RTVSPropertyOp9
 70
     0
102
RTVSPropertyOp10
 70
     0
102
RTVSPropertyOp11
 70
     0
102
RTVSPropertyOp12
 70
     0
102
RTVSPropertyOp13
 70
     0
102
RTVSPropertyOp14
 70
     2
102
RTVSPropertyOp15
 70
     0
102
RTVSPropertyOp16
 70
     0
102
RTVSPropertyOp17
 70
     0
102
RTVSPropertyOp18
 70
     0
102
RTVSPropertyOp19
 70
     0
102
RTVSPropertyOp20
 70
     0
102
RTVSPropertyOp21
 70
     0
102
RTVSPropertyOp22
 70
     0
102
RTVSPropertyOp23
 70
     0
102
RTVSPropertyOp24
 70
     0
102
RTVSPropertyOp25
 70
     0
102
RTVSPropertyOp26
 70
     0
102
RTVSPropertyOp27
 70
     0
102
RTVSPropertyOp28
 70
     1
102
RTVSPropertyOp29
 70
     1
102
RTVSPropertyOp30
 70
     1
102
RTVSPropertyOp31
 70
     1
102
RTVSPropertyOp32
 70
     1
102
RTVSPropertyOp33
 70
     1
102
RTVSPropertyOp34
 70
     1
102
RTVSPropertyOp35
 70
     1
102
RTVSPropertyOp36
 70
     1
102
RTVSPropertyOp37
 70
     1
102
RTVSPropertyOp38
 70
     1
102
RTVSPropertyOp39
 70
     1
102
RTVSPropertyOp40
 70
     1
102
RTVSPropertyOp41
 70
     1
102
RTVSPropertyOp42
 70
     1
102
RTVSPropertyOp43
 70
     1
102
RTVSPropertyOp44
 70
     1
102
RTVSPropertyOp45
 70
     1
102
RTVSPropertyOp46
 70
     1
102
RTVSPropertyOp47
 70
     1
102
RTVSPropertyOp48
 70
     1
102
RTVSPropertyOp49
 70
     1
102
RTVSPropertyOp50
 70
     1
102
RTVSPropertyOp51
 70
     0
102
RTVSPropertyOp52
 70
     0
102
RTVSPropertyOp53
 70
     1
102
RTVSPropertyOp54
 70
     1
102
RTVSPropertyOp55
 70
     1
102
RTVSPropertyOp56
 70
     1
102
RTVSPropertyOp57
 70
     1
102
RTVSPropertyOp58
 70
     1
102
RTVSPropertyOp59
 70
     1
102
RTVSPropertyOp60
 70
     1
102
RTVSPropertyOp61
 70
     1
102
RTVSPropertyOp62
 70
     1
  0
XRECORD
  5
41DF
102
{ACAD_REACTORS
330
41DE
102
}
330
41DE
100
AcDbXrecord
280
     1
102
RTVSPost2010Prop28
280
     0
102
RTVSPost2010PropOp28
 70
     1
102
RTVSPost2010Prop29
280
     1
102
RTVSPost2010PropOp29
 70
     1
102
RTVSPost2010Prop30
280
     1
102
RTVSPost2010PropOp30
 70
     1
102
RTVSPost2010Prop31
280
     0
102
RTVSPost2010PropOp31
 70
     1
102
RTVSPost2010Prop32
280
     0
102
RTVSPost2010PropOp32
 70
     1
102
RTVSPost2010Prop33
280
     0
102
RTVSPost2010PropOp33
 70
     1
102
RTVSPost2010Prop34
280
     0
102
RTVSPost2010PropOp34
 70
     1
102
RTVSPost2010Prop35
280
     0
102
RTVSPost2010PropOp35
 70
     1
102
RTVSPost2010Prop36
280
     0
102
RTVSPost2010PropOp36
 70
     1
102
RTVSPost2010Prop37
 90
       50
102
RTVSPost2010PropOp37
 70
     1
102
RTVSPost2010Prop38
140
0.0
102
RTVSPost2010PropOp38
 70
     1
102
RTVSPost2010Prop39
140
1.0
102
RTVSPost2010PropOp39
 70
     1
102
RTVSPost2010Prop40
 90
        0
102
RTVSPost2010PropOp40
 70
     1
102
RTVSPost2010Prop41ColorIndex
 90
       18
102
RTVSPost2010Prop41ColorRGB
 90
        0
102
RTVSPost2010PropOp41
 70
     1
102
RTVSPost2010Prop42
 90
       50
102
RTVSPost2010PropOp42
 70
     1
102
RTVSPost2010Prop43
 90
        3
102
RTVSPost2010PropOp43
 70
     1
102
RTVSPost2010Prop44ColorIndex
 90
        5
102
RTVSPost2010Prop44ColorRGB
 90
      255
102
RTVSPost2010PropOp44
 70
     1
102
RTVSPost2010Prop45
280
     0
102
RTVSPost2010PropOp45
 70
     1
102
RTVSPost2010Prop46
 90
       50
102
RTVSPost2010PropOp46
 70
     1
102
RTVSPost2010Prop47
 90
       50
102
RTVSPost2010PropOp47
 70
     1
102
RTVSPost2010Prop48
 90
       50
102
RTVSPost2010PropOp48
 70
     1
102
RTVSPost2010Prop49
280
     0
102
RTVSPost2010PropOp49
 70
     1
102
RTVSPost2010Prop50
 90
       50
102
RTVSPost2010PropOp50
 70
     1
102
RTVSPost2010Prop51ColorIndex
 90
      256
102
RTVSPost2010Prop51ColorRGB
 90
-16777216
102
RTVSPost2010PropOp51
 70
     0
102
RTVSPost2010Prop52
140
1.0
102
RTVSPost2010PropOp52
 70
     0
102
RTVSPost2010Prop53
 90
        2
102
RTVSPost2010PropOp53
 70
     1
102
RTVSPost2010Prop54
  1
strokes_ogs.tif
102
RTVSPost2010PropOp54
 70
     1
102
RTVSPost2010Prop55
280
     0
102
RTVSPost2010PropOp55
 70
     1
102
RTVSPost2010Prop56
140
1.0
102
RTVSPost2010PropOp56
 70
     1
102
RTVSPost2010Prop57
140
1.0
102
RTVSPost2010PropOp57
 70
     1
102
RTVSPropertyOp0
 70
     1
102
RTVSPropertyOp1
 70
     1
102
RTVSPropertyOp2
 70
     1
102
RTVSPropertyOp3
 70
     1
102
RTVSPropertyOp4
 70
     1
102
RTVSPropertyOp5
 70
     1
102
RTVSPropertyOp6
 70
     1
102
RTVSPropertyOp7
 70
     1
102
RTVSPropertyOp8
 70
     1
102
RTVSPropertyOp9
 70
     1
102
RTVSPropertyOp10
 70
     1
102
RTVSPropertyOp11
 70
     1
102
RTVSPropertyOp12
 70
     1
102
RTVSPropertyOp13
 70
     1
102
RTVSPropertyOp14
 70
     1
102
RTVSPropertyOp15
 70
     1
102
RTVSPropertyOp16
 70
     1
102
RTVSPropertyOp17
 70
     1
102
RTVSPropertyOp18
 70
     1
102
RTVSPropertyOp19
 70
     1
102
RTVSPropertyOp20
 70
     1
102
RTVSPropertyOp21
 70
     1
102
RTVSPropertyOp22
 70
     1
102
RTVSPropertyOp23
 70
     1
102
RTVSPropertyOp24
 70
     1
102
RTVSPropertyOp25
 70
     1
102
RTVSPropertyOp26
 70
     1
102
RTVSPropertyOp27
 70
     1
102
RTVSPropertyOp28
 70
     1
102
RTVSPropertyOp29
 70
     1
102
RTVSPropertyOp30
 70
     1
102
RTVSPropertyOp31
 70
     1
102
RTVSPropertyOp32
 70
     1
102
RTVSPropertyOp33
 70
     1
102
RTVSPropertyOp34
 70
     1
102
RTVSPropertyOp35
 70
     1
102
RTVSPropertyOp36
 70
     1
102
RTVSPropertyOp37
 70
     1
102
RTVSPropertyOp38
 70
     1
102
RTVSPropertyOp39
 70
     1
102
RTVSPropertyOp40
 70
     1
102
RTVSPropertyOp41
 70
     1
102
RTVSPropertyOp42
 70
     1
102
RTVSPropertyOp43
 70
     1
102
RTVSPropertyOp44
 70
     1
102
RTVSPropertyOp45
 70
     1
102
RTVSPropertyOp46
 70
     1
102
RTVSPropertyOp47
 70
     1
102
RTVSPropertyOp48
 70
     1
102
RTVSPropertyOp49
 70
     1
102
RTVSPropertyOp50
 70
     1
102
RTVSPropertyOp51
 70
     0
102
RTVSPropertyOp52
 70
     0
102
RTVSPropertyOp53
 70
     1
102
RTVSPropertyOp54
 70
     1
102
RTVSPropertyOp55
 70
     1
102
RTVSPropertyOp56
 70
     1
102
RTVSPropertyOp57
 70
     1
102
RTVSPropertyOp58
 70
     1
102
RTVSPropertyOp59
 70
     1
102
RTVSPropertyOp60
 70
     1
102
RTVSPropertyOp61
 70
     1
102
RTVSPropertyOp62
 70
     1
  0
XRECORD
  5
41C3
102
{ACAD_REACTORS
330
41C2
102
}
330
41C2
100
AcDbXrecord
280
     1
102
RTVSPost2010Prop28
280
     0
102
RTVSPost2010PropOp28
 70
     1
102
RTVSPost2010Prop29
280
     1
102
RTVSPost2010PropOp29
 70
     1
102
RTVSPost2010Prop30
280
     1
102
RTVSPost2010PropOp30
 70
     1
102
RTVSPost2010Prop31
280
     0
102
RTVSPost2010PropOp31
 70
     1
102
RTVSPost2010Prop32
280
     0
102
RTVSPost2010PropOp32
 70
     1
102
RTVSPost2010Prop33
280
     0
102
RTVSPost2010PropOp33
 70
     1
102
RTVSPost2010Prop34
280
     0
102
RTVSPost2010PropOp34
 70
     1
102
RTVSPost2010Prop35
280
     0
102
RTVSPost2010PropOp35
 70
     1
102
RTVSPost2010Prop36
280
     0
102
RTVSPost2010PropOp36
 70
     1
102
RTVSPost2010Prop37
 90
       50
102
RTVSPost2010PropOp37
 70
     1
102
RTVSPost2010Prop38
140
0.0
102
RTVSPost2010PropOp38
 70
     1
102
RTVSPost2010Prop39
140
1.0
102
RTVSPost2010PropOp39
 70
     1
102
RTVSPost2010Prop40
 90
        0
102
RTVSPost2010PropOp40
 70
     1
102
RTVSPost2010Prop41ColorIndex
 90
       18
102
RTVSPost2010Prop41ColorRGB
 90
        0
102
RTVSPost2010PropOp41
 70
     1
102
RTVSPost2010Prop42
 90
       50
102
RTVSPost2010PropOp42
 70
     1
102
RTVSPost2010Prop43
 90
        3
102
RTVSPost2010PropOp43
 70
     1
102
RTVSPost2010Prop44ColorIndex
 90
        5
102
RTVSPost2010Prop44ColorRGB
 90
      255
102
RTVSPost2010PropOp44
 70
     1
102
RTVSPost2010Prop45
280
     0
102
RTVSPost2010PropOp45
 70
     1
102
RTVSPost2010Prop46
 90
       50
102
RTVSPost2010PropOp46
 70
     1
102
RTVSPost2010Prop47
 90
       50
102
RTVSPost2010PropOp47
 70
     1
102
RTVSPost2010Prop48
 90
       50
102
RTVSPost2010PropOp48
 70
     1
102
RTVSPost2010Prop49
280
     0
102
RTVSPost2010PropOp49
 70
     1
102
RTVSPost2010Prop50
 90
       50
102
RTVSPost2010PropOp50
 70
     1
102
RTVSPost2010Prop51ColorIndex
 90
      256
102
RTVSPost2010Prop51ColorRGB
 90
-16777216
102
RTVSPost2010PropOp51
 70
     0
102
RTVSPost2010Prop52
140
1.0
102
RTVSPost2010PropOp52
 70
     0
102
RTVSPost2010Prop53
 90
        2
102
RTVSPost2010PropOp53
 70
     1
102
RTVSPost2010Prop54
  1
strokes_ogs.tif
102
RTVSPost2010PropOp54
 70
     1
102
RTVSPost2010Prop55
280
     0
102
RTVSPost2010PropOp55
 70
     1
102
RTVSPost2010Prop56
140
1.0
102
RTVSPost2010PropOp56
 70
     1
102
RTVSPost2010Prop57
140
1.0
102
RTVSPost2010PropOp57
 70
     1
102
RTVSPropertyOp0
 70
     1
102
RTVSPropertyOp1
 70
     1
102
RTVSPropertyOp2
 70
     1
102
RTVSPropertyOp3
 70
     1
102
RTVSPropertyOp4
 70
     1
102
RTVSPropertyOp5
 70
     1
102
RTVSPropertyOp6
 70
     1
102
RTVSPropertyOp7
 70
     1
102
RTVSPropertyOp8
 70
     1
102
RTVSPropertyOp9
 70
     1
102
RTVSPropertyOp10
 70
     1
102
RTVSPropertyOp11
 70
     1
102
RTVSPropertyOp12
 70
     1
102
RTVSPropertyOp13
 70
     1
102
RTVSPropertyOp14
 70
     1
102
RTVSPropertyOp15
 70
     1
102
RTVSPropertyOp16
 70
     1
102
RTVSPropertyOp17
 70
     1
102
RTVSPropertyOp18
 70
     1
102
RTVSPropertyOp19
 70
     1
102
RTVSPropertyOp20
 70
     1
102
RTVSPropertyOp21
 70
     1
102
RTVSPropertyOp22
 70
     1
102
RTVSPropertyOp23
 70
     1
102
RTVSPropertyOp24
 70
     1
102
RTVSPropertyOp25
 70
     1
102
RTVSPropertyOp26
 70
     1
102
RTVSPropertyOp27
 70
     1
102
RTVSPropertyOp28
 70
     1
102
RTVSPropertyOp29
 70
     1
102
RTVSPropertyOp30
 70
     1
102
RTVSPropertyOp31
 70
     1
102
RTVSPropertyOp32
 70
     1
102
RTVSPropertyOp33
 70
     1
102
RTVSPropertyOp34
 70
     1
102
RTVSPropertyOp35
 70
     1
102
RTVSPropertyOp36
 70
     1
102
RTVSPropertyOp37
 70
     1
102
RTVSPropertyOp38
 70
     1
102
RTVSPropertyOp39
 70
     1
102
RTVSPropertyOp40
 70
     1
102
RTVSPropertyOp41
 70
     1
102
RTVSPropertyOp42
 70
     1
102
RTVSPropertyOp43
 70
     1
102
RTVSPropertyOp44
 70
     1
102
RTVSPropertyOp45
 70
     1
102
RTVSPropertyOp46
 70
     1
102
RTVSPropertyOp47
 70
     1
102
RTVSPropertyOp48
 70
     1
102
RTVSPropertyOp49
 70
     1
102
RTVSPropertyOp50
 70
     1
102
RTVSPropertyOp51
 70
     0
102
RTVSPropertyOp52
 70
     0
102
RTVSPropertyOp53
 70
     1
102
RTVSPropertyOp54
 70
     1
102
RTVSPropertyOp55
 70
     1
102
RTVSPropertyOp56
 70
     1
102
RTVSPropertyOp57
 70
     1
102
RTVSPropertyOp58
 70
     1
102
RTVSPropertyOp59
 70
     1
102
RTVSPropertyOp60
 70
     1
102
RTVSPropertyOp61
 70
     1
102
RTVSPropertyOp62
 70
     1
  0
XRECORD
  5
41C5
102
{ACAD_REACTORS
330
41C4
102
}
330
41C4
100
AcDbXrecord
280
     1
102
RTVSPost2010Prop28
280
     0
102
RTVSPost2010PropOp28
 70
     1
102
RTVSPost2010Prop29
280
     1
102
RTVSPost2010PropOp29
 70
     1
102
RTVSPost2010Prop30
280
     1
102
RTVSPost2010PropOp30
 70
     1
102
RTVSPost2010Prop31
280
     0
102
RTVSPost2010PropOp31
 70
     1
102
RTVSPost2010Prop32
280
     0
102
RTVSPost2010PropOp32
 70
     1
102
RTVSPost2010Prop33
280
     0
102
RTVSPost2010PropOp33
 70
     1
102
RTVSPost2010Prop34
280
     0
102
RTVSPost2010PropOp34
 70
     1
102
RTVSPost2010Prop35
280
     0
102
RTVSPost2010PropOp35
 70
     1
102
RTVSPost2010Prop36
280
     0
102
RTVSPost2010PropOp36
 70
     1
102
RTVSPost2010Prop37
 90
       50
102
RTVSPost2010PropOp37
 70
     1
102
RTVSPost2010Prop38
140
0.0
102
RTVSPost2010PropOp38
 70
     1
102
RTVSPost2010Prop39
140
1.0
102
RTVSPost2010PropOp39
 70
     1
102
RTVSPost2010Prop40
 90
        0
102
RTVSPost2010PropOp40
 70
     1
102
RTVSPost2010Prop41ColorIndex
 90
       18
102
RTVSPost2010Prop41ColorRGB
 90
        0
102
RTVSPost2010PropOp41
 70
     1
102
RTVSPost2010Prop42
 90
       50
102
RTVSPost2010PropOp42
 70
     1
102
RTVSPost2010Prop43
 90
        3
102
RTVSPost2010PropOp43
 70
     1
102
RTVSPost2010Prop44ColorIndex
 90
        5
102
RTVSPost2010Prop44ColorRGB
 90
      255
102
RTVSPost2010PropOp44
 70
     1
102
RTVSPost2010Prop45
280
     0
102
RTVSPost2010PropOp45
 70
     1
102
RTVSPost2010Prop46
 90
       50
102
RTVSPost2010PropOp46
 70
     1
102
RTVSPost2010Prop47
 90
       50
102
RTVSPost2010PropOp47
 70
     1
102
RTVSPost2010Prop48
 90
       50
102
RTVSPost2010PropOp48
 70
     1
102
RTVSPost2010Prop49
280
     0
102
RTVSPost2010PropOp49
 70
     1
102
RTVSPost2010Prop50
 90
       50
102
RTVSPost2010PropOp50
 70
     1
102
RTVSPost2010Prop51ColorIndex
 90
      256
102
RTVSPost2010Prop51ColorRGB
 90
-16777216
102
RTVSPost2010PropOp51
 70
     0
102
RTVSPost2010Prop52
140
1.0
102
RTVSPost2010PropOp52
 70
     0
102
RTVSPost2010Prop53
 90
        2
102
RTVSPost2010PropOp53
 70
     1
102
RTVSPost2010Prop54
  1
strokes_ogs.tif
102
RTVSPost2010PropOp54
 70
     1
102
RTVSPost2010Prop55
280
     0
102
RTVSPost2010PropOp55
 70
     1
102
RTVSPost2010Prop56
140
1.0
102
RTVSPost2010PropOp56
 70
     1
102
RTVSPost2010Prop57
140
1.0
102
RTVSPost2010PropOp57
 70
     1
102
RTVSPropertyOp0
 70
     1
102
RTVSPropertyOp1
 70
     1
102
RTVSPropertyOp2
 70
     1
102
RTVSPropertyOp3
 70
     1
102
RTVSPropertyOp4
 70
     1
102
RTVSPropertyOp5
 70
     1
102
RTVSPropertyOp6
 70
     1
102
RTVSPropertyOp7
 70
     1
102
RTVSPropertyOp8
 70
     1
102
RTVSPropertyOp9
 70
     1
102
RTVSPropertyOp10
 70
     1
102
RTVSPropertyOp11
 70
     1
102
RTVSPropertyOp12
 70
     1
102
RTVSPropertyOp13
 70
     1
102
RTVSPropertyOp14
 70
     1
102
RTVSPropertyOp15
 70
     1
102
RTVSPropertyOp16
 70
     1
102
RTVSPropertyOp17
 70
     1
102
RTVSPropertyOp18
 70
     1
102
RTVSPropertyOp19
 70
     1
102
RTVSPropertyOp20
 70
     1
102
RTVSPropertyOp21
 70
     1
102
RTVSPropertyOp22
 70
     1
102
RTVSPropertyOp23
 70
     1
102
RTVSPropertyOp24
 70
     1
102
RTVSPropertyOp25
 70
     1
102
RTVSPropertyOp26
 70
     1
102
RTVSPropertyOp27
 70
     1
102
RTVSPropertyOp28
 70
     1
102
RTVSPropertyOp29
 70
     1
102
RTVSPropertyOp30
 70
     1
102
RTVSPropertyOp31
 70
     1
102
RTVSPropertyOp32
 70
     1
102
RTVSPropertyOp33
 70
     1
102
RTVSPropertyOp34
 70
     1
102
RTVSPropertyOp35
 70
     1
102
RTVSPropertyOp36
 70
     1
102
RTVSPropertyOp37
 70
     1
102
RTVSPropertyOp38
 70
     1
102
RTVSPropertyOp39
 70
     1
102
RTVSPropertyOp40
 70
     1
102
RTVSPropertyOp41
 70
     1
102
RTVSPropertyOp42
 70
     1
102
RTVSPropertyOp43
 70
     1
102
RTVSPropertyOp44
 70
     1
102
RTVSPropertyOp45
 70
     1
102
RTVSPropertyOp46
 70
     1
102
RTVSPropertyOp47
 70
     1
102
RTVSPropertyOp48
 70
     1
102
RTVSPropertyOp49
 70
     1
102
RTVSPropertyOp50
 70
     1
102
RTVSPropertyOp51
 70
     0
102
RTVSPropertyOp52
 70
     0
102
RTVSPropertyOp53
 70
     1
102
RTVSPropertyOp54
 70
     1
102
RTVSPropertyOp55
 70
     1
102
RTVSPropertyOp56
 70
     1
102
RTVSPropertyOp57
 70
     1
102
RTVSPropertyOp58
 70
     1
102
RTVSPropertyOp59
 70
     1
102
RTVSPropertyOp60
 70
     1
102
RTVSPropertyOp61
 70
     1
102
RTVSPropertyOp62
 70
     1
  0
XRECORD
  5
41C7
102
{ACAD_REACTORS
330
41C6
102
}
330
41C6
100
AcDbXrecord
280
     1
102
RTVSPost2010Prop28
280
     0
102
RTVSPost2010PropOp28
 70
     1
102
RTVSPost2010Prop29
280
     1
102
RTVSPost2010PropOp29
 70
     1
102
RTVSPost2010Prop30
280
     1
102
RTVSPost2010PropOp30
 70
     1
102
RTVSPost2010Prop31
280
     0
102
RTVSPost2010PropOp31
 70
     1
102
RTVSPost2010Prop32
280
     0
102
RTVSPost2010PropOp32
 70
     1
102
RTVSPost2010Prop33
280
     0
102
RTVSPost2010PropOp33
 70
     1
102
RTVSPost2010Prop34
280
     0
102
RTVSPost2010PropOp34
 70
     1
102
RTVSPost2010Prop35
280
     0
102
RTVSPost2010PropOp35
 70
     1
102
RTVSPost2010Prop36
280
     0
102
RTVSPost2010PropOp36
 70
     1
102
RTVSPost2010Prop37
 90
       50
102
RTVSPost2010PropOp37
 70
     1
102
RTVSPost2010Prop38
140
0.0
102
RTVSPost2010PropOp38
 70
     1
102
RTVSPost2010Prop39
140
1.0
102
RTVSPost2010PropOp39
 70
     1
102
RTVSPost2010Prop40
 90
        0
102
RTVSPost2010PropOp40
 70
     1
102
RTVSPost2010Prop41ColorIndex
 90
       18
102
RTVSPost2010Prop41ColorRGB
 90
        0
102
RTVSPost2010PropOp41
 70
     1
102
RTVSPost2010Prop42
 90
       50
102
RTVSPost2010PropOp42
 70
     1
102
RTVSPost2010Prop43
 90
        3
102
RTVSPost2010PropOp43
 70
     1
102
RTVSPost2010Prop44ColorIndex
 90
        5
102
RTVSPost2010Prop44ColorRGB
 90
      255
102
RTVSPost2010PropOp44
 70
     1
102
RTVSPost2010Prop45
280
     0
102
RTVSPost2010PropOp45
 70
     1
102
RTVSPost2010Prop46
 90
       50
102
RTVSPost2010PropOp46
 70
     1
102
RTVSPost2010Prop47
 90
       50
102
RTVSPost2010PropOp47
 70
     1
102
RTVSPost2010Prop48
 90
       50
102
RTVSPost2010PropOp48
 70
     1
102
RTVSPost2010Prop49
280
     0
102
RTVSPost2010PropOp49
 70
     1
102
RTVSPost2010Prop50
 90
       50
102
RTVSPost2010PropOp50
 70
     1
102
RTVSPost2010Prop51ColorIndex
 90
      256
102
RTVSPost2010Prop51ColorRGB
 90
-16777216
102
RTVSPost2010PropOp51
 70
     0
102
RTVSPost2010Prop52
140
1.0
102
RTVSPost2010PropOp52
 70
     0
102
RTVSPost2010Prop53
 90
        2
102
RTVSPost2010PropOp53
 70
     1
102
RTVSPost2010Prop54
  1
strokes_ogs.tif
102
RTVSPost2010PropOp54
 70
     1
102
RTVSPost2010Prop55
280
     0
102
RTVSPost2010PropOp55
 70
     1
102
RTVSPost2010Prop56
140
1.0
102
RTVSPost2010PropOp56
 70
     1
102
RTVSPost2010Prop57
140
1.0
102
RTVSPost2010PropOp57
 70
     1
102
RTVSPropertyOp0
 70
     1
102
RTVSPropertyOp1
 70
     1
102
RTVSPropertyOp2
 70
     1
102
RTVSPropertyOp3
 70
     1
102
RTVSPropertyOp4
 70
     1
102
RTVSPropertyOp5
 70
     1
102
RTVSPropertyOp6
 70
     1
102
RTVSPropertyOp7
 70
     1
102
RTVSPropertyOp8
 70
     1
102
RTVSPropertyOp9
 70
     1
102
RTVSPropertyOp10
 70
     1
102
RTVSPropertyOp11
 70
     1
102
RTVSPropertyOp12
 70
     1
102
RTVSPropertyOp13
 70
     1
102
RTVSPropertyOp14
 70
     1
102
RTVSPropertyOp15
 70
     1
102
RTVSPropertyOp16
 70
     1
102
RTVSPropertyOp17
 70
     1
102
RTVSPropertyOp18
 70
     1
102
RTVSPropertyOp19
 70
     1
102
RTVSPropertyOp20
 70
     1
102
RTVSPropertyOp21
 70
     1
102
RTVSPropertyOp22
 70
     1
102
RTVSPropertyOp23
 70
     1
102
RTVSPropertyOp24
 70
     1
102
RTVSPropertyOp25
 70
     1
102
RTVSPropertyOp26
 70
     1
102
RTVSPropertyOp27
 70
     1
102
RTVSPropertyOp28
 70
     1
102
RTVSPropertyOp29
 70
     1
102
RTVSPropertyOp30
 70
     1
102
RTVSPropertyOp31
 70
     1
102
RTVSPropertyOp32
 70
     1
102
RTVSPropertyOp33
 70
     1
102
RTVSPropertyOp34
 70
     1
102
RTVSPropertyOp35
 70
     1
102
RTVSPropertyOp36
 70
     1
102
RTVSPropertyOp37
 70
     1
102
RTVSPropertyOp38
 70
     1
102
RTVSPropertyOp39
 70
     1
102
RTVSPropertyOp40
 70
     1
102
RTVSPropertyOp41
 70
     1
102
RTVSPropertyOp42
 70
     1
102
RTVSPropertyOp43
 70
     1
102
RTVSPropertyOp44
 70
     1
102
RTVSPropertyOp45
 70
     1
102
RTVSPropertyOp46
 70
     1
102
RTVSPropertyOp47
 70
     1
102
RTVSPropertyOp48
 70
     1
102
RTVSPropertyOp49
 70
     1
102
RTVSPropertyOp50
 70
     1
102
RTVSPropertyOp51
 70
     0
102
RTVSPropertyOp52
 70
     0
102
RTVSPropertyOp53
 70
     1
102
RTVSPropertyOp54
 70
     1
102
RTVSPropertyOp55
 70
     1
102
RTVSPropertyOp56
 70
     1
102
RTVSPropertyOp57
 70
     1
102
RTVSPropertyOp58
 70
     1
102
RTVSPropertyOp59
 70
     1
102
RTVSPropertyOp60
 70
     1
102
RTVSPropertyOp61
 70
     1
102
RTVSPropertyOp62
 70
     1
  0
XRECORD
  5
41C9
102
{ACAD_REACTORS
330
41C8
102
}
330
41C8
100
AcDbXrecord
280
     1
102
RTVSPost2010Prop28
280
     0
102
RTVSPost2010PropOp28
 70
     1
102
RTVSPost2010Prop29
280
     1
102
RTVSPost2010PropOp29
 70
     1
102
RTVSPost2010Prop30
280
     1
102
RTVSPost2010PropOp30
 70
     1
102
RTVSPost2010Prop31
280
     0
102
RTVSPost2010PropOp31
 70
     1
102
RTVSPost2010Prop32
280
     0
102
RTVSPost2010PropOp32
 70
     1
102
RTVSPost2010Prop33
280
     0
102
RTVSPost2010PropOp33
 70
     1
102
RTVSPost2010Prop34
280
     0
102
RTVSPost2010PropOp34
 70
     1
102
RTVSPost2010Prop35
280
     0
102
RTVSPost2010PropOp35
 70
     1
102
RTVSPost2010Prop36
280
     0
102
RTVSPost2010PropOp36
 70
     1
102
RTVSPost2010Prop37
 90
       50
102
RTVSPost2010PropOp37
 70
     1
102
RTVSPost2010Prop38
140
0.0
102
RTVSPost2010PropOp38
 70
     1
102
RTVSPost2010Prop39
140
1.0
102
RTVSPost2010PropOp39
 70
     1
102
RTVSPost2010Prop40
 90
        0
102
RTVSPost2010PropOp40
 70
     1
102
RTVSPost2010Prop41ColorIndex
 90
       18
102
RTVSPost2010Prop41ColorRGB
 90
        0
102
RTVSPost2010PropOp41
 70
     1
102
RTVSPost2010Prop42
 90
       50
102
RTVSPost2010PropOp42
 70
     1
102
RTVSPost2010Prop43
 90
        3
102
RTVSPost2010PropOp43
 70
     1
102
RTVSPost2010Prop44ColorIndex
 90
        5
102
RTVSPost2010Prop44ColorRGB
 90
      255
102
RTVSPost2010PropOp44
 70
     1
102
RTVSPost2010Prop45
280
     0
102
RTVSPost2010PropOp45
 70
     1
102
RTVSPost2010Prop46
 90
       50
102
RTVSPost2010PropOp46
 70
     1
102
RTVSPost2010Prop47
 90
       50
102
RTVSPost2010PropOp47
 70
     1
102
RTVSPost2010Prop48
 90
       50
102
RTVSPost2010PropOp48
 70
     1
102
RTVSPost2010Prop49
280
     0
102
RTVSPost2010PropOp49
 70
     1
102
RTVSPost2010Prop50
 90
       50
102
RTVSPost2010PropOp50
 70
     1
102
RTVSPost2010Prop51ColorIndex
 90
      256
102
RTVSPost2010Prop51ColorRGB
 90
-16777216
102
RTVSPost2010PropOp51
 70
     0
102
RTVSPost2010Prop52
140
1.0
102
RTVSPost2010PropOp52
 70
     0
102
RTVSPost2010Prop53
 90
        2
102
RTVSPost2010PropOp53
 70
     1
102
RTVSPost2010Prop54
  1
strokes_ogs.tif
102
RTVSPost2010PropOp54
 70
     1
102
RTVSPost2010Prop55
280
     0
102
RTVSPost2010PropOp55
 70
     1
102
RTVSPost2010Prop56
140
1.0
102
RTVSPost2010PropOp56
 70
     1
102
RTVSPost2010Prop57
140
1.0
102
RTVSPost2010PropOp57
 70
     1
102
RTVSPropertyOp0
 70
     1
102
RTVSPropertyOp1
 70
     1
102
RTVSPropertyOp2
 70
     1
102
RTVSPropertyOp3
 70
     1
102
RTVSPropertyOp4
 70
     1
102
RTVSPropertyOp5
 70
     1
102
RTVSPropertyOp6
 70
     1
102
RTVSPropertyOp7
 70
     1
102
RTVSPropertyOp8
 70
     1
102
RTVSPropertyOp9
 70
     1
102
RTVSPropertyOp10
 70
     1
102
RTVSPropertyOp11
 70
     1
102
RTVSPropertyOp12
 70
     1
102
RTVSPropertyOp13
 70
     1
102
RTVSPropertyOp14
 70
     1
102
RTVSPropertyOp15
 70
     1
102
RTVSPropertyOp16
 70
     1
102
RTVSPropertyOp17
 70
     1
102
RTVSPropertyOp18
 70
     1
102
RTVSPropertyOp19
 70
     1
102
RTVSPropertyOp20
 70
     1
102
RTVSPropertyOp21
 70
     1
102
RTVSPropertyOp22
 70
     1
102
RTVSPropertyOp23
 70
     1
102
RTVSPropertyOp24
 70
     1
102
RTVSPropertyOp25
 70
     1
102
RTVSPropertyOp26
 70
     1
102
RTVSPropertyOp27
 70
     1
102
RTVSPropertyOp28
 70
     1
102
RTVSPropertyOp29
 70
     1
102
RTVSPropertyOp30
 70
     1
102
RTVSPropertyOp31
 70
     1
102
RTVSPropertyOp32
 70
     1
102
RTVSPropertyOp33
 70
     1
102
RTVSPropertyOp34
 70
     1
102
RTVSPropertyOp35
 70
     1
102
RTVSPropertyOp36
 70
     1
102
RTVSPropertyOp37
 70
     1
102
RTVSPropertyOp38
 70
     1
102
RTVSPropertyOp39
 70
     1
102
RTVSPropertyOp40
 70
     1
102
RTVSPropertyOp41
 70
     1
102
RTVSPropertyOp42
 70
     1
102
RTVSPropertyOp43
 70
     1
102
RTVSPropertyOp44
 70
     1
102
RTVSPropertyOp45
 70
     1
102
RTVSPropertyOp46
 70
     1
102
RTVSPropertyOp47
 70
     1
102
RTVSPropertyOp48
 70
     1
102
RTVSPropertyOp49
 70
     1
102
RTVSPropertyOp50
 70
     1
102
RTVSPropertyOp51
 70
     0
102
RTVSPropertyOp52
 70
     0
102
RTVSPropertyOp53
 70
     1
102
RTVSPropertyOp54
 70
     1
102
RTVSPropertyOp55
 70
     1
102
RTVSPropertyOp56
 70
     1
102
RTVSPropertyOp57
 70
     1
102
RTVSPropertyOp58
 70
     1
102
RTVSPropertyOp59
 70
     1
102
RTVSPropertyOp60
 70
     1
102
RTVSPropertyOp61
 70
     1
102
RTVSPropertyOp62
 70
     1
  0
XRECORD
  5
41EC
102
{ACAD_REACTORS
330
41EB
102
}
330
41EB
100
AcDbXrecord
280
     1
102
RTVSPost2010Prop28
280
     0
102
RTVSPost2010PropOp28
 70
     1
102
RTVSPost2010Prop29
280
     1
102
RTVSPost2010PropOp29
 70
     1
102
RTVSPost2010Prop30
280
     1
102
RTVSPost2010PropOp30
 70
     1
102
RTVSPost2010Prop31
280
     0
102
RTVSPost2010PropOp31
 70
     1
102
RTVSPost2010Prop32
280
     0
102
RTVSPost2010PropOp32
 70
     1
102
RTVSPost2010Prop33
280
     0
102
RTVSPost2010PropOp33
 70
     1
102
RTVSPost2010Prop34
280
     0
102
RTVSPost2010PropOp34
 70
     1
102
RTVSPost2010Prop35
280
     0
102
RTVSPost2010PropOp35
 70
     1
102
RTVSPost2010Prop36
280
     0
102
RTVSPost2010PropOp36
 70
     1
102
RTVSPost2010Prop37
 90
       50
102
RTVSPost2010PropOp37
 70
     1
102
RTVSPost2010Prop38
140
0.0
102
RTVSPost2010PropOp38
 70
     1
102
RTVSPost2010Prop39
140
1.0
102
RTVSPost2010PropOp39
 70
     1
102
RTVSPost2010Prop40
 90
        0
102
RTVSPost2010PropOp40
 70
     1
102
RTVSPost2010Prop41ColorIndex
 90
       18
102
RTVSPost2010Prop41ColorRGB
 90
        0
102
RTVSPost2010PropOp41
 70
     1
102
RTVSPost2010Prop42
 90
       50
102
RTVSPost2010PropOp42
 70
     1
102
RTVSPost2010Prop43
 90
        3
102
RTVSPost2010PropOp43
 70
     1
102
RTVSPost2010Prop44ColorIndex
 90
        5
102
RTVSPost2010Prop44ColorRGB
 90
      255
102
RTVSPost2010PropOp44
 70
     1
102
RTVSPost2010Prop45
280
     0
102
RTVSPost2010PropOp45
 70
     1
102
RTVSPost2010Prop46
 90
       50
102
RTVSPost2010PropOp46
 70
     1
102
RTVSPost2010Prop47
 90
       50
102
RTVSPost2010PropOp47
 70
     1
102
RTVSPost2010Prop48
 90
       50
102
RTVSPost2010PropOp48
 70
     1
102
RTVSPost2010Prop49
280
     0
102
RTVSPost2010PropOp49
 70
     1
102
RTVSPost2010Prop50
 90
       50
102
RTVSPost2010PropOp50
 70
     1
102
RTVSPost2010Prop51ColorIndex
 90
      256
102
RTVSPost2010Prop51ColorRGB
 90
-16777216
102
RTVSPost2010PropOp51
 70
     0
102
RTVSPost2010Prop52
140
1.0
102
RTVSPost2010PropOp52
 70
     0
102
RTVSPost2010Prop53
 90
        2
102
RTVSPost2010PropOp53
 70
     1
102
RTVSPost2010Prop54
  1
strokes_ogs.tif
102
RTVSPost2010PropOp54
 70
     1
102
RTVSPost2010Prop55
280
     0
102
RTVSPost2010PropOp55
 70
     1
102
RTVSPost2010Prop56
140
1.0
102
RTVSPost2010PropOp56
 70
     1
102
RTVSPost2010Prop57
140
1.0
102
RTVSPost2010PropOp57
 70
     1
102
RTVSPropertyOp0
 70
     1
102
RTVSPropertyOp1
 70
     1
102
RTVSPropertyOp2
 70
     1
102
RTVSPropertyOp3
 70
     1
102
RTVSPropertyOp4
 70
     1
102
RTVSPropertyOp5
 70
     1
102
RTVSPropertyOp6
 70
     1
102
RTVSPropertyOp7
 70
     1
102
RTVSPropertyOp8
 70
     1
102
RTVSPropertyOp9
 70
     1
102
RTVSPropertyOp10
 70
     1
102
RTVSPropertyOp11
 70
     1
102
RTVSPropertyOp12
 70
     1
102
RTVSPropertyOp13
 70
     1
102
RTVSPropertyOp14
 70
     1
102
RTVSPropertyOp15
 70
     1
102
RTVSPropertyOp16
 70
     1
102
RTVSPropertyOp17
 70
     1
102
RTVSPropertyOp18
 70
     1
102
RTVSPropertyOp19
 70
     1
102
RTVSPropertyOp20
 70
     1
102
RTVSPropertyOp21
 70
     1
102
RTVSPropertyOp22
 70
     1
102
RTVSPropertyOp23
 70
     1
102
RTVSPropertyOp24
 70
     1
102
RTVSPropertyOp25
 70
     1
102
RTVSPropertyOp26
 70
     1
102
RTVSPropertyOp27
 70
     1
102
RTVSPropertyOp28
 70
     1
102
RTVSPropertyOp29
 70
     1
102
RTVSPropertyOp30
 70
     1
102
RTVSPropertyOp31
 70
     1
102
RTVSPropertyOp32
 70
     1
102
RTVSPropertyOp33
 70
     1
102
RTVSPropertyOp34
 70
     1
102
RTVSPropertyOp35
 70
     1
102
RTVSPropertyOp36
 70
     1
102
RTVSPropertyOp37
 70
     1
102
RTVSPropertyOp38
 70
     1
102
RTVSPropertyOp39
 70
     1
102
RTVSPropertyOp40
 70
     1
102
RTVSPropertyOp41
 70
     1
102
RTVSPropertyOp42
 70
     1
102
RTVSPropertyOp43
 70
     1
102
RTVSPropertyOp44
 70
     1
102
RTVSPropertyOp45
 70
     1
102
RTVSPropertyOp46
 70
     1
102
RTVSPropertyOp47
 70
     1
102
RTVSPropertyOp48
 70
     1
102
RTVSPropertyOp49
 70
     1
102
RTVSPropertyOp50
 70
     1
102
RTVSPropertyOp51
 70
     0
102
RTVSPropertyOp52
 70
     0
102
RTVSPropertyOp53
 70
     1
102
RTVSPropertyOp54
 70
     1
102
RTVSPropertyOp55
 70
     1
102
RTVSPropertyOp56
 70
     1
102
RTVSPropertyOp57
 70
     1
102
RTVSPropertyOp58
 70
     1
102
RTVSPropertyOp59
 70
     1
102
RTVSPropertyOp60
 70
     1
102
RTVSPropertyOp61
 70
     1
102
RTVSPropertyOp62
 70
     1
  0
XRECORD
  5
41E3
102
{ACAD_REACTORS
330
41E2
102
}
330
41E2
100
AcDbXrecord
280
     1
102
RTVSPost2010Prop28
280
     0
102
RTVSPost2010PropOp28
 70
     1
102
RTVSPost2010Prop29
280
     1
102
RTVSPost2010PropOp29
 70
     1
102
RTVSPost2010Prop30
280
     1
102
RTVSPost2010PropOp30
 70
     1
102
RTVSPost2010Prop31
280
     0
102
RTVSPost2010PropOp31
 70
     1
102
RTVSPost2010Prop32
280
     0
102
RTVSPost2010PropOp32
 70
     1
102
RTVSPost2010Prop33
280
     0
102
RTVSPost2010PropOp33
 70
     1
102
RTVSPost2010Prop34
280
     0
102
RTVSPost2010PropOp34
 70
     1
102
RTVSPost2010Prop35
280
     0
102
RTVSPost2010PropOp35
 70
     1
102
RTVSPost2010Prop36
280
     0
102
RTVSPost2010PropOp36
 70
     1
102
RTVSPost2010Prop37
 90
       50
102
RTVSPost2010PropOp37
 70
     1
102
RTVSPost2010Prop38
140
0.0
102
RTVSPost2010PropOp38
 70
     1
102
RTVSPost2010Prop39
140
1.0
102
RTVSPost2010PropOp39
 70
     1
102
RTVSPost2010Prop40
 90
        0
102
RTVSPost2010PropOp40
 70
     1
102
RTVSPost2010Prop41ColorIndex
 90
       18
102
RTVSPost2010Prop41ColorRGB
 90
        0
102
RTVSPost2010PropOp41
 70
     1
102
RTVSPost2010Prop42
 90
       50
102
RTVSPost2010PropOp42
 70
     1
102
RTVSPost2010Prop43
 90
        3
102
RTVSPost2010PropOp43
 70
     1
102
RTVSPost2010Prop44ColorIndex
 90
        5
102
RTVSPost2010Prop44ColorRGB
 90
      255
102
RTVSPost2010PropOp44
 70
     1
102
RTVSPost2010Prop45
280
     0
102
RTVSPost2010PropOp45
 70
     1
102
RTVSPost2010Prop46
 90
       50
102
RTVSPost2010PropOp46
 70
     1
102
RTVSPost2010Prop47
 90
       50
102
RTVSPost2010PropOp47
 70
     1
102
RTVSPost2010Prop48
 90
       50
102
RTVSPost2010PropOp48
 70
     1
102
RTVSPost2010Prop49
280
     0
102
RTVSPost2010PropOp49
 70
     1
102
RTVSPost2010Prop50
 90
       50
102
RTVSPost2010PropOp50
 70
     1
102
RTVSPost2010Prop51ColorIndex
 90
      256
102
RTVSPost2010Prop51ColorRGB
 90
-16777216
102
RTVSPost2010PropOp51
 70
     0
102
RTVSPost2010Prop52
140
1.0
102
RTVSPost2010PropOp52
 70
     0
102
RTVSPost2010Prop53
 90
        2
102
RTVSPost2010PropOp53
 70
     1
102
RTVSPost2010Prop54
  1
strokes_ogs.tif
102
RTVSPost2010PropOp54
 70
     1
102
RTVSPost2010Prop55
280
     0
102
RTVSPost2010PropOp55
 70
     1
102
RTVSPost2010Prop56
140
1.0
102
RTVSPost2010PropOp56
 70
     1
102
RTVSPost2010Prop57
140
1.0
102
RTVSPost2010PropOp57
 70
     1
102
RTVSPropertyOp0
 70
     0
102
RTVSPropertyOp1
 70
     0
102
RTVSPropertyOp2
 70
     0
102
RTVSPropertyOp3
 70
     0
102
RTVSPropertyOp4
 70
     0
102
RTVSPropertyOp5
 70
     0
102
RTVSPropertyOp6
 70
     0
102
RTVSPropertyOp7
 70
     0
102
RTVSPropertyOp8
 70
     0
102
RTVSPropertyOp9
 70
     0
102
RTVSPropertyOp10
 70
     0
102
RTVSPropertyOp11
 70
     0
102
RTVSPropertyOp12
 70
     0
102
RTVSPropertyOp13
 70
     0
102
RTVSPropertyOp14
 70
     2
102
RTVSPropertyOp15
 70
     0
102
RTVSPropertyOp16
 70
     0
102
RTVSPropertyOp17
 70
     0
102
RTVSPropertyOp18
 70
     0
102
RTVSPropertyOp19
 70
     0
102
RTVSPropertyOp20
 70
     0
102
RTVSPropertyOp21
 70
     0
102
RTVSPropertyOp22
 70
     0
102
RTVSPropertyOp23
 70
     0
102
RTVSPropertyOp24
 70
     0
102
RTVSPropertyOp25
 70
     0
102
RTVSPropertyOp26
 70
     0
102
RTVSPropertyOp27
 70
     0
102
RTVSPropertyOp28
 70
     1
102
RTVSPropertyOp29
 70
     1
102
RTVSPropertyOp30
 70
     1
102
RTVSPropertyOp31
 70
     1
102
RTVSPropertyOp32
 70
     1
102
RTVSPropertyOp33
 70
     1
102
RTVSPropertyOp34
 70
     1
102
RTVSPropertyOp35
 70
     1
102
RTVSPropertyOp36
 70
     1
102
RTVSPropertyOp37
 70
     1
102
RTVSPropertyOp38
 70
     1
102
RTVSPropertyOp39
 70
     1
102
RTVSPropertyOp40
 70
     1
102
RTVSPropertyOp41
 70
     1
102
RTVSPropertyOp42
 70
     1
102
RTVSPropertyOp43
 70
     1
102
RTVSPropertyOp44
 70
     1
102
RTVSPropertyOp45
 70
     1
102
RTVSPropertyOp46
 70
     1
102
RTVSPropertyOp47
 70
     1
102
RTVSPropertyOp48
 70
     1
102
RTVSPropertyOp49
 70
     1
102
RTVSPropertyOp50
 70
     1
102
RTVSPropertyOp51
 70
     0
102
RTVSPropertyOp52
 70
     0
102
RTVSPropertyOp53
 70
     1
102
RTVSPropertyOp54
 70
     1
102
RTVSPropertyOp55
 70
     1
102
RTVSPropertyOp56
 70
     1
102
RTVSPropertyOp57
 70
     1
102
RTVSPropertyOp58
 70
     1
102
RTVSPropertyOp59
 70
     1
102
RTVSPropertyOp60
 70
     1
102
RTVSPropertyOp61
 70
     1
102
RTVSPropertyOp62
 70
     1
  0
XRECORD
  5
41DD
102
{ACAD_REACTORS
330
41DC
102
}
330
41DC
100
AcDbXrecord
280
     1
102
RTVSPost2010Prop28
280
     0
102
RTVSPost2010PropOp28
 70
     1
102
RTVSPost2010Prop29
280
     1
102
RTVSPost2010PropOp29
 70
     1
102
RTVSPost2010Prop30
280
     1
102
RTVSPost2010PropOp30
 70
     1
102
RTVSPost2010Prop31
280
     0
102
RTVSPost2010PropOp31
 70
     1
102
RTVSPost2010Prop32
280
     0
102
RTVSPost2010PropOp32
 70
     1
102
RTVSPost2010Prop33
280
     0
102
RTVSPost2010PropOp33
 70
     1
102
RTVSPost2010Prop34
280
     0
102
RTVSPost2010PropOp34
 70
     1
102
RTVSPost2010Prop35
280
     0
102
RTVSPost2010PropOp35
 70
     1
102
RTVSPost2010Prop36
280
     0
102
RTVSPost2010PropOp36
 70
     1
102
RTVSPost2010Prop37
 90
       50
102
RTVSPost2010PropOp37
 70
     1
102
RTVSPost2010Prop38
140
0.0
102
RTVSPost2010PropOp38
 70
     1
102
RTVSPost2010Prop39
140
1.0
102
RTVSPost2010PropOp39
 70
     1
102
RTVSPost2010Prop40
 90
        0
102
RTVSPost2010PropOp40
 70
     1
102
RTVSPost2010Prop41ColorIndex
 90
       18
102
RTVSPost2010Prop41ColorRGB
 90
        0
102
RTVSPost2010PropOp41
 70
     1
102
RTVSPost2010Prop42
 90
       50
102
RTVSPost2010PropOp42
 70
     1
102
RTVSPost2010Prop43
 90
        3
102
RTVSPost2010PropOp43
 70
     1
102
RTVSPost2010Prop44ColorIndex
 90
        5
102
RTVSPost2010Prop44ColorRGB
 90
      255
102
RTVSPost2010PropOp44
 70
     1
102
RTVSPost2010Prop45
280
     0
102
RTVSPost2010PropOp45
 70
     1
102
RTVSPost2010Prop46
 90
       50
102
RTVSPost2010PropOp46
 70
     1
102
RTVSPost2010Prop47
 90
       50
102
RTVSPost2010PropOp47
 70
     1
102
RTVSPost2010Prop48
 90
       50
102
RTVSPost2010PropOp48
 70
     1
102
RTVSPost2010Prop49
280
     0
102
RTVSPost2010PropOp49
 70
     1
102
RTVSPost2010Prop50
 90
       50
102
RTVSPost2010PropOp50
 70
     1
102
RTVSPost2010Prop51ColorIndex
 90
      256
102
RTVSPost2010Prop51ColorRGB
 90
-16777216
102
RTVSPost2010PropOp51
 70
     0
102
RTVSPost2010Prop52
140
1.0
102
RTVSPost2010PropOp52
 70
     0
102
RTVSPost2010Prop53
 90
        2
102
RTVSPost2010PropOp53
 70
     1
102
RTVSPost2010Prop54
  1
strokes_ogs.tif
102
RTVSPost2010PropOp54
 70
     1
102
RTVSPost2010Prop55
280
     0
102
RTVSPost2010PropOp55
 70
     1
102
RTVSPost2010Prop56
140
1.0
102
RTVSPost2010PropOp56
 70
     1
102
RTVSPost2010Prop57
140
1.0
102
RTVSPost2010PropOp57
 70
     1
102
RTVSPropertyOp0
 70
     1
102
RTVSPropertyOp1
 70
     1
102
RTVSPropertyOp2
 70
     1
102
RTVSPropertyOp3
 70
     1
102
RTVSPropertyOp4
 70
     1
102
RTVSPropertyOp5
 70
     1
102
RTVSPropertyOp6
 70
     1
102
RTVSPropertyOp7
 70
     1
102
RTVSPropertyOp8
 70
     1
102
RTVSPropertyOp9
 70
     1
102
RTVSPropertyOp10
 70
     1
102
RTVSPropertyOp11
 70
     1
102
RTVSPropertyOp12
 70
     1
102
RTVSPropertyOp13
 70
     1
102
RTVSPropertyOp14
 70
     1
102
RTVSPropertyOp15
 70
     1
102
RTVSPropertyOp16
 70
     1
102
RTVSPropertyOp17
 70
     1
102
RTVSPropertyOp18
 70
     1
102
RTVSPropertyOp19
 70
     1
102
RTVSPropertyOp20
 70
     1
102
RTVSPropertyOp21
 70
     1
102
RTVSPropertyOp22
 70
     1
102
RTVSPropertyOp23
 70
     1
102
RTVSPropertyOp24
 70
     1
102
RTVSPropertyOp25
 70
     1
102
RTVSPropertyOp26
 70
     1
102
RTVSPropertyOp27
 70
     1
102
RTVSPropertyOp28
 70
     1
102
RTVSPropertyOp29
 70
     1
102
RTVSPropertyOp30
 70
     1
102
RTVSPropertyOp31
 70
     1
102
RTVSPropertyOp32
 70
     1
102
RTVSPropertyOp33
 70
     1
102
RTVSPropertyOp34
 70
     1
102
RTVSPropertyOp35
 70
     1
102
RTVSPropertyOp36
 70
     1
102
RTVSPropertyOp37
 70
     1
102
RTVSPropertyOp38
 70
     1
102
RTVSPropertyOp39
 70
     1
102
RTVSPropertyOp40
 70
     1
102
RTVSPropertyOp41
 70
     1
102
RTVSPropertyOp42
 70
     1
102
RTVSPropertyOp43
 70
     1
102
RTVSPropertyOp44
 70
     1
102
RTVSPropertyOp45
 70
     1
102
RTVSPropertyOp46
 70
     1
102
RTVSPropertyOp47
 70
     1
102
RTVSPropertyOp48
 70
     1
102
RTVSPropertyOp49
 70
     1
102
RTVSPropertyOp50
 70
     1
102
RTVSPropertyOp51
 70
     0
102
RTVSPropertyOp52
 70
     0
102
RTVSPropertyOp53
 70
     1
102
RTVSPropertyOp54
 70
     1
102
RTVSPropertyOp55
 70
     1
102
RTVSPropertyOp56
 70
     1
102
RTVSPropertyOp57
 70
     1
102
RTVSPropertyOp58
 70
     1
102
RTVSPropertyOp59
 70
     1
102
RTVSPropertyOp60
 70
     1
102
RTVSPropertyOp61
 70
     1
102
RTVSPropertyOp62
 70
     1
  0
XRECORD
  5
41E5
102
{ACAD_REACTORS
330
41E4
102
}
330
41E4
100
AcDbXrecord
280
     1
102
RTVSPost2010Prop28
280
     0
102
RTVSPost2010PropOp28
 70
     1
102
RTVSPost2010Prop29
280
     1
102
RTVSPost2010PropOp29
 70
     1
102
RTVSPost2010Prop30
280
     1
102
RTVSPost2010PropOp30
 70
     1
102
RTVSPost2010Prop31
280
     0
102
RTVSPost2010PropOp31
 70
     1
102
RTVSPost2010Prop32
280
     0
102
RTVSPost2010PropOp32
 70
     1
102
RTVSPost2010Prop33
280
     0
102
RTVSPost2010PropOp33
 70
     1
102
RTVSPost2010Prop34
280
     0
102
RTVSPost2010PropOp34
 70
     1
102
RTVSPost2010Prop35
280
     0
102
RTVSPost2010PropOp35
 70
     1
102
RTVSPost2010Prop36
280
     0
102
RTVSPost2010PropOp36
 70
     1
102
RTVSPost2010Prop37
 90
       50
102
RTVSPost2010PropOp37
 70
     1
102
RTVSPost2010Prop38
140
0.0
102
RTVSPost2010PropOp38
 70
     1
102
RTVSPost2010Prop39
140
1.0
102
RTVSPost2010PropOp39
 70
     1
102
RTVSPost2010Prop40
 90
        0
102
RTVSPost2010PropOp40
 70
     1
102
RTVSPost2010Prop41ColorIndex
 90
       18
102
RTVSPost2010Prop41ColorRGB
 90
        0
102
RTVSPost2010PropOp41
 70
     1
102
RTVSPost2010Prop42
 90
       50
102
RTVSPost2010PropOp42
 70
     1
102
RTVSPost2010Prop43
 90
        3
102
RTVSPost2010PropOp43
 70
     1
102
RTVSPost2010Prop44ColorIndex
 90
        5
102
RTVSPost2010Prop44ColorRGB
 90
      255
102
RTVSPost2010PropOp44
 70
     1
102
RTVSPost2010Prop45
280
     0
102
RTVSPost2010PropOp45
 70
     1
102
RTVSPost2010Prop46
 90
       50
102
RTVSPost2010PropOp46
 70
     1
102
RTVSPost2010Prop47
 90
       50
102
RTVSPost2010PropOp47
 70
     1
102
RTVSPost2010Prop48
 90
       50
102
RTVSPost2010PropOp48
 70
     1
102
RTVSPost2010Prop49
280
     0
102
RTVSPost2010PropOp49
 70
     1
102
RTVSPost2010Prop50
 90
       50
102
RTVSPost2010PropOp50
 70
     1
102
RTVSPost2010Prop51ColorIndex
 90
      256
102
RTVSPost2010Prop51ColorRGB
 90
-16777216
102
RTVSPost2010PropOp51
 70
     0
102
RTVSPost2010Prop52
140
1.0
102
RTVSPost2010PropOp52
 70
     0
102
RTVSPost2010Prop53
 90
        2
102
RTVSPost2010PropOp53
 70
     1
102
RTVSPost2010Prop54
  1
strokes_ogs.tif
102
RTVSPost2010PropOp54
 70
     1
102
RTVSPost2010Prop55
280
     0
102
RTVSPost2010PropOp55
 70
     1
102
RTVSPost2010Prop56
140
1.0
102
RTVSPost2010PropOp56
 70
     1
102
RTVSPost2010Prop57
140
1.0
102
RTVSPost2010PropOp57
 70
     1
102
RTVSPropertyOp0
 70
     0
102
RTVSPropertyOp1
 70
     0
102
RTVSPropertyOp2
 70
     0
102
RTVSPropertyOp3
 70
     0
102
RTVSPropertyOp4
 70
     0
102
RTVSPropertyOp5
 70
     0
102
RTVSPropertyOp6
 70
     0
102
RTVSPropertyOp7
 70
     0
102
RTVSPropertyOp8
 70
     0
102
RTVSPropertyOp9
 70
     0
102
RTVSPropertyOp10
 70
     0
102
RTVSPropertyOp11
 70
     0
102
RTVSPropertyOp12
 70
     0
102
RTVSPropertyOp13
 70
     0
102
RTVSPropertyOp14
 70
     2
102
RTVSPropertyOp15
 70
     0
102
RTVSPropertyOp16
 70
     0
102
RTVSPropertyOp17
 70
     0
102
RTVSPropertyOp18
 70
     0
102
RTVSPropertyOp19
 70
     0
102
RTVSPropertyOp20
 70
     0
102
RTVSPropertyOp21
 70
     0
102
RTVSPropertyOp22
 70
     0
102
RTVSPropertyOp23
 70
     0
102
RTVSPropertyOp24
 70
     0
102
RTVSPropertyOp25
 70
     0
102
RTVSPropertyOp26
 70
     0
102
RTVSPropertyOp27
 70
     0
102
RTVSPropertyOp28
 70
     1
102
RTVSPropertyOp29
 70
     1
102
RTVSPropertyOp30
 70
     1
102
RTVSPropertyOp31
 70
     1
102
RTVSPropertyOp32
 70
     1
102
RTVSPropertyOp33
 70
     1
102
RTVSPropertyOp34
 70
     1
102
RTVSPropertyOp35
 70
     1
102
RTVSPropertyOp36
 70
     1
102
RTVSPropertyOp37
 70
     1
102
RTVSPropertyOp38
 70
     1
102
RTVSPropertyOp39
 70
     1
102
RTVSPropertyOp40
 70
     1
102
RTVSPropertyOp41
 70
     1
102
RTVSPropertyOp42
 70
     1
102
RTVSPropertyOp43
 70
     1
102
RTVSPropertyOp44
 70
     1
102
RTVSPropertyOp45
 70
     1
102
RTVSPropertyOp46
 70
     1
102
RTVSPropertyOp47
 70
     1
102
RTVSPropertyOp48
 70
     1
102
RTVSPropertyOp49
 70
     1
102
RTVSPropertyOp50
 70
     1
102
RTVSPropertyOp51
 70
     0
102
RTVSPropertyOp52
 70
     0
102
RTVSPropertyOp53
 70
     1
102
RTVSPropertyOp54
 70
     1
102
RTVSPropertyOp55
 70
     1
102
RTVSPropertyOp56
 70
     1
102
RTVSPropertyOp57
 70
     1
102
RTVSPropertyOp58
 70
     1
102
RTVSPropertyOp59
 70
     1
102
RTVSPropertyOp60
 70
     1
102
RTVSPropertyOp61
 70
     1
102
RTVSPropertyOp62
 70
     1
  0
XRECORD
  5
41D5
102
{ACAD_REACTORS
330
41D4
102
}
330
41D4
100
AcDbXrecord
280
     1
102
RTVSPost2010Prop28
280
     0
102
RTVSPost2010PropOp28
 70
     1
102
RTVSPost2010Prop29
280
     1
102
RTVSPost2010PropOp29
 70
     1
102
RTVSPost2010Prop30
280
     1
102
RTVSPost2010PropOp30
 70
     1
102
RTVSPost2010Prop31
280
     0
102
RTVSPost2010PropOp31
 70
     1
102
RTVSPost2010Prop32
280
     0
102
RTVSPost2010PropOp32
 70
     1
102
RTVSPost2010Prop33
280
     0
102
RTVSPost2010PropOp33
 70
     1
102
RTVSPost2010Prop34
280
     0
102
RTVSPost2010PropOp34
 70
     1
102
RTVSPost2010Prop35
280
     0
102
RTVSPost2010PropOp35
 70
     1
102
RTVSPost2010Prop36
280
     0
102
RTVSPost2010PropOp36
 70
     1
102
RTVSPost2010Prop37
 90
       50
102
RTVSPost2010PropOp37
 70
     1
102
RTVSPost2010Prop38
140
0.0
102
RTVSPost2010PropOp38
 70
     1
102
RTVSPost2010Prop39
140
1.0
102
RTVSPost2010PropOp39
 70
     1
102
RTVSPost2010Prop40
 90
        0
102
RTVSPost2010PropOp40
 70
     1
102
RTVSPost2010Prop41ColorIndex
 90
       18
102
RTVSPost2010Prop41ColorRGB
 90
        0
102
RTVSPost2010PropOp41
 70
     1
102
RTVSPost2010Prop42
 90
       50
102
RTVSPost2010PropOp42
 70
     1
102
RTVSPost2010Prop43
 90
        3
102
RTVSPost2010PropOp43
 70
     1
102
RTVSPost2010Prop44ColorIndex
 90
        5
102
RTVSPost2010Prop44ColorRGB
 90
      255
102
RTVSPost2010PropOp44
 70
     1
102
RTVSPost2010Prop45
280
     0
102
RTVSPost2010PropOp45
 70
     1
102
RTVSPost2010Prop46
 90
       50
102
RTVSPost2010PropOp46
 70
     1
102
RTVSPost2010Prop47
 90
       50
102
RTVSPost2010PropOp47
 70
     1
102
RTVSPost2010Prop48
 90
       50
102
RTVSPost2010PropOp48
 70
     1
102
RTVSPost2010Prop49
280
     0
102
RTVSPost2010PropOp49
 70
     1
102
RTVSPost2010Prop50
 90
       50
102
RTVSPost2010PropOp50
 70
     1
102
RTVSPost2010Prop51ColorIndex
 90
      256
102
RTVSPost2010Prop51ColorRGB
 90
-16777216
102
RTVSPost2010PropOp51
 70
     0
102
RTVSPost2010Prop52
140
1.0
102
RTVSPost2010PropOp52
 70
     0
102
RTVSPost2010Prop53
 90
        2
102
RTVSPost2010PropOp53
 70
     1
102
RTVSPost2010Prop54
  1
strokes_ogs.tif
102
RTVSPost2010PropOp54
 70
     1
102
RTVSPost2010Prop55
280
     0
102
RTVSPost2010PropOp55
 70
     1
102
RTVSPost2010Prop56
140
1.0
102
RTVSPost2010PropOp56
 70
     1
102
RTVSPost2010Prop57
140
1.0
102
RTVSPost2010PropOp57
 70
     1
102
RTVSPropertyOp0
 70
     1
102
RTVSPropertyOp1
 70
     1
102
RTVSPropertyOp2
 70
     1
102
RTVSPropertyOp3
 70
     1
102
RTVSPropertyOp4
 70
     1
102
RTVSPropertyOp5
 70
     1
102
RTVSPropertyOp6
 70
     1
102
RTVSPropertyOp7
 70
     1
102
RTVSPropertyOp8
 70
     1
102
RTVSPropertyOp9
 70
     1
102
RTVSPropertyOp10
 70
     1
102
RTVSPropertyOp11
 70
     1
102
RTVSPropertyOp12
 70
     1
102
RTVSPropertyOp13
 70
     1
102
RTVSPropertyOp14
 70
     1
102
RTVSPropertyOp15
 70
     1
102
RTVSPropertyOp16
 70
     1
102
RTVSPropertyOp17
 70
     1
102
RTVSPropertyOp18
 70
     1
102
RTVSPropertyOp19
 70
     1
102
RTVSPropertyOp20
 70
     1
102
RTVSPropertyOp21
 70
     1
102
RTVSPropertyOp22
 70
     1
102
RTVSPropertyOp23
 70
     1
102
RTVSPropertyOp24
 70
     1
102
RTVSPropertyOp25
 70
     1
102
RTVSPropertyOp26
 70
     1
102
RTVSPropertyOp27
 70
     1
102
RTVSPropertyOp28
 70
     1
102
RTVSPropertyOp29
 70
     1
102
RTVSPropertyOp30
 70
     1
102
RTVSPropertyOp31
 70
     1
102
RTVSPropertyOp32
 70
     1
102
RTVSPropertyOp33
 70
     1
102
RTVSPropertyOp34
 70
     1
102
RTVSPropertyOp35
 70
     1
102
RTVSPropertyOp36
 70
     1
102
RTVSPropertyOp37
 70
     1
102
RTVSPropertyOp38
 70
     1
102
RTVSPropertyOp39
 70
     1
102
RTVSPropertyOp40
 70
     1
102
RTVSPropertyOp41
 70
     1
102
RTVSPropertyOp42
 70
     1
102
RTVSPropertyOp43
 70
     1
102
RTVSPropertyOp44
 70
     1
102
RTVSPropertyOp45
 70
     1
102
RTVSPropertyOp46
 70
     1
102
RTVSPropertyOp47
 70
     1
102
RTVSPropertyOp48
 70
     1
102
RTVSPropertyOp49
 70
     1
102
RTVSPropertyOp50
 70
     1
102
RTVSPropertyOp51
 70
     0
102
RTVSPropertyOp52
 70
     0
102
RTVSPropertyOp53
 70
     1
102
RTVSPropertyOp54
 70
     1
102
RTVSPropertyOp55
 70
     1
102
RTVSPropertyOp56
 70
     1
102
RTVSPropertyOp57
 70
     1
102
RTVSPropertyOp58
 70
     1
102
RTVSPropertyOp59
 70
     1
102
RTVSPropertyOp60
 70
     1
102
RTVSPropertyOp61
 70
     1
102
RTVSPropertyOp62
 70
     1
  0
XRECORD
  5
41F6
102
{ACAD_REACTORS
330
41F5
102
}
330
41F5
100
AcDbXrecord
280
     1
102
RTVSPost2010Prop28
280
     0
102
RTVSPost2010PropOp28
 70
     1
102
RTVSPost2010Prop29
280
     1
102
RTVSPost2010PropOp29
 70
     1
102
RTVSPost2010Prop30
280
     1
102
RTVSPost2010PropOp30
 70
     1
102
RTVSPost2010Prop31
280
     0
102
RTVSPost2010PropOp31
 70
     1
102
RTVSPost2010Prop32
280
     0
102
RTVSPost2010PropOp32
 70
     1
102
RTVSPost2010Prop33
280
     0
102
RTVSPost2010PropOp33
 70
     1
102
RTVSPost2010Prop34
280
     0
102
RTVSPost2010PropOp34
 70
     1
102
RTVSPost2010Prop35
280
     0
102
RTVSPost2010PropOp35
 70
     1
102
RTVSPost2010Prop36
280
     0
102
RTVSPost2010PropOp36
 70
     1
102
RTVSPost2010Prop37
 90
       50
102
RTVSPost2010PropOp37
 70
     1
102
RTVSPost2010Prop38
140
0.0
102
RTVSPost2010PropOp38
 70
     1
102
RTVSPost2010Prop39
140
1.0
102
RTVSPost2010PropOp39
 70
     1
102
RTVSPost2010Prop40
 90
        0
102
RTVSPost2010PropOp40
 70
     1
102
RTVSPost2010Prop41ColorIndex
 90
       18
102
RTVSPost2010Prop41ColorRGB
 90
        0
102
RTVSPost2010PropOp41
 70
     1
102
RTVSPost2010Prop42
 90
       50
102
RTVSPost2010PropOp42
 70
     1
102
RTVSPost2010Prop43
 90
        3
102
RTVSPost2010PropOp43
 70
     1
102
RTVSPost2010Prop44ColorIndex
 90
        5
102
RTVSPost2010Prop44ColorRGB
 90
      255
102
RTVSPost2010PropOp44
 70
     1
102
RTVSPost2010Prop45
280
     0
102
RTVSPost2010PropOp45
 70
     1
102
RTVSPost2010Prop46
 90
       50
102
RTVSPost2010PropOp46
 70
     1
102
RTVSPost2010Prop47
 90
       50
102
RTVSPost2010PropOp47
 70
     1
102
RTVSPost2010Prop48
 90
       50
102
RTVSPost2010PropOp48
 70
     1
102
RTVSPost2010Prop49
280
     0
102
RTVSPost2010PropOp49
 70
     1
102
RTVSPost2010Prop50
 90
       50
102
RTVSPost2010PropOp50
 70
     1
102
RTVSPost2010Prop51ColorIndex
 90
      256
102
RTVSPost2010Prop51ColorRGB
 90
-16777216
102
RTVSPost2010PropOp51
 70
     0
102
RTVSPost2010Prop52
140
1.0
102
RTVSPost2010PropOp52
 70
     0
102
RTVSPost2010Prop53
 90
        2
102
RTVSPost2010PropOp53
 70
     1
102
RTVSPost2010Prop54
  1
strokes_ogs.tif
102
RTVSPost2010PropOp54
 70
     1
102
RTVSPost2010Prop55
280
     0
102
RTVSPost2010PropOp55
 70
     1
102
RTVSPost2010Prop56
140
1.0
102
RTVSPost2010PropOp56
 70
     1
102
RTVSPost2010Prop57
140
1.0
102
RTVSPost2010PropOp57
 70
     1
102
RTVSPropertyOp0
 70
     1
102
RTVSPropertyOp1
 70
     1
102
RTVSPropertyOp2
 70
     1
102
RTVSPropertyOp3
 70
     1
102
RTVSPropertyOp4
 70
     1
102
RTVSPropertyOp5
 70
     1
102
RTVSPropertyOp6
 70
     1
102
RTVSPropertyOp7
 70
     1
102
RTVSPropertyOp8
 70
     1
102
RTVSPropertyOp9
 70
     1
102
RTVSPropertyOp10
 70
     1
102
RTVSPropertyOp11
 70
     1
102
RTVSPropertyOp12
 70
     1
102
RTVSPropertyOp13
 70
     1
102
RTVSPropertyOp14
 70
     1
102
RTVSPropertyOp15
 70
     1
102
RTVSPropertyOp16
 70
     1
102
RTVSPropertyOp17
 70
     1
102
RTVSPropertyOp18
 70
     1
102
RTVSPropertyOp19
 70
     1
102
RTVSPropertyOp20
 70
     1
102
RTVSPropertyOp21
 70
     1
102
RTVSPropertyOp22
 70
     1
102
RTVSPropertyOp23
 70
     1
102
RTVSPropertyOp24
 70
     1
102
RTVSPropertyOp25
 70
     1
102
RTVSPropertyOp26
 70
     1
102
RTVSPropertyOp27
 70
     1
102
RTVSPropertyOp28
 70
     1
102
RTVSPropertyOp29
 70
     1
102
RTVSPropertyOp30
 70
     1
102
RTVSPropertyOp31
 70
     1
102
RTVSPropertyOp32
 70
     1
102
RTVSPropertyOp33
 70
     1
102
RTVSPropertyOp34
 70
     1
102
RTVSPropertyOp35
 70
     1
102
RTVSPropertyOp36
 70
     1
102
RTVSPropertyOp37
 70
     1
102
RTVSPropertyOp38
 70
     1
102
RTVSPropertyOp39
 70
     1
102
RTVSPropertyOp40
 70
     1
102
RTVSPropertyOp41
 70
     1
102
RTVSPropertyOp42
 70
     1
102
RTVSPropertyOp43
 70
     1
102
RTVSPropertyOp44
 70
     1
102
RTVSPropertyOp45
 70
     1
102
RTVSPropertyOp46
 70
     1
102
RTVSPropertyOp47
 70
     1
102
RTVSPropertyOp48
 70
     1
102
RTVSPropertyOp49
 70
     1
102
RTVSPropertyOp50
 70
     1
102
RTVSPropertyOp51
 70
     0
102
RTVSPropertyOp52
 70
     0
102
RTVSPropertyOp53
 70
     1
102
RTVSPropertyOp54
 70
     1
102
RTVSPropertyOp55
 70
     1
102
RTVSPropertyOp56
 70
     1
102
RTVSPropertyOp57
 70
     1
102
RTVSPropertyOp58
 70
     1
102
RTVSPropertyOp59
 70
     1
102
RTVSPropertyOp60
 70
     1
102
RTVSPropertyOp61
 70
     1
102
RTVSPropertyOp62
 70
     1
  0
XRECORD
  5
41F4
102
{ACAD_REACTORS
330
41F3
102
}
330
41F3
100
AcDbXrecord
280
     1
102
RTVSPost2010Prop28
280
     0
102
RTVSPost2010PropOp28
 70
     1
102
RTVSPost2010Prop29
280
     1
102
RTVSPost2010PropOp29
 70
     1
102
RTVSPost2010Prop30
280
     1
102
RTVSPost2010PropOp30
 70
     1
102
RTVSPost2010Prop31
280
     0
102
RTVSPost2010PropOp31
 70
     1
102
RTVSPost2010Prop32
280
     0
102
RTVSPost2010PropOp32
 70
     1
102
RTVSPost2010Prop33
280
     0
102
RTVSPost2010PropOp33
 70
     1
102
RTVSPost2010Prop34
280
     0
102
RTVSPost2010PropOp34
 70
     1
102
RTVSPost2010Prop35
280
     0
102
RTVSPost2010PropOp35
 70
     1
102
RTVSPost2010Prop36
280
     0
102
RTVSPost2010PropOp36
 70
     1
102
RTVSPost2010Prop37
 90
       50
102
RTVSPost2010PropOp37
 70
     1
102
RTVSPost2010Prop38
140
0.0
102
RTVSPost2010PropOp38
 70
     1
102
RTVSPost2010Prop39
140
1.0
102
RTVSPost2010PropOp39
 70
     1
102
RTVSPost2010Prop40
 90
        0
102
RTVSPost2010PropOp40
 70
     1
102
RTVSPost2010Prop41ColorIndex
 90
       18
102
RTVSPost2010Prop41ColorRGB
 90
        0
102
RTVSPost2010PropOp41
 70
     1
102
RTVSPost2010Prop42
 90
       50
102
RTVSPost2010PropOp42
 70
     1
102
RTVSPost2010Prop43
 90
        3
102
RTVSPost2010PropOp43
 70
     1
102
RTVSPost2010Prop44ColorIndex
 90
        5
102
RTVSPost2010Prop44ColorRGB
 90
      255
102
RTVSPost2010PropOp44
 70
     1
102
RTVSPost2010Prop45
280
     0
102
RTVSPost2010PropOp45
 70
     1
102
RTVSPost2010Prop46
 90
       50
102
RTVSPost2010PropOp46
 70
     1
102
RTVSPost2010Prop47
 90
       50
102
RTVSPost2010PropOp47
 70
     1
102
RTVSPost2010Prop48
 90
       50
102
RTVSPost2010PropOp48
 70
     1
102
RTVSPost2010Prop49
280
     0
102
RTVSPost2010PropOp49
 70
     1
102
RTVSPost2010Prop50
 90
       50
102
RTVSPost2010PropOp50
 70
     1
102
RTVSPost2010Prop51ColorIndex
 90
      256
102
RTVSPost2010Prop51ColorRGB
 90
-16777216
102
RTVSPost2010PropOp51
 70
     0
102
RTVSPost2010Prop52
140
1.0
102
RTVSPost2010PropOp52
 70
     0
102
RTVSPost2010Prop53
 90
        2
102
RTVSPost2010PropOp53
 70
     1
102
RTVSPost2010Prop54
  1
strokes_ogs.tif
102
RTVSPost2010PropOp54
 70
     1
102
RTVSPost2010Prop55
280
     0
102
RTVSPost2010PropOp55
 70
     1
102
RTVSPost2010Prop56
140
1.0
102
RTVSPost2010PropOp56
 70
     1
102
RTVSPost2010Prop57
140
1.0
102
RTVSPost2010PropOp57
 70
     1
102
RTVSPropertyOp0
 70
     1
102
RTVSPropertyOp1
 70
     1
102
RTVSPropertyOp2
 70
     1
102
RTVSPropertyOp3
 70
     1
102
RTVSPropertyOp4
 70
     1
102
RTVSPropertyOp5
 70
     1
102
RTVSPropertyOp6
 70
     1
102
RTVSPropertyOp7
 70
     1
102
RTVSPropertyOp8
 70
     1
102
RTVSPropertyOp9
 70
     1
102
RTVSPropertyOp10
 70
     1
102
RTVSPropertyOp11
 70
     1
102
RTVSPropertyOp12
 70
     1
102
RTVSPropertyOp13
 70
     1
102
RTVSPropertyOp14
 70
     1
102
RTVSPropertyOp15
 70
     1
102
RTVSPropertyOp16
 70
     1
102
RTVSPropertyOp17
 70
     1
102
RTVSPropertyOp18
 70
     1
102
RTVSPropertyOp19
 70
     1
102
RTVSPropertyOp20
 70
     1
102
RTVSPropertyOp21
 70
     1
102
RTVSPropertyOp22
 70
     1
102
RTVSPropertyOp23
 70
     1
102
RTVSPropertyOp24
 70
     1
102
RTVSPropertyOp25
 70
     1
102
RTVSPropertyOp26
 70
     1
102
RTVSPropertyOp27
 70
     1
102
RTVSPropertyOp28
 70
     1
102
RTVSPropertyOp29
 70
     1
102
RTVSPropertyOp30
 70
     1
102
RTVSPropertyOp31
 70
     1
102
RTVSPropertyOp32
 70
     1
102
RTVSPropertyOp33
 70
     1
102
RTVSPropertyOp34
 70
     1
102
RTVSPropertyOp35
 70
     1
102
RTVSPropertyOp36
 70
     1
102
RTVSPropertyOp37
 70
     1
102
RTVSPropertyOp38
 70
     1
102
RTVSPropertyOp39
 70
     1
102
RTVSPropertyOp40
 70
     1
102
RTVSPropertyOp41
 70
     1
102
RTVSPropertyOp42
 70
     1
102
RTVSPropertyOp43
 70
     1
102
RTVSPropertyOp44
 70
     1
102
RTVSPropertyOp45
 70
     1
102
RTVSPropertyOp46
 70
     1
102
RTVSPropertyOp47
 70
     1
102
RTVSPropertyOp48
 70
     1
102
RTVSPropertyOp49
 70
     1
102
RTVSPropertyOp50
 70
     1
102
RTVSPropertyOp51
 70
     0
102
RTVSPropertyOp52
 70
     0
102
RTVSPropertyOp53
 70
     1
102
RTVSPropertyOp54
 70
     1
102
RTVSPropertyOp55
 70
     1
102
RTVSPropertyOp56
 70
     1
102
RTVSPropertyOp57
 70
     1
102
RTVSPropertyOp58
 70
     1
102
RTVSPropertyOp59
 70
     1
102
RTVSPropertyOp60
 70
     1
102
RTVSPropertyOp61
 70
     1
102
RTVSPropertyOp62
 70
     1
  0
XRECORD
  5
41EE
102
{ACAD_REACTORS
330
41ED
102
}
330
41ED
100
AcDbXrecord
280
     1
102
RTVSPost2010Prop28
280
     0
102
RTVSPost2010PropOp28
 70
     1
102
RTVSPost2010Prop29
280
     1
102
RTVSPost2010PropOp29
 70
     1
102
RTVSPost2010Prop30
280
     1
102
RTVSPost2010PropOp30
 70
     1
102
RTVSPost2010Prop31
280
     0
102
RTVSPost2010PropOp31
 70
     1
102
RTVSPost2010Prop32
280
     0
102
RTVSPost2010PropOp32
 70
     1
102
RTVSPost2010Prop33
280
     0
102
RTVSPost2010PropOp33
 70
     1
102
RTVSPost2010Prop34
280
     0
102
RTVSPost2010PropOp34
 70
     1
102
RTVSPost2010Prop35
280
     0
102
RTVSPost2010PropOp35
 70
     1
102
RTVSPost2010Prop36
280
     0
102
RTVSPost2010PropOp36
 70
     1
102
RTVSPost2010Prop37
 90
       50
102
RTVSPost2010PropOp37
 70
     1
102
RTVSPost2010Prop38
140
0.0
102
RTVSPost2010PropOp38
 70
     1
102
RTVSPost2010Prop39
140
1.0
102
RTVSPost2010PropOp39
 70
     1
102
RTVSPost2010Prop40
 90
        0
102
RTVSPost2010PropOp40
 70
     1
102
RTVSPost2010Prop41ColorIndex
 90
       18
102
RTVSPost2010Prop41ColorRGB
 90
        0
102
RTVSPost2010PropOp41
 70
     1
102
RTVSPost2010Prop42
 90
       50
102
RTVSPost2010PropOp42
 70
     1
102
RTVSPost2010Prop43
 90
        3
102
RTVSPost2010PropOp43
 70
     1
102
RTVSPost2010Prop44ColorIndex
 90
        5
102
RTVSPost2010Prop44ColorRGB
 90
      255
102
RTVSPost2010PropOp44
 70
     1
102
RTVSPost2010Prop45
280
     0
102
RTVSPost2010PropOp45
 70
     1
102
RTVSPost2010Prop46
 90
       50
102
RTVSPost2010PropOp46
 70
     1
102
RTVSPost2010Prop47
 90
       50
102
RTVSPost2010PropOp47
 70
     1
102
RTVSPost2010Prop48
 90
       50
102
RTVSPost2010PropOp48
 70
     1
102
RTVSPost2010Prop49
280
     0
102
RTVSPost2010PropOp49
 70
     1
102
RTVSPost2010Prop50
 90
       50
102
RTVSPost2010PropOp50
 70
     1
102
RTVSPost2010Prop51ColorIndex
 90
      256
102
RTVSPost2010Prop51ColorRGB
 90
-16777216
102
RTVSPost2010PropOp51
 70
     0
102
RTVSPost2010Prop52
140
1.0
102
RTVSPost2010PropOp52
 70
     0
102
RTVSPost2010Prop53
 90
        2
102
RTVSPost2010PropOp53
 70
     1
102
RTVSPost2010Prop54
  1
strokes_ogs.tif
102
RTVSPost2010PropOp54
 70
     1
102
RTVSPost2010Prop55
280
     0
102
RTVSPost2010PropOp55
 70
     1
102
RTVSPost2010Prop56
140
1.0
102
RTVSPost2010PropOp56
 70
     1
102
RTVSPost2010Prop57
140
1.0
102
RTVSPost2010PropOp57
 70
     1
102
RTVSPropertyOp0
 70
     1
102
RTVSPropertyOp1
 70
     1
102
RTVSPropertyOp2
 70
     1
102
RTVSPropertyOp3
 70
     1
102
RTVSPropertyOp4
 70
     1
102
RTVSPropertyOp5
 70
     1
102
RTVSPropertyOp6
 70
     1
102
RTVSPropertyOp7
 70
     1
102
RTVSPropertyOp8
 70
     1
102
RTVSPropertyOp9
 70
     1
102
RTVSPropertyOp10
 70
     1
102
RTVSPropertyOp11
 70
     1
102
RTVSPropertyOp12
 70
     1
102
RTVSPropertyOp13
 70
     1
102
RTVSPropertyOp14
 70
     1
102
RTVSPropertyOp15
 70
     1
102
RTVSPropertyOp16
 70
     1
102
RTVSPropertyOp17
 70
     1
102
RTVSPropertyOp18
 70
     1
102
RTVSPropertyOp19
 70
     1
102
RTVSPropertyOp20
 70
     1
102
RTVSPropertyOp21
 70
     1
102
RTVSPropertyOp22
 70
     1
102
RTVSPropertyOp23
 70
     1
102
RTVSPropertyOp24
 70
     1
102
RTVSPropertyOp25
 70
     1
102
RTVSPropertyOp26
 70
     1
102
RTVSPropertyOp27
 70
     1
102
RTVSPropertyOp28
 70
     1
102
RTVSPropertyOp29
 70
     1
102
RTVSPropertyOp30
 70
     1
102
RTVSPropertyOp31
 70
     1
102
RTVSPropertyOp32
 70
     1
102
RTVSPropertyOp33
 70
     1
102
RTVSPropertyOp34
 70
     1
102
RTVSPropertyOp35
 70
     1
102
RTVSPropertyOp36
 70
     1
102
RTVSPropertyOp37
 70
     1
102
RTVSPropertyOp38
 70
     1
102
RTVSPropertyOp39
 70
     1
102
RTVSPropertyOp40
 70
     1
102
RTVSPropertyOp41
 70
     1
102
RTVSPropertyOp42
 70
     1
102
RTVSPropertyOp43
 70
     1
102
RTVSPropertyOp44
 70
     1
102
RTVSPropertyOp45
 70
     1
102
RTVSPropertyOp46
 70
     1
102
RTVSPropertyOp47
 70
     1
102
RTVSPropertyOp48
 70
     1
102
RTVSPropertyOp49
 70
     1
102
RTVSPropertyOp50
 70
     1
102
RTVSPropertyOp51
 70
     0
102
RTVSPropertyOp52
 70
     0
102
RTVSPropertyOp53
 70
     1
102
RTVSPropertyOp54
 70
     1
102
RTVSPropertyOp55
 70
     1
102
RTVSPropertyOp56
 70
     1
102
RTVSPropertyOp57
 70
     1
102
RTVSPropertyOp58
 70
     1
102
RTVSPropertyOp59
 70
     1
102
RTVSPropertyOp60
 70
     1
102
RTVSPropertyOp61
 70
     1
102
RTVSPropertyOp62
 70
     1
  0
XRECORD
  5
41F0
102
{ACAD_REACTORS
330
41EF
102
}
330
41EF
100
AcDbXrecord
280
     1
102
RTVSPost2010Prop28
280
     0
102
RTVSPost2010PropOp28
 70
     1
102
RTVSPost2010Prop29
280
     1
102
RTVSPost2010PropOp29
 70
     1
102
RTVSPost2010Prop30
280
     1
102
RTVSPost2010PropOp30
 70
     1
102
RTVSPost2010Prop31
280
     0
102
RTVSPost2010PropOp31
 70
     1
102
RTVSPost2010Prop32
280
     0
102
RTVSPost2010PropOp32
 70
     1
102
RTVSPost2010Prop33
280
     0
102
RTVSPost2010PropOp33
 70
     1
102
RTVSPost2010Prop34
280
     0
102
RTVSPost2010PropOp34
 70
     1
102
RTVSPost2010Prop35
280
     0
102
RTVSPost2010PropOp35
 70
     1
102
RTVSPost2010Prop36
280
     0
102
RTVSPost2010PropOp36
 70
     1
102
RTVSPost2010Prop37
 90
       50
102
RTVSPost2010PropOp37
 70
     1
102
RTVSPost2010Prop38
140
0.0
102
RTVSPost2010PropOp38
 70
     1
102
RTVSPost2010Prop39
140
1.0
102
RTVSPost2010PropOp39
 70
     1
102
RTVSPost2010Prop40
 90
        0
102
RTVSPost2010PropOp40
 70
     1
102
RTVSPost2010Prop41ColorIndex
 90
       18
102
RTVSPost2010Prop41ColorRGB
 90
        0
102
RTVSPost2010PropOp41
 70
     1
102
RTVSPost2010Prop42
 90
       50
102
RTVSPost2010PropOp42
 70
     1
102
RTVSPost2010Prop43
 90
        3
102
RTVSPost2010PropOp43
 70
     1
102
RTVSPost2010Prop44ColorIndex
 90
        5
102
RTVSPost2010Prop44ColorRGB
 90
      255
102
RTVSPost2010PropOp44
 70
     1
102
RTVSPost2010Prop45
280
     0
102
RTVSPost2010PropOp45
 70
     1
102
RTVSPost2010Prop46
 90
       50
102
RTVSPost2010PropOp46
 70
     1
102
RTVSPost2010Prop47
 90
       50
102
RTVSPost2010PropOp47
 70
     1
102
RTVSPost2010Prop48
 90
       50
102
RTVSPost2010PropOp48
 70
     1
102
RTVSPost2010Prop49
280
     0
102
RTVSPost2010PropOp49
 70
     1
102
RTVSPost2010Prop50
 90
       50
102
RTVSPost2010PropOp50
 70
     1
102
RTVSPost2010Prop51ColorIndex
 90
      256
102
RTVSPost2010Prop51ColorRGB
 90
-16777216
102
RTVSPost2010PropOp51
 70
     0
102
RTVSPost2010Prop52
140
1.0
102
RTVSPost2010PropOp52
 70
     0
102
RTVSPost2010Prop53
 90
        2
102
RTVSPost2010PropOp53
 70
     1
102
RTVSPost2010Prop54
  1
strokes_ogs.tif
102
RTVSPost2010PropOp54
 70
     1
102
RTVSPost2010Prop55
280
     0
102
RTVSPost2010PropOp55
 70
     1
102
RTVSPost2010Prop56
140
1.0
102
RTVSPost2010PropOp56
 70
     1
102
RTVSPost2010Prop57
140
1.0
102
RTVSPost2010PropOp57
 70
     1
102
RTVSPropertyOp0
 70
     1
102
RTVSPropertyOp1
 70
     1
102
RTVSPropertyOp2
 70
     1
102
RTVSPropertyOp3
 70
     1
102
RTVSPropertyOp4
 70
     1
102
RTVSPropertyOp5
 70
     1
102
RTVSPropertyOp6
 70
     1
102
RTVSPropertyOp7
 70
     1
102
RTVSPropertyOp8
 70
     1
102
RTVSPropertyOp9
 70
     1
102
RTVSPropertyOp10
 70
     1
102
RTVSPropertyOp11
 70
     1
102
RTVSPropertyOp12
 70
     1
102
RTVSPropertyOp13
 70
     1
102
RTVSPropertyOp14
 70
     1
102
RTVSPropertyOp15
 70
     1
102
RTVSPropertyOp16
 70
     1
102
RTVSPropertyOp17
 70
     1
102
RTVSPropertyOp18
 70
     1
102
RTVSPropertyOp19
 70
     1
102
RTVSPropertyOp20
 70
     1
102
RTVSPropertyOp21
 70
     1
102
RTVSPropertyOp22
 70
     1
102
RTVSPropertyOp23
 70
     1
102
RTVSPropertyOp24
 70
     1
102
RTVSPropertyOp25
 70
     1
102
RTVSPropertyOp26
 70
     1
102
RTVSPropertyOp27
 70
     1
102
RTVSPropertyOp28
 70
     1
102
RTVSPropertyOp29
 70
     1
102
RTVSPropertyOp30
 70
     1
102
RTVSPropertyOp31
 70
     1
102
RTVSPropertyOp32
 70
     1
102
RTVSPropertyOp33
 70
     1
102
RTVSPropertyOp34
 70
     1
102
RTVSPropertyOp35
 70
     1
102
RTVSPropertyOp36
 70
     1
102
RTVSPropertyOp37
 70
     1
102
RTVSPropertyOp38
 70
     1
102
RTVSPropertyOp39
 70
     1
102
RTVSPropertyOp40
 70
     1
102
RTVSPropertyOp41
 70
     1
102
RTVSPropertyOp42
 70
     1
102
RTVSPropertyOp43
 70
     1
102
RTVSPropertyOp44
 70
     1
102
RTVSPropertyOp45
 70
     1
102
RTVSPropertyOp46
 70
     1
102
RTVSPropertyOp47
 70
     1
102
RTVSPropertyOp48
 70
     1
102
RTVSPropertyOp49
 70
     1
102
RTVSPropertyOp50
 70
     1
102
RTVSPropertyOp51
 70
     0
102
RTVSPropertyOp52
 70
     0
102
RTVSPropertyOp53
 70
     1
102
RTVSPropertyOp54
 70
     1
102
RTVSPropertyOp55
 70
     1
102
RTVSPropertyOp56
 70
     1
102
RTVSPropertyOp57
 70
     1
102
RTVSPropertyOp58
 70
     1
102
RTVSPropertyOp59
 70
     1
102
RTVSPropertyOp60
 70
     1
102
RTVSPropertyOp61
 70
     1
102
RTVSPropertyOp62
 70
     1
  0
XRECORD
  5
41DB
102
{ACAD_REACTORS
330
41DA
102
}
330
41DA
100
AcDbXrecord
280
     1
102
RTVSPost2010Prop28
280
     0
102
RTVSPost2010PropOp28
 70
     1
102
RTVSPost2010Prop29
280
     1
102
RTVSPost2010PropOp29
 70
     1
102
RTVSPost2010Prop30
280
     1
102
RTVSPost2010PropOp30
 70
     1
102
RTVSPost2010Prop31
280
     0
102
RTVSPost2010PropOp31
 70
     1
102
RTVSPost2010Prop32
280
     0
102
RTVSPost2010PropOp32
 70
     1
102
RTVSPost2010Prop33
280
     0
102
RTVSPost2010PropOp33
 70
     1
102
RTVSPost2010Prop34
280
     0
102
RTVSPost2010PropOp34
 70
     1
102
RTVSPost2010Prop35
280
     0
102
RTVSPost2010PropOp35
 70
     1
102
RTVSPost2010Prop36
280
     0
102
RTVSPost2010PropOp36
 70
     1
102
RTVSPost2010Prop37
 90
       50
102
RTVSPost2010PropOp37
 70
     1
102
RTVSPost2010Prop38
140
0.0
102
RTVSPost2010PropOp38
 70
     1
102
RTVSPost2010Prop39
140
1.0
102
RTVSPost2010PropOp39
 70
     1
102
RTVSPost2010Prop40
 90
        0
102
RTVSPost2010PropOp40
 70
     1
102
RTVSPost2010Prop41ColorIndex
 90
       18
102
RTVSPost2010Prop41ColorRGB
 90
        0
102
RTVSPost2010PropOp41
 70
     1
102
RTVSPost2010Prop42
 90
       50
102
RTVSPost2010PropOp42
 70
     1
102
RTVSPost2010Prop43
 90
        3
102
RTVSPost2010PropOp43
 70
     1
102
RTVSPost2010Prop44ColorIndex
 90
        5
102
RTVSPost2010Prop44ColorRGB
 90
      255
102
RTVSPost2010PropOp44
 70
     1
102
RTVSPost2010Prop45
280
     0
102
RTVSPost2010PropOp45
 70
     1
102
RTVSPost2010Prop46
 90
       50
102
RTVSPost2010PropOp46
 70
     1
102
RTVSPost2010Prop47
 90
       50
102
RTVSPost2010PropOp47
 70
     1
102
RTVSPost2010Prop48
 90
       50
102
RTVSPost2010PropOp48
 70
     1
102
RTVSPost2010Prop49
280
     0
102
RTVSPost2010PropOp49
 70
     1
102
RTVSPost2010Prop50
 90
       50
102
RTVSPost2010PropOp50
 70
     1
102
RTVSPost2010Prop51ColorIndex
 90
      256
102
RTVSPost2010Prop51ColorRGB
 90
-16777216
102
RTVSPost2010PropOp51
 70
     0
102
RTVSPost2010Prop52
140
1.0
102
RTVSPost2010PropOp52
 70
     0
102
RTVSPost2010Prop53
 90
        2
102
RTVSPost2010PropOp53
 70
     1
102
RTVSPost2010Prop54
  1
strokes_ogs.tif
102
RTVSPost2010PropOp54
 70
     1
102
RTVSPost2010Prop55
280
     0
102
RTVSPost2010PropOp55
 70
     1
102
RTVSPost2010Prop56
140
1.0
102
RTVSPost2010PropOp56
 70
     1
102
RTVSPost2010Prop57
140
1.0
102
RTVSPost2010PropOp57
 70
     1
102
RTVSPropertyOp0
 70
     1
102
RTVSPropertyOp1
 70
     1
102
RTVSPropertyOp2
 70
     1
102
RTVSPropertyOp3
 70
     1
102
RTVSPropertyOp4
 70
     1
102
RTVSPropertyOp5
 70
     1
102
RTVSPropertyOp6
 70
     1
102
RTVSPropertyOp7
 70
     1
102
RTVSPropertyOp8
 70
     1
102
RTVSPropertyOp9
 70
     1
102
RTVSPropertyOp10
 70
     1
102
RTVSPropertyOp11
 70
     1
102
RTVSPropertyOp12
 70
     1
102
RTVSPropertyOp13
 70
     1
102
RTVSPropertyOp14
 70
     1
102
RTVSPropertyOp15
 70
     1
102
RTVSPropertyOp16
 70
     1
102
RTVSPropertyOp17
 70
     1
102
RTVSPropertyOp18
 70
     1
102
RTVSPropertyOp19
 70
     1
102
RTVSPropertyOp20
 70
     1
102
RTVSPropertyOp21
 70
     1
102
RTVSPropertyOp22
 70
     1
102
RTVSPropertyOp23
 70
     1
102
RTVSPropertyOp24
 70
     1
102
RTVSPropertyOp25
 70
     1
102
RTVSPropertyOp26
 70
     1
102
RTVSPropertyOp27
 70
     1
102
RTVSPropertyOp28
 70
     1
102
RTVSPropertyOp29
 70
     1
102
RTVSPropertyOp30
 70
     1
102
RTVSPropertyOp31
 70
     1
102
RTVSPropertyOp32
 70
     1
102
RTVSPropertyOp33
 70
     1
102
RTVSPropertyOp34
 70
     1
102
RTVSPropertyOp35
 70
     1
102
RTVSPropertyOp36
 70
     1
102
RTVSPropertyOp37
 70
     1
102
RTVSPropertyOp38
 70
     1
102
RTVSPropertyOp39
 70
     1
102
RTVSPropertyOp40
 70
     1
102
RTVSPropertyOp41
 70
     1
102
RTVSPropertyOp42
 70
     1
102
RTVSPropertyOp43
 70
     1
102
RTVSPropertyOp44
 70
     1
102
RTVSPropertyOp45
 70
     1
102
RTVSPropertyOp46
 70
     1
102
RTVSPropertyOp47
 70
     1
102
RTVSPropertyOp48
 70
     1
102
RTVSPropertyOp49
 70
     1
102
RTVSPropertyOp50
 70
     1
102
RTVSPropertyOp51
 70
     0
102
RTVSPropertyOp52
 70
     0
102
RTVSPropertyOp53
 70
     1
102
RTVSPropertyOp54
 70
     1
102
RTVSPropertyOp55
 70
     1
102
RTVSPropertyOp56
 70
     1
102
RTVSPropertyOp57
 70
     1
102
RTVSPropertyOp58
 70
     1
102
RTVSPropertyOp59
 70
     1
102
RTVSPropertyOp60
 70
     1
102
RTVSPropertyOp61
 70
     1
102
RTVSPropertyOp62
 70
     1
  0
XRECORD
  5
41EA
102
{ACAD_REACTORS
330
41E9
102
}
330
41E9
100
AcDbXrecord
280
     1
102
RTVSPost2010Prop28
280
     0
102
RTVSPost2010PropOp28
 70
     1
102
RTVSPost2010Prop29
280
     1
102
RTVSPost2010PropOp29
 70
     1
102
RTVSPost2010Prop30
280
     1
102
RTVSPost2010PropOp30
 70
     1
102
RTVSPost2010Prop31
280
     0
102
RTVSPost2010PropOp31
 70
     1
102
RTVSPost2010Prop32
280
     0
102
RTVSPost2010PropOp32
 70
     1
102
RTVSPost2010Prop33
280
     0
102
RTVSPost2010PropOp33
 70
     1
102
RTVSPost2010Prop34
280
     0
102
RTVSPost2010PropOp34
 70
     1
102
RTVSPost2010Prop35
280
     0
102
RTVSPost2010PropOp35
 70
     1
102
RTVSPost2010Prop36
280
     0
102
RTVSPost2010PropOp36
 70
     1
102
RTVSPost2010Prop37
 90
       50
102
RTVSPost2010PropOp37
 70
     1
102
RTVSPost2010Prop38
140
0.0
102
RTVSPost2010PropOp38
 70
     1
102
RTVSPost2010Prop39
140
1.0
102
RTVSPost2010PropOp39
 70
     1
102
RTVSPost2010Prop40
 90
        0
102
RTVSPost2010PropOp40
 70
     1
102
RTVSPost2010Prop41ColorIndex
 90
       18
102
RTVSPost2010Prop41ColorRGB
 90
        0
102
RTVSPost2010PropOp41
 70
     1
102
RTVSPost2010Prop42
 90
       50
102
RTVSPost2010PropOp42
 70
     1
102
RTVSPost2010Prop43
 90
        3
102
RTVSPost2010PropOp43
 70
     1
102
RTVSPost2010Prop44ColorIndex
 90
        5
102
RTVSPost2010Prop44ColorRGB
 90
      255
102
RTVSPost2010PropOp44
 70
     1
102
RTVSPost2010Prop45
280
     0
102
RTVSPost2010PropOp45
 70
     1
102
RTVSPost2010Prop46
 90
       50
102
RTVSPost2010PropOp46
 70
     1
102
RTVSPost2010Prop47
 90
       50
102
RTVSPost2010PropOp47
 70
     1
102
RTVSPost2010Prop48
 90
       50
102
RTVSPost2010PropOp48
 70
     1
102
RTVSPost2010Prop49
280
     0
102
RTVSPost2010PropOp49
 70
     1
102
RTVSPost2010Prop50
 90
       50
102
RTVSPost2010PropOp50
 70
     1
102
RTVSPost2010Prop51ColorIndex
 90
      256
102
RTVSPost2010Prop51ColorRGB
 90
-16777216
102
RTVSPost2010PropOp51
 70
     0
102
RTVSPost2010Prop52
140
1.0
102
RTVSPost2010PropOp52
 70
     0
102
RTVSPost2010Prop53
 90
        2
102
RTVSPost2010PropOp53
 70
     1
102
RTVSPost2010Prop54
  1
strokes_ogs.tif
102
RTVSPost2010PropOp54
 70
     1
102
RTVSPost2010Prop55
280
     0
102
RTVSPost2010PropOp55
 70
     1
102
RTVSPost2010Prop56
140
1.0
102
RTVSPost2010PropOp56
 70
     1
102
RTVSPost2010Prop57
140
1.0
102
RTVSPost2010PropOp57
 70
     1
102
RTVSPropertyOp0
 70
     1
102
RTVSPropertyOp1
 70
     1
102
RTVSPropertyOp2
 70
     1
102
RTVSPropertyOp3
 70
     1
102
RTVSPropertyOp4
 70
     1
102
RTVSPropertyOp5
 70
     1
102
RTVSPropertyOp6
 70
     1
102
RTVSPropertyOp7
 70
     1
102
RTVSPropertyOp8
 70
     1
102
RTVSPropertyOp9
 70
     1
102
RTVSPropertyOp10
 70
     1
102
RTVSPropertyOp11
 70
     1
102
RTVSPropertyOp12
 70
     1
102
RTVSPropertyOp13
 70
     1
102
RTVSPropertyOp14
 70
     1
102
RTVSPropertyOp15
 70
     1
102
RTVSPropertyOp16
 70
     1
102
RTVSPropertyOp17
 70
     1
102
RTVSPropertyOp18
 70
     1
102
RTVSPropertyOp19
 70
     1
102
RTVSPropertyOp20
 70
     1
102
RTVSPropertyOp21
 70
     1
102
RTVSPropertyOp22
 70
     1
102
RTVSPropertyOp23
 70
     1
102
RTVSPropertyOp24
 70
     1
102
RTVSPropertyOp25
 70
     1
102
RTVSPropertyOp26
 70
     1
102
RTVSPropertyOp27
 70
     1
102
RTVSPropertyOp28
 70
     1
102
RTVSPropertyOp29
 70
     1
102
RTVSPropertyOp30
 70
     1
102
RTVSPropertyOp31
 70
     1
102
RTVSPropertyOp32
 70
     1
102
RTVSPropertyOp33
 70
     1
102
RTVSPropertyOp34
 70
     1
102
RTVSPropertyOp35
 70
     1
102
RTVSPropertyOp36
 70
     1
102
RTVSPropertyOp37
 70
     1
102
RTVSPropertyOp38
 70
     1
102
RTVSPropertyOp39
 70
     1
102
RTVSPropertyOp40
 70
     1
102
RTVSPropertyOp41
 70
     1
102
RTVSPropertyOp42
 70
     1
102
RTVSPropertyOp43
 70
     1
102
RTVSPropertyOp44
 70
     1
102
RTVSPropertyOp45
 70
     1
102
RTVSPropertyOp46
 70
     1
102
RTVSPropertyOp47
 70
     1
102
RTVSPropertyOp48
 70
     1
102
RTVSPropertyOp49
 70
     1
102
RTVSPropertyOp50
 70
     1
102
RTVSPropertyOp51
 70
     0
102
RTVSPropertyOp52
 70
     0
102
RTVSPropertyOp53
 70
     1
102
RTVSPropertyOp54
 70
     1
102
RTVSPropertyOp55
 70
     1
102
RTVSPropertyOp56
 70
     1
102
RTVSPropertyOp57
 70
     1
102
RTVSPropertyOp58
 70
     1
102
RTVSPropertyOp59
 70
     1
102
RTVSPropertyOp60
 70
     1
102
RTVSPropertyOp61
 70
     1
102
RTVSPropertyOp62
 70
     1
  0
XRECORD
  5
41F2
102
{ACAD_REACTORS
330
41F1
102
}
330
41F1
100
AcDbXrecord
280
     1
102
RTVSPost2010Prop28
280
     0
102
RTVSPost2010PropOp28
 70
     1
102
RTVSPost2010Prop29
280
     1
102
RTVSPost2010PropOp29
 70
     1
102
RTVSPost2010Prop30
280
     1
102
RTVSPost2010PropOp30
 70
     1
102
RTVSPost2010Prop31
280
     0
102
RTVSPost2010PropOp31
 70
     1
102
RTVSPost2010Prop32
280
     0
102
RTVSPost2010PropOp32
 70
     1
102
RTVSPost2010Prop33
280
     0
102
RTVSPost2010PropOp33
 70
     1
102
RTVSPost2010Prop34
280
     0
102
RTVSPost2010PropOp34
 70
     1
102
RTVSPost2010Prop35
280
     0
102
RTVSPost2010PropOp35
 70
     1
102
RTVSPost2010Prop36
280
     0
102
RTVSPost2010PropOp36
 70
     1
102
RTVSPost2010Prop37
 90
       50
102
RTVSPost2010PropOp37
 70
     1
102
RTVSPost2010Prop38
140
0.0
102
RTVSPost2010PropOp38
 70
     1
102
RTVSPost2010Prop39
140
1.0
102
RTVSPost2010PropOp39
 70
     1
102
RTVSPost2010Prop40
 90
        0
102
RTVSPost2010PropOp40
 70
     1
102
RTVSPost2010Prop41ColorIndex
 90
       18
102
RTVSPost2010Prop41ColorRGB
 90
        0
102
RTVSPost2010PropOp41
 70
     1
102
RTVSPost2010Prop42
 90
       50
102
RTVSPost2010PropOp42
 70
     1
102
RTVSPost2010Prop43
 90
        3
102
RTVSPost2010PropOp43
 70
     1
102
RTVSPost2010Prop44ColorIndex
 90
        5
102
RTVSPost2010Prop44ColorRGB
 90
      255
102
RTVSPost2010PropOp44
 70
     1
102
RTVSPost2010Prop45
280
     0
102
RTVSPost2010PropOp45
 70
     1
102
RTVSPost2010Prop46
 90
       50
102
RTVSPost2010PropOp46
 70
     1
102
RTVSPost2010Prop47
 90
       50
102
RTVSPost2010PropOp47
 70
     1
102
RTVSPost2010Prop48
 90
       50
102
RTVSPost2010PropOp48
 70
     1
102
RTVSPost2010Prop49
280
     0
102
RTVSPost2010PropOp49
 70
     1
102
RTVSPost2010Prop50
 90
       50
102
RTVSPost2010PropOp50
 70
     1
102
RTVSPost2010Prop51ColorIndex
 90
      256
102
RTVSPost2010Prop51ColorRGB
 90
-16777216
102
RTVSPost2010PropOp51
 70
     0
102
RTVSPost2010Prop52
140
1.0
102
RTVSPost2010PropOp52
 70
     0
102
RTVSPost2010Prop53
 90
        2
102
RTVSPost2010PropOp53
 70
     1
102
RTVSPost2010Prop54
  1
strokes_ogs.tif
102
RTVSPost2010PropOp54
 70
     1
102
RTVSPost2010Prop55
280
     0
102
RTVSPost2010PropOp55
 70
     1
102
RTVSPost2010Prop56
140
1.0
102
RTVSPost2010PropOp56
 70
     1
102
RTVSPost2010Prop57
140
1.0
102
RTVSPost2010PropOp57
 70
     1
102
RTVSPropertyOp0
 70
     1
102
RTVSPropertyOp1
 70
     1
102
RTVSPropertyOp2
 70
     1
102
RTVSPropertyOp3
 70
     1
102
RTVSPropertyOp4
 70
     1
102
RTVSPropertyOp5
 70
     1
102
RTVSPropertyOp6
 70
     1
102
RTVSPropertyOp7
 70
     1
102
RTVSPropertyOp8
 70
     1
102
RTVSPropertyOp9
 70
     1
102
RTVSPropertyOp10
 70
     1
102
RTVSPropertyOp11
 70
     1
102
RTVSPropertyOp12
 70
     1
102
RTVSPropertyOp13
 70
     1
102
RTVSPropertyOp14
 70
     1
102
RTVSPropertyOp15
 70
     1
102
RTVSPropertyOp16
 70
     1
102
RTVSPropertyOp17
 70
     1
102
RTVSPropertyOp18
 70
     1
102
RTVSPropertyOp19
 70
     1
102
RTVSPropertyOp20
 70
     1
102
RTVSPropertyOp21
 70
     1
102
RTVSPropertyOp22
 70
     1
102
RTVSPropertyOp23
 70
     1
102
RTVSPropertyOp24
 70
     1
102
RTVSPropertyOp25
 70
     1
102
RTVSPropertyOp26
 70
     1
102
RTVSPropertyOp27
 70
     1
102
RTVSPropertyOp28
 70
     1
102
RTVSPropertyOp29
 70
     1
102
RTVSPropertyOp30
 70
     1
102
RTVSPropertyOp31
 70
     1
102
RTVSPropertyOp32
 70
     1
102
RTVSPropertyOp33
 70
     1
102
RTVSPropertyOp34
 70
     1
102
RTVSPropertyOp35
 70
     1
102
RTVSPropertyOp36
 70
     1
102
RTVSPropertyOp37
 70
     1
102
RTVSPropertyOp38
 70
     1
102
RTVSPropertyOp39
 70
     1
102
RTVSPropertyOp40
 70
     1
102
RTVSPropertyOp41
 70
     1
102
RTVSPropertyOp42
 70
     1
102
RTVSPropertyOp43
 70
     1
102
RTVSPropertyOp44
 70
     1
102
RTVSPropertyOp45
 70
     1
102
RTVSPropertyOp46
 70
     1
102
RTVSPropertyOp47
 70
     1
102
RTVSPropertyOp48
 70
     1
102
RTVSPropertyOp49
 70
     1
102
RTVSPropertyOp50
 70
     1
102
RTVSPropertyOp51
 70
     0
102
RTVSPropertyOp52
 70
     0
102
RTVSPropertyOp53
 70
     1
102
RTVSPropertyOp54
 70
     1
102
RTVSPropertyOp55
 70
     1
102
RTVSPropertyOp56
 70
     1
102
RTVSPropertyOp57
 70
     1
102
RTVSPropertyOp58
 70
     1
102
RTVSPropertyOp59
 70
     1
102
RTVSPropertyOp60
 70
     1
102
RTVSPropertyOp61
 70
     1
102
RTVSPropertyOp62
 70
     1
  0
ENDSEC
  0
EOF
