  0
SECTION
  2
HEADER
  9
$ACADVER
  1
AC1015
  9
$ACADMAINTVER
 70
    20
  9
$DWGCODEPAGE
  3
ANSI_932
  9
$INSBASE
 10
0.0
 20
0.0
 30
0.0
  9
$EXTMIN
 10
-0.1299809483498393
 20
-0.0901583435261273
 30
-0.0000000000000058
  9
$EXTMAX
 10
2760.132455372478
 20
1910.089880700065
 30
0.0000000000000104
  9
$LIMMIN
 10
0.0
 20
0.0
  9
$LIMMAX
 10
2840.0
 20
1970.0
  9
$ORTHOMODE
 70
     0
  9
$REGENMODE
 70
     1
  9
$FILLMODE
 70
     1
  9
$QTEXTMODE
 70
     0
  9
$MIRRTEXT
 70
     1
  9
$LTSCALE
 40
1.0
  9
$ATTMODE
 70
     1
  9
$TEXTSIZE
 40
2.5
  9
$TRACEWID
 40
1.0
  9
$TEXTSTYLE
  7
MSゴシック
  9
$CLAYER
  8
sunpo
  9
$CELTYPE
  6
ByLayer
  9
$CECOLOR
 62
   256
  9
$CELTSCALE
 40
1.0
  9
$DISPSILH
 70
     0
  9
$DIMSCALE
 40
10.0
  9
$DIMASZ
 40
0.8
  9
$DIMEXO
 40
1.0
  9
$DIMDLI
 40
0.0
  9
$DIMRND
 40
0.0
  9
$DIMDLE
 40
0.0
  9
$DIMEXE
 40
0.0
  9
$DIMTP
 40
0.0
  9
$DIMTM
 40
0.0
  9
$DIMTXT
 40
2.0
  9
$DIMCEN
 40
2.5
  9
$DIMTSZ
 40
0.0
  9
$DIMTOL
 70
     0
  9
$DIMLIM
 70
     0
  9
$DIMTIH
 70
     0
  9
$DIMTOH
 70
     0
  9
$DIMSE1
 70
     0
  9
$DIMSE2
 70
     0
  9
$DIMTAD
 70
     2
  9
$DIMZIN
 70
     8
  9
$DIMBLK
  1

  9
$DIMASO
 70
     1
  9
$DIMSHO
 70
     1
  9
$DIMPOST
  1

  9
$DIMAPOST
  1

  9
$DIMALT
 70
     0
  9
$DIMALTD
 70
     4
  9
$DIMALTF
 40
0.0394
  9
$DIMLFAC
 40
1.0
  9
$DIMTOFL
 70
     1
  9
$DIMTVP
 40
0.0
  9
$DIMTIX
 70
     0
  9
$DIMSOXD
 70
     0
  9
$DIMSAH
 70
     1
  9
$DIMBLK1
  1
DOT
  9
$DIMBLK2
  1
DOT
  9
$DIMSTYLE
  2
STANDARD
  9
$DIMCLRD
 70
     0
  9
$DIMCLRE
 70
     0
  9
$DIMCLRT
 70
     0
  9
$DIMTFAC
 40
1.0
  9
$DIMGAP
 40
0.1
  9
$DIMJUST
 70
     0
  9
$DIMSD1
 70
     0
  9
$DIMSD2
 70
     0
  9
$DIMTOLJ
 70
     1
  9
$DIMTZIN
 70
     0
  9
$DIMALTZ
 70
     0
  9
$DIMALTTZ
 70
     0
  9
$DIMUPT
 70
     0
  9
$DIMDEC
 70
     8
  9
$DIMTDEC
 70
     8
  9
$DIMALTU
 70
     8
  9
$DIMALTTD
 70
     4
  9
$DIMTXSTY
  7
Standard
  9
$DIMAUNIT
 70
     0
  9
$DIMADEC
 70
     0
  9
$DIMALTRND
 40
0.0
  9
$DIMAZIN
 70
     0
  9
$DIMDSEP
 70
    46
  9
$DIMATFIT
 70
     3
  9
$DIMFRAC
 70
     0
  9
$DIMLDRBLK
  1
DOT
  9
$DIMLUNIT
 70
     2
  9
$DIMLWD
 70
    -2
  9
$DIMLWE
 70
    -2
  9
$DIMTMOVE
 70
     1
  9
$LUNITS
 70
     2
  9
$LUPREC
 70
     8
  9
$SKETCHINC
 40
1.0
  9
$FILLETRAD
 40
10.0
  9
$AUNITS
 70
     0
  9
$AUPREC
 70
     8
  9
$MENU
  1
.
  9
$ELEVATION
 40
0.0
  9
$PELEVATION
 40
0.0
  9
$THICKNESS
 40
0.0
  9
$LIMCHECK
 70
     0
  9
$CHAMFERA
 40
20.0
  9
$CHAMFERB
 40
20.0
  9
$CHAMFERC
 40
20.0
  9
$CHAMFERD
 40
0.0
  9
$SKPOLY
 70
     0
  9
$TDCREATE
 40
2453276.413761574
  9
$TDUCREATE
 40
2453276.038766620
  9
$TDUPDATE
 40
2459970.705439815
  9
$TDUUPDATE
 40
2459970.330439815
  9
$TDINDWG
 40
0.3240148032
  9
$TDUSRTIMER
 40
0.3240148032
  9
$USRTIMER
 70
     1
  9
$ANGBASE
 50
0.0
  9
$ANGDIR
 70
     0
  9
$PDMODE
 70
     0
  9
$PDSIZE
 40
0.0
  9
$PLINEWID
 40
0.0
  9
$SPLFRAME
 70
     0
  9
$SPLINETYPE
 70
     6
  9
$SPLINESEGS
 70
     8
  9
$HANDSEED
  5
3B1F
  9
$SURFTAB1
 70
     6
  9
$SURFTAB2
 70
     6
  9
$SURFTYPE
 70
     6
  9
$SURFU
 70
     6
  9
$SURFV
 70
     6
  9
$UCSBASE
  2

  9
$UCSNAME
  2

  9
$UCSORG
 10
0.0
 20
0.0
 30
0.0
  9
$UCSXDIR
 10
1.0
 20
0.0
 30
0.0
  9
$UCSYDIR
 10
0.0
 20
1.0
 30
0.0
  9
$UCSORTHOREF
  2

  9
$UCSORTHOVIEW
 70
     0
  9
$UCSORGTOP
 10
0.0
 20
0.0
 30
0.0
  9
$UCSORGBOTTOM
 10
0.0
 20
0.0
 30
0.0
  9
$UCSORGLEFT
 10
0.0
 20
0.0
 30
0.0
  9
$UCSORGRIGHT
 10
0.0
 20
0.0
 30
0.0
  9
$UCSORGFRONT
 10
0.0
 20
0.0
 30
0.0
  9
$UCSORGBACK
 10
0.0
 20
0.0
 30
0.0
  9
$PUCSBASE
  2

  9
$PUCSNAME
  2

  9
$PUCSORG
 10
0.0
 20
0.0
 30
0.0
  9
$PUCSXDIR
 10
1.0
 20
0.0
 30
0.0
  9
$PUCSYDIR
 10
0.0
 20
1.0
 30
0.0
  9
$PUCSORTHOREF
  2

  9
$PUCSORTHOVIEW
 70
     0
  9
$PUCSORGTOP
 10
0.0
 20
0.0
 30
0.0
  9
$PUCSORGBOTTOM
 10
0.0
 20
0.0
 30
0.0
  9
$PUCSORGLEFT
 10
0.0
 20
0.0
 30
0.0
  9
$PUCSORGRIGHT
 10
0.0
 20
0.0
 30
0.0
  9
$PUCSORGFRONT
 10
0.0
 20
0.0
 30
0.0
  9
$PUCSORGBACK
 10
0.0
 20
0.0
 30
0.0
  9
$USERI1
 70
     0
  9
$USERI2
 70
     0
  9
$USERI3
 70
     0
  9
$USERI4
 70
     0
  9
$USERI5
 70
     0
  9
$USERR1
 40
0.0
  9
$USERR2
 40
0.0
  9
$USERR3
 40
0.0
  9
$USERR4
 40
0.0
  9
$USERR5
 40
0.0
  9
$WORLDVIEW
 70
     1
  9
$SHADEDGE
 70
     2
  9
$SHADEDIF
 70
    70
  9
$TILEMODE
 70
     1
  9
$MAXACTVP
 70
    64
  9
$PINSBASE
 10
0.0
 20
0.0
 30
0.0
  9
$PLIMCHECK
 70
     0
  9
$PEXTMIN
 10
0.0
 20
0.0
 30
0.0
  9
$PEXTMAX
 10
0.0
 20
0.0
 30
0.0
  9
$PLIMMIN
 10
0.0
 20
0.0
  9
$PLIMMAX
 10
12.0
 20
9.0
  9
$UNITMODE
 70
     0
  9
$VISRETAIN
 70
     1
  9
$PLINEGEN
 70
     0
  9
$PSLTSCALE
 70
     1
  9
$TREEDEPTH
 70
  3020
  9
$CMLSTYLE
  2
Standard
  9
$CMLJUST
 70
     0
  9
$CMLSCALE
 40
20.0
  9
$PROXYGRAPHICS
 70
     1
  9
$MEASUREMENT
 70
     1
  9
$CELWEIGHT
370
    -1
  9
$ENDCAPS
280
     0
  9
$JOINSTYLE
280
     0
  9
$LWDISPLAY
290
     0
  9
$INSUNITS
 70
     4
  9
$HYPERLINKBASE
  1

  9
$STYLESHEET
  1
monochrome.stb
  9
$XEDIT
290
     1
  9
$CEPSNTYPE
380
     0
  9
$PSTYLEMODE
290
     1
  9
$FINGERPRINTGUID
  2
{B4E61C12-08AD-407D-A83C-7C7812CA1D8B}
  9
$VERSIONGUID
  2
{4DE95DAA-216F-734D-B331-0C74B4927D4C}
  9
$EXTNAMES
290
     1
  9
$PSVPSCALE
 40
0.0
  9
$OLESTARTUP
290
     0
  0
ENDSEC
  0
SECTION
  2
CLASSES
  0
CLASS
  1
ACDBDICTIONARYWDFLT
  2
AcDbDictionaryWithDefault
  3
ObjectDBX Classes
 90
        0
280
     0
281
     0
  0
CLASS
  1
ACDBPLACEHOLDER
  2
AcDbPlaceHolder
  3
ObjectDBX Classes
 90
        0
280
     0
281
     0
  0
CLASS
  1
LAYOUT
  2
AcDbLayout
  3
ObjectDBX Classes
 90
        0
280
     0
281
     0
  0
CLASS
  1
DICTIONARYVAR
  2
AcDbDictionaryVar
  3
ObjectDBX Classes
 90
        0
280
     0
281
     0
  0
CLASS
  1
SORTENTSTABLE
  2
AcDbSortentsTable
  3
ObjectDBX Classes
 90
        0
280
     0
281
     0
  0
CLASS
  1
MATERIAL
  2
AcDbMaterial
  3
ObjectDBX Classes
 90
     1153
280
     0
281
     0
  0
CLASS
  1
VISUALSTYLE
  2
AcDbVisualStyle
  3
ObjectDBX Classes
 90
     4095
280
     0
281
     0
  0
CLASS
  1
TABLESTYLE
  2
AcDbTableStyle
  3
ObjectDBX Classes
 90
     4095
280
     0
281
     0
  0
CLASS
  1
SCALE
  2
AcDbScale
  3
ObjectDBX Classes
 90
     1153
280
     0
281
     0
  0
CLASS
  1
MLEADERSTYLE
  2
AcDbMLeaderStyle
  3
ACDB_MLEADERSTYLE_CLASS
 90
     4095
280
     0
281
     0
  0
CLASS
  1
CELLSTYLEMAP
  2
AcDbCellStyleMap
  3
ObjectDBX Classes
 90
     1152
280
     0
281
     0
  0
CLASS
  1
ACDBSECTIONVIEWSTYLE
  2
AcDbSectionViewStyle
  3
ObjectDBX Classes
 90
     1025
280
     0
281
     0
  0
CLASS
  1
ACDBDETAILVIEWSTYLE
  2
AcDbDetailViewStyle
  3
ObjectDBX Classes
 90
     1025
280
     0
281
     0
  0
ENDSEC
  0
SECTION
  2
TABLES
  0
TABLE
  2
VPORT
  5
8
102
{ACAD_XDICTIONARY
360
319B
102
}
330
0
100
AcDbSymbolTable
 70
     1
  0
VPORT
  5
3131
330
8
100
AcDbSymbolTableRecord
100
AcDbViewportTableRecord
  2
*Active
 70
     0
 10
0.0
 20
0.0
 11
1.0
 21
1.0
 12
1380.001237212064
 22
954.9998611782696
 13
0.0
 23
0.0
 14
10.0
 24
10.0
 15
10.0
 25
10.0
 16
0.0
 26
0.0
 36
1.0
 17
0.0
 27
0.0
 37
0.0
 40
1933.617830933697
 41
2.407786885245901
 42
50.0
 43
0.0
 44
0.0
 50
0.0
 51
0.0
 71
     0
 72
   100
 73
     1
 74
     3
 75
     0
 76
     0
 77
     0
 78
     0
281
     0
 65
     1
110
0.0
120
0.0
130
0.0
111
1.0
121
0.0
131
0.0
112
0.0
122
1.0
132
0.0
 79
     0
146
0.0
1001
ACAD_NAV_VCDISPLAY
1070
     3
  0
ENDTAB
  0
TABLE
  2
LTYPE
  5
5
330
0
100
AcDbSymbolTable
 70
     2
  0
LTYPE
  5
14
330
5
100
AcDbSymbolTableRecord
100
AcDbLinetypeTableRecord
  2
ByBlock
 70
     0
  3

 72
    65
 73
     0
 40
0.0
  0
LTYPE
  5
15
330
5
100
AcDbSymbolTableRecord
100
AcDbLinetypeTableRecord
  2
ByLayer
 70
     0
  3

 72
    65
 73
     0
 40
0.0
  0
LTYPE
  5
16
330
5
100
AcDbSymbolTableRecord
100
AcDbLinetypeTableRecord
  2
Continuous
 70
     0
  3
Solid line
 72
    65
 73
     0
 40
0.0
  0
LTYPE
  5
255D
330
5
100
AcDbSymbolTableRecord
100
AcDbLinetypeTableRecord
  2
DASHED
 70
     0
  3
Dashed __ __ __ __ __ __ __ __ __ __ __ __ __ _
 72
    65
 73
     2
 40
19.05
 49
12.7
 74
     0
 49
-6.349999999999999
 74
     0
  0
ENDTAB
  0
TABLE
  2
LAYER
  5
2
102
{ACAD_XDICTIONARY
360
2D
102
}
330
0
100
AcDbSymbolTable
 70
    11
  0
LAYER
  5
10
102
{ACAD_XDICTIONARY
360
3185
102
}
330
2
100
AcDbSymbolTableRecord
100
AcDbLayerTableRecord
  2
0
 70
     0
 62
     7
  6
Continuous
290
     0
370
    -3
390
29
  0
LAYER
  5
2294
102
{ACAD_XDICTIONARY
360
3187
102
}
330
2
100
AcDbSymbolTableRecord
100
AcDbLayerTableRecord
  2
HATCH
 70
     0
 62
     9
  6
Continuous
370
    -3
390
29
  0
LAYER
  5
2301
330
2
100
AcDbSymbolTableRecord
100
AcDbLayerTableRecord
  2
Defpoints
 70
     0
 62
     7
  6
Continuous
290
     0
370
    -3
390
F
  0
LAYER
  5
235F
102
{ACAD_XDICTIONARY
360
3189
102
}
330
2
100
AcDbSymbolTableRecord
100
AcDbLayerTableRecord
  2
KUTAI
 70
     0
 62
     3
  6
Continuous
370
    -3
390
29
  0
LAYER
  5
2360
102
{ACAD_XDICTIONARY
360
318B
102
}
330
2
100
AcDbSymbolTableRecord
100
AcDbLayerTableRecord
  2
BOUSUI
 70
     0
 62
     1
  6
Continuous
370
    -3
390
29
  0
LAYER
  5
2361
102
{ACAD_XDICTIONARY
360
318D
102
}
330
2
100
AcDbSymbolTableRecord
100
AcDbLayerTableRecord
  2
MOJI
 70
     0
 62
     7
  6
Continuous
370
    -3
390
29
  0
LAYER
  5
2363
102
{ACAD_XDICTIONARY
360
318F
102
}
330
2
100
AcDbSymbolTableRecord
100
AcDbLayerTableRecord
  2
sunpo
 70
     0
 62
     7
  6
Continuous
370
    -3
390
29
  0
LAYER
  5
2364
102
{ACAD_XDICTIONARY
360
3191
102
}
330
2
100
AcDbSymbolTableRecord
100
AcDbLayerTableRecord
  2
KANAMONO_SCREW
 70
     0
 62
     4
  6
Continuous
370
    -3
390
29
  0
LAYER
  5
2501
102
{ACAD_XDICTIONARY
360
3193
102
}
330
2
100
AcDbSymbolTableRecord
100
AcDbLayerTableRecord
  2
dannnetu
 70
     0
 62
     6
  6
Continuous
370
    -3
390
F
  0
LAYER
  5
27C0
102
{ACAD_XDICTIONARY
360
3195
102
}
330
2
100
AcDbSymbolTableRecord
100
AcDbLayerTableRecord
  2
KANAMONO
 70
     0
 62
     4
  6
Continuous
370
    -3
390
29
  0
LAYER
  5
329D
102
{ACAD_XDICTIONARY
360
329E
102
}
330
2
100
AcDbSymbolTableRecord
100
AcDbLayerTableRecord
  2
WAKU
 70
     0
 62
     7
  6
Continuous
370
    -3
390
29
  0
ENDTAB
  0
TABLE
  2
STYLE
  5
3
330
0
100
AcDbSymbolTable
 70
     2
  0
STYLE
  5
11
330
3
100
AcDbSymbolTableRecord
100
AcDbTextStyleTableRecord
  2
Standard
 70
     0
 40
0.0
 41
1.0
 50
0.0
 71
     0
 42
2.5
  3

  4

1001
ACAD
1000
MS Gothic
1071
    32817
  0
STYLE
  5
329F
330
3
100
AcDbSymbolTableRecord
100
AcDbTextStyleTableRecord
  2
MSゴシック
 70
     0
 40
0.0
 41
1.0
 50
0.0
 71
     0
 42
2.5
  3

  4

1001
ACAD
1000
MS Gothic
1071
    32817
  0
ENDTAB
  0
TABLE
  2
VIEW
  5
6
330
0
100
AcDbSymbolTable
 70
     0
  0
ENDTAB
  0
TABLE
  2
UCS
  5
7
330
0
100
AcDbSymbolTable
 70
     0
  0
ENDTAB
  0
TABLE
  2
APPID
  5
9
330
0
100
AcDbSymbolTable
 70
     7
  0
APPID
  5
12
330
9
100
AcDbSymbolTableRecord
100
AcDbRegAppTableRecord
  2
ACAD
 70
     0
  0
APPID
  5
31CB
330
9
100
AcDbSymbolTableRecord
100
AcDbRegAppTableRecord
  2
ACAD_MLEADERVER
 70
     0
  0
APPID
  5
320D
330
9
100
AcDbSymbolTableRecord
100
AcDbRegAppTableRecord
  2
ACAD_EXEMPT_FROM_CAD_STANDARDS
 70
     0
  0
APPID
  5
3253
330
9
100
AcDbSymbolTableRecord
100
AcDbRegAppTableRecord
  2
ACAD_NAV_VCDISPLAY
 70
     0
  0
APPID
  5
32A0
330
9
100
AcDbSymbolTableRecord
100
AcDbRegAppTableRecord
  2
ACAD_PSEXT
 70
     0
  0
APPID
  5
37FD
330
9
100
AcDbSymbolTableRecord
100
AcDbRegAppTableRecord
  2
AcadAnnoPO
 70
     0
  0
APPID
  5
3848
330
9
100
AcDbSymbolTableRecord
100
AcDbRegAppTableRecord
  2
Acad_TC
 70
     0
  0
ENDTAB
  0
TABLE
  2
DIMSTYLE
  5
A
330
0
100
AcDbSymbolTable
 70
     1
100
AcDbDimStyleTable
 71
     1
340
22E4
  0
DIMSTYLE
105
22E4
330
A
100
AcDbSymbolTableRecord
100
AcDbDimStyleTableRecord
  2
STANDARD
 70
     0
 40
10.0
 41
0.8
 42
1.0
 43
0.0
 44
0.0
 73
     0
 74
     0
 77
     2
 78
     8
140
2.0
141
2.5
143
0.0394
147
0.1
171
     4
172
     1
173
     1
271
     8
272
     8
273
     8
274
     4
279
     1
340
11
341
903
343
903
344
903
  0
ENDTAB
  0
TABLE
  2
BLOCK_RECORD
  5
1
330
0
100
AcDbSymbolTable
 70
     7
  0
BLOCK_RECORD
  5
1F
102
{ACAD_XDICTIONARY
360
1C62
102
}
330
1
100
AcDbSymbolTableRecord
100
AcDbBlockTableRecord
  2
*Model_Space
340
22
  0
BLOCK_RECORD
  5
1CD0
330
1
100
AcDbSymbolTableRecord
100
AcDbBlockTableRecord
  2
*Paper_Space
340
1CD1
  0
BLOCK_RECORD
  5
903
330
1
100
AcDbSymbolTableRecord
100
AcDbBlockTableRecord
  2
_DOT
340
0
102
{BLKREFS
331
393D
331
393E
331
3942
331
3943
331
3950
331
3951
331
3873
331
3874
331
387E
331
387F
331
3886
331
3887
331
388F
331
3890
331
3935
331
3936
102
}
  0
BLOCK_RECORD
  5
25B1
330
1
100
AcDbSymbolTableRecord
100
AcDbBlockTableRecord
  2
*D1
340
0
  0
BLOCK_RECORD
  5
25BE
330
1
100
AcDbSymbolTableRecord
100
AcDbBlockTableRecord
  2
*D2
340
0
  0
BLOCK_RECORD
  5
26D4
330
1
100
AcDbSymbolTableRecord
100
AcDbBlockTableRecord
  2
*D3
340
0
  0
BLOCK_RECORD
  5
2997
330
1
100
AcDbSymbolTableRecord
100
AcDbBlockTableRecord
  2
*D4
340
0
  0
BLOCK_RECORD
  5
2A1C
330
1
100
AcDbSymbolTableRecord
100
AcDbBlockTableRecord
  2
hps-5-10-30
340
0
310
2800000020000000200000000100080000000000000400000000000000000000000000000000000000000000000080000080000000808000800000008000800080800000C0C0C000C0DCC000F0CAA6000020400000206000002080000020A0000020C0000020E00000400000004020000040400000406000004080000040A0
310
000040C0000040E00000600000006020000060400000606000006080000060A0000060C0000060E00000800000008020000080400000806000008080000080A0000080C0000080E00000A0000000A0200000A0400000A0600000A0800000A0A00000A0C00000A0E00000C0000000C0200000C0400000C0600000C0800000C0
310
A00000C0C00000C0E00000E0000000E0200000E0400000E0600000E0800000E0A00000E0C00000E0E00040000000400020004000400040006000400080004000A0004000C0004000E00040200000402020004020400040206000402080004020A0004020C0004020E000404000004040200040404000404060004040800040
310
40A0004040C0004040E00040600000406020004060400040606000406080004060A0004060C0004060E00040800000408020004080400040806000408080004080A0004080C0004080E00040A0000040A0200040A0400040A0600040A0800040A0A00040A0C00040A0E00040C0000040C0200040C0400040C0600040C08000
310
40C0A00040C0C00040C0E00040E0000040E0200040E0400040E0600040E0800040E0A00040E0C00040E0E00080000000800020008000400080006000800080008000A0008000C0008000E00080200000802020008020400080206000802080008020A0008020C0008020E00080400000804020008040400080406000804080
310
008040A0008040C0008040E00080600000806020008060400080606000806080008060A0008060C0008060E00080800000808020008080400080806000808080008080A0008080C0008080E00080A0000080A0200080A0400080A0600080A0800080A0A00080A0C00080A0E00080C0000080C0200080C0400080C0600080C0
310
800080C0A00080C0C00080C0E00080E0000080E0200080E0400080E0600080E0800080E0A00080E0C00080E0E000C0000000C0002000C0004000C0006000C0008000C000A000C000C000C000E000C0200000C0202000C0204000C0206000C0208000C020A000C020C000C020E000C0400000C0402000C0404000C0406000C0
310
408000C040A000C040C000C040E000C0600000C0602000C0604000C0606000C0608000C060A000C060C000C060E000C0800000C0802000C0804000C0806000C0808000C080A000C080C000C080E000C0A00000C0A02000C0A04000C0A06000C0A08000C0A0A000C0A0C000C0A0E000C0C00000C0C02000C0C04000C0C06000
310
C0C08000C0C0A000F0FBFF00A4A0A000808080000000FF0000FF000000FFFF00FF000000FF00FF00FFFF0000FFFFFF00FFFFFFFFFFFFFFFFFFFFFFFFFFFFFFFFFFFFFFFFFFFFFFFFFFFFFFFFFFFFFFFFFFFFFFFFFFFFFFFFFFFFFFFFFFFFFFFFFFFFFFFFFFFFFFFFFFFFFFFFFFFFFFFFFFFFFFFFFFFFFFFFFFFFFFFFFFFFFF
310
FEFEFFFFFFFFFFFFFFFFFFFFFFFFFFFFFFFFFFFFFFFFFFFFFFFFFFFFFFFFFFFFFEFFFEFFFFFFFFFFFFFFFFFFFFFFFFFFFFFFFFFFFFFFFFFFFFFFFFFFFFFFFEFEFEFEFEFEFFFFFFFFFFFFFFFFFFFFFFFFFFFFFFFFFFFFFFFFFFFFFFFFFFFFFEFFFEFEFFFEFFFFFFFFFFFFFFFFFFFFFFFFFFFFFFFFFFFFFFFFFFFFFFFFFFFFFE
310
FFFEFEFFFEFFFFFFFFFFFFFFFFFFFFFFFFFFFFFFFFFFFFFFFFFFFFFFFFFFFFFEFFFEFEFFFEFFFFFFFFFFFFFFFFFFFFFFFFFFFFFFFFFFFFFFFFFFFFFFFFFFFFFEFFFEFEFFFEFFFFFFFFFFFFFFFFFFFFFFFFFFFFFFFFFFFFFFFFFFFFFFFFFFFFFEFFFEFEFFFEFFFFFFFFFFFFFFFFFFFFFFFFFFFFFFFFFFFFFFFFFFFFFFFFFFFF
310
FEFFFEFEFFFEFFFFFFFFFFFFFFFFFFFFFFFFFFFFFFFFFFFFFFFFFFFFFFFFFFFFFEFFFEFEFFFEFFFFFFFFFFFFFFFFFFFFFFFFFFFFFFFFFFFFFFFFFFFFFFFFFFFFFEFFFEFEFFFEFFFFFFFFFFFFFFFFFFFFFFFFFFFFFFFFFFFFFFFFFFFFFFFFFFFFFEFFFEFEFFFEFFFFFFFFFFFFFFFFFFFFFFFFFFFFFFFFFFFFFFFFFFFFFFFFFF
310
FFFEFFFEFEFFFEFFFFFFFFFFFFFFFFFFFFFFFFFFFFFFFFFFFFFFFFFFFFFFFFFFFFFEFFFEFEFFFEFFFFFFFFFFFFFFFFFFFFFFFFFFFFFFFFFFFFFFFFFFFFFFFFFFFFFEFFFEFEFFFEFFFFFFFFFFFFFFFFFFFFFFFFFFFFFFFFFFFFFFFFFFFFFFFFFFFFFEFFFEFEFFFEFFFFFFFFFFFFFFFFFFFFFFFFFFFFFFFFFFFFFFFFFFFFFFFF
310
FFFFFEFEFEFEFEFEFFFFFFFFFFFFFFFFFFFFFFFFFFFFFFFFFFFFFFFFFFFFFFFFFFFFFEFFFFFFFFFEFFFFFFFFFFFFFFFFFFFFFFFFFFFFFFFFFFFFFFFFFFFFFFFFFFFFFEFEFEFEFEFEFFFFFFFFFFFFFFFFFFFFFFFFFFFFFFFFFFFFFFFFFFFFFFFFFFFFFEFFFFFFFFFEFFFFFFFFFFFFFFFFFFFFFFFFFFFFFFFFFFFFFFFFFFFFFF
310
FFFFFFFEFFFFFFFFFEFFFFFFFFFFFFFFFFFFFFFFFFFFFFFFFFFFFFFFFFFFFFFFFFFFFFFEFFFFFFFFFEFFFFFFFFFFFFFFFFFFFFFFFFFFFFFFFFFFFFFFFFFFFFFFFFFFFFFEFFFFFFFFFEFFFFFFFFFFFFFFFFFFFFFFFFFFFFFFFFFFFFFFFFFFFFFFFFFFFFFEFFFFFFFFFEFFFFFFFFFFFFFFFFFFFFFFFFFFFFFFFFFFFFFFFFFFFF
310
FFFFFFFFFEFFFFFFFFFEFFFFFFFFFFFFFFFFFFFFFFFFFFFFFFFFFFFFFFFFFFFFFFFFFFFFFEFFFFFFFFFEFFFFFFFFFFFFFFFFFFFFFFFFFFFFFFFFFFFFFFFFFFFFFFFFFEFEFEFEFEFEFEFEFEFEFFFFFFFFFFFFFFFFFFFFFFFFFFFFFFFFFFFFFFFFFFFFFEFEFEFEFEFEFEFEFEFEFFFFFFFFFFFFFFFFFFFFFFFFFFFFFFFFFFFFFF
310
FFFFFFFFFFFEFEFEFEFEFEFFFFFFFFFFFFFFFFFFFFFFFFFFFFFFFFFFFFFFFFFFFFFFFFFFFFFFFFFFFFFFFFFFFFFFFFFFFFFFFFFFFFFFFFFF
1001
ACAD
1000
DesignCenter Data
1002
{
1070
     1
1070
     4
1002
}
  0
BLOCK_RECORD
  5
3111
330
1
100
AcDbSymbolTableRecord
100
AcDbBlockTableRecord
  2
S\U+FF8D\U+FF9E\U+FF70\U+FF8A\U+FF9F\U+FF7D
340
0
310
2800000020000000200000000100080000000000000400000000000000000000000000000000000000000000000080000080000000808000800000008000800080800000C0C0C000C0DCC000F0CAA6000020400000206000002080000020A0000020C0000020E00000400000004020000040400000406000004080000040A0
310
000040C0000040E00000600000006020000060400000606000006080000060A0000060C0000060E00000800000008020000080400000806000008080000080A0000080C0000080E00000A0000000A0200000A0400000A0600000A0800000A0A00000A0C00000A0E00000C0000000C0200000C0400000C0600000C0800000C0
310
A00000C0C00000C0E00000E0000000E0200000E0400000E0600000E0800000E0A00000E0C00000E0E00040000000400020004000400040006000400080004000A0004000C0004000E00040200000402020004020400040206000402080004020A0004020C0004020E000404000004040200040404000404060004040800040
310
40A0004040C0004040E00040600000406020004060400040606000406080004060A0004060C0004060E00040800000408020004080400040806000408080004080A0004080C0004080E00040A0000040A0200040A0400040A0600040A0800040A0A00040A0C00040A0E00040C0000040C0200040C0400040C0600040C08000
310
40C0A00040C0C00040C0E00040E0000040E0200040E0400040E0600040E0800040E0A00040E0C00040E0E00080000000800020008000400080006000800080008000A0008000C0008000E00080200000802020008020400080206000802080008020A0008020C0008020E00080400000804020008040400080406000804080
310
008040A0008040C0008040E00080600000806020008060400080606000806080008060A0008060C0008060E00080800000808020008080400080806000808080008080A0008080C0008080E00080A0000080A0200080A0400080A0600080A0800080A0A00080A0C00080A0E00080C0000080C0200080C0400080C0600080C0
310
800080C0A00080C0C00080C0E00080E0000080E0200080E0400080E0600080E0800080E0A00080E0C00080E0E000C0000000C0002000C0004000C0006000C0008000C000A000C000C000C000E000C0200000C0202000C0204000C0206000C0208000C020A000C020C000C020E000C0400000C0402000C0404000C0406000C0
310
408000C040A000C040C000C040E000C0600000C0602000C0604000C0606000C0608000C060A000C060C000C060E000C0800000C0802000C0804000C0806000C0808000C080A000C080C000C080E000C0A00000C0A02000C0A04000C0A06000C0A08000C0A0A000C0A0C000C0A0E000C0C00000C0C02000C0C04000C0C06000
310
C0C08000C0C0A000F0FBFF00A4A0A000808080000000FF0000FF000000FFFF00FF000000FF00FF00FFFF0000FFFFFF0000000000000000000000000000000000000000000000000000000000000000000000000000000000000000000000000000000000000000000000000000000000000000000000000000000000000000
310
000000000000000000000000000000000000000000000000000000000000000000000000000000000000000000000000000000000000000000000000000000000000000000000000000000000000000000000000000000000000000000000000000000000000000000000000000000000000FCFCFCFCFCFCFCFCFCFCFCFCFC
310
FCFCFCFCFCFCFCFCFCFCFCFCFCFCFCFCFC0000000000000000000000000000FCFC0000FCFC0000000000000000000000000000000000000000000000000000FCFC0000FCFC0000000000000000000000000000000000000000000000000000FCFC0000FCFC0000000000000000000000000000000000000000000000000000
310
FCFC0000FCFC00000000000000000000000000000000000000000000000000FCFCFC0000FCFCFC000000000000000000000000000000000000000000000000FCFCFC0000FCFCFC000000000000000000000000000000000000000000000000FCFCFC0000FCFCFC000000000000000000000000000000000000000000000000
310
FCFCFC0000FCFCFC000000000000000000000000000000000000000000000000FCFCFC0000FCFCFC000000000000000000000000000000000000000000000000FCFCFC0000FCFCFC000000000000000000000000000000000000000000000000FCFCFC0000FCFCFC0000000000000000000000000000000000000000000000
310
00FCFCFC0000FCFCFC000000000000000000000000000000000000000000000000FCFCFC0000FCFCFC000000000000000000000000000000000000000000000000FCFCFC0000FCFCFC000000000000000000000000000000000000000000000000FCFCFC0000FCFCFC00000000000000000000000000000000000000000000
310
0000FCFCFC0000FCFCFC000000000000000000000000000000000000000000000000FCFCFCFCFCFCFCFC000000000000000000000000000000000000000000000000FC00FCFCFCFC00FC000000000000000000000000000000000000000000000000FCFCFCFCFCFCFCFC000000000000000000000000000000000000000000
310
00000000000000000000000000000000000000000000000000000000000000000000000000000000000000000000000000000000000000000000000000000000000000000000000000000000000000000000000000000000000000000000000000000000000000000000000000000000000000000000000000000000000000
310
0000000000000000000000000000000000000000000000000000000000000000000000000000000000000000000000000000000000000000
  0
ENDTAB
  0
ENDSEC
  0
SECTION
  2
BLOCKS
  0
BLOCK
  5
20
330
1F
100
AcDbEntity
  8
0
100
AcDbBlockBegin
  2
*Model_Space
 70
     0
 10
0.0
 20
0.0
 30
0.0
  3
*Model_Space
  1

  0
ENDBLK
  5
21
330
1F
100
AcDbEntity
  8
0
100
AcDbBlockEnd
  0
BLOCK
  5
1CD2
330
1CD0
100
AcDbEntity
 67
     1
  8
0
100
AcDbBlockBegin
  2
*Paper_Space
 70
     0
 10
0.0
 20
0.0
 30
0.0
  3
*Paper_Space
  1

  0
ENDBLK
  5
1CD3
330
1CD0
100
AcDbEntity
 67
     1
  8
0
100
AcDbBlockEnd
  0
BLOCK
  5
906
330
903
100
AcDbEntity
  8
0
100
AcDbBlockBegin
  2
_DOT
 70
     0
 10
0.0
 20
0.0
 30
0.0
  3
_DOT
  1

  0
LWPOLYLINE
  5
904
330
903
100
AcDbEntity
  8
0
  6
ByBlock
 62
     0
100
AcDbPolyline
 90
        2
 70
     1
 43
0.5
 10
-0.25
 20
0.0
 42
1.0
 10
0.25
 20
0.0
 42
1.0
  0
LINE
  5
905
330
903
100
AcDbEntity
  8
0
  6
ByBlock
 62
     0
100
AcDbLine
 10
-0.5
 20
0.0
 30
0.0
 11
-1.0
 21
0.0
 31
0.0
  0
ENDBLK
  5
907
330
903
100
AcDbEntity
  8
0
100
AcDbBlockEnd
  0
BLOCK
  5
25BB
330
25B1
100
AcDbEntity
  8
0
100
AcDbBlockBegin
  2
*D1
 70
     1
 10
0.0
 20
0.0
 30
0.0
  3
*D1
  1

  0
LINE
  5
386F
330
25B1
100
AcDbEntity
  8
sunpo
 62
     0
370
    -2
100
AcDbLine
 10
800.0000000000005
 20
779.6809383784814
 30
0.0
 11
800.0000000000005
 21
757.4024026202141
 31
0.0
  0
LINE
  5
3870
330
25B1
100
AcDbEntity
  8
sunpo
 62
     0
370
    -2
100
AcDbLine
 10
980.0000000000004
 20
779.6809383784814
 30
0.0
 11
980.0000000000004
 21
757.4024026202141
 31
0.0
  0
LINE
  5
3871
330
25B1
100
AcDbEntity
  8
sunpo
 62
     0
370
    -2
100
AcDbLine
 10
808.0000000000005
 20
757.4024026202141
 30
0.0
 11
972.0000000000004
 21
757.4024026202141
 31
0.0
  0
MTEXT
  5
3872
330
25B1
100
AcDbEntity
  8
sunpo
 62
     0
100
AcDbMText
 10
889.4812711233049
 20
773.2818169543215
 30
0.0
 40
20.0
 41
0.0
 71
     5
 72
     1
  1
\A1;≧180
  7
MSゴシック
 73
     1
 44
1.0
1001
ACAD
1000
MTEXTBEGIN
1070
    73
1070
     1
1070
    44
1040
1.0
1070
    74
1070
     0
1000
MTEXTEND
  0
INSERT
  5
3873
330
25B1
100
AcDbEntity
  8
sunpo
 62
     0
370
    -2
100
AcDbBlockReference
  2
_DOT
 10
800.0000000000005
 20
757.4024026202141
 30
0.0
 41
8.0
 42
8.0
 43
8.0
 50
180.0
  0
INSERT
  5
3874
330
25B1
100
AcDbEntity
  8
sunpo
 62
     0
370
    -2
100
AcDbBlockReference
  2
_DOT
 10
980.0000000000004
 20
757.4024026202141
 30
0.0
 41
8.0
 42
8.0
 43
8.0
  0
POINT
  5
3875
330
25B1
100
AcDbEntity
  8
Defpoints
 62
     0
100
AcDbPoint
 10
800.0000000000005
 20
784.6809383784814
 30
0.0
  0
POINT
  5
3876
330
25B1
100
AcDbEntity
  8
Defpoints
 62
     0
100
AcDbPoint
 10
980.0000000000004
 20
784.6809383784814
 30
0.0
  0
POINT
  5
3877
330
25B1
100
AcDbEntity
  8
Defpoints
 62
     0
100
AcDbPoint
 10
980.0000000000004
 20
757.4024026202141
 30
0.0
  0
ENDBLK
  5
25BC
330
25B1
100
AcDbEntity
  8
0
100
AcDbBlockEnd
  0
BLOCK
  5
25CD
330
25BE
100
AcDbEntity
  8
0
100
AcDbBlockBegin
  2
*D2
 70
     1
 10
0.0
 20
0.0
 30
0.0
  3
*D2
  1

  0
LINE
  5
3878
330
25BE
100
AcDbEntity
  8
sunpo
 62
     0
370
    -2
100
AcDbLine
 10
980.0000000000004
 20
779.6809383784814
 30
0.0
 11
980.0000000000004
 21
757.4024026202141
 31
0.0
  0
LINE
  5
3879
330
25BE
100
AcDbEntity
  8
sunpo
 62
     0
370
    -2
100
AcDbLine
 10
990.0000000000003
 20
779.6809383784814
 30
0.0
 11
990.0000000000003
 21
757.4024026202141
 31
0.0
  0
LINE
  5
387A
330
25BE
100
AcDbEntity
  8
sunpo
 62
     0
370
    -2
100
AcDbLine
 10
972.0000000000004
 20
757.4024026202141
 30
0.0
 11
964.0000000000004
 21
757.4024026202141
 31
0.0
  0
LINE
  5
387B
330
25BE
100
AcDbEntity
  8
sunpo
 62
     0
370
    -2
100
AcDbLine
 10
998.0000000000003
 20
757.4024026202141
 30
0.0
 11
1006.0
 21
757.4024026202141
 31
0.0
  0
MTEXT
  5
387C
330
25BE
100
AcDbEntity
  8
sunpo
 62
     0
100
AcDbMText
 10
1016.088171496862
 20
773.2818169543215
 30
0.0
 40
20.0
 41
0.0
 71
     5
 72
     1
  1
\A1;10
  7
MSゴシック
 73
     1
 44
1.0
1001
ACAD
1000
MTEXTBEGIN
1070
    73
1070
     1
1070
    44
1040
1.0
1070
    74
1070
     0
1000
MTEXTEND
  0
LINE
  5
387D
330
25BE
100
AcDbEntity
  8
sunpo
 62
     0
370
    -2
100
AcDbLine
 10
980.0000000000004
 20
757.4024026202141
 30
0.0
 11
990.0000000000003
 21
757.4024026202141
 31
0.0
  0
INSERT
  5
387E
330
25BE
100
AcDbEntity
  8
sunpo
 62
     0
370
    -2
100
AcDbBlockReference
  2
_DOT
 10
980.0000000000004
 20
757.4024026202141
 30
0.0
 41
8.0
 42
8.0
 43
8.0
  0
INSERT
  5
387F
330
25BE
100
AcDbEntity
  8
sunpo
 62
     0
370
    -2
100
AcDbBlockReference
  2
_DOT
 10
990.0000000000003
 20
757.4024026202141
 30
0.0
 41
8.0
 42
8.0
 43
8.0
 50
180.0
  0
POINT
  5
3880
330
25BE
100
AcDbEntity
  8
Defpoints
 62
     0
100
AcDbPoint
 10
980.0000000000004
 20
784.6809383784814
 30
0.0
  0
POINT
  5
3881
330
25BE
100
AcDbEntity
  8
Defpoints
 62
     0
100
AcDbPoint
 10
990.0000000000003
 20
784.6809383784814
 30
0.0
  0
POINT
  5
3882
330
25BE
100
AcDbEntity
  8
Defpoints
 62
     0
100
AcDbPoint
 10
990.0000000000003
 20
757.4024026202141
 30
0.0
  0
ENDBLK
  5
25CE
330
25BE
100
AcDbEntity
  8
0
100
AcDbBlockEnd
  0
BLOCK
  5
26DE
330
26D4
100
AcDbEntity
  8
0
100
AcDbBlockBegin
  2
*D3
 70
     1
 10
0.0
 20
0.0
 30
0.0
  3
*D3
  1

  0
LINE
  5
3883
330
26D4
100
AcDbEntity
  8
sunpo
 62
     0
 48
0.5
370
    -2
100
AcDbLine
 10
795.000000000001
 20
555.0000000000002
 30
0.0
 11
686.645540522207
 21
555.0000000000001
 31
0.0
  0
LINE
  5
3884
330
26D4
100
AcDbEntity
  8
sunpo
 62
     0
 48
0.5
370
    -2
100
AcDbLine
 10
795.000000000001
 20
945.0000000000004
 30
0.0
 11
686.6455405222069
 21
945.0000000000002
 31
0.0
  0
LINE
  5
3885
330
26D4
100
AcDbEntity
  8
sunpo
 62
     0
 48
0.5
370
    -2
100
AcDbLine
 10
686.645540522207
 20
563.0000000000001
 30
0.0
 11
686.6455405222069
 21
937.0000000000002
 31
0.0
  0
INSERT
  5
3886
330
26D4
100
AcDbEntity
  8
sunpo
 62
     0
 48
0.5
370
    -2
100
AcDbBlockReference
  2
_DOT
 10
686.645540522207
 20
555.0000000000001
 30
0.0
 41
8.0
 42
8.0
 43
8.0
 50
270.0
  0
INSERT
  5
3887
330
26D4
100
AcDbEntity
  8
sunpo
 62
     0
 48
0.5
370
    -2
100
AcDbBlockReference
  2
_DOT
 10
686.6455405222069
 20
945.0000000000002
 30
0.0
 41
8.0
 42
8.0
 43
8.0
 50
90.0
  0
MTEXT
  5
3888
330
26D4
100
AcDbEntity
  8
sunpo
 62
     0
 48
0.5
100
AcDbMText
 10
674.1734593039329
 20
750.0
 30
0.0
 40
20.0
 41
0.0
 71
     5
 72
     1
  1
\A1;150以上（水上）
  7
MSゴシック
 11
0.0000000000000001
 21
1.0
 31
0.0
 73
     1
 44
1.0
1001
ACAD
1000
MTEXTBEGIN
1070
    73
1070
     1
1070
    44
1040
1.0
1070
    74
1070
     0
1000
MTEXTEND
  0
POINT
  5
3889
330
26D4
100
AcDbEntity
  8
Defpoints
 62
     0
 48
0.5
100
AcDbPoint
 10
800.000000000001
 20
555.0000000000002
 30
0.0
  0
POINT
  5
388A
330
26D4
100
AcDbEntity
  8
Defpoints
 62
     0
 48
0.5
100
AcDbPoint
 10
800.000000000001
 20
945.0000000000004
 30
0.0
  0
POINT
  5
388B
330
26D4
100
AcDbEntity
  8
Defpoints
 62
     0
 48
0.5
100
AcDbPoint
 10
686.6455405222069
 20
945.0000000000002
 30
0.0
  0
ENDBLK
  5
26DF
330
26D4
100
AcDbEntity
  8
0
100
AcDbBlockEnd
  0
BLOCK
  5
29A1
330
2997
100
AcDbEntity
  8
0
100
AcDbBlockBegin
  2
*D4
 70
     1
 10
0.0
 20
0.0
 30
0.0
  3
*D4
  1

  0
LINE
  5
388C
330
2997
100
AcDbEntity
  8
sunpo
 62
     0
370
    -2
100
AcDbLine
 10
2018.500000000002
 20
752.0000000000002
 30
0.0
 11
2212.505247813659
 21
752.0000000000002
 31
0.0
  0
LINE
  5
388D
330
2997
100
AcDbEntity
  8
sunpo
 62
     0
370
    -2
100
AcDbLine
 10
2140.000000000002
 20
547.0000000000002
 30
0.0
 11
2212.505247813659
 21
547.0000000000002
 31
0.0
  0
LINE
  5
388E
330
2997
100
AcDbEntity
  8
sunpo
 62
     0
370
    -2
100
AcDbLine
 10
2212.505247813659
 20
744.0000000000002
 30
0.0
 11
2212.505247813659
 21
555.0000000000002
 31
0.0
  0
INSERT
  5
388F
330
2997
100
AcDbEntity
  8
sunpo
 62
     0
370
    -2
100
AcDbBlockReference
  2
_DOT
 10
2212.505247813659
 20
752.0000000000002
 30
0.0
 41
8.0
 42
8.0
 43
8.0
 50
90.0
  0
INSERT
  5
3890
330
2997
100
AcDbEntity
  8
sunpo
 62
     0
370
    -2
100
AcDbBlockReference
  2
_DOT
 10
2212.505247813659
 20
547.0000000000002
 30
0.0
 41
8.0
 42
8.0
 43
8.0
 50
270.0
  0
MTEXT
  5
3891
330
2997
100
AcDbEntity
  8
sunpo
 62
     0
100
AcDbMText
 10
2223.505247813659
 20
649.4999999999995
 30
0.0
 40
20.0
 41
0.0
 71
     5
 72
     1
  1
\A1;205
  7
MSゴシック
 11
0.0000000000000001
 21
1.0
 31
0.0
 73
     1
 44
1.0
1001
ACAD
1000
MTEXTBEGIN
1070
    73
1070
     1
1070
    44
1040
1.0
1070
    74
1070
     0
1000
MTEXTEND
  0
POINT
  5
3892
330
2997
100
AcDbEntity
  8
Defpoints
 62
     0
100
AcDbPoint
 10
2008.500000000002
 20
752.0000000000002
 30
0.0
  0
POINT
  5
3893
330
2997
100
AcDbEntity
  8
Defpoints
 62
     0
100
AcDbPoint
 10
2130.000000000002
 20
547.0000000000002
 30
0.0
  0
POINT
  5
3894
330
2997
100
AcDbEntity
  8
Defpoints
 62
     0
100
AcDbPoint
 10
2212.505247813659
 20
547.0000000000002
 30
0.0
  0
ENDBLK
  5
29A2
330
2997
100
AcDbEntity
  8
0
100
AcDbBlockEnd
  0
BLOCK
  5
2A53
330
2A1C
100
AcDbEntity
  8
0
 48
20.0
100
AcDbBlockBegin
  2
hps-5-10-30
 70
     0
 10
0.0
 20
0.0
 30
0.0
  3
hps-5-10-30
  1

  0
LINE
  5
2A1D
330
2A1C
100
AcDbEntity
  8
KANAMONO_SCREW
 48
20.0
100
AcDbLine
 10
-2.628551427289778
 20
-15.56980343716732
 30
0.0
 11
-3.074324324324322
 21
-25.67398910328466
 31
0.0
  0
LINE
  5
2A1E
330
2A1C
100
AcDbEntity
  8
KANAMONO_SCREW
 48
20.0
100
AcDbLine
 10
2.628551427297225
 20
-15.56980343716701
 30
0.0
 11
3.074324324324322
 21
-25.67398910328466
 31
0.0
  0
LINE
  5
2A1F
330
2A1C
100
AcDbEntity
  8
KANAMONO_SCREW
 48
20.0
100
AcDbLine
 10
0.2083333333333144
 20
-12.65597108526664
 30
0.0
 11
0.8333333333333143
 21
-26.8226377519333
 31
0.0
  0
LINE
  5
2A20
330
2A1C
100
AcDbEntity
  8
KANAMONO_SCREW
 48
20.0
100
AcDbLine
 10
-0.2083333333333144
 20
-12.65597108526664
 30
0.0
 11
-0.8333333333333143
 21
-26.8226377519333
 31
0.0
  0
LINE
  5
2A21
330
2A1C
100
AcDbEntity
  8
KANAMONO_SCREW
 48
20.0
100
AcDbLine
 10
-1.594514301521201
 20
-26.8226377519333
 30
0.0
 11
-0.3849498143908931
 21
-29.74278476348546
 31
0.0
  0
LINE
  5
2A22
330
2A1C
100
AcDbEntity
  8
KANAMONO_SCREW
 48
20.0
100
AcDbLine
 10
1.594514301521201
 20
-26.8226377519333
 30
0.0
 11
0.38494979603513
 21
-29.74278476348546
 31
0.0
  0
ARC
  5
2A23
330
2A1C
100
AcDbEntity
  8
KANAMONO_SCREW
 48
20.0
100
AcDbCircle
 10
-0.0000000091778816
 20
-29.58333333333333
 30
0.0
 40
0.4166666666666667
100
AcDbArc
 50
202.5000000000006
 51
337.4999999999994
  0
LINE
  5
2A24
330
2A1C
100
AcDbEntity
  8
KANAMONO_SCREW
 48
20.0
100
AcDbLine
 10
0.8333333333333143
 20
-26.8226377519333
 30
0.0
 11
2.5
 21
-26.8226377519333
 31
0.0
  0
LINE
  5
2A25
330
2A1C
100
AcDbEntity
  8
KANAMONO_SCREW
 48
20.0
100
AcDbLine
 10
-0.8333333333333143
 20
-26.8226377519333
 30
0.0
 11
-2.5
 21
-26.8226377519333
 31
0.0
  0
LINE
  5
2A26
330
2A1C
100
AcDbEntity
  8
KANAMONO_SCREW
 48
20.0
100
AcDbLine
 10
-2.5
 20
-26.8226377519333
 30
0.0
 11
-3.074324324324322
 21
-25.67398910328466
 31
0.0
  0
LINE
  5
2A27
330
2A1C
100
AcDbEntity
  8
KANAMONO_SCREW
 48
20.0
100
AcDbLine
 10
-0.7984944745110738
 20
-26.03295695196111
 30
0.0
 11
0.7810727768853099
 21
-25.63806513911202
 31
0.0
  0
LINE
  5
2A28
330
2A1C
100
AcDbEntity
  8
KANAMONO_SCREW
 48
20.0
100
AcDbLine
 10
-0.7427323927266798
 20
-24.76901643151503
 30
0.0
 11
0.7265273223398481
 21
-24.40170150274837
 31
0.0
  0
LINE
  5
2A29
330
2A1C
100
AcDbEntity
  8
KANAMONO_SCREW
 48
20.0
100
AcDbLine
 10
-1.347040089409006
 20
-27.42009335568558
 30
0.0
 11
1.042782325600171
 21
-26.8226377519333
 31
0.0
  0
LINE
  5
2A2A
330
2A1C
100
AcDbEntity
  8
KANAMONO_SCREW
 48
20.0
100
AcDbLine
 10
-0.6869703109422858
 20
-23.50507591106889
 30
0.0
 11
0.6719818677943863
 21
-23.16533786638472
 31
0.0
  0
LINE
  5
2A2B
330
2A1C
100
AcDbEntity
  8
KANAMONO_SCREW
 48
20.0
100
AcDbLine
 10
-0.4639219838047098
 20
-18.44931382928449
 30
0.0
 11
0.4538000496125961
 21
-18.21988332093018
 31
0.0
  0
LINE
  5
2A2C
330
2A1C
100
AcDbEntity
  8
KANAMONO_SCREW
 48
20.0
100
AcDbLine
 10
-0.6312082291578918
 20
-22.2411353906228
 30
0.0
 11
0.6174364132489245
 21
-21.92897423002107
 31
0.0
  0
LINE
  5
2A2D
330
2A1C
100
AcDbEntity
  8
KANAMONO_SCREW
 48
20.0
100
AcDbLine
 10
-0.5754461473734978
 20
-20.97719487017669
 30
0.0
 11
0.5628909587035196
 21
-20.69261059365742
 31
0.0
  0
LINE
  5
2A2E
330
2A1C
100
AcDbEntity
  8
KANAMONO_SCREW
 48
20.0
100
AcDbLine
 10
-0.5196840655891038
 20
-19.71325434973063
 30
0.0
 11
0.5083455041580578
 21
-19.45624695729383
 31
0.0
  0
LINE
  5
2A2F
330
2A1C
100
AcDbEntity
  8
KANAMONO_SCREW
 48
20.0
100
AcDbLine
 10
2.5
 20
-26.8226377519333
 30
0.0
 11
3.074324324324322
 21
-25.67398910328466
 31
0.0
  0
LINE
  5
2A30
330
2A1C
100
AcDbEntity
  8
KANAMONO_SCREW
 48
20.0
100
AcDbLine
 10
-2.5
 20
-0.8333333333333285
 30
0.0
 11
-2.5
 21
-12.6559710852661
 31
0.0
  0
LINE
  5
2A31
330
2A1C
100
AcDbEntity
  8
KANAMONO_SCREW
 48
20.0
100
AcDbLine
 10
2.5
 20
-0.833333333333357
 30
0.0
 11
2.5
 21
-12.6559710852661
 31
0.0
  0
LINE
  5
2A32
330
2A1C
100
AcDbEntity
  8
KANAMONO_SCREW
 48
20.0
100
AcDbLine
 10
-2.5
 20
-10.98930441859944
 30
0.0
 11
2.5
 21
-10.98930441859944
 31
0.0
  0
LINE
  5
2A33
330
2A1C
100
AcDbEntity
  8
KANAMONO_SCREW
 48
20.0
100
AcDbLine
 10
-2.5
 20
-8.489304418599445
 30
0.0
 11
2.5
 21
-8.489304418599445
 31
0.0
  0
LINE
  5
2A34
330
2A1C
100
AcDbEntity
  8
KANAMONO_SCREW
 48
20.0
100
AcDbLine
 10
-2.291869117721319
 20
-12.66515333007304
 30
0.0
 11
-2.5
 21
-12.6559710852661
 31
0.0
  0
LINE
  5
2A35
330
2A1C
100
AcDbEntity
  8
KANAMONO_SCREW
 48
20.0
100
AcDbLine
 10
-2.301051362528312
 20
-12.87328421235169
 30
0.0
 11
-2.509182244806879
 21
-12.86410196754472
 31
0.0
  0
LINE
  5
2A36
330
2A1C
100
AcDbEntity
  8
KANAMONO_SCREW
 48
20.0
100
AcDbLine
 10
-2.411238300211664
 20
-15.37085479969532
 30
0.0
 11
-2.619369182490231
 21
-15.36167255488836
 31
0.0
  0
LINE
  5
2A37
330
2A1C
100
AcDbEntity
  8
KANAMONO_SCREW
 48
20.0
100
AcDbLine
 10
-2.420420545018544
 20
-15.57898568197394
 30
0.0
 11
-2.628551427297225
 21
-15.56980343716701
 31
0.0
  0
LINE
  5
2A38
330
2A1C
100
AcDbEntity
  8
KANAMONO_SCREW
 48
20.0
100
AcDbLine
 10
-2.509182244806424
 20
-12.86410196754475
 30
0.0
 11
-2.619369182483353
 21
-15.3616725548887
 31
0.0
  0
LINE
  5
2A39
330
2A1C
100
AcDbEntity
  8
KANAMONO_SCREW
 48
20.0
100
AcDbLine
 10
-2.291869117721319
 20
-12.66515333007304
 30
0.0
 11
-2.420420545011097
 21
-15.57898568197429
 31
0.0
  0
LINE
  5
2A3A
330
2A1C
100
AcDbEntity
  8
KANAMONO_SCREW
 48
20.0
100
AcDbLine
 10
-0.2083333333333144
 20
-12.65597108526664
 30
0.0
 11
0.2083333333333144
 21
-12.65597108526664
 31
0.0
  0
LINE
  5
2A3B
330
2A1C
100
AcDbEntity
  8
KANAMONO_SCREW
 48
20.0
100
AcDbLine
 10
-0.2408736566671905
 20
-13.39355174750015
 30
0.0
 11
0.2356182314308057
 21
-13.27442877547567
 31
0.0
  0
LINE
  5
2A3C
330
2A1C
100
AcDbEntity
  8
KANAMONO_SCREW
 48
20.0
100
AcDbLine
 10
-0.4081599020203158
 20
-17.18537330883843
 30
0.0
 11
0.3992545950671342
 21
-16.98351968456656
 31
0.0
  0
LINE
  5
2A3D
330
2A1C
100
AcDbEntity
  8
KANAMONO_SCREW
 48
20.0
100
AcDbLine
 10
-0.3523978202359785
 20
-15.92143278839232
 30
0.0
 11
0.3447091405216724
 21
-15.74715604820291
 31
0.0
  0
LINE
  5
2A3E
330
2A1C
100
AcDbEntity
  8
KANAMONO_SCREW
 48
20.0
100
AcDbLine
 10
-0.2966357384515845
 20
-14.65749226794621
 30
0.0
 11
0.2901636859762107
 21
-14.51079241183926
 31
0.0
  0
LINE
  5
2A3F
330
2A1C
100
AcDbEntity
  8
KANAMONO_SCREW
 48
20.0
100
AcDbLine
 10
2.301051362528312
 20
-12.87328421235169
 30
0.0
 11
2.509182244806879
 21
-12.86410196754472
 31
0.0
  0
LINE
  5
2A40
330
2A1C
100
AcDbEntity
  8
KANAMONO_SCREW
 48
20.0
100
AcDbLine
 10
2.291869117721319
 20
-12.66515333007304
 30
0.0
 11
2.5
 21
-12.6559710852661
 31
0.0
  0
LINE
  5
2A41
330
2A1C
100
AcDbEntity
  8
KANAMONO_SCREW
 48
20.0
100
AcDbLine
 10
2.420420545018544
 20
-15.57898568197394
 30
0.0
 11
2.628551427297225
 21
-15.56980343716701
 31
0.0
  0
LINE
  5
2A42
330
2A1C
100
AcDbEntity
  8
KANAMONO_SCREW
 48
20.0
100
AcDbLine
 10
2.411238300211664
 20
-15.37085479969532
 30
0.0
 11
2.619369182490231
 21
-15.36167255488836
 31
0.0
  0
LINE
  5
2A43
330
2A1C
100
AcDbEntity
  8
KANAMONO_SCREW
 48
20.0
100
AcDbLine
 10
2.291869117721319
 20
-12.66515333007304
 30
0.0
 11
2.420420545011097
 21
-15.57898568197429
 31
0.0
  0
LINE
  5
2A44
330
2A1C
100
AcDbEntity
  8
KANAMONO_SCREW
 48
20.0
100
AcDbLine
 10
2.509182244806424
 20
-12.86410196754475
 30
0.0
 11
2.619369182483353
 21
-15.3616725548887
 31
0.0
  0
LINE
  5
2A45
330
2A1C
100
AcDbEntity
  8
KANAMONO_SCREW
 48
20.0
100
AcDbLine
 10
-3.333333333333314
 20
0.0000000000000142
 30
0.0
 11
3.333333333333314
 21
-0.0000000000000142
 31
0.0
  0
LINE
  5
2A46
330
2A1C
100
AcDbEntity
  8
KANAMONO_SCREW
 48
20.0
100
AcDbLine
 10
3.541666666666685
 20
2.083333333333328
 30
0.0
 11
-3.541666666666685
 21
2.083333333333328
 31
0.0
  0
LINE
  5
2A47
330
2A1C
100
AcDbEntity
  8
KANAMONO_SCREW
 48
20.0
100
AcDbLine
 10
2.5
 20
2.291666666666642
 30
0.0
 11
-2.5
 21
2.291666666666642
 31
0.0
  0
LINE
  5
2A48
330
2A1C
100
AcDbEntity
  8
KANAMONO_SCREW
 48
20.0
100
AcDbLine
 10
-4.583333333333314
 20
1.666666666666642
 30
0.0
 11
4.583333333333314
 21
1.666666666666642
 31
0.0
  0
LINE
  5
2A49
330
2A1C
100
AcDbEntity
  8
KANAMONO_SCREW
 48
20.0
100
AcDbLine
 10
-3.541666666666685
 20
2.083333333333328
 30
0.0
 11
-3.541666666666685
 21
1.666666666666642
 31
0.0
  0
LINE
  5
2A4A
330
2A1C
100
AcDbEntity
  8
KANAMONO_SCREW
 48
20.0
100
AcDbLine
 10
-3.541666666666685
 20
2.083333333333328
 30
0.0
 11
-2.5
 21
2.291666666666642
 31
0.0
  0
ARC
  5
2A4B
330
2A1C
100
AcDbEntity
  8
KANAMONO_SCREW
 48
20.0
100
AcDbCircle
 10
-3.333333333333314
 20
-0.8333333333333285
 30
0.0
 40
0.8333333333333333
100
AcDbArc
 50
0.0
 51
90.0
  0
LINE
  5
2A4C
330
2A1C
100
AcDbEntity
  8
KANAMONO_SCREW
 48
20.0
100
AcDbLine
 10
-4.583333333333314
 20
-0.0000000000000142
 30
0.0
 11
-3.333333333333314
 21
0.0000000000000142
 31
0.0
  0
LINE
  5
2A4D
330
2A1C
100
AcDbEntity
  8
KANAMONO_SCREW
 48
20.0
100
AcDbLine
 10
-4.583333333333314
 20
-0.0000000000000142
 30
0.0
 11
-4.583333333333314
 21
1.666666666666642
 31
0.0
  0
LINE
  5
2A4E
330
2A1C
100
AcDbEntity
  8
KANAMONO_SCREW
 48
20.0
100
AcDbLine
 10
4.583333333333314
 20
1.666666666666642
 30
0.0
 11
4.583333333333314
 21
-0.0000000000000142
 31
0.0
  0
LINE
  5
2A4F
330
2A1C
100
AcDbEntity
  8
KANAMONO_SCREW
 48
20.0
100
AcDbLine
 10
3.541666666666685
 20
1.666666666666642
 30
0.0
 11
3.541666666666685
 21
2.083333333333328
 31
0.0
  0
LINE
  5
2A50
330
2A1C
100
AcDbEntity
  8
KANAMONO_SCREW
 48
20.0
100
AcDbLine
 10
2.5
 20
2.291666666666642
 30
0.0
 11
3.541666666666685
 21
2.083333333333328
 31
0.0
  0
ARC
  5
2A51
330
2A1C
100
AcDbEntity
  8
KANAMONO_SCREW
 48
20.0
100
AcDbCircle
 10
3.333333333333314
 20
-0.833333333333357
 30
0.0
 40
0.8333333333333333
100
AcDbArc
 50
90.0
 51
180.0
  0
LINE
  5
2A52
330
2A1C
100
AcDbEntity
  8
KANAMONO_SCREW
 48
20.0
100
AcDbLine
 10
3.333333333333314
 20
-0.0000000000000142
 30
0.0
 11
4.583333333333314
 21
-0.0000000000000142
 31
0.0
  0
ENDBLK
  5
2A54
330
2A1C
100
AcDbEntity
  8
0
 48
20.0
100
AcDbBlockEnd
  0
BLOCK
  5
3126
330
3111
100
AcDbEntity
  8
0
100
AcDbBlockBegin
  2
S\U+FF8D\U+FF9E\U+FF70\U+FF8A\U+FF9F\U+FF7D
 70
     0
 10
0.0
 20
0.0
 30
0.0
  3
S\U+FF8D\U+FF9E\U+FF70\U+FF8A\U+FF9F\U+FF7D
  1

  0
LWPOLYLINE
  5
3112
330
3111
100
AcDbEntity
  8
KANAMONO
100
AcDbPolyline
 90
       16
 70
     1
 43
0.0
 10
40.0
 20
56.5
 10
40.0
 20
196.3707503932705
 42
0.3348602696008476
 10
35.0681036697024
 20
202.9091132372282
 10
22.5
 20
206.5
 10
-22.5
 20
206.5
 10
-35.0681036697024
 20
202.9091132372282
 42
0.3348602696008476
 10
-40.0
 20
196.3707503932705
 10
-40.0
 20
56.5
 10
-39.19999999999982
 20
56.5
 10
-39.19999999999982
 20
196.3707503932705
 42
-0.3348602696008326
 10
-34.8483267673837
 20
202.1398940791155
 10
-22.38795604428833
 20
205.6999999999998
 10
22.38795604428833
 20
205.6999999999998
 10
34.84832676738461
 20
202.139894079116
 42
-0.3348602696008298
 10
39.19999999999982
 20
196.3707503932705
 10
39.19999999999982
 20
56.5
  0
LWPOLYLINE
  5
3113
330
3111
100
AcDbEntity
  8
KANAMONO
100
AcDbPolyline
 90
       16
 70
     1
 43
0.0
 10
-20.0
 20
191.6999999999998
 10
-20.0
 20
201.1999999999998
 42
-0.4142135623730951
 10
-15.5
 20
205.6999999999998
 10
15.5
 20
205.6999999999998
 42
-0.4142135623730951
 10
20.0
 20
201.1999999999998
 10
20.0
 20
191.6999999999998
 10
19.1880000000001
 20
191.6999999999998
 10
19.1880000000001
 20
178.6999999999998
 10
18.5
 20
178.6999999999998
 10
18.5
 20
201.1999999999998
 42
0.4142135623731117
 10
15.5
 20
204.1999999999998
 10
-15.5
 20
204.1999999999998
 42
0.4142135623731784
 10
-18.50000000000091
 20
201.1999999999998
 10
-18.5
 20
178.6999999999998
 10
-19.18799999999919
 20
178.6999999999998
 10
-19.18799999999919
 20
191.6999999999998
  0
LWPOLYLINE
  5
3114
330
3111
100
AcDbEntity
  8
KANAMONO
100
AcDbPolyline
 90
        4
 70
     0
 43
0.0
 10
19.1880000000001
 20
191.6999999999998
 10
20.00000000000091
 20
191.4824252557464
 10
20.0
 20
178.9175747442536
 10
19.1880000000001
 20
178.6999999999998
  0
LINE
  5
3115
330
3111
100
AcDbEntity
  8
KANAMONO
370
     5
100
AcDbLine
 10
20.0
 20
194.4999999999995
 30
0.0
 11
18.5
 21
194.4999999999995
 31
0.0
  0
LWPOLYLINE
  5
3116
330
3111
100
AcDbEntity
  8
KANAMONO
100
AcDbPolyline
 90
        4
 70
     0
 43
0.0
 10
-19.1880000000001
 20
191.6999999999998
 10
-20.0
 20
191.4824252557464
 10
-20.0
 20
178.9175747442536
 10
-19.1880000000001
 20
178.6999999999998
  0
LINE
  5
3117
330
3111
100
AcDbEntity
  8
KANAMONO
370
     5
100
AcDbLine
 10
-18.5
 20
194.4999999999995
 30
0.0
 11
-20.0
 21
194.4999999999995
 31
0.0
  0
LINE
  5
3118
330
3111
100
AcDbEntity
  8
KANAMONO
370
     5
100
AcDbLine
 10
19.80813184570797
 20
202.4999999999995
 30
0.0
 11
18.20370116691993
 21
202.4999999999995
 31
0.0
  0
LINE
  5
3119
330
3111
100
AcDbEntity
  8
KANAMONO
370
     5
100
AcDbLine
 10
-18.20370116691993
 20
202.4999999999995
 30
0.0
 11
-19.80813184570797
 21
202.4999999999995
 31
0.0
  0
LWPOLYLINE
  5
311A
330
3111
100
AcDbEntity
  8
KANAMONO
100
AcDbPolyline
 90
       12
 70
     1
 43
0.0
 10
39.0
 20
56.5
 10
39.0
 20
64.80000000000018
 42
0.4142135623730951
 10
37.30000000000018
 20
66.5
 10
32.35000000000037
 20
66.5
 42
-0.4142135623730951
 10
32.05000000000018
 20
66.80000000000018
 10
32.05000000000018
 20
69.5
 10
31.35000000000037
 20
69.5
 10
31.35000000000037
 20
66.79999999999882
 42
0.4142135623721311
 10
32.34999999999946
 20
65.80000000000018
 10
37.30000000000018
 20
65.79999999999973
 42
-0.4142135623733347
 10
38.30000000000018
 20
64.80000000000018
 10
38.30000000000018
 20
56.5
  0
LWPOLYLINE
  5
311B
330
3111
100
AcDbEntity
  8
KANAMONO
100
AcDbPolyline
 90
        4
 70
     1
 43
0.0
 10
150.0
 20
0.0
 10
150.0
 20
1.5
 10
-150.0
 20
1.5
 10
-150.0
 20
0.0
  0
LINE
  5
311C
330
3111
100
AcDbEntity
  8
KANAMONO
  6
DASHED
100
AcDbLine
 10
-19.85000000000036
 20
145.6415388154046
 30
0.0
 11
-19.85000000000036
 21
1.5
 31
0.0
  0
LINE
  5
311D
330
3111
100
AcDbEntity
  8
KANAMONO
  6
DASHED
100
AcDbLine
 10
19.85000000000036
 20
147.3584611845945
 30
0.0
 11
19.85000000000036
 21
1.5
 31
0.0
  0
LWPOLYLINE
  5
311E
330
3111
100
AcDbEntity
  8
KANAMONO
100
AcDbPolyline
 90
        9
 70
     0
 43
0.0
 10
19.85000000000036
 20
147.3584611845945
 10
19.85000000000036
 20
179.0980762113536
 10
19.1880000000001
 20
180.2446938459647
 10
20.0
 20
180.2446938459652
 10
20.0
 20
191.5
 10
20.6880000000001
 20
191.5
 10
20.6880000000001
 20
180.6466176346112
 10
21.35000000000037
 20
179.5
 10
21.35000000000037
 20
1.5
  0
LWPOLYLINE
  5
311F
330
3111
100
AcDbEntity
  8
KANAMONO
100
AcDbPolyline
 90
        9
 70
     0
 43
0.0
 10
-19.85000000000036
 20
145.6415388154046
 10
-19.85000000000036
 20
179.0980762113536
 10
-19.18799999999919
 20
180.2446938459647
 10
-20.0
 20
180.2446938459652
 10
-20.0
 20
191.5
 10
-20.6880000000001
 20
191.5
 10
-20.6880000000001
 20
180.6466176346112
 10
-21.35000000000037
 20
179.5
 10
-21.35000000000037
 20
1.5
  0
LWPOLYLINE
  5
3120
330
3111
100
AcDbEntity
  8
KANAMONO
100
AcDbPolyline
 90
        4
 70
     0
 43
0.0
 10
20.0
 20
191.5
 10
19.1880000000001
 20
191.2824252557461
 10
19.1880000000001
 20
180.4622685902186
 10
20.0
 20
180.2446938459652
  0
LWPOLYLINE
  5
3121
330
3111
100
AcDbEntity
  8
KANAMONO
100
AcDbPolyline
 90
        4
 70
     0
 43
0.0
 10
-20.0
 20
191.5
 10
-19.1880000000001
 20
191.2824252557461
 10
-19.1880000000001
 20
180.4622685902186
 10
-20.0
 20
180.2446938459652
  0
LWPOLYLINE
  5
3122
330
3111
100
AcDbEntity
  8
KANAMONO
100
AcDbPolyline
 90
       12
 70
     1
 43
0.0
 10
-39.0
 20
56.5
 10
-39.0
 20
64.80000000000018
 42
-0.4142135623730951
 10
-37.30000000000018
 20
66.5
 10
-32.35000000000037
 20
66.5
 42
0.4142135623730951
 10
-32.05000000000018
 20
66.80000000000018
 10
-32.05000000000018
 20
69.5
 10
-31.35000000000037
 20
69.5
 10
-31.35000000000037
 20
66.79999999999882
 42
-0.4142135623721311
 10
-32.34999999999946
 20
65.80000000000018
 10
-37.30000000000018
 20
65.79999999999973
 42
0.4142135623733347
 10
-38.30000000000018
 20
64.80000000000018
 10
-38.30000000000018
 20
56.5
  0
ELLIPSE
  5
3123
330
3111
100
AcDbEntity
  8
KANAMONO
370
     5
100
AcDbEllipse
 10
9.797958971132629
 20
198.5
 30
0.0
 11
-0.000000000000001
 21
-4.0
 31
0.0
210
0.0
220
0.0
230
-1.0
 40
0.8660254037844197
 41
0.0
 42
6.283185307179586
  0
ELLIPSE
  5
3124
330
3111
100
AcDbEntity
  8
KANAMONO
370
     5
100
AcDbEllipse
 10
-9.797958971132629
 20
198.5
 30
0.0
 11
-0.000000000000001
 21
-4.0
 31
0.0
210
0.0
220
0.0
230
1.0
 40
0.8660254037844197
 41
0.0
 42
6.283185307179586
  0
LINE
  5
3125
330
3111
100
AcDbEntity
  8
KANAMONO
370
     5
100
AcDbLine
 10
-18.5
 20
178.6999999999998
 30
0.0
 11
18.5
 21
178.6999999999998
 31
0.0
  0
ENDBLK
  5
3127
330
3111
100
AcDbEntity
  8
0
100
AcDbBlockEnd
  0
ENDSEC
  0
SECTION
  2
ENTITIES
  0
LINE
  5
24F1
330
1F
100
AcDbEntity
  8
KUTAI
100
AcDbLine
 10
2280.000000000001
 20
545.0
 30
0.0
 11
980.0000000000004
 21
545.0
 31
0.0
  0
LINE
  5
24F2
330
1F
100
AcDbEntity
  8
KUTAI
100
AcDbLine
 10
980.0000000000004
 20
545.0
 30
0.0
 11
980.0000000000004
 21
995.0
 31
0.0
  0
LINE
  5
24F4
330
1F
100
AcDbEntity
  8
KUTAI
100
AcDbLine
 10
800.0000000000005
 20
1495.0
 30
0.0
 11
800.0000000000005
 21
695.0000000000002
 31
0.0
  0
LINE
  5
24F5
330
1F
100
AcDbEntity
  8
KUTAI
100
AcDbLine
 10
2280.000000000001
 20
395.0
 30
0.0
 11
980.0000000000004
 21
394.9999999999999
 31
0.0
  0
CIRCLE
  5
28B4
102
{ACAD_REACTORS
330
28B5
102
}
330
1F
100
AcDbEntity
  8
MOJI
100
AcDbCircle
 10
995.6442183584799
 20
563.4646303020172
 30
0.0
 40
4.0
  0
HATCH
  5
28B5
330
1F
100
AcDbEntity
  8
MOJI
100
AcDbHatch
 10
0.0
 20
0.0
 30
0.0
210
0.0
220
0.0
230
1.0
  2
SOLID
 70
     1
 71
     1
 91
        1
 92
        1
 93
        1
 72
     2
 10
995.6442183584799
 20
563.4646303020172
 40
4.0
 50
0.0
 51
360.0
 73
     1
 97
        1
330
28B4
 75
     0
 76
     1
 98
        1
 10
-714.5860671013356
 20
-363.7117434243699
  0
CIRCLE
  5
28B8
102
{ACAD_REACTORS
330
28B9
102
}
330
1F
100
AcDbEntity
  8
MOJI
100
AcDbCircle
 10
1195.844397312772
 20
546.1876523503424
 30
0.0
 40
4.0
  0
HATCH
  5
28B9
330
1F
100
AcDbEntity
  8
MOJI
100
AcDbHatch
 10
0.0
 20
0.0
 30
0.0
210
0.0
220
0.0
230
1.0
  2
SOLID
 70
     1
 71
     1
 91
        1
 92
        1
 93
        1
 72
     2
 10
1195.844397312772
 20
546.1876523503424
 40
4.0
 50
0.0
 51
360.0
 73
     1
 97
        1
330
28B8
 75
     0
 76
     1
 98
        1
 10
-514.3858881470435
 20
-380.9887213760447
  0
CIRCLE
  5
28C1
102
{ACAD_REACTORS
330
28C2
102
}
330
1F
100
AcDbEntity
  8
MOJI
100
AcDbCircle
 10
991.1599031707023
 20
1165.913425512951
 30
0.0
 40
4.0
  0
HATCH
  5
28C2
330
1F
100
AcDbEntity
  8
MOJI
100
AcDbHatch
 10
0.0
 20
0.0
 30
0.0
210
0.0
220
0.0
230
1.0
  2
SOLID
 70
     1
 71
     1
 91
        1
 92
        1
 93
        1
 72
     2
 10
991.1599031707023
 20
1165.913425512951
 40
4.0
 50
0.0
 51
360.0
 73
     1
 97
        1
330
28C1
 75
     0
 76
     1
 98
        1
 10
-719.0703822891132
 20
238.7370517865643
  0
TEXT
  5
28CA
330
1F
100
AcDbEntity
  8
MOJI
100
AcDbText
 10
586.0081213952371
 20
987.2513428483712
 30
0.0
 40
20.0
  1
（室内）
  7
MSゴシック
100
AcDbText
  0
CIRCLE
  5
28CB
102
{ACAD_REACTORS
330
28CC
102
}
330
1F
100
AcDbEntity
  8
MOJI
100
AcDbCircle
 10
983.6266799606605
 20
950.4903775458515
 30
0.0
 40
4.0
  0
HATCH
  5
28CC
330
1F
100
AcDbEntity
  8
MOJI
100
AcDbHatch
 10
0.0
 20
0.0
 30
0.0
210
0.0
220
0.0
230
1.0
  2
SOLID
 70
     1
 71
     1
 91
        1
 92
        1
 93
        1
 72
     2
 10
983.6266799606605
 20
950.4903775458515
 40
4.0
 50
0.0
 51
360.0
 73
     1
 97
        1
330
28CB
 75
     0
 76
     1
 98
        1
 10
-726.6036054991546
 20
23.31400381946469
  0
TEXT
  5
28D0
330
1F
100
AcDbEntity
  8
MOJI
100
AcDbText
 10
1140.022096827772
 20
1119.576492829452
 30
0.0
 40
20.0
  1
強力ガムシール
  7
MSゴシック
 11
1140.022096827772
 21
1129.576492829452
 31
0.0
100
AcDbText
 73
     2
  0
TEXT
  5
28D1
330
1F
100
AcDbEntity
  8
MOJI
100
AcDbText
 10
1167.904475608492
 20
1091.11219224883
 30
0.0
 40
20.0
  1
フラッシュトップ６０
  7
MSゴシック
 11
1167.904475608492
 21
1101.11219224883
 31
0.0
100
AcDbText
 73
     2
  0
CIRCLE
  5
28D3
102
{ACAD_REACTORS
330
28D4
102
}
330
1F
100
AcDbEntity
  8
MOJI
100
AcDbCircle
 10
1011.50905874138
 20
922.0260769652295
 30
0.0
 40
4.0
  0
HATCH
  5
28D4
330
1F
100
AcDbEntity
  8
MOJI
100
AcDbHatch
 10
0.0
 20
0.0
 30
0.0
210
0.0
220
0.0
230
1.0
  2
SOLID
 70
     1
 71
     1
 91
        1
 92
        1
 93
        1
 72
     2
 10
1011.50905874138
 20
922.0260769652295
 40
4.0
 50
0.0
 51
360.0
 73
     1
 97
        1
330
28D3
 75
     0
 76
     1
 98
        1
 10
-698.7212267184349
 20
-5.150296761157278
  0
TEXT
  5
28D5
330
1F
100
AcDbEntity
  8
MOJI
100
AcDbText
 10
1114.23408101152
 20
1253.548393563798
 30
0.0
 40
20.0
  1
打増し
  7
MSゴシック
 11
1114.23408101152
 21
1263.548393563798
 31
0.0
100
AcDbText
 73
     2
  0
TEXT
  5
28D6
330
1F
100
AcDbEntity
  8
MOJI
100
AcDbText
 10
1114.23408101152
 20
1277.285461831864
 30
0.0
 40
20.0
  1
コンクリート
  7
MSゴシック
 11
1114.23408101152
 21
1287.285461831865
 31
0.0
100
AcDbText
 73
     2
  0
TEXT
  5
28E4
330
1F
100
AcDbEntity
  8
MOJI
100
AcDbText
 10
1967.856356867981
 20
799.3458897125569
 30
0.0
 40
20.0
  1
ステンレスベーパス
  7
MSゴシック
 11
1967.856356867981
 21
809.345889712557
 31
0.0
100
AcDbText
 73
     2
  0
HATCH
  5
28E8
330
1F
100
AcDbEntity
  8
MOJI
100
AcDbHatch
 10
0.0
 20
0.0
 30
0.0
210
0.0
220
0.0
230
1.0
  2
SOLID
 70
     1
 71
     1
 91
        1
 92
        1
 93
        1
 72
     2
 10
1947.965021730445
 20
752.0
 40
4.0
 50
0.0
 51
360.0
 73
     1
 97
        1
330
28E9
 75
     0
 76
     1
 98
        1
 10
237.7347362706296
 20
-175.1763737263868
  0
CIRCLE
  5
28E9
102
{ACAD_REACTORS
330
28E8
102
}
330
1F
100
AcDbEntity
  8
MOJI
100
AcDbCircle
 10
1947.965021730445
 20
752.0
 30
0.0
 40
4.0
  0
LINE
  5
28EA
330
1F
100
AcDbEntity
  8
MOJI
100
AcDbLine
 10
2044.638020414542
 20
993.6268308030003
 30
0.0
 11
1916.259188110158
 21
1022.132926867729
 31
0.0
  0
LINE
  5
28EB
330
1F
100
AcDbEntity
  8
MOJI
100
AcDbLine
 10
1916.259188110158
 20
993.6268308030003
 30
0.0
 11
2044.638020414542
 21
993.6268308030003
 31
0.0
  0
LINE
  5
28EC
330
1F
100
AcDbEntity
  8
MOJI
100
AcDbLine
 10
1916.259188110158
 20
1022.132926867729
 30
0.0
 11
1916.259188110158
 21
993.6268308030003
 31
0.0
  0
TEXT
  5
28ED
330
1F
100
AcDbEntity
  8
MOJI
100
AcDbText
 10
1937.644626827719
 20
963.3592397906186
 30
0.0
 40
20.0
  1
水勾配
  7
MSゴシック
100
AcDbText
  0
TEXT
  5
28EE
330
1F
100
AcDbEntity
  8
MOJI
100
AcDbText
 10
1976.977535232876
 20
1024.677951508643
 30
0.0
 40
20.0
  1
1/50～1/20
  7
MSゴシック
100
AcDbText
  0
LINE
  5
2960
330
1F
100
AcDbEntity
  8
BOUSUI
100
AcDbLine
 10
990.0023456262903
 20
944.9999999999986
 30
0.0
 11
979.9983456262905
 21
944.9999999999986
 31
0.0
  0
LINE
  5
2A0D
330
1F
100
AcDbEntity
  8
KUTAI
100
AcDbLine
 10
580.0000000000004
 20
545.0000000000001
 30
0.0
 11
580.0000000000003
 21
295.0
 31
0.0
  0
LINE
  5
2A0E
330
1F
100
AcDbEntity
  8
KUTAI
100
AcDbLine
 10
980.0000000000004
 20
394.9999999999999
 30
0.0
 11
980.0000000000004
 21
294.9999999999999
 31
0.0
  0
LINE
  5
2A0F
330
1F
100
AcDbEntity
  8
KUTAI
100
AcDbLine
 10
580.0000000000004
 20
545.0000000000001
 30
0.0
 11
480.0000000000002
 21
545.0000000000001
 31
0.0
  0
LINE
  5
2A10
330
1F
100
AcDbEntity
  8
KUTAI
100
AcDbLine
 10
800.0000000000005
 20
695.0000000000002
 30
0.0
 11
480.0000000000002
 21
695.0000000000002
 31
0.0
  0
LINE
  5
2A14
330
1F
100
AcDbEntity
  8
KUTAI
100
AcDbLine
 10
980.0000000000004
 20
995.0
 30
0.0
 11
1000.0
 21
995.0
 31
0.0
  0
LINE
  5
2A15
330
1F
100
AcDbEntity
  8
KUTAI
100
AcDbLine
 10
1000.0
 20
995.0
 30
0.0
 11
1000.0
 21
1495.0
 31
0.0
  0
ARC
  5
2B4B
330
1F
100
AcDbEntity
  8
BOUSUI
100
AcDbCircle
 10
978.3110113383965
 20
919.7775283459897
 30
0.0
 40
33.26537697818158
100
AcDbArc
 50
49.30752076648823
 51
87.08966026080913
  0
LINE
  5
2BD1
330
1F
100
AcDbEntity
  8
BOUSUI
100
AcDbLine
 10
2280.000000000001
 20
555.0
 30
0.0
 11
2001.350000000001
 21
555.0
 31
0.0
  0
LINE
  5
2CAE
330
1F
100
AcDbEntity
  8
KUTAI
  6
DASHED
100
AcDbLine
 10
980.0000000000004
 20
995.0
 30
0.0
 11
980.0000000000002
 21
1495.0
 31
0.0
  0
LINE
  5
2DF0
330
1F
100
AcDbEntity
  8
HATCH
100
AcDbLine
 10
800.0000000000005
 20
1249.999999088009
 30
0.0
 11
1000.0
 21
1449.999999088008
 31
0.0
  0
LINE
  5
2DF1
330
1F
100
AcDbEntity
  8
HATCH
100
AcDbLine
 10
800.0000000000005
 20
1239.999999088009
 30
0.0
 11
1000.0
 21
1439.999999088009
 31
0.0
  0
LINE
  5
2DF2
330
1F
100
AcDbEntity
  8
HATCH
100
AcDbLine
 10
800.0000000000005
 20
1229.999999088009
 30
0.0
 11
1000.0
 21
1429.999999088009
 31
0.0
  0
LINE
  5
2DF6
330
1F
100
AcDbEntity
  8
HATCH
100
AcDbLine
 10
845.0000009119916
 20
295.0
 30
0.0
 11
1095.000000911992
 21
545.0
 31
0.0
  0
LINE
  5
2DF7
330
1F
100
AcDbEntity
  8
HATCH
100
AcDbLine
 10
855.0000009119917
 20
295.0
 30
0.0
 11
1105.000000911992
 21
545.0
 31
0.0
  0
LINE
  5
2DF8
330
1F
100
AcDbEntity
  8
HATCH
100
AcDbLine
 10
865.0000009119917
 20
295.0
 30
0.0
 11
1115.000000911992
 21
545.0
 31
0.0
  0
LINE
  5
2E02
330
1F
100
AcDbEntity
  8
HATCH
100
AcDbLine
 10
800.0000000000005
 20
749.9999990880086
 30
0.0
 11
980.0000000000004
 21
929.9999990880085
 31
0.0
  0
LINE
  5
2E03
330
1F
100
AcDbEntity
  8
HATCH
100
AcDbLine
 10
800.0000000000005
 20
729.9999990880086
 30
0.0
 11
980.0000000000004
 21
909.9999990880085
 31
0.0
  0
LINE
  5
2E04
330
1F
100
AcDbEntity
  8
HATCH
100
AcDbLine
 10
800.0000000000005
 20
739.9999990880086
 30
0.0
 11
980.0000000000004
 21
919.9999990880085
 31
0.0
  0
LINE
  5
2E05
330
1F
100
AcDbEntity
  8
HATCH
100
AcDbLine
 10
580.0000000000004
 20
519.9999990880087
 30
0.0
 11
755.000000911992
 21
695.0000000000002
 31
0.0
  0
LINE
  5
2E06
330
1F
100
AcDbEntity
  8
HATCH
100
AcDbLine
 10
580.0000000000004
 20
529.9999990880087
 30
0.0
 11
745.000000911992
 21
695.0000000000002
 31
0.0
  0
LINE
  5
2E07
330
1F
100
AcDbEntity
  8
HATCH
100
AcDbLine
 10
580.0000000000004
 20
509.9999990880087
 30
0.0
 11
765.0000009119921
 21
695.0000000000002
 31
0.0
  0
LINE
  5
2E08
330
1F
100
AcDbEntity
  8
HATCH
100
AcDbLine
 10
1465.000000911991
 20
394.9999999999998
 30
0.0
 11
1615.000000911991
 21
545.0
 31
0.0
  0
LINE
  5
2E09
330
1F
100
AcDbEntity
  8
HATCH
100
AcDbLine
 10
1445.000000911991
 20
394.9999999999998
 30
0.0
 11
1595.000000911991
 21
545.0
 31
0.0
  0
LINE
  5
2E0A
330
1F
100
AcDbEntity
  8
HATCH
100
AcDbLine
 10
1455.000000911991
 20
394.9999999999998
 30
0.0
 11
1605.000000911991
 21
545.0
 31
0.0
  0
LINE
  5
2E0B
330
1F
100
AcDbEntity
  8
HATCH
100
AcDbLine
 10
1965.000000911992
 20
394.9999999999999
 30
0.0
 11
2115.000000911992
 21
545.0
 31
0.0
  0
LINE
  5
2E0C
330
1F
100
AcDbEntity
  8
HATCH
100
AcDbLine
 10
1955.000000911992
 20
394.9999999999999
 30
0.0
 11
2105.000000911992
 21
545.0
 31
0.0
  0
LINE
  5
2E0D
330
1F
100
AcDbEntity
  8
HATCH
100
AcDbLine
 10
1945.000000911992
 20
394.9999999999999
 30
0.0
 11
2095.000000911992
 21
545.0
 31
0.0
  0
LINE
  5
3088
330
1F
100
AcDbEntity
  8
dannnetu
100
AcDbLine
 10
2280.000000000001
 20
360.0
 30
0.0
 11
1015.0
 21
359.9999999999999
 31
0.0
  0
LINE
  5
3089
330
1F
100
AcDbEntity
  8
dannnetu
100
AcDbLine
 10
1015.0
 20
359.9999999999999
 30
0.0
 11
1015.0
 21
294.9999999999999
 31
0.0
  0
LINE
  5
32B4
330
1F
100
AcDbEntity
  8
0
100
AcDbLine
 10
0.0
 20
1849.999999999998
 30
0.0
 11
2760.000000000001
 21
1849.999999999995
 31
0.0
  0
TEXT
  5
32B5
330
1F
100
AcDbEntity
  8
WAKU
100
AcDbText
 10
2608.553299492387
 20
1860.0
 30
0.0
 40
30.0
  1
asr-1-6
  7
MSゴシック
 72
     2
 11
2745.000000000001
 21
1860.0
 31
0.0
100
AcDbText
  0
TEXT
  5
32B7
330
1F
100
AcDbEntity
  8
WAKU
100
AcDbText
 10
15.0
 20
1860.0
 30
0.0
 40
40.0
  1
アスファルト防水／露出仕上げ
  7
MSゴシック
100
AcDbText
  0
TEXT
  5
32B8
330
1F
100
AcDbEntity
  8
WAKU
100
AcDbText
 10
15.0
 20
1800.000000000004
 30
0.0
 40
30.0
  1
一般部／壁立上り／アルミ水切
  7
MSゴシック
100
AcDbText
  0
TEXT
  5
32B9
330
1F
100
AcDbEntity
  8
WAKU
100
AcDbText
 10
2589.060913705585
 20
1800.000000000005
 30
0.0
 40
30.0
  1
1/10(A4)
  7
MSゴシック
 72
     2
 11
2745.000000000001
 21
1800.000000000005
 31
0.0
100
AcDbText
  0
TEXT
  5
3462
330
1F
100
AcDbEntity
  8
MOJI
100
AcDbText
 10
1151.963924743991
 20
732.4196111848209
 30
0.0
 40
20.0
  1
ギルキャント
  7
MSゴシック
 11
1151.963924743991
 21
742.419611184821
 31
0.0
100
AcDbText
 73
     2
  0
TEXT
  5
34C3
330
1F
100
AcDbEntity
  8
MOJI
100
AcDbText
 10
480.0
 20
265.0
 30
0.0
 40
20.0
  1
※こちらの図は熱工法とストライプ工法の場合の形状です。その他の工法については出入隅の形状等一部が異なります。
  7
MSゴシック
 11
480.0
 21
275.0
 31
0.0
100
AcDbText
 73
     2
  0
LINE
  5
354C
330
1F
100
AcDbEntity
  8
MOJI
100
AcDbLine
 10
1305.010115246244
 20
648.6656818774047
 30
0.0
 11
1255.010115246244
 21
648.6656818774047
 31
0.0
  0
LINE
  5
354D
330
1F
100
AcDbEntity
  8
MOJI
100
AcDbLine
 10
1255.010115246244
 20
648.6656818774047
 30
0.0
 11
1195.844397312772
 21
546.1876523503424
 31
0.0
  0
TEXT
  5
354E
330
1F
100
AcDbEntity
  8
MOJI
100
AcDbText
 10
1308.010115246244
 20
638.6656818774047
 30
0.0
 40
20.0
  1
アスファルト防水層
  7
MSゴシック
 11
1308.010115246244
 21
648.6656818774047
 31
0.0
100
AcDbText
 73
     2
  0
LINE
  5
391F
330
1F
100
AcDbEntity
  8
0
100
AcDbLine
 10
480.0000000000002
 20
295.0
 30
0.0
 11
2280.000000000001
 21
295.0
 31
0.0
  0
LINE
  5
3920
330
1F
100
AcDbEntity
  8
0
100
AcDbLine
 10
2280.000000000001
 20
295.0
 30
0.0
 11
2280.000000000001
 21
1495.0
 31
0.0
  0
LINE
  5
3921
330
1F
100
AcDbEntity
  8
0
100
AcDbLine
 10
2280.000000000001
 20
1495.0
 30
0.0
 11
480.0000000000002
 21
1495.0
 31
0.0
  0
LINE
  5
3922
330
1F
100
AcDbEntity
  8
0
100
AcDbLine
 10
480.0000000000002
 20
1495.0
 30
0.0
 11
480.0000000000002
 21
295.0
 31
0.0
  0
LINE
  5
3923
330
1F
100
AcDbEntity
  8
dannnetu
100
AcDbLine
 10
980.0000000000004
 20
594.4974746830582
 30
0.0
 11
1029.497474683059
 21
545.0
 31
0.0
  0
LINE
  5
3924
330
1F
100
AcDbEntity
  8
dannnetu
100
AcDbLine
 10
1029.497474683059
 20
545.0
 30
0.0
 11
994.1421356237315
 21
545.0
 31
0.0
  0
LINE
  5
3925
330
1F
100
AcDbEntity
  8
dannnetu
100
AcDbLine
 10
994.1421356237315
 20
545.0
 30
0.0
 11
980.0000000000004
 21
559.1421356237311
 31
0.0
  0
LINE
  5
3926
330
1F
100
AcDbEntity
  8
dannnetu
100
AcDbLine
 10
980.0000000000004
 20
559.1421356237311
 30
0.0
 11
980.0000000000004
 21
594.4974746830582
 31
0.0
  0
LINE
  5
3927
330
1F
100
AcDbEntity
  8
HATCH
  6
Continuous
100
AcDbLine
 10
980.0000000000007
 20
585.4738530943405
 30
0.0
 11
984.5118107943598
 21
589.9856638886996
 31
0.0
  0
LINE
  5
3928
330
1F
100
AcDbEntity
  8
HATCH
  6
Continuous
100
AcDbLine
 10
980.0000000000006
 20
572.0034689127366
 30
0.0
 11
991.2470028851613
 21
583.2504717978975
 31
0.0
  0
LINE
  5
3929
330
1F
100
AcDbEntity
  8
HATCH
  6
Continuous
100
AcDbLine
 10
980.3045254462997
 20
558.8376101774321
 30
0.0
 11
997.9821949759632
 21
576.5152797070956
 31
0.0
  0
LINE
  5
392A
330
1F
100
AcDbEntity
  8
HATCH
  6
Continuous
100
AcDbLine
 10
987.0397175371016
 20
552.1024180866302
 30
0.0
 11
1004.717387066765
 21
569.7800876162936
 31
0.0
  0
LINE
  5
392B
330
1F
100
AcDbEntity
  8
HATCH
  6
Continuous
100
AcDbLine
 10
993.7749096279034
 20
545.3672259958284
 30
0.0
 11
1011.452579157567
 21
563.0448955254921
 31
0.0
  0
LINE
  5
392C
330
1F
100
AcDbEntity
  8
HATCH
  6
Continuous
100
AcDbLine
 10
1006.878067813679
 20
545.0000000000001
 30
0.0
 11
1018.187771248369
 21
556.30970343469
 31
0.0
  0
LINE
  5
392D
330
1F
100
AcDbEntity
  8
HATCH
  6
Continuous
100
AcDbLine
 10
1020.348451995283
 20
545.0000000000001
 30
0.0
 11
1024.922963339171
 21
549.5745113438881
 31
0.0
  0
LINE
  5
392E
330
1F
100
AcDbEntity
  8
HATCH
  6
Continuous
100
AcDbLine
 10
998.5018645165038
 20
544.9999999999997
 30
0.0
 11
980.0000000000004
 21
563.5018645165031
 31
0.0
  0
LINE
  5
392F
330
1F
100
AcDbEntity
  8
HATCH
  6
Continuous
100
AcDbLine
 10
1011.972248698107
 20
544.9999999999999
 30
0.0
 11
980.0000000000002
 21
576.9722486981071
 31
0.0
  0
LINE
  5
3930
330
1F
100
AcDbEntity
  8
HATCH
  6
Continuous
100
AcDbLine
 10
1025.442632879711
 20
544.9999999999999
 30
0.0
 11
980.0000000000004
 21
590.4426328797106
 31
0.0
  0
LINE
  5
3931
330
1F
100
AcDbEntity
  8
sunpo
100
AcDbLine
 10
800.0000000000005
 20
779.6809383784814
 30
0.0
 11
800.0000000000005
 21
757.4024026202141
 31
0.0
  0
LINE
  5
3932
330
1F
100
AcDbEntity
  8
sunpo
100
AcDbLine
 10
980.0000000000004
 20
779.6809383784814
 30
0.0
 11
980.0000000000004
 21
757.4024026202141
 31
0.0
  0
LINE
  5
3933
330
1F
100
AcDbEntity
  8
sunpo
100
AcDbLine
 10
808.0000000000005
 20
757.4024026202141
 30
0.0
 11
972.0000000000004
 21
757.4024026202141
 31
0.0
  0
MTEXT
  5
3934
330
1F
100
AcDbEntity
  8
sunpo
100
AcDbMText
 10
889.4812711233049
 20
773.2818169543215
 30
0.0
 40
20.0
 41
0.0
 71
     5
 72
     1
  1
\A1;≧180
  7
MSゴシック
 73
     1
 44
1.0
1001
ACAD
1000
MTEXTBEGIN
1070
    73
1070
     1
1070
    44
1040
1.0
1070
    74
1070
     0
1000
MTEXTEND
  0
INSERT
  5
3935
330
1F
100
AcDbEntity
  8
sunpo
100
AcDbBlockReference
  2
_DOT
 10
800.0000000000005
 20
757.4024026202141
 30
0.0
 41
8.0
 42
8.0
 43
8.0
 50
180.0
  0
INSERT
  5
3936
330
1F
100
AcDbEntity
  8
sunpo
100
AcDbBlockReference
  2
_DOT
 10
980.0000000000004
 20
757.4024026202141
 30
0.0
 41
8.0
 42
8.0
 43
8.0
  0
LINE
  5
3937
330
1F
100
AcDbEntity
  8
sunpo
100
AcDbLine
 10
980.0000000000004
 20
779.6809383784814
 30
0.0
 11
980.0000000000004
 21
757.4024026202141
 31
0.0
  0
LINE
  5
3938
330
1F
100
AcDbEntity
  8
sunpo
100
AcDbLine
 10
990.0000000000003
 20
779.6809383784814
 30
0.0
 11
990.0000000000003
 21
757.4024026202141
 31
0.0
  0
LINE
  5
3939
330
1F
100
AcDbEntity
  8
sunpo
100
AcDbLine
 10
972.0000000000004
 20
757.4024026202141
 30
0.0
 11
964.0000000000004
 21
757.4024026202141
 31
0.0
  0
LINE
  5
393A
330
1F
100
AcDbEntity
  8
sunpo
100
AcDbLine
 10
998.0000000000003
 20
757.4024026202141
 30
0.0
 11
1006.0
 21
757.4024026202141
 31
0.0
  0
MTEXT
  5
393B
330
1F
100
AcDbEntity
  8
sunpo
100
AcDbMText
 10
1016.088171496862
 20
773.2818169543215
 30
0.0
 40
20.0
 41
0.0
 71
     5
 72
     1
  1
\A1;10
  7
MSゴシック
 73
     1
 44
1.0
1001
ACAD
1000
MTEXTBEGIN
1070
    73
1070
     1
1070
    44
1040
1.0
1070
    74
1070
     0
1000
MTEXTEND
  0
LINE
  5
393C
330
1F
100
AcDbEntity
  8
sunpo
100
AcDbLine
 10
980.0000000000004
 20
757.4024026202141
 30
0.0
 11
990.0000000000003
 21
757.4024026202141
 31
0.0
  0
INSERT
  5
393D
330
1F
100
AcDbEntity
  8
sunpo
100
AcDbBlockReference
  2
_DOT
 10
980.0000000000004
 20
757.4024026202141
 30
0.0
 41
8.0
 42
8.0
 43
8.0
  0
INSERT
  5
393E
330
1F
100
AcDbEntity
  8
sunpo
100
AcDbBlockReference
  2
_DOT
 10
990.0000000000003
 20
757.4024026202141
 30
0.0
 41
8.0
 42
8.0
 43
8.0
 50
180.0
  0
LINE
  5
393F
330
1F
100
AcDbEntity
  8
sunpo
 48
0.5
100
AcDbLine
 10
795.000000000001
 20
555.0000000000002
 30
0.0
 11
686.645540522207
 21
555.0000000000001
 31
0.0
  0
LINE
  5
3940
330
1F
100
AcDbEntity
  8
sunpo
 48
0.5
100
AcDbLine
 10
795.000000000001
 20
945.0000000000004
 30
0.0
 11
686.6455405222069
 21
945.0000000000002
 31
0.0
  0
LINE
  5
3941
330
1F
100
AcDbEntity
  8
sunpo
 48
0.5
100
AcDbLine
 10
686.645540522207
 20
563.0000000000001
 30
0.0
 11
686.6455405222069
 21
937.0000000000002
 31
0.0
  0
INSERT
  5
3942
330
1F
100
AcDbEntity
  8
sunpo
 48
0.5
100
AcDbBlockReference
  2
_DOT
 10
686.645540522207
 20
555.0000000000001
 30
0.0
 41
8.0
 42
8.0
 43
8.0
 50
270.0
  0
INSERT
  5
3943
330
1F
100
AcDbEntity
  8
sunpo
 48
0.5
100
AcDbBlockReference
  2
_DOT
 10
686.6455405222069
 20
945.0000000000002
 30
0.0
 41
8.0
 42
8.0
 43
8.0
 50
90.0
  0
MTEXT
  5
3944
330
1F
100
AcDbEntity
  8
sunpo
 48
0.5
100
AcDbMText
 10
674.1734593039329
 20
750.0
 30
0.0
 40
20.0
 41
0.0
 71
     5
 72
     1
  1
\A1;150以上（水上）
  7
MSゴシック
 11
0.0000000000000001
 21
1.0
 31
0.0
 73
     1
 44
1.0
1001
ACAD
1000
MTEXTBEGIN
1070
    73
1070
     1
1070
    44
1040
1.0
1070
    74
1070
     0
1000
MTEXTEND
  0
LINE
  5
3945
330
1F
100
AcDbEntity
  8
MOJI
100
AcDbLine
 10
1148.963924743991
 20
742.419611184821
 30
0.0
 11
1098.963924743991
 21
742.419611184821
 31
0.0
  0
LINE
  5
3946
330
1F
100
AcDbEntity
  8
MOJI
100
AcDbLine
 10
1098.963924743991
 20
742.419611184821
 30
0.0
 11
995.6442183584799
 21
563.4646303020172
 31
0.0
  0
LINE
  5
3947
330
1F
100
AcDbEntity
  8
MOJI
100
AcDbLine
 10
1137.022096827771
 20
1129.576492829452
 30
0.0
 11
1087.022096827771
 21
1129.576492829452
 31
0.0
  0
LINE
  5
3948
330
1F
100
AcDbEntity
  8
MOJI
100
AcDbLine
 10
1087.022096827771
 20
1129.576492829452
 30
0.0
 11
983.6266799606605
 21
950.4903775458515
 31
0.0
  0
LINE
  5
3949
330
1F
100
AcDbEntity
  8
MOJI
100
AcDbLine
 10
1111.23408101152
 20
1287.285461831865
 30
0.0
 11
1061.23408101152
 21
1287.285461831865
 31
0.0
  0
LINE
  5
394A
330
1F
100
AcDbEntity
  8
MOJI
100
AcDbLine
 10
1061.23408101152
 20
1287.285461831865
 30
0.0
 11
991.1599031707023
 21
1165.913425512951
 31
0.0
  0
LINE
  5
394B
330
1F
100
AcDbEntity
  8
MOJI
100
AcDbLine
 10
1164.904475608492
 20
1101.11219224883
 30
0.0
 11
1114.904475608492
 21
1101.11219224883
 31
0.0
  0
LINE
  5
394C
330
1F
100
AcDbEntity
  8
MOJI
100
AcDbLine
 10
1114.904475608492
 20
1101.11219224883
 30
0.0
 11
1011.50905874138
 21
922.0260769652295
 31
0.0
  0
LINE
  5
394D
330
1F
100
AcDbEntity
  8
sunpo
100
AcDbLine
 10
2018.500000000002
 20
752.0000000000002
 30
0.0
 11
2212.505247813659
 21
752.0000000000002
 31
0.0
  0
LINE
  5
394E
330
1F
100
AcDbEntity
  8
sunpo
100
AcDbLine
 10
2140.000000000002
 20
547.0000000000002
 30
0.0
 11
2212.505247813659
 21
547.0000000000002
 31
0.0
  0
LINE
  5
394F
330
1F
100
AcDbEntity
  8
sunpo
100
AcDbLine
 10
2212.505247813659
 20
744.0000000000002
 30
0.0
 11
2212.505247813659
 21
555.0000000000002
 31
0.0
  0
INSERT
  5
3950
330
1F
100
AcDbEntity
  8
sunpo
100
AcDbBlockReference
  2
_DOT
 10
2212.505247813659
 20
752.0000000000002
 30
0.0
 41
8.0
 42
8.0
 43
8.0
 50
90.0
  0
INSERT
  5
3951
330
1F
100
AcDbEntity
  8
sunpo
100
AcDbBlockReference
  2
_DOT
 10
2212.505247813659
 20
547.0000000000002
 30
0.0
 41
8.0
 42
8.0
 43
8.0
 50
270.0
  0
MTEXT
  5
3952
330
1F
100
AcDbEntity
  8
sunpo
100
AcDbMText
 10
2223.505247813659
 20
649.4999999999995
 30
0.0
 40
20.0
 41
0.0
 71
     5
 72
     1
  1
\A1;205
  7
MSゴシック
 11
0.0000000000000001
 21
1.0
 31
0.0
 73
     1
 44
1.0
1001
ACAD
1000
MTEXTBEGIN
1070
    73
1070
     1
1070
    44
1040
1.0
1070
    74
1070
     0
1000
MTEXTEND
  0
LINE
  5
3953
330
1F
100
AcDbEntity
  8
MOJI
100
AcDbLine
 10
1964.856356867982
 20
809.345889712557
 30
0.0
 11
1914.856356867982
 21
809.345889712557
 31
0.0
  0
LINE
  5
3954
330
1F
100
AcDbEntity
  8
MOJI
100
AcDbLine
 10
1914.856356867982
 20
809.345889712557
 30
0.0
 11
1947.965021730445
 21
752.0
 31
0.0
  0
ARC
  5
3955
330
1F
100
AcDbEntity
  8
KANAMONO
100
AcDbCircle
 10
1010.7
 20
899.9999999999998
 30
0.0
 40
0.5
100
AcDbArc
 50
90.0
 51
180.0
  0
LINE
  5
3956
330
1F
100
AcDbEntity
  8
KANAMONO
100
AcDbLine
 10
1010.2
 20
899.9999999999998
 30
0.0
 11
1010.2
 21
899.4433756729739
 31
0.0
  0
ARC
  5
3957
330
1F
100
AcDbEntity
  8
KANAMONO
100
AcDbCircle
 10
1010.7
 20
899.4433756729739
 30
0.0
 40
0.5
100
AcDbArc
 50
180.0
 51
240.0000000000027
  0
LINE
  5
3958
330
1F
100
AcDbEntity
  8
KANAMONO
100
AcDbLine
 10
1010.45
 20
899.0103629710816
 30
0.0
 11
1010.522949016875
 21
898.9682458365518
 31
0.0
  0
ARC
  5
3959
330
1F
100
AcDbEntity
  8
KANAMONO
100
AcDbCircle
 10
1010.772949016875
 20
899.4012585384441
 30
0.0
 40
0.500000000000041
100
AcDbArc
 50
240.0000000000027
 51
315.522487814065
  0
ARC
  5
395A
330
1F
100
AcDbEntity
  8
KANAMONO
100
AcDbCircle
 10
1012.2
 20
897.9999999999998
 30
0.0
 40
1.500000000000033
100
AcDbArc
 50
224.4775121859288
 51
135.5224878140711
  0
ARC
  5
395B
330
1F
100
AcDbEntity
  8
KANAMONO
100
AcDbCircle
 10
1010.772949016875
 20
896.5987414615558
 30
0.0
 40
0.4999999999999846
100
AcDbArc
 50
44.47751218592575
 51
120.0000000000038
  0
LINE
  5
395C
330
1F
100
AcDbEntity
  8
KANAMONO
100
AcDbLine
 10
1010.522949016875
 20
897.031754163448
 30
0.0
 11
1010.45
 21
896.9896370289179
 31
0.0
  0
ARC
  5
395D
330
1F
100
AcDbEntity
  8
KANAMONO
100
AcDbCircle
 10
1010.7
 20
896.5566243270258
 30
0.0
 40
0.4999999999999426
100
AcDbArc
 50
120.0000000000038
 51
180.0
  0
LINE
  5
395E
330
1F
100
AcDbEntity
  8
KANAMONO
100
AcDbLine
 10
1010.2
 20
896.5566243270258
 30
0.0
 11
1010.2
 21
895.9999999999999
 31
0.0
  0
ARC
  5
395F
330
1F
100
AcDbEntity
  8
KANAMONO
100
AcDbCircle
 10
1010.7
 20
895.9999999999999
 30
0.0
 40
0.5
100
AcDbArc
 50
180.0
 51
270.0
  0
LINE
  5
3960
330
1F
100
AcDbEntity
  8
KANAMONO
100
AcDbLine
 10
1010.7
 20
895.4999999999998
 30
0.0
 11
1013.7
 21
895.4999999999998
 31
0.0
  0
LINE
  5
3961
330
1F
100
AcDbEntity
  8
KANAMONO
100
AcDbLine
 10
1013.7
 20
895.4999999999998
 30
0.0
 11
1013.7
 21
894.9999999999999
 31
0.0
  0
LINE
  5
3962
330
1F
100
AcDbEntity
  8
KANAMONO
100
AcDbLine
 10
1013.7
 20
894.9999999999999
 30
0.0
 11
1015.0
 21
894.9999999999999
 31
0.0
  0
LINE
  5
3963
330
1F
100
AcDbEntity
  8
KANAMONO
100
AcDbLine
 10
1015.0
 20
894.9999999999999
 30
0.0
 11
1015.0
 21
955.0
 31
0.0
  0
LINE
  5
3964
330
1F
100
AcDbEntity
  8
KANAMONO
100
AcDbLine
 10
1015.0
 20
955.0
 30
0.0
 11
989.4823619097953
 21
961.8374305190199
 31
0.0
  0
ARC
  5
3965
330
1F
100
AcDbEntity
  8
KANAMONO
100
AcDbCircle
 10
990.0000000000003
 20
963.7692821715981
 30
0.0
 40
1.999999999999921
100
AcDbArc
 50
180.0000000000032
 51
255.0000000000015
  0
LINE
  5
3966
330
1F
100
AcDbEntity
  8
KANAMONO
100
AcDbLine
 10
988.0000000000004
 20
963.769282171598
 30
0.0
 11
988.0000000000004
 21
967.1999999999998
 31
0.0
  0
LINE
  5
3967
330
1F
100
AcDbEntity
  8
KANAMONO
100
AcDbLine
 10
988.0000000000004
 20
967.1999999999998
 30
0.0
 11
987.7000000000005
 21
967.4999999999997
 31
0.0
  0
LINE
  5
3968
330
1F
100
AcDbEntity
  8
KANAMONO
100
AcDbLine
 10
987.7000000000005
 20
967.4999999999997
 30
0.0
 11
988.0000000000004
 21
967.7999999999999
 31
0.0
  0
LINE
  5
3969
330
1F
100
AcDbEntity
  8
KANAMONO
100
AcDbLine
 10
988.0000000000004
 20
967.7999999999999
 30
0.0
 11
988.0000000000004
 21
978.5
 31
0.0
  0
LINE
  5
396A
330
1F
100
AcDbEntity
  8
KANAMONO
100
AcDbLine
 10
988.0000000000004
 20
978.5
 30
0.0
 11
995.0000000000004
 21
978.5
 31
0.0
  0
LINE
  5
396B
330
1F
100
AcDbEntity
  8
KANAMONO
100
AcDbLine
 10
995.0000000000004
 20
978.5
 30
0.0
 11
995.0000000000004
 21
980.0
 31
0.0
  0
LINE
  5
396C
330
1F
100
AcDbEntity
  8
KANAMONO
100
AcDbLine
 10
995.0000000000004
 20
980.0
 30
0.0
 11
985.2238290441242
 21
981.173140514705
 31
0.0
  0
ARC
  5
396D
330
1F
100
AcDbEntity
  8
KANAMONO
100
AcDbCircle
 10
985.2000000000003
 20
980.9745651470077
 30
0.0
 40
0.1999999999999706
100
AcDbArc
 50
83.15722658734319
 51
179.9999999999674
  0
LINE
  5
396E
330
1F
100
AcDbEntity
  8
KANAMONO
100
AcDbLine
 10
985.0000000000004
 20
980.9745651470077
 30
0.0
 11
985.0000000000004
 21
976.0
 31
0.0
  0
LINE
  5
396F
330
1F
100
AcDbEntity
  8
KANAMONO
100
AcDbLine
 10
985.0000000000004
 20
976.0
 30
0.0
 11
986.5000000000005
 21
976.0
 31
0.0
  0
LINE
  5
3970
330
1F
100
AcDbEntity
  8
KANAMONO
100
AcDbLine
 10
986.5000000000005
 20
976.0
 30
0.0
 11
986.5000000000005
 21
958.9999999999998
 31
0.0
  0
LINE
  5
3971
330
1F
100
AcDbEntity
  8
KANAMONO
100
AcDbLine
 10
986.5000000000005
 20
958.9999999999998
 30
0.0
 11
985.0000000000004
 21
958.9999999999998
 31
0.0
  0
LINE
  5
3972
330
1F
100
AcDbEntity
  8
KANAMONO
100
AcDbLine
 10
985.0000000000004
 20
958.9999999999998
 30
0.0
 11
985.0000000000004
 21
955.0
 31
0.0
  0
LINE
  5
3973
330
1F
100
AcDbEntity
  8
KANAMONO
100
AcDbLine
 10
985.0000000000004
 20
955.0
 30
0.0
 11
988.0000000000004
 21
955.0
 31
0.0
  0
LINE
  5
3974
330
1F
100
AcDbEntity
  8
KANAMONO
100
AcDbLine
 10
988.0000000000004
 20
955.0
 30
0.0
 11
988.0000000000004
 21
958.9999999999998
 31
0.0
  0
LINE
  5
3975
330
1F
100
AcDbEntity
  8
KANAMONO
100
AcDbLine
 10
988.0000000000004
 20
958.9999999999998
 30
0.0
 11
995.0489824730219
 21
958.9999999999998
 31
0.0
  0
LINE
  5
3976
330
1F
100
AcDbEntity
  8
KANAMONO
100
AcDbLine
 10
995.0489824730219
 20
958.9999999999998
 30
0.0
 11
1013.7
 21
954.0024749156273
 31
0.0
  0
LINE
  5
3977
330
1F
100
AcDbEntity
  8
KANAMONO
100
AcDbLine
 10
1013.7
 20
954.0024749156273
 30
0.0
 11
1013.7
 21
925.2999999999998
 31
0.0
  0
ARC
  5
3978
330
1F
100
AcDbEntity
  8
KANAMONO
100
AcDbCircle
 10
1013.7
 20
924.9999999999998
 30
0.0
 40
0.2999999999999545
100
AcDbArc
 50
270.0
 51
90.0
  0
LINE
  5
3979
330
1F
100
AcDbEntity
  8
KANAMONO
100
AcDbLine
 10
1013.7
 20
924.6999999999998
 30
0.0
 11
1013.7
 21
900.4999999999999
 31
0.0
  0
LINE
  5
397A
330
1F
100
AcDbEntity
  8
KANAMONO
100
AcDbLine
 10
1013.7
 20
900.4999999999999
 30
0.0
 11
1010.7
 21
900.4999999999999
 31
0.0
  0
ARC
  5
397B
330
1F
100
AcDbEntity
  8
KANAMONO
 62
     1
100
AcDbCircle
 10
981.0000000000004
 20
954.0
 30
0.0
 40
1.0
100
AcDbArc
 50
180.0
 51
270.0
  0
LINE
  5
397C
330
1F
100
AcDbEntity
  8
KANAMONO
 62
     1
100
AcDbLine
 10
981.0000000000004
 20
953.0
 30
0.0
 11
985.0000000000004
 21
953.0
 31
0.0
  0
LINE
  5
397D
330
1F
100
AcDbEntity
  8
KANAMONO
 62
     1
100
AcDbLine
 10
985.0000000000004
 20
953.0
 30
0.0
 11
985.0000000000004
 21
958.9999999999998
 31
0.0
  0
LINE
  5
397E
330
1F
100
AcDbEntity
  8
KANAMONO
 62
     1
100
AcDbLine
 10
985.0000000000004
 20
958.9999999999998
 30
0.0
 11
986.5000000000005
 21
959.2999999999999
 31
0.0
  0
LINE
  5
397F
330
1F
100
AcDbEntity
  8
KANAMONO
 62
     1
100
AcDbLine
 10
986.5000000000005
 20
959.2999999999999
 30
0.0
 11
986.5000000000005
 21
975.6999999999997
 31
0.0
  0
LINE
  5
3980
330
1F
100
AcDbEntity
  8
KANAMONO
 62
     1
100
AcDbLine
 10
986.5000000000005
 20
975.6999999999997
 30
0.0
 11
985.0000000000004
 21
976.0
 31
0.0
  0
LINE
  5
3981
330
1F
100
AcDbEntity
  8
KANAMONO
 62
     1
100
AcDbLine
 10
985.0000000000004
 20
976.0
 30
0.0
 11
985.0000000000004
 21
981.1999999999997
 31
0.0
  0
LINE
  5
3982
330
1F
100
AcDbEntity
  8
KANAMONO
 62
     1
100
AcDbLine
 10
985.0000000000004
 20
981.1999999999997
 30
0.0
 11
991.4404273896911
 21
980.4271487132368
 31
0.0
  0
ARC
  5
3983
330
1F
100
AcDbEntity
  8
KANAMONO
 62
     1
100
AcDbCircle
 10
991.5000000000004
 20
980.9235871324803
 30
0.0
 40
0.5000000000000756
100
AcDbArc
 50
263.1572265873649
 51
0.0
  0
LINE
  5
3984
330
1F
100
AcDbEntity
  8
KANAMONO
 62
     1
100
AcDbLine
 10
992.0000000000005
 20
980.9235871324803
 30
0.0
 11
992.0000000000005
 21
981.5599999999999
 31
0.0
  0
ARC
  5
3985
330
1F
100
AcDbEntity
  8
KANAMONO
 62
     1
100
AcDbCircle
 10
975.1123254890254
 20
945.2997400779949
 30
0.0
 40
40.0
100
AcDbArc
 50
65.0269535174227
 51
82.98138185553092
  0
LINE
  5
3986
330
1F
100
AcDbEntity
  8
KANAMONO
 62
     1
100
AcDbLine
 10
980.0000000000004
 20
985.0
 30
0.0
 11
980.0000000000004
 21
980.4999999999999
 31
0.0
  0
LINE
  5
3987
330
1F
100
AcDbEntity
  8
KANAMONO
 62
     1
100
AcDbLine
 10
980.0000000000004
 20
980.4999999999999
 30
0.0
 11
980.5000000000005
 21
980.0
 31
0.0
  0
LINE
  5
3988
330
1F
100
AcDbEntity
  8
KANAMONO
 62
     1
100
AcDbLine
 10
980.5000000000005
 20
980.0
 30
0.0
 11
980.5000000000005
 21
976.5
 31
0.0
  0
LINE
  5
3989
330
1F
100
AcDbEntity
  8
KANAMONO
 62
     1
100
AcDbLine
 10
980.5000000000005
 20
976.5
 30
0.0
 11
980.0000000000004
 21
976.0
 31
0.0
  0
LINE
  5
398A
330
1F
100
AcDbEntity
  8
KANAMONO
 62
     1
100
AcDbLine
 10
980.0000000000004
 20
976.0
 30
0.0
 11
980.0000000000004
 21
954.0
 31
0.0
  0
LINE
  5
398B
330
1F
100
AcDbEntity
  8
KANAMONO
100
AcDbLine
 10
989.2000000000004
 20
939.25
 30
0.0
 11
990.0000000000003
 21
940.0
 31
0.0
  0
LINE
  5
398C
330
1F
100
AcDbEntity
  8
KANAMONO
100
AcDbLine
 10
990.0000000000003
 20
940.0
 30
0.0
 11
990.0000000000003
 21
943.5
 31
0.0
  0
LINE
  5
398D
330
1F
100
AcDbEntity
  8
KANAMONO
100
AcDbLine
 10
990.0000000000003
 20
943.5
 30
0.0
 11
989.2000000000004
 21
944.25
 31
0.0
  0
LINE
  5
398E
330
1F
100
AcDbEntity
  8
KANAMONO
100
AcDbLine
 10
989.2000000000004
 20
944.25
 30
0.0
 11
990.0000000000003
 21
945.0
 31
0.0
  0
LINE
  5
398F
330
1F
100
AcDbEntity
  8
KANAMONO
100
AcDbLine
 10
990.0000000000003
 20
945.0
 30
0.0
 11
1000.0
 21
945.0
 31
0.0
  0
LINE
  5
3990
330
1F
100
AcDbEntity
  8
KANAMONO
100
AcDbLine
 10
1000.0
 20
945.0
 30
0.0
 11
1000.0
 21
941.0
 31
0.0
  0
LINE
  5
3991
330
1F
100
AcDbEntity
  8
KANAMONO
100
AcDbLine
 10
1000.0
 20
941.0
 30
0.0
 11
998.8000000000004
 21
941.0
 31
0.0
  0
LINE
  5
3992
330
1F
100
AcDbEntity
  8
KANAMONO
100
AcDbLine
 10
998.8000000000004
 20
941.0
 30
0.0
 11
998.8000000000004
 21
943.7999999999997
 31
0.0
  0
LINE
  5
3993
330
1F
100
AcDbEntity
  8
KANAMONO
100
AcDbLine
 10
998.8000000000004
 20
943.7999999999997
 30
0.0
 11
991.2000000000004
 21
943.7999999999997
 31
0.0
  0
LINE
  5
3994
330
1F
100
AcDbEntity
  8
KANAMONO
100
AcDbLine
 10
991.2000000000004
 20
943.7999999999997
 30
0.0
 11
991.2000000000004
 21
910.3629999999999
 31
0.0
  0
LINE
  5
3995
330
1F
100
AcDbEntity
  8
KANAMONO
100
AcDbLine
 10
991.2000000000004
 20
910.3629999999999
 30
0.0
 11
994.9980000000005
 21
904.6659999999999
 31
0.0
  0
LINE
  5
3996
330
1F
100
AcDbEntity
  8
KANAMONO
100
AcDbLine
 10
994.9980000000005
 20
904.6659999999999
 30
0.0
 11
994.0000000000004
 21
903.9999999999999
 31
0.0
  0
LINE
  5
3997
330
1F
100
AcDbEntity
  8
KANAMONO
100
AcDbLine
 10
994.0000000000004
 20
903.9999999999999
 30
0.0
 11
990.0000000000003
 21
909.9999999999999
 31
0.0
  0
LINE
  5
3998
330
1F
100
AcDbEntity
  8
KANAMONO
100
AcDbLine
 10
990.0000000000003
 20
909.9999999999999
 30
0.0
 11
990.0000000000003
 21
913.4999999999999
 31
0.0
  0
LINE
  5
3999
330
1F
100
AcDbEntity
  8
KANAMONO
100
AcDbLine
 10
990.0000000000003
 20
913.4999999999999
 30
0.0
 11
989.2000000000004
 21
914.2499999999998
 31
0.0
  0
LINE
  5
399A
330
1F
100
AcDbEntity
  8
KANAMONO
100
AcDbLine
 10
989.2000000000004
 20
914.2499999999998
 30
0.0
 11
990.0000000000003
 21
914.9999999999998
 31
0.0
  0
LINE
  5
399B
330
1F
100
AcDbEntity
  8
KANAMONO
100
AcDbLine
 10
990.0000000000003
 20
914.9999999999998
 30
0.0
 11
990.0000000000003
 21
918.4999999999998
 31
0.0
  0
LINE
  5
399C
330
1F
100
AcDbEntity
  8
KANAMONO
100
AcDbLine
 10
990.0000000000003
 20
918.4999999999998
 30
0.0
 11
989.2000000000004
 21
919.2499999999999
 31
0.0
  0
LINE
  5
399D
330
1F
100
AcDbEntity
  8
KANAMONO
100
AcDbLine
 10
989.2000000000004
 20
919.2499999999999
 30
0.0
 11
990.0000000000003
 21
919.9999999999999
 31
0.0
  0
LINE
  5
399E
330
1F
100
AcDbEntity
  8
KANAMONO
100
AcDbLine
 10
990.0000000000003
 20
919.9999999999999
 30
0.0
 11
990.0000000000003
 21
923.4999999999999
 31
0.0
  0
LINE
  5
399F
330
1F
100
AcDbEntity
  8
KANAMONO
100
AcDbLine
 10
990.0000000000003
 20
923.4999999999999
 30
0.0
 11
989.2000000000004
 21
924.2499999999999
 31
0.0
  0
LINE
  5
39A0
330
1F
100
AcDbEntity
  8
KANAMONO
100
AcDbLine
 10
989.2000000000004
 20
924.2499999999999
 30
0.0
 11
990.0000000000003
 21
925.0
 31
0.0
  0
LINE
  5
39A1
330
1F
100
AcDbEntity
  8
KANAMONO
100
AcDbLine
 10
990.0000000000003
 20
925.0
 30
0.0
 11
990.0000000000003
 21
928.5
 31
0.0
  0
LINE
  5
39A2
330
1F
100
AcDbEntity
  8
KANAMONO
100
AcDbLine
 10
990.0000000000003
 20
928.5
 30
0.0
 11
989.2000000000004
 21
929.25
 31
0.0
  0
LINE
  5
39A3
330
1F
100
AcDbEntity
  8
KANAMONO
100
AcDbLine
 10
989.2000000000004
 20
929.25
 30
0.0
 11
990.0000000000003
 21
930.0
 31
0.0
  0
LINE
  5
39A4
330
1F
100
AcDbEntity
  8
KANAMONO
100
AcDbLine
 10
990.0000000000003
 20
930.0
 30
0.0
 11
990.0000000000003
 21
933.5
 31
0.0
  0
LINE
  5
39A5
330
1F
100
AcDbEntity
  8
KANAMONO
100
AcDbLine
 10
990.0000000000003
 20
933.5
 30
0.0
 11
989.2000000000004
 21
934.2499999999999
 31
0.0
  0
LINE
  5
39A6
330
1F
100
AcDbEntity
  8
KANAMONO
100
AcDbLine
 10
989.2000000000004
 20
934.2499999999999
 30
0.0
 11
990.0000000000003
 21
935.0
 31
0.0
  0
LINE
  5
39A7
330
1F
100
AcDbEntity
  8
KANAMONO
100
AcDbLine
 10
990.0000000000003
 20
935.0
 30
0.0
 11
990.0000000000003
 21
938.4999999999999
 31
0.0
  0
LINE
  5
39A8
330
1F
100
AcDbEntity
  8
KANAMONO
100
AcDbLine
 10
990.0000000000003
 20
938.4999999999999
 30
0.0
 11
989.2000000000004
 21
939.25
 31
0.0
  0
LINE
  5
39A9
330
1F
100
AcDbEntity
  8
KANAMONO
100
AcDbLine
 10
989.2000000000004
 20
939.25
 30
0.0
 11
990.0000000000003
 21
940.0
 31
0.0
  0
LINE
  5
39AA
330
1F
100
AcDbEntity
  8
KANAMONO_SCREW
 48
20.0
100
AcDbLine
 10
975.6301965628331
 20
929.7100514272896
 30
0.0
 11
965.5260108967159
 21
930.1558243243242
 31
0.0
  0
LINE
  5
39AB
330
1F
100
AcDbEntity
  8
KANAMONO_SCREW
 48
20.0
100
AcDbLine
 10
975.6301965628335
 20
924.4529485727026
 30
0.0
 11
965.5260108967159
 21
924.0071756756755
 31
0.0
  0
LINE
  5
39AC
330
1F
100
AcDbEntity
  8
KANAMONO_SCREW
 48
20.0
100
AcDbLine
 10
978.5440289147338
 20
926.8731666666665
 30
0.0
 11
964.3773622480672
 21
926.2481666666666
 31
0.0
  0
LINE
  5
39AD
330
1F
100
AcDbEntity
  8
KANAMONO_SCREW
 48
20.0
100
AcDbLine
 10
978.5440289147338
 20
927.2898333333332
 30
0.0
 11
964.3773622480672
 21
927.9148333333331
 31
0.0
  0
LINE
  5
39AE
330
1F
100
AcDbEntity
  8
KANAMONO_SCREW
 48
20.0
100
AcDbLine
 10
964.3773622480672
 20
928.6760143015211
 30
0.0
 11
961.457215236515
 21
927.4664498143906
 31
0.0
  0
LINE
  5
39AF
330
1F
100
AcDbEntity
  8
KANAMONO_SCREW
 48
20.0
100
AcDbLine
 10
964.3773622480672
 20
925.4869856984786
 30
0.0
 11
961.457215236515
 21
926.6965502039646
 31
0.0
  0
ARC
  5
39B0
330
1F
100
AcDbEntity
  8
KANAMONO_SCREW
 48
20.0
100
AcDbCircle
 10
961.6166666666671
 20
927.0815000091777
 30
0.0
 40
0.4166666666666667
100
AcDbArc
 50
112.4999999999997
 51
247.5000000000002
  0
LINE
  5
39B1
330
1F
100
AcDbEntity
  8
KANAMONO_SCREW
 48
20.0
100
AcDbLine
 10
964.3773622480672
 20
926.2481666666666
 30
0.0
 11
964.3773622480672
 21
924.5814999999998
 31
0.0
  0
LINE
  5
39B2
330
1F
100
AcDbEntity
  8
KANAMONO_SCREW
 48
20.0
100
AcDbLine
 10
964.3773622480672
 20
927.9148333333331
 30
0.0
 11
964.3773622480672
 21
929.5814999999997
 31
0.0
  0
LINE
  5
39B3
330
1F
100
AcDbEntity
  8
KANAMONO_SCREW
 48
20.0
100
AcDbLine
 10
964.3773622480672
 20
929.5814999999997
 30
0.0
 11
965.5260108967159
 21
930.1558243243242
 31
0.0
  0
LINE
  5
39B4
330
1F
100
AcDbEntity
  8
KANAMONO_SCREW
 48
20.0
100
AcDbLine
 10
965.1670430480393
 20
927.8799944745109
 30
0.0
 11
965.5619348608885
 21
926.3004272231144
 31
0.0
  0
LINE
  5
39B5
330
1F
100
AcDbEntity
  8
KANAMONO_SCREW
 48
20.0
100
AcDbLine
 10
966.4309835684854
 20
927.8242323927264
 30
0.0
 11
966.7982984972521
 21
926.3549726776599
 31
0.0
  0
LINE
  5
39B6
330
1F
100
AcDbEntity
  8
KANAMONO_SCREW
 48
20.0
100
AcDbLine
 10
963.7799066443148
 20
928.4285400894088
 30
0.0
 11
964.3773622480672
 21
926.0387176743996
 31
0.0
  0
LINE
  5
39B7
330
1F
100
AcDbEntity
  8
KANAMONO_SCREW
 48
20.0
100
AcDbLine
 10
967.6949240889316
 20
927.7684703109422
 30
0.0
 11
968.0346621336157
 21
926.4095181322055
 31
0.0
  0
LINE
  5
39B8
330
1F
100
AcDbEntity
  8
KANAMONO_SCREW
 48
20.0
100
AcDbLine
 10
972.750686170716
 20
927.5454219838046
 30
0.0
 11
972.9801166790704
 21
926.6276999503871
 31
0.0
  0
LINE
  5
39B9
330
1F
100
AcDbEntity
  8
KANAMONO_SCREW
 48
20.0
100
AcDbLine
 10
968.9588646093776
 20
927.7127082291576
 30
0.0
 11
969.2710257699795
 21
926.4640635867507
 31
0.0
  0
LINE
  5
39BA
330
1F
100
AcDbEntity
  8
KANAMONO_SCREW
 48
20.0
100
AcDbLine
 10
970.2228051298238
 20
927.6569461473734
 30
0.0
 11
970.5073894063431
 21
926.5186090412962
 31
0.0
  0
LINE
  5
39BB
330
1F
100
AcDbEntity
  8
KANAMONO_SCREW
 48
20.0
100
AcDbLine
 10
971.4867456502698
 20
927.6011840655888
 30
0.0
 11
971.7437530427066
 21
926.5731544958418
 31
0.0
  0
LINE
  5
39BC
330
1F
100
AcDbEntity
  8
KANAMONO_SCREW
 48
20.0
100
AcDbLine
 10
964.3773622480672
 20
924.5814999999998
 30
0.0
 11
965.5260108967159
 21
924.0071756756755
 31
0.0
  0
LINE
  5
39BD
330
1F
100
AcDbEntity
  8
KANAMONO_SCREW
 48
20.0
100
AcDbLine
 10
990.3666666666671
 20
929.5814999999997
 30
0.0
 11
978.5440289147343
 21
929.5814999999997
 31
0.0
  0
LINE
  5
39BE
330
1F
100
AcDbEntity
  8
KANAMONO_SCREW
 48
20.0
100
AcDbLine
 10
990.3666666666671
 20
924.5814999999998
 30
0.0
 11
978.5440289147343
 21
924.5814999999998
 31
0.0
  0
LINE
  5
39BF
330
1F
100
AcDbEntity
  8
KANAMONO_SCREW
 48
20.0
100
AcDbLine
 10
980.2106955814011
 20
929.5814999999997
 30
0.0
 11
980.2106955814011
 21
924.5814999999998
 31
0.0
  0
LINE
  5
39C0
330
1F
100
AcDbEntity
  8
KANAMONO_SCREW
 48
20.0
100
AcDbLine
 10
982.7106955814011
 20
929.5814999999997
 30
0.0
 11
982.7106955814011
 21
924.5814999999998
 31
0.0
  0
LINE
  5
39C1
330
1F
100
AcDbEntity
  8
KANAMONO_SCREW
 48
20.0
100
AcDbLine
 10
978.5348466699273
 20
929.3733691177211
 30
0.0
 11
978.5440289147343
 21
929.5814999999997
 31
0.0
  0
LINE
  5
39C2
330
1F
100
AcDbEntity
  8
KANAMONO_SCREW
 48
20.0
100
AcDbLine
 10
978.3267157876489
 20
929.382551362528
 30
0.0
 11
978.3358980324559
 21
929.5906822448067
 31
0.0
  0
LINE
  5
39C3
330
1F
100
AcDbEntity
  8
KANAMONO_SCREW
 48
20.0
100
AcDbLine
 10
975.8291452003051
 20
929.4927383002114
 30
0.0
 11
975.8383274451121
 21
929.7008691824899
 31
0.0
  0
LINE
  5
39C4
330
1F
100
AcDbEntity
  8
KANAMONO_SCREW
 48
20.0
100
AcDbLine
 10
975.6210143180267
 20
929.5019205450184
 30
0.0
 11
975.6301965628335
 21
929.7100514272969
 31
0.0
  0
LINE
  5
39C5
330
1F
100
AcDbEntity
  8
KANAMONO_SCREW
 48
20.0
100
AcDbLine
 10
978.3358980324557
 20
929.5906822448062
 30
0.0
 11
975.8383274451118
 21
929.7008691824832
 31
0.0
  0
LINE
  5
39C6
330
1F
100
AcDbEntity
  8
KANAMONO_SCREW
 48
20.0
100
AcDbLine
 10
978.5348466699273
 20
929.3733691177211
 30
0.0
 11
975.6210143180263
 21
929.5019205450108
 31
0.0
  0
LINE
  5
39C7
330
1F
100
AcDbEntity
  8
KANAMONO_SCREW
 48
20.0
100
AcDbLine
 10
978.5440289147338
 20
927.2898333333332
 30
0.0
 11
978.5440289147338
 21
926.8731666666665
 31
0.0
  0
LINE
  5
39C8
330
1F
100
AcDbEntity
  8
KANAMONO_SCREW
 48
20.0
100
AcDbLine
 10
977.8064482525003
 20
927.322373656667
 30
0.0
 11
977.9255712245248
 21
926.845881768569
 31
0.0
  0
LINE
  5
39C9
330
1F
100
AcDbEntity
  8
KANAMONO_SCREW
 48
20.0
100
AcDbLine
 10
974.014626691162
 20
927.48965990202
 30
0.0
 11
974.216480315434
 21
926.6822454049327
 31
0.0
  0
LINE
  5
39CA
330
1F
100
AcDbEntity
  8
KANAMONO_SCREW
 48
20.0
100
AcDbLine
 10
975.2785672116083
 20
927.4338978202358
 30
0.0
 11
975.4528439517976
 21
926.7367908594781
 31
0.0
  0
LINE
  5
39CB
330
1F
100
AcDbEntity
  8
KANAMONO_SCREW
 48
20.0
100
AcDbLine
 10
976.5425077320543
 20
927.3781357384514
 30
0.0
 11
976.6892075881612
 21
926.7913363140236
 31
0.0
  0
LINE
  5
39CC
330
1F
100
AcDbEntity
  8
KANAMONO_SCREW
 48
20.0
100
AcDbLine
 10
978.3267157876489
 20
924.7804486374715
 30
0.0
 11
978.3358980324559
 21
924.5723177551928
 31
0.0
  0
LINE
  5
39CD
330
1F
100
AcDbEntity
  8
KANAMONO_SCREW
 48
20.0
100
AcDbLine
 10
978.5348466699273
 20
924.7896308822785
 30
0.0
 11
978.5440289147343
 21
924.5814999999998
 31
0.0
  0
LINE
  5
39CE
330
1F
100
AcDbEntity
  8
KANAMONO_SCREW
 48
20.0
100
AcDbLine
 10
975.6210143180267
 20
924.6610794549813
 30
0.0
 11
975.6301965628335
 21
924.4529485727026
 31
0.0
  0
LINE
  5
39CF
330
1F
100
AcDbEntity
  8
KANAMONO_SCREW
 48
20.0
100
AcDbLine
 10
975.8291452003051
 20
924.6702616997881
 30
0.0
 11
975.8383274451121
 21
924.4621308175096
 31
0.0
  0
LINE
  5
39D0
330
1F
100
AcDbEntity
  8
KANAMONO_SCREW
 48
20.0
100
AcDbLine
 10
978.5348466699273
 20
924.7896308822785
 30
0.0
 11
975.6210143180263
 21
924.6610794549887
 31
0.0
  0
LINE
  5
39D1
330
1F
100
AcDbEntity
  8
KANAMONO_SCREW
 48
20.0
100
AcDbLine
 10
978.3358980324557
 20
924.5723177551933
 30
0.0
 11
975.8383274451118
 21
924.4621308175165
 31
0.0
  0
LINE
  5
39D2
330
1F
100
AcDbEntity
  8
KANAMONO_SCREW
 48
20.0
100
AcDbLine
 10
991.2000000000004
 20
930.414833333333
 30
0.0
 11
991.2000000000004
 21
923.7481666666665
 31
0.0
  0
LINE
  5
39D3
330
1F
100
AcDbEntity
  8
KANAMONO_SCREW
 48
20.0
100
AcDbLine
 10
993.2833333333338
 20
923.539833333333
 30
0.0
 11
993.2833333333338
 21
930.6231666666663
 31
0.0
  0
LINE
  5
39D4
330
1F
100
AcDbEntity
  8
KANAMONO_SCREW
 48
20.0
100
AcDbLine
 10
993.4916666666671
 20
924.5814999999998
 30
0.0
 11
993.4916666666671
 21
929.5814999999997
 31
0.0
  0
LINE
  5
39D5
330
1F
100
AcDbEntity
  8
KANAMONO_SCREW
 48
20.0
100
AcDbLine
 10
992.8666666666671
 20
931.6648333333331
 30
0.0
 11
992.8666666666671
 21
922.4981666666664
 31
0.0
  0
LINE
  5
39D6
330
1F
100
AcDbEntity
  8
KANAMONO_SCREW
 48
20.0
100
AcDbLine
 10
993.2833333333338
 20
930.6231666666663
 30
0.0
 11
992.8666666666671
 21
930.6231666666663
 31
0.0
  0
LINE
  5
39D7
330
1F
100
AcDbEntity
  8
KANAMONO_SCREW
 48
20.0
100
AcDbLine
 10
993.2833333333338
 20
930.6231666666663
 30
0.0
 11
993.4916666666671
 21
929.5814999999997
 31
0.0
  0
ARC
  5
39D8
330
1F
100
AcDbEntity
  8
KANAMONO_SCREW
 48
20.0
100
AcDbCircle
 10
990.3666666666671
 20
930.414833333333
 30
0.0
 40
0.8333333333333333
100
AcDbArc
 50
270.0
 51
0.0
  0
LINE
  5
39D9
330
1F
100
AcDbEntity
  8
KANAMONO_SCREW
 48
20.0
100
AcDbLine
 10
991.2000000000004
 20
931.6648333333331
 30
0.0
 11
991.2000000000004
 21
930.414833333333
 31
0.0
  0
LINE
  5
39DA
330
1F
100
AcDbEntity
  8
KANAMONO_SCREW
 48
20.0
100
AcDbLine
 10
991.2000000000004
 20
931.6648333333331
 30
0.0
 11
992.8666666666671
 21
931.6648333333331
 31
0.0
  0
LINE
  5
39DB
330
1F
100
AcDbEntity
  8
KANAMONO_SCREW
 48
20.0
100
AcDbLine
 10
992.8666666666671
 20
922.4981666666664
 30
0.0
 11
991.2000000000004
 21
922.4981666666664
 31
0.0
  0
LINE
  5
39DC
330
1F
100
AcDbEntity
  8
KANAMONO_SCREW
 48
20.0
100
AcDbLine
 10
992.8666666666671
 20
923.539833333333
 30
0.0
 11
993.2833333333338
 21
923.539833333333
 31
0.0
  0
LINE
  5
39DD
330
1F
100
AcDbEntity
  8
KANAMONO_SCREW
 48
20.0
100
AcDbLine
 10
993.4916666666671
 20
924.5814999999998
 30
0.0
 11
993.2833333333338
 21
923.539833333333
 31
0.0
  0
ARC
  5
39DE
330
1F
100
AcDbEntity
  8
KANAMONO_SCREW
 48
20.0
100
AcDbCircle
 10
990.3666666666671
 20
923.7481666666665
 30
0.0
 40
0.8333333333333333
100
AcDbArc
 50
0.0
 51
90.0
  0
LINE
  5
39DF
330
1F
100
AcDbEntity
  8
KANAMONO_SCREW
 48
20.0
100
AcDbLine
 10
991.2000000000004
 20
923.7481666666665
 30
0.0
 11
991.2000000000004
 21
922.4981666666664
 31
0.0
  0
LINE
  5
39E0
330
1F
100
AcDbEntity
  8
HATCH
  6
Continuous
100
AcDbLine
 10
980.0000000000006
 20
952.4506403026729
 30
0.0
 11
980.5189123648034
 21
952.9695526674757
 31
0.0
  0
LINE
  5
39E1
330
1F
100
AcDbEntity
  8
HATCH
  6
Continuous
100
AcDbLine
 10
980.0000000000006
 20
947.9605122421384
 30
0.0
 11
984.5013413892543
 21
952.4618536313921
 31
0.0
  0
LINE
  5
39E2
330
1F
100
AcDbEntity
  8
HATCH
  6
Continuous
100
AcDbLine
 10
981.5296158183954
 20
944.9999999999986
 30
0.0
 11
988.0997032854487
 21
951.5700874670521
 31
0.0
  0
LINE
  5
39E3
330
1F
100
AcDbEntity
  8
HATCH
  6
Continuous
100
AcDbLine
 10
986.0197438789302
 20
944.9999999999988
 30
0.0
 11
991.3855386292393
 21
950.3657947503079
 31
0.0
  0
LINE
  5
39E4
330
1F
100
AcDbEntity
  8
HATCH
  6
Continuous
100
AcDbLine
 10
990.5098719394647
 20
944.9999999999988
 30
0.0
 11
994.4020605328612
 21
948.8921885933953
 31
0.0
  0
LINE
  5
39E5
330
1F
100
AcDbEntity
  8
HATCH
  6
Continuous
100
AcDbLine
 10
994.9999999999997
 20
944.9999999999993
 30
0.0
 11
997.1762297625037
 21
947.1762297625032
 31
0.0
  0
LINE
  5
39E6
330
1F
100
AcDbEntity
  8
HATCH
  6
Continuous
100
AcDbLine
 10
999.4901280605349
 20
945.0
 30
0.0
 11
999.7244671764127
 21
945.2343391158777
 31
0.0
  0
LINE
  5
39E7
330
1F
100
AcDbEntity
  8
HATCH
  6
Continuous
100
AcDbLine
 10
981.478651724838
 20
944.9999999999985
 30
0.0
 11
980.0000000000004
 21
946.4786517248361
 31
0.0
  0
LINE
  5
39E8
330
1F
100
AcDbEntity
  8
HATCH
  6
Continuous
100
AcDbLine
 10
985.9687797853725
 20
944.9999999999985
 30
0.0
 11
980.0000000000004
 21
950.9687797853706
 31
0.0
  0
LINE
  5
39E9
330
1F
100
AcDbEntity
  8
HATCH
  6
Continuous
100
AcDbLine
 10
990.4589078459068
 20
944.9999999999986
 30
0.0
 11
982.7078593152428
 21
952.7510485306626
 31
0.0
  0
LINE
  5
39EA
330
1F
100
AcDbEntity
  8
HATCH
  6
Continuous
100
AcDbLine
 10
994.9490359064409
 20
944.9999999999992
 30
0.0
 11
988.5073241616961
 21
951.441711744744
 31
0.0
  0
LINE
  5
39EB
330
1F
100
AcDbEntity
  8
HATCH
  6
Continuous
100
AcDbLine
 10
999.4391639669746
 20
944.9999999999999
 30
0.0
 11
997.461704254988
 21
946.9774597119865
 31
0.0
  0
LINE
  5
39EC
330
1F
100
AcDbEntity
  8
BOUSUI
100
AcDbLine
 10
1958.650000000001
 20
555.0
 30
0.0
 11
1033.639610306789
 21
555.0
 31
0.0
  0
LINE
  5
39ED
330
1F
100
AcDbEntity
  8
BOUSUI
100
AcDbLine
 10
1033.639610306789
 20
555.0
 30
0.0
 11
990.0000000000007
 21
598.6396103067889
 31
0.0
  0
LINE
  5
39EE
330
1F
100
AcDbEntity
  8
BOUSUI
100
AcDbLine
 10
990.0000000000007
 20
598.6396103067889
 30
0.0
 11
990.0000000000003
 21
909.9999999999999
 31
0.0
  0
LINE
  5
39EF
330
1F
100
AcDbEntity
  8
HATCH
  6
Continuous
100
AcDbLine
 10
980.0000000000007
 20
391.1846327358511
 30
0.0
 11
983.8153672641507
 21
395.000000000001
 31
0.0
  0
LINE
  5
39F0
330
1F
100
AcDbEntity
  8
HATCH
  6
Continuous
100
AcDbLine
 10
980.0000000000007
 20
377.7142485542473
 30
0.0
 11
997.2857514457544
 21
395.000000000001
 31
0.0
  0
LINE
  5
39F1
330
1F
100
AcDbEntity
  8
HATCH
  6
Continuous
100
AcDbLine
 10
980.0000000000006
 20
364.2438643726435
 30
0.0
 11
1010.756135627357
 21
395.0000000000008
 31
0.0
  0
LINE
  5
39F2
330
1F
100
AcDbEntity
  8
HATCH
  6
Continuous
100
AcDbLine
 10
980.0000000000007
 20
350.7734801910399
 30
0.0
 11
1024.226519808961
 21
395.0000000000008
 31
0.0
  0
LINE
  5
39F3
330
1F
100
AcDbEntity
  8
HATCH
  6
Continuous
100
AcDbLine
 10
980.0000000000004
 20
337.303096009436
 30
0.0
 11
1037.696903990565
 21
395.000000000001
 31
0.0
  0
LINE
  5
39F4
330
1F
100
AcDbEntity
  8
HATCH
  6
Continuous
100
AcDbLine
 10
980.0000000000007
 20
323.8327118278324
 30
0.0
 11
1015.0
 21
358.8327118278323
 31
0.0
  0
LINE
  5
39F5
330
1F
100
AcDbEntity
  8
HATCH
  6
Continuous
100
AcDbLine
 10
1016.167288172168
 20
360.0
 30
0.0
 11
1051.167288172169
 21
395.0000000000007
 31
0.0
  0
LINE
  5
39F6
330
1F
100
AcDbEntity
  8
HATCH
  6
Continuous
100
AcDbLine
 10
980.0000000000007
 20
310.3623276462286
 30
0.0
 11
1015.0
 21
345.3623276462284
 31
0.0
  0
LINE
  5
39F7
330
1F
100
AcDbEntity
  8
HATCH
  6
Continuous
100
AcDbLine
 10
1029.637672353772
 20
360.0
 30
0.0
 11
1064.637672353772
 21
395.0000000000006
 31
0.0
  0
LINE
  5
39F8
330
1F
100
AcDbEntity
  8
HATCH
  6
Continuous
100
AcDbLine
 10
980.0000000000006
 20
296.8919434646249
 30
0.0
 11
1015.0
 21
331.8919434646248
 31
0.0
  0
LINE
  5
39F9
330
1F
100
AcDbEntity
  8
HATCH
  6
Continuous
100
AcDbLine
 10
1043.108056535375
 20
360.0
 30
0.0
 11
1078.108056535376
 21
395.0000000000008
 31
0.0
  0
LINE
  5
39FA
330
1F
100
AcDbEntity
  8
HATCH
  6
Continuous
100
AcDbLine
 10
991.5784407169795
 20
295.0000000000001
 30
0.0
 11
1015.0
 21
318.4215592830211
 31
0.0
  0
LINE
  5
39FB
330
1F
100
AcDbEntity
  8
HATCH
  6
Continuous
100
AcDbLine
 10
1056.578440716979
 20
360.0
 30
0.0
 11
1091.57844071698
 21
395.0000000000008
 31
0.0
  0
LINE
  5
39FC
330
1F
100
AcDbEntity
  8
HATCH
  6
Continuous
100
AcDbLine
 10
1005.048824898583
 20
295.0000000000001
 30
0.0
 11
1015.0
 21
304.9511751014174
 31
0.0
  0
LINE
  5
39FD
330
1F
100
AcDbEntity
  8
HATCH
  6
Continuous
100
AcDbLine
 10
1070.048824898583
 20
360.0
 30
0.0
 11
1105.048824898584
 21
395.0000000000007
 31
0.0
  0
LINE
  5
39FE
330
1F
100
AcDbEntity
  8
HATCH
  6
Continuous
100
AcDbLine
 10
1083.519209080187
 20
360.0
 30
0.0
 11
1118.519209080187
 21
395.0000000000007
 31
0.0
  0
LINE
  5
39FF
330
1F
100
AcDbEntity
  8
HATCH
  6
Continuous
100
AcDbLine
 10
1096.98959326179
 20
360.0
 30
0.0
 11
1131.989593261791
 21
395.0000000000007
 31
0.0
  0
LINE
  5
3A00
330
1F
100
AcDbEntity
  8
HATCH
  6
Continuous
100
AcDbLine
 10
1110.459977443394
 20
360.0
 30
0.0
 11
1145.459977443395
 21
395.0000000000008
 31
0.0
  0
LINE
  5
3A01
330
1F
100
AcDbEntity
  8
HATCH
  6
Continuous
100
AcDbLine
 10
1123.930361624998
 20
360.0
 30
0.0
 11
1158.930361624999
 21
395.0000000000008
 31
0.0
  0
LINE
  5
3A02
330
1F
100
AcDbEntity
  8
HATCH
  6
Continuous
100
AcDbLine
 10
1137.400745806602
 20
360.0000000000002
 30
0.0
 11
1172.400745806602
 21
395.0000000000006
 31
0.0
  0
LINE
  5
3A03
330
1F
100
AcDbEntity
  8
HATCH
  6
Continuous
100
AcDbLine
 10
1150.871129988205
 20
360.0
 30
0.0
 11
1185.871129988206
 21
395.0000000000006
 31
0.0
  0
LINE
  5
3A04
330
1F
100
AcDbEntity
  8
HATCH
  6
Continuous
100
AcDbLine
 10
1164.341514169809
 20
360.0
 30
0.0
 11
1199.34151416981
 21
395.0000000000007
 31
0.0
  0
LINE
  5
3A05
330
1F
100
AcDbEntity
  8
HATCH
  6
Continuous
100
AcDbLine
 10
1177.811898351413
 20
360.0
 30
0.0
 11
1212.811898351414
 21
395.0000000000006
 31
0.0
  0
LINE
  5
3A06
330
1F
100
AcDbEntity
  8
HATCH
  6
Continuous
100
AcDbLine
 10
1191.282282533016
 20
360.0
 30
0.0
 11
1226.282282533017
 21
395.0000000000007
 31
0.0
  0
LINE
  5
3A07
330
1F
100
AcDbEntity
  8
HATCH
  6
Continuous
100
AcDbLine
 10
1204.75266671462
 20
360.0
 30
0.0
 11
1239.752666714621
 21
395.0000000000006
 31
0.0
  0
LINE
  5
3A08
330
1F
100
AcDbEntity
  8
HATCH
  6
Continuous
100
AcDbLine
 10
1218.223050896224
 20
360.0
 30
0.0
 11
1253.223050896225
 21
395.0000000000006
 31
0.0
  0
LINE
  5
3A09
330
1F
100
AcDbEntity
  8
HATCH
  6
Continuous
100
AcDbLine
 10
1231.693435077828
 20
360.0
 30
0.0
 11
1266.693435077828
 21
395.0000000000007
 31
0.0
  0
LINE
  5
3A0A
330
1F
100
AcDbEntity
  8
HATCH
  6
Continuous
100
AcDbLine
 10
1245.163819259431
 20
360.0
 30
0.0
 11
1280.163819259432
 21
395.0000000000006
 31
0.0
  0
LINE
  5
3A0B
330
1F
100
AcDbEntity
  8
HATCH
  6
Continuous
100
AcDbLine
 10
1258.634203441035
 20
360.0
 30
0.0
 11
1293.634203441036
 21
395.0000000000004
 31
0.0
  0
LINE
  5
3A0C
330
1F
100
AcDbEntity
  8
HATCH
  6
Continuous
100
AcDbLine
 10
1272.104587622639
 20
360.0000000000002
 30
0.0
 11
1307.104587622639
 21
395.0000000000007
 31
0.0
  0
LINE
  5
3A0D
330
1F
100
AcDbEntity
  8
HATCH
  6
Continuous
100
AcDbLine
 10
1285.574971804243
 20
360.0000000000001
 30
0.0
 11
1320.574971804243
 21
395.0000000000006
 31
0.0
  0
LINE
  5
3A0E
330
1F
100
AcDbEntity
  8
HATCH
  6
Continuous
100
AcDbLine
 10
1299.045355985846
 20
360.0
 30
0.0
 11
1334.045355985847
 21
395.0000000000004
 31
0.0
  0
LINE
  5
3A0F
330
1F
100
AcDbEntity
  8
HATCH
  6
Continuous
100
AcDbLine
 10
1312.51574016745
 20
360.0
 30
0.0
 11
1347.515740167451
 21
395.0000000000006
 31
0.0
  0
LINE
  5
3A10
330
1F
100
AcDbEntity
  8
HATCH
  6
Continuous
100
AcDbLine
 10
1325.986124349054
 20
360.0
 30
0.0
 11
1360.986124349054
 21
395.0000000000004
 31
0.0
  0
LINE
  5
3A11
330
1F
100
AcDbEntity
  8
HATCH
  6
Continuous
100
AcDbLine
 10
1339.456508530658
 20
360.0000000000002
 30
0.0
 11
1374.456508530658
 21
395.0000000000004
 31
0.0
  0
LINE
  5
3A12
330
1F
100
AcDbEntity
  8
HATCH
  6
Continuous
100
AcDbLine
 10
1352.926892712261
 20
360.0000000000002
 30
0.0
 11
1387.926892712262
 21
395.0000000000007
 31
0.0
  0
LINE
  5
3A13
330
1F
100
AcDbEntity
  8
HATCH
  6
Continuous
100
AcDbLine
 10
1366.397276893865
 20
360.0
 30
0.0
 11
1401.397276893866
 21
395.0000000000004
 31
0.0
  0
LINE
  5
3A14
330
1F
100
AcDbEntity
  8
HATCH
  6
Continuous
100
AcDbLine
 10
1379.867661075469
 20
360.0
 30
0.0
 11
1414.867661075469
 21
395.0000000000004
 31
0.0
  0
LINE
  5
3A15
330
1F
100
AcDbEntity
  8
HATCH
  6
Continuous
100
AcDbLine
 10
1393.338045257072
 20
360.0
 30
0.0
 11
1428.338045257073
 21
395.0000000000004
 31
0.0
  0
LINE
  5
3A16
330
1F
100
AcDbEntity
  8
HATCH
  6
Continuous
100
AcDbLine
 10
1406.808429438676
 20
360.0
 30
0.0
 11
1441.808429438677
 21
395.0000000000004
 31
0.0
  0
LINE
  5
3A17
330
1F
100
AcDbEntity
  8
HATCH
  6
Continuous
100
AcDbLine
 10
1420.27881362028
 20
359.9999999999999
 30
0.0
 11
1455.278813620281
 21
395.0000000000006
 31
0.0
  0
LINE
  5
3A18
330
1F
100
AcDbEntity
  8
HATCH
  6
Continuous
100
AcDbLine
 10
1433.749197801884
 20
360.0
 30
0.0
 11
1468.749197801884
 21
395.0000000000006
 31
0.0
  0
LINE
  5
3A19
330
1F
100
AcDbEntity
  8
HATCH
  6
Continuous
100
AcDbLine
 10
1447.219581983487
 20
360.0
 30
0.0
 11
1482.219581983488
 21
395.0000000000004
 31
0.0
  0
LINE
  5
3A1A
330
1F
100
AcDbEntity
  8
HATCH
  6
Continuous
100
AcDbLine
 10
1460.689966165091
 20
360.0
 30
0.0
 11
1495.689966165092
 21
395.0000000000003
 31
0.0
  0
LINE
  5
3A1B
330
1F
100
AcDbEntity
  8
HATCH
  6
Continuous
100
AcDbLine
 10
1474.160350346695
 20
360.0000000000002
 30
0.0
 11
1509.160350346695
 21
395.0000000000004
 31
0.0
  0
LINE
  5
3A1C
330
1F
100
AcDbEntity
  8
HATCH
  6
Continuous
100
AcDbLine
 10
1487.630734528298
 20
359.9999999999999
 30
0.0
 11
1522.630734528299
 21
395.0000000000003
 31
0.0
  0
LINE
  5
3A1D
330
1F
100
AcDbEntity
  8
HATCH
  6
Continuous
100
AcDbLine
 10
1501.101118709902
 20
360.0
 30
0.0
 11
1536.101118709903
 21
395.0000000000004
 31
0.0
  0
LINE
  5
3A1E
330
1F
100
AcDbEntity
  8
HATCH
  6
Continuous
100
AcDbLine
 10
1514.571502891506
 20
360.0
 30
0.0
 11
1549.571502891506
 21
395.0000000000003
 31
0.0
  0
LINE
  5
3A1F
330
1F
100
AcDbEntity
  8
HATCH
  6
Continuous
100
AcDbLine
 10
1528.04188707311
 20
359.9999999999999
 30
0.0
 11
1563.04188707311
 21
395.0000000000003
 31
0.0
  0
LINE
  5
3A20
330
1F
100
AcDbEntity
  8
HATCH
  6
Continuous
100
AcDbLine
 10
1541.512271254713
 20
359.9999999999999
 30
0.0
 11
1576.512271254714
 21
395.0000000000004
 31
0.0
  0
LINE
  5
3A21
330
1F
100
AcDbEntity
  8
HATCH
  6
Continuous
100
AcDbLine
 10
1554.982655436317
 20
359.9999999999999
 30
0.0
 11
1589.982655436317
 21
395.0000000000003
 31
0.0
  0
LINE
  5
3A22
330
1F
100
AcDbEntity
  8
HATCH
  6
Continuous
100
AcDbLine
 10
1568.453039617921
 20
360.0
 30
0.0
 11
1603.453039617921
 21
395.0000000000002
 31
0.0
  0
LINE
  5
3A23
330
1F
100
AcDbEntity
  8
HATCH
  6
Continuous
100
AcDbLine
 10
1581.923423799525
 20
359.9999999999996
 30
0.0
 11
1616.923423799525
 21
395.0000000000003
 31
0.0
  0
LINE
  5
3A24
330
1F
100
AcDbEntity
  8
HATCH
  6
Continuous
100
AcDbLine
 10
1595.393807981128
 20
359.9999999999999
 30
0.0
 11
1630.393807981129
 21
395.0000000000003
 31
0.0
  0
LINE
  5
3A25
330
1F
100
AcDbEntity
  8
HATCH
  6
Continuous
100
AcDbLine
 10
1608.864192162732
 20
359.9999999999998
 30
0.0
 11
1643.864192162732
 21
395.0000000000004
 31
0.0
  0
LINE
  5
3A26
330
1F
100
AcDbEntity
  8
HATCH
  6
Continuous
100
AcDbLine
 10
1622.334576344336
 20
359.9999999999996
 30
0.0
 11
1657.334576344336
 21
395.0000000000003
 31
0.0
  0
LINE
  5
3A27
330
1F
100
AcDbEntity
  8
HATCH
  6
Continuous
100
AcDbLine
 10
1635.80496052594
 20
360.0
 30
0.0
 11
1670.80496052594
 21
395.0000000000002
 31
0.0
  0
LINE
  5
3A28
330
1F
100
AcDbEntity
  8
HATCH
  6
Continuous
100
AcDbLine
 10
1649.275344707543
 20
359.9999999999996
 30
0.0
 11
1684.275344707543
 21
395.0000000000003
 31
0.0
  0
LINE
  5
3A29
330
1F
100
AcDbEntity
  8
HATCH
  6
Continuous
100
AcDbLine
 10
1662.745728889147
 20
359.9999999999999
 30
0.0
 11
1697.745728889147
 21
395.0000000000003
 31
0.0
  0
LINE
  5
3A2A
330
1F
100
AcDbEntity
  8
HATCH
  6
Continuous
100
AcDbLine
 10
1676.216113070751
 20
359.9999999999998
 30
0.0
 11
1711.216113070751
 21
395.0000000000002
 31
0.0
  0
LINE
  5
3A2B
330
1F
100
AcDbEntity
  8
HATCH
  6
Continuous
100
AcDbLine
 10
1689.686497252354
 20
359.9999999999996
 30
0.0
 11
1724.686497252355
 21
395.0000000000003
 31
0.0
  0
LINE
  5
3A2C
330
1F
100
AcDbEntity
  8
HATCH
  6
Continuous
100
AcDbLine
 10
1703.156881433958
 20
359.9999999999996
 30
0.0
 11
1738.156881433958
 21
395.0000000000002
 31
0.0
  0
LINE
  5
3A2D
330
1F
100
AcDbEntity
  8
HATCH
  6
Continuous
100
AcDbLine
 10
1716.627265615562
 20
359.9999999999996
 30
0.0
 11
1751.627265615562
 21
395.0000000000001
 31
0.0
  0
LINE
  5
3A2E
330
1F
100
AcDbEntity
  8
HATCH
  6
Continuous
100
AcDbLine
 10
1730.097649797166
 20
359.9999999999999
 30
0.0
 11
1765.097649797166
 21
395.0000000000003
 31
0.0
  0
LINE
  5
3A2F
330
1F
100
AcDbEntity
  8
HATCH
  6
Continuous
100
AcDbLine
 10
1743.568033978769
 20
359.9999999999996
 30
0.0
 11
1778.56803397877
 21
395.0000000000002
 31
0.0
  0
LINE
  5
3A30
330
1F
100
AcDbEntity
  8
HATCH
  6
Continuous
100
AcDbLine
 10
1757.038418160373
 20
359.9999999999996
 30
0.0
 11
1792.038418160373
 21
395.0000000000001
 31
0.0
  0
LINE
  5
3A31
330
1F
100
AcDbEntity
  8
HATCH
  6
Continuous
100
AcDbLine
 10
1770.508802341976
 20
359.9999999999996
 30
0.0
 11
1805.508802341977
 21
395.0000000000002
 31
0.0
  0
LINE
  5
3A32
330
1F
100
AcDbEntity
  8
HATCH
  6
Continuous
100
AcDbLine
 10
1783.979186523581
 20
359.9999999999998
 30
0.0
 11
1818.979186523581
 21
395.0000000000002
 31
0.0
  0
LINE
  5
3A33
330
1F
100
AcDbEntity
  8
HATCH
  6
Continuous
100
AcDbLine
 10
1797.449570705184
 20
359.9999999999999
 30
0.0
 11
1832.449570705185
 21
395.0000000000001
 31
0.0
  0
LINE
  5
3A34
330
1F
100
AcDbEntity
  8
HATCH
  6
Continuous
100
AcDbLine
 10
1810.919954886788
 20
359.9999999999996
 30
0.0
 11
1845.919954886788
 21
395.0000000000002
 31
0.0
  0
LINE
  5
3A35
330
1F
100
AcDbEntity
  8
HATCH
  6
Continuous
100
AcDbLine
 10
1824.390339068392
 20
359.9999999999996
 30
0.0
 11
1859.390339068392
 21
395.0000000000001
 31
0.0
  0
LINE
  5
3A36
330
1F
100
AcDbEntity
  8
HATCH
  6
Continuous
100
AcDbLine
 10
1837.860723249995
 20
359.9999999999996
 30
0.0
 11
1872.860723249996
 21
395.0
 31
0.0
  0
LINE
  5
3A37
330
1F
100
AcDbEntity
  8
HATCH
  6
Continuous
100
AcDbLine
 10
1851.331107431599
 20
359.9999999999998
 30
0.0
 11
1886.331107431599
 21
395.0000000000002
 31
0.0
  0
LINE
  5
3A38
330
1F
100
AcDbEntity
  8
HATCH
  6
Continuous
100
AcDbLine
 10
1864.801491613202
 20
359.9999999999994
 30
0.0
 11
1899.801491613203
 21
395.0000000000003
 31
0.0
  0
LINE
  5
3A39
330
1F
100
AcDbEntity
  8
HATCH
  6
Continuous
100
AcDbLine
 10
1878.271875794806
 20
359.9999999999996
 30
0.0
 11
1913.271875794807
 21
395.0000000000002
 31
0.0
  0
LINE
  5
3A3A
330
1F
100
AcDbEntity
  8
HATCH
  6
Continuous
100
AcDbLine
 10
1891.74225997641
 20
359.9999999999996
 30
0.0
 11
1926.742259976411
 21
395.0000000000001
 31
0.0
  0
LINE
  5
3A3B
330
1F
100
AcDbEntity
  8
HATCH
  6
Continuous
100
AcDbLine
 10
1905.212644158014
 20
359.9999999999993
 30
0.0
 11
1940.212644158014
 21
395.0
 31
0.0
  0
LINE
  5
3A3C
330
1F
100
AcDbEntity
  8
HATCH
  6
Continuous
100
AcDbLine
 10
1918.683028339617
 20
359.9999999999998
 30
0.0
 11
1953.683028339618
 21
395.0
 31
0.0
  0
LINE
  5
3A3D
330
1F
100
AcDbEntity
  8
HATCH
  6
Continuous
100
AcDbLine
 10
1932.153412521221
 20
359.9999999999994
 30
0.0
 11
1967.153412521222
 21
395.0000000000003
 31
0.0
  0
LINE
  5
3A3E
330
1F
100
AcDbEntity
  8
HATCH
  6
Continuous
100
AcDbLine
 10
1945.623796702825
 20
359.9999999999996
 30
0.0
 11
1980.623796702826
 21
395.0000000000002
 31
0.0
  0
LINE
  5
3A3F
330
1F
100
AcDbEntity
  8
HATCH
  6
Continuous
100
AcDbLine
 10
1959.094180884429
 20
359.9999999999996
 30
0.0
 11
1994.094180884429
 21
395.0000000000001
 31
0.0
  0
LINE
  5
3A40
330
1F
100
AcDbEntity
  8
HATCH
  6
Continuous
100
AcDbLine
 10
1972.564565066032
 20
359.9999999999993
 30
0.0
 11
2007.564565066033
 21
395.0
 31
0.0
  0
LINE
  5
3A41
330
1F
100
AcDbEntity
  8
HATCH
  6
Continuous
100
AcDbLine
 10
1986.034949247636
 20
359.9999999999996
 30
0.0
 11
2021.034949247637
 21
395.0
 31
0.0
  0
LINE
  5
3A42
330
1F
100
AcDbEntity
  8
HATCH
  6
Continuous
100
AcDbLine
 10
1999.50533342924
 20
359.9999999999994
 30
0.0
 11
2034.50533342924
 21
395.0000000000003
 31
0.0
  0
LINE
  5
3A43
330
1F
100
AcDbEntity
  8
HATCH
  6
Continuous
100
AcDbLine
 10
2012.975717610844
 20
359.9999999999996
 30
0.0
 11
2047.975717610845
 21
395.0000000000002
 31
0.0
  0
LINE
  5
3A44
330
1F
100
AcDbEntity
  8
HATCH
  6
Continuous
100
AcDbLine
 10
2026.446101792447
 20
359.9999999999992
 30
0.0
 11
2061.446101792448
 21
395.0000000000001
 31
0.0
  0
LINE
  5
3A45
330
1F
100
AcDbEntity
  8
HATCH
  6
Continuous
100
AcDbLine
 10
2039.916485974051
 20
359.9999999999994
 30
0.0
 11
2074.916485974052
 21
395.0000000000001
 31
0.0
  0
LINE
  5
3A46
330
1F
100
AcDbEntity
  8
HATCH
  6
Continuous
100
AcDbLine
 10
2053.386870155655
 20
359.9999999999996
 30
0.0
 11
2088.386870155656
 21
395.0000000000004
 31
0.0
  0
LINE
  5
3A47
330
1F
100
AcDbEntity
  8
HATCH
  6
Continuous
100
AcDbLine
 10
2066.857254337258
 20
359.9999999999992
 30
0.0
 11
2101.857254337259
 21
395.0000000000003
 31
0.0
  0
LINE
  5
3A48
330
1F
100
AcDbEntity
  8
HATCH
  6
Continuous
100
AcDbLine
 10
2080.327638518862
 20
359.9999999999993
 30
0.0
 11
2115.327638518863
 21
395.0000000000002
 31
0.0
  0
LINE
  5
3A49
330
1F
100
AcDbEntity
  8
HATCH
  6
Continuous
100
AcDbLine
 10
2093.798022700466
 20
359.9999999999992
 30
0.0
 11
2128.798022700467
 21
395.0000000000001
 31
0.0
  0
LINE
  5
3A4A
330
1F
100
AcDbEntity
  8
HATCH
  6
Continuous
100
AcDbLine
 10
2107.26840688207
 20
359.9999999999994
 30
0.0
 11
2142.26840688207
 21
395.0000000000001
 31
0.0
  0
LINE
  5
3A4B
330
1F
100
AcDbEntity
  8
HATCH
  6
Continuous
100
AcDbLine
 10
2120.738791063674
 20
359.9999999999996
 30
0.0
 11
2155.738791063674
 21
395.0000000000004
 31
0.0
  0
LINE
  5
3A4C
330
1F
100
AcDbEntity
  8
HATCH
  6
Continuous
100
AcDbLine
 10
2134.209175245277
 20
359.9999999999992
 30
0.0
 11
2169.209175245278
 21
395.0000000000003
 31
0.0
  0
LINE
  5
3A4D
330
1F
100
AcDbEntity
  8
HATCH
  6
Continuous
100
AcDbLine
 10
2147.679559426881
 20
359.9999999999993
 30
0.0
 11
2182.679559426881
 21
395.0000000000002
 31
0.0
  0
LINE
  5
3A4E
330
1F
100
AcDbEntity
  8
HATCH
  6
Continuous
100
AcDbLine
 10
2161.149943608484
 20
359.999999999999
 30
0.0
 11
2196.149943608486
 21
395.0000000000001
 31
0.0
  0
LINE
  5
3A4F
330
1F
100
AcDbEntity
  8
HATCH
  6
Continuous
100
AcDbLine
 10
2174.620327790088
 20
359.9999999999994
 30
0.0
 11
2209.620327790089
 21
395.0000000000001
 31
0.0
  0
LINE
  5
3A50
330
1F
100
AcDbEntity
  8
HATCH
  6
Continuous
100
AcDbLine
 10
2188.090711971693
 20
359.9999999999996
 30
0.0
 11
2223.090711971693
 21
395.0000000000004
 31
0.0
  0
LINE
  5
3A51
330
1F
100
AcDbEntity
  8
HATCH
  6
Continuous
100
AcDbLine
 10
2201.561096153296
 20
359.9999999999992
 30
0.0
 11
2236.561096153296
 21
395.0000000000003
 31
0.0
  0
LINE
  5
3A52
330
1F
100
AcDbEntity
  8
HATCH
  6
Continuous
100
AcDbLine
 10
2215.0314803349
 20
359.9999999999993
 30
0.0
 11
2250.0314803349
 21
395.0000000000002
 31
0.0
  0
LINE
  5
3A53
330
1F
100
AcDbEntity
  8
HATCH
  6
Continuous
100
AcDbLine
 10
2228.501864516503
 20
359.999999999999
 30
0.0
 11
2263.501864516504
 21
395.0000000000001
 31
0.0
  0
LINE
  5
3A54
330
1F
100
AcDbEntity
  8
HATCH
  6
Continuous
100
AcDbLine
 10
2241.972248698107
 20
359.9999999999992
 30
0.0
 11
2276.972248698108
 21
395.0000000000001
 31
0.0
  0
LINE
  5
3A55
330
1F
100
AcDbEntity
  8
HATCH
  6
Continuous
100
AcDbLine
 10
2255.44263287971
 20
359.9999999999991
 30
0.0
 11
2280.000000000001
 21
384.5573671202897
 31
0.0
  0
LINE
  5
3A56
330
1F
100
AcDbEntity
  8
HATCH
  6
Continuous
100
AcDbLine
 10
2268.913017061314
 20
359.9999999999992
 30
0.0
 11
2280.000000000001
 21
371.086982938686
 31
0.0
  0
LINE
  5
3A57
330
1F
100
AcDbEntity
  8
HATCH
  6
Continuous
100
AcDbLine
 10
989.3903390683917
 20
295.0000000000001
 30
0.0
 11
980.0000000000004
 21
304.3903390683914
 31
0.0
  0
LINE
  5
3A58
330
1F
100
AcDbEntity
  8
HATCH
  6
Continuous
100
AcDbLine
 10
1002.860723249995
 20
295.0000000000001
 30
0.0
 11
980.0000000000004
 21
317.8607232499951
 31
0.0
  0
LINE
  5
3A59
330
1F
100
AcDbEntity
  8
HATCH
  6
Continuous
100
AcDbLine
 10
1015.0
 20
296.331107431599
 30
0.0
 11
980.0000000000004
 21
331.3311074315989
 31
0.0
  0
LINE
  5
3A5A
330
1F
100
AcDbEntity
  8
HATCH
  6
Continuous
100
AcDbLine
 10
1015.0
 20
309.8014916132026
 30
0.0
 11
980.0000000000004
 21
344.8014916132025
 31
0.0
  0
LINE
  5
3A5B
330
1F
100
AcDbEntity
  8
HATCH
  6
Continuous
100
AcDbLine
 10
1015.0
 20
323.2718757948064
 30
0.0
 11
980.0000000000004
 21
358.2718757948063
 31
0.0
  0
LINE
  5
3A5C
330
1F
100
AcDbEntity
  8
HATCH
  6
Continuous
100
AcDbLine
 10
1015.0
 20
336.7422599764101
 30
0.0
 11
980.0000000000004
 21
371.7422599764101
 31
0.0
  0
LINE
  5
3A5D
330
1F
100
AcDbEntity
  8
HATCH
  6
Continuous
100
AcDbLine
 10
1015.0
 20
350.2126441580139
 30
0.0
 11
980.0000000000004
 21
385.2126441580139
 31
0.0
  0
LINE
  5
3A5E
330
1F
100
AcDbEntity
  8
HATCH
  6
Continuous
100
AcDbLine
 10
1018.683028339618
 20
360.0
 30
0.0
 11
983.6830283396189
 21
394.999999999999
 31
0.0
  0
LINE
  5
3A5F
330
1F
100
AcDbEntity
  8
HATCH
  6
Continuous
100
AcDbLine
 10
1032.153412521221
 20
359.9999999999999
 30
0.0
 11
997.1534125212226
 21
394.999999999999
 31
0.0
  0
LINE
  5
3A60
330
1F
100
AcDbEntity
  8
HATCH
  6
Continuous
100
AcDbLine
 10
1045.623796702825
 20
359.9999999999998
 30
0.0
 11
1010.623796702826
 21
394.9999999999989
 31
0.0
  0
LINE
  5
3A61
330
1F
100
AcDbEntity
  8
HATCH
  6
Continuous
100
AcDbLine
 10
1059.094180884429
 20
359.9999999999999
 30
0.0
 11
1024.09418088443
 21
394.999999999999
 31
0.0
  0
LINE
  5
3A62
330
1F
100
AcDbEntity
  8
HATCH
  6
Continuous
100
AcDbLine
 10
1072.564565066033
 20
359.9999999999998
 30
0.0
 11
1037.564565066034
 21
394.9999999999991
 31
0.0
  0
LINE
  5
3A63
330
1F
100
AcDbEntity
  8
HATCH
  6
Continuous
100
AcDbLine
 10
1086.034949247636
 20
359.9999999999998
 30
0.0
 11
1051.034949247637
 21
394.9999999999989
 31
0.0
  0
LINE
  5
3A64
330
1F
100
AcDbEntity
  8
HATCH
  6
Continuous
100
AcDbLine
 10
1099.50533342924
 20
359.9999999999999
 30
0.0
 11
1064.505333429241
 21
394.999999999999
 31
0.0
  0
LINE
  5
3A65
330
1F
100
AcDbEntity
  8
HATCH
  6
Continuous
100
AcDbLine
 10
1112.975717610844
 20
359.9999999999998
 30
0.0
 11
1077.975717610845
 21
394.9999999999991
 31
0.0
  0
LINE
  5
3A66
330
1F
100
AcDbEntity
  8
HATCH
  6
Continuous
100
AcDbLine
 10
1126.446101792448
 20
359.9999999999999
 30
0.0
 11
1091.446101792448
 21
394.999999999999
 31
0.0
  0
LINE
  5
3A67
330
1F
100
AcDbEntity
  8
HATCH
  6
Continuous
100
AcDbLine
 10
1139.916485974052
 20
359.9999999999998
 30
0.0
 11
1104.916485974052
 21
394.9999999999992
 31
0.0
  0
LINE
  5
3A68
330
1F
100
AcDbEntity
  8
HATCH
  6
Continuous
100
AcDbLine
 10
1153.386870155655
 20
359.9999999999998
 30
0.0
 11
1118.386870155656
 21
394.9999999999991
 31
0.0
  0
LINE
  5
3A69
330
1F
100
AcDbEntity
  8
HATCH
  6
Continuous
100
AcDbLine
 10
1166.857254337259
 20
359.9999999999997
 30
0.0
 11
1131.85725433726
 21
394.999999999999
 31
0.0
  0
LINE
  5
3A6A
330
1F
100
AcDbEntity
  8
HATCH
  6
Continuous
100
AcDbLine
 10
1180.327638518863
 20
359.9999999999998
 30
0.0
 11
1145.327638518863
 21
394.9999999999992
 31
0.0
  0
LINE
  5
3A6B
330
1F
100
AcDbEntity
  8
HATCH
  6
Continuous
100
AcDbLine
 10
1193.798022700466
 20
359.9999999999999
 30
0.0
 11
1158.798022700467
 21
394.9999999999992
 31
0.0
  0
LINE
  5
3A6C
330
1F
100
AcDbEntity
  8
HATCH
  6
Continuous
100
AcDbLine
 10
1207.26840688207
 20
359.9999999999997
 30
0.0
 11
1172.268406882071
 21
394.999999999999
 31
0.0
  0
LINE
  5
3A6D
330
1F
100
AcDbEntity
  8
HATCH
  6
Continuous
100
AcDbLine
 10
1220.738791063674
 20
359.9999999999998
 30
0.0
 11
1185.738791063674
 21
394.9999999999991
 31
0.0
  0
LINE
  5
3A6E
330
1F
100
AcDbEntity
  8
HATCH
  6
Continuous
100
AcDbLine
 10
1234.209175245278
 20
359.9999999999997
 30
0.0
 11
1199.209175245278
 21
394.9999999999992
 31
0.0
  0
LINE
  5
3A6F
330
1F
100
AcDbEntity
  8
HATCH
  6
Continuous
100
AcDbLine
 10
1247.679559426881
 20
359.9999999999998
 30
0.0
 11
1212.679559426882
 21
394.9999999999992
 31
0.0
  0
LINE
  5
3A70
330
1F
100
AcDbEntity
  8
HATCH
  6
Continuous
100
AcDbLine
 10
1261.149943608485
 20
359.9999999999999
 30
0.0
 11
1226.149943608486
 21
394.9999999999992
 31
0.0
  0
LINE
  5
3A71
330
1F
100
AcDbEntity
  8
HATCH
  6
Continuous
100
AcDbLine
 10
1274.620327790089
 20
359.9999999999997
 30
0.0
 11
1239.620327790089
 21
394.9999999999992
 31
0.0
  0
LINE
  5
3A72
330
1F
100
AcDbEntity
  8
HATCH
  6
Continuous
100
AcDbLine
 10
1288.090711971692
 20
359.9999999999998
 30
0.0
 11
1253.090711971693
 21
394.9999999999992
 31
0.0
  0
LINE
  5
3A73
330
1F
100
AcDbEntity
  8
HATCH
  6
Continuous
100
AcDbLine
 10
1301.561096153296
 20
359.9999999999997
 30
0.0
 11
1266.561096153297
 21
394.9999999999993
 31
0.0
  0
LINE
  5
3A74
330
1F
100
AcDbEntity
  8
HATCH
  6
Continuous
100
AcDbLine
 10
1315.0314803349
 20
359.9999999999998
 30
0.0
 11
1280.031480334901
 21
394.9999999999992
 31
0.0
  0
LINE
  5
3A75
330
1F
100
AcDbEntity
  8
HATCH
  6
Continuous
100
AcDbLine
 10
1328.501864516504
 20
359.9999999999998
 30
0.0
 11
1293.501864516504
 21
394.9999999999992
 31
0.0
  0
LINE
  5
3A76
330
1F
100
AcDbEntity
  8
HATCH
  6
Continuous
100
AcDbLine
 10
1341.972248698107
 20
359.9999999999997
 30
0.0
 11
1306.972248698108
 21
394.9999999999993
 31
0.0
  0
LINE
  5
3A77
330
1F
100
AcDbEntity
  8
HATCH
  6
Continuous
100
AcDbLine
 10
1355.442632879711
 20
359.9999999999998
 30
0.0
 11
1320.442632879712
 21
394.9999999999992
 31
0.0
  0
LINE
  5
3A78
330
1F
100
AcDbEntity
  8
HATCH
  6
Continuous
100
AcDbLine
 10
1368.913017061315
 20
359.9999999999997
 30
0.0
 11
1333.913017061315
 21
394.9999999999993
 31
0.0
  0
LINE
  5
3A79
330
1F
100
AcDbEntity
  8
HATCH
  6
Continuous
100
AcDbLine
 10
1382.383401242919
 20
359.9999999999998
 30
0.0
 11
1347.383401242919
 21
394.9999999999993
 31
0.0
  0
LINE
  5
3A7A
330
1F
100
AcDbEntity
  8
HATCH
  6
Continuous
100
AcDbLine
 10
1395.853785424522
 20
359.9999999999998
 30
0.0
 11
1360.853785424523
 21
394.9999999999992
 31
0.0
  0
LINE
  5
3A7B
330
1F
100
AcDbEntity
  8
HATCH
  6
Continuous
100
AcDbLine
 10
1409.324169606126
 20
359.9999999999998
 30
0.0
 11
1374.324169606127
 21
394.9999999999993
 31
0.0
  0
LINE
  5
3A7C
330
1F
100
AcDbEntity
  8
HATCH
  6
Continuous
100
AcDbLine
 10
1422.79455378773
 20
360.0
 30
0.0
 11
1387.79455378773
 21
394.9999999999993
 31
0.0
  0
LINE
  5
3A7D
330
1F
100
AcDbEntity
  8
HATCH
  6
Continuous
100
AcDbLine
 10
1436.264937969333
 20
359.9999999999999
 30
0.0
 11
1401.264937969334
 21
394.9999999999993
 31
0.0
  0
LINE
  5
3A7E
330
1F
100
AcDbEntity
  8
HATCH
  6
Continuous
100
AcDbLine
 10
1449.735322150937
 20
359.9999999999998
 30
0.0
 11
1414.735322150938
 21
394.9999999999993
 31
0.0
  0
LINE
  5
3A7F
330
1F
100
AcDbEntity
  8
HATCH
  6
Continuous
100
AcDbLine
 10
1463.205706332541
 20
359.9999999999999
 30
0.0
 11
1428.205706332541
 21
394.9999999999993
 31
0.0
  0
LINE
  5
3A80
330
1F
100
AcDbEntity
  8
HATCH
  6
Continuous
100
AcDbLine
 10
1476.676090514145
 20
359.9999999999998
 30
0.0
 11
1441.676090514145
 21
394.9999999999994
 31
0.0
  0
LINE
  5
3A81
330
1F
100
AcDbEntity
  8
HATCH
  6
Continuous
100
AcDbLine
 10
1490.146474695748
 20
359.9999999999999
 30
0.0
 11
1455.146474695749
 21
394.9999999999993
 31
0.0
  0
LINE
  5
3A82
330
1F
100
AcDbEntity
  8
HATCH
  6
Continuous
100
AcDbLine
 10
1503.616858877352
 20
360.0
 30
0.0
 11
1468.616858877352
 21
394.9999999999994
 31
0.0
  0
LINE
  5
3A83
330
1F
100
AcDbEntity
  8
HATCH
  6
Continuous
100
AcDbLine
 10
1517.087243058956
 20
359.9999999999999
 30
0.0
 11
1482.087243058956
 21
394.9999999999993
 31
0.0
  0
LINE
  5
3A84
330
1F
100
AcDbEntity
  8
HATCH
  6
Continuous
100
AcDbLine
 10
1530.55762724056
 20
359.9999999999999
 30
0.0
 11
1495.55762724056
 21
394.9999999999994
 31
0.0
  0
LINE
  5
3A85
330
1F
100
AcDbEntity
  8
HATCH
  6
Continuous
100
AcDbLine
 10
1544.028011422163
 20
360.0
 30
0.0
 11
1509.028011422164
 21
394.9999999999994
 31
0.0
  0
LINE
  5
3A86
330
1F
100
AcDbEntity
  8
HATCH
  6
Continuous
100
AcDbLine
 10
1557.498395603767
 20
360.0000000000001
 30
0.0
 11
1522.498395603768
 21
394.9999999999993
 31
0.0
  0
LINE
  5
3A87
330
1F
100
AcDbEntity
  8
HATCH
  6
Continuous
100
AcDbLine
 10
1570.968779785371
 20
360.0
 30
0.0
 11
1535.968779785371
 21
394.9999999999994
 31
0.0
  0
LINE
  5
3A88
330
1F
100
AcDbEntity
  8
HATCH
  6
Continuous
100
AcDbLine
 10
1584.439163966974
 20
360.0000000000001
 30
0.0
 11
1549.439163966975
 21
394.9999999999994
 31
0.0
  0
LINE
  5
3A89
330
1F
100
AcDbEntity
  8
HATCH
  6
Continuous
100
AcDbLine
 10
1597.909548148578
 20
360.0000000000004
 30
0.0
 11
1562.909548148579
 21
394.9999999999996
 31
0.0
  0
LINE
  5
3A8A
330
1F
100
AcDbEntity
  8
HATCH
  6
Continuous
100
AcDbLine
 10
1611.379932330182
 20
360.0
 30
0.0
 11
1576.379932330182
 21
394.9999999999996
 31
0.0
  0
LINE
  5
3A8B
330
1F
100
AcDbEntity
  8
HATCH
  6
Continuous
100
AcDbLine
 10
1624.850316511785
 20
360.0
 30
0.0
 11
1589.850316511786
 21
394.9999999999994
 31
0.0
  0
LINE
  5
3A8C
330
1F
100
AcDbEntity
  8
HATCH
  6
Continuous
100
AcDbLine
 10
1638.320700693389
 20
360.0000000000002
 30
0.0
 11
1603.32070069339
 21
394.9999999999994
 31
0.0
  0
LINE
  5
3A8D
330
1F
100
AcDbEntity
  8
HATCH
  6
Continuous
100
AcDbLine
 10
1651.791084874993
 20
360.0000000000001
 30
0.0
 11
1616.791084874994
 21
394.9999999999994
 31
0.0
  0
LINE
  5
3A8E
330
1F
100
AcDbEntity
  8
HATCH
  6
Continuous
100
AcDbLine
 10
1665.261469056596
 20
360.0000000000001
 30
0.0
 11
1630.261469056597
 21
394.9999999999994
 31
0.0
  0
LINE
  5
3A8F
330
1F
100
AcDbEntity
  8
HATCH
  6
Continuous
100
AcDbLine
 10
1678.7318532382
 20
360.0000000000001
 30
0.0
 11
1643.731853238201
 21
394.9999999999996
 31
0.0
  0
LINE
  5
3A90
330
1F
100
AcDbEntity
  8
HATCH
  6
Continuous
100
AcDbLine
 10
1692.202237419804
 20
360.0
 30
0.0
 11
1657.202237419804
 21
394.9999999999996
 31
0.0
  0
LINE
  5
3A91
330
1F
100
AcDbEntity
  8
HATCH
  6
Continuous
100
AcDbLine
 10
1705.672621601407
 20
360.0000000000002
 30
0.0
 11
1670.672621601408
 21
394.9999999999997
 31
0.0
  0
LINE
  5
3A92
330
1F
100
AcDbEntity
  8
HATCH
  6
Continuous
100
AcDbLine
 10
1719.143005783012
 20
360.0000000000001
 30
0.0
 11
1684.143005783012
 21
394.9999999999994
 31
0.0
  0
LINE
  5
3A93
330
1F
100
AcDbEntity
  8
HATCH
  6
Continuous
100
AcDbLine
 10
1732.613389964615
 20
360.0000000000001
 30
0.0
 11
1697.613389964615
 21
394.9999999999994
 31
0.0
  0
LINE
  5
3A94
330
1F
100
AcDbEntity
  8
HATCH
  6
Continuous
100
AcDbLine
 10
1746.083774146219
 20
360.0000000000004
 30
0.0
 11
1711.08377414622
 21
394.9999999999996
 31
0.0
  0
LINE
  5
3A95
330
1F
100
AcDbEntity
  8
HATCH
  6
Continuous
100
AcDbLine
 10
1759.554158327822
 20
360.0000000000001
 30
0.0
 11
1724.554158327823
 21
394.9999999999996
 31
0.0
  0
LINE
  5
3A96
330
1F
100
AcDbEntity
  8
HATCH
  6
Continuous
100
AcDbLine
 10
1773.024542509426
 20
360.0000000000002
 30
0.0
 11
1738.024542509427
 21
394.9999999999998
 31
0.0
  0
LINE
  5
3A97
330
1F
100
AcDbEntity
  8
HATCH
  6
Continuous
100
AcDbLine
 10
1786.49492669103
 20
360.0000000000002
 30
0.0
 11
1751.494926691031
 21
394.9999999999994
 31
0.0
  0
LINE
  5
3A98
330
1F
100
AcDbEntity
  8
HATCH
  6
Continuous
100
AcDbLine
 10
1799.965310872634
 20
360.0000000000001
 30
0.0
 11
1764.965310872634
 21
394.9999999999994
 31
0.0
  0
LINE
  5
3A99
330
1F
100
AcDbEntity
  8
HATCH
  6
Continuous
100
AcDbLine
 10
1813.435695054237
 20
360.0000000000004
 30
0.0
 11
1778.435695054238
 21
394.9999999999997
 31
0.0
  0
LINE
  5
3A9A
330
1F
100
AcDbEntity
  8
HATCH
  6
Continuous
100
AcDbLine
 10
1826.906079235841
 20
360.0000000000004
 30
0.0
 11
1791.906079235842
 21
394.9999999999996
 31
0.0
  0
LINE
  5
3A9B
330
1F
100
AcDbEntity
  8
HATCH
  6
Continuous
100
AcDbLine
 10
1840.376463417445
 20
360.0000000000004
 30
0.0
 11
1805.376463417445
 21
394.9999999999998
 31
0.0
  0
LINE
  5
3A9C
330
1F
100
AcDbEntity
  8
HATCH
  6
Continuous
100
AcDbLine
 10
1853.846847599049
 20
360.0000000000002
 30
0.0
 11
1818.846847599049
 21
394.9999999999997
 31
0.0
  0
LINE
  5
3A9D
330
1F
100
AcDbEntity
  8
HATCH
  6
Continuous
100
AcDbLine
 10
1867.317231780652
 20
360.0000000000004
 30
0.0
 11
1832.317231780653
 21
394.9999999999994
 31
0.0
  0
LINE
  5
3A9E
330
1F
100
AcDbEntity
  8
HATCH
  6
Continuous
100
AcDbLine
 10
1880.787615962256
 20
360.0000000000004
 30
0.0
 11
1845.787615962257
 21
394.9999999999997
 31
0.0
  0
LINE
  5
3A9F
330
1F
100
AcDbEntity
  8
HATCH
  6
Continuous
100
AcDbLine
 10
1894.25800014386
 20
360.0000000000002
 30
0.0
 11
1859.25800014386
 21
394.9999999999997
 31
0.0
  0
LINE
  5
3AA0
330
1F
100
AcDbEntity
  8
HATCH
  6
Continuous
100
AcDbLine
 10
1907.728384325463
 20
360.0000000000006
 30
0.0
 11
1872.728384325464
 21
394.9999999999998
 31
0.0
  0
LINE
  5
3AA1
330
1F
100
AcDbEntity
  8
HATCH
  6
Continuous
100
AcDbLine
 10
1921.198768507067
 20
360.0000000000004
 30
0.0
 11
1886.198768507068
 21
394.9999999999998
 31
0.0
  0
LINE
  5
3AA2
330
1F
100
AcDbEntity
  8
HATCH
  6
Continuous
100
AcDbLine
 10
1934.669152688671
 20
360.0000000000004
 30
0.0
 11
1899.669152688671
 21
394.9999999999997
 31
0.0
  0
LINE
  5
3AA3
330
1F
100
AcDbEntity
  8
HATCH
  6
Continuous
100
AcDbLine
 10
1948.139536870274
 20
360.0000000000004
 30
0.0
 11
1913.139536870275
 21
394.9999999999997
 31
0.0
  0
LINE
  5
3AA4
330
1F
100
AcDbEntity
  8
HATCH
  6
Continuous
100
AcDbLine
 10
1961.609921051879
 20
360.0000000000002
 30
0.0
 11
1926.609921051879
 21
394.9999999999997
 31
0.0
  0
LINE
  5
3AA5
330
1F
100
AcDbEntity
  8
HATCH
  6
Continuous
100
AcDbLine
 10
1975.080305233482
 20
360.0000000000004
 30
0.0
 11
1940.080305233482
 21
394.9999999999997
 31
0.0
  0
LINE
  5
3AA6
330
1F
100
AcDbEntity
  8
HATCH
  6
Continuous
100
AcDbLine
 10
1988.550689415086
 20
360.0000000000004
 30
0.0
 11
1953.550689415086
 21
394.9999999999998
 31
0.0
  0
LINE
  5
3AA7
330
1F
100
AcDbEntity
  8
HATCH
  6
Continuous
100
AcDbLine
 10
2002.02107359669
 20
360.0000000000004
 30
0.0
 11
1967.02107359669
 21
394.9999999999998
 31
0.0
  0
LINE
  5
3AA8
330
1F
100
AcDbEntity
  8
HATCH
  6
Continuous
100
AcDbLine
 10
2015.491457778293
 20
360.0000000000004
 30
0.0
 11
1980.491457778294
 21
394.9999999999999
 31
0.0
  0
LINE
  5
3AA9
330
1F
100
AcDbEntity
  8
HATCH
  6
Continuous
100
AcDbLine
 10
2028.961841959897
 20
360.0000000000006
 30
0.0
 11
1993.961841959898
 21
394.9999999999997
 31
0.0
  0
LINE
  5
3AAA
330
1F
100
AcDbEntity
  8
HATCH
  6
Continuous
100
AcDbLine
 10
2042.4322261415
 20
360.0000000000004
 30
0.0
 11
2007.432226141501
 21
394.9999999999997
 31
0.0
  0
LINE
  5
3AAB
330
1F
100
AcDbEntity
  8
HATCH
  6
Continuous
100
AcDbLine
 10
2055.902610323105
 20
360.0000000000004
 30
0.0
 11
2020.902610323105
 21
394.9999999999998
 31
0.0
  0
LINE
  5
3AAC
330
1F
100
AcDbEntity
  8
HATCH
  6
Continuous
100
AcDbLine
 10
2069.372994504708
 20
360.0000000000004
 30
0.0
 11
2034.372994504709
 21
394.9999999999994
 31
0.0
  0
LINE
  5
3AAD
330
1F
100
AcDbEntity
  8
HATCH
  6
Continuous
100
AcDbLine
 10
2082.843378686312
 20
360.0000000000004
 30
0.0
 11
2047.843378686313
 21
394.9999999999997
 31
0.0
  0
LINE
  5
3AAE
330
1F
100
AcDbEntity
  8
HATCH
  6
Continuous
100
AcDbLine
 10
2096.313762867916
 20
360.0000000000006
 30
0.0
 11
2061.313762867917
 21
394.9999999999997
 31
0.0
  0
LINE
  5
3AAF
330
1F
100
AcDbEntity
  8
HATCH
  6
Continuous
100
AcDbLine
 10
2109.784147049519
 20
360.0000000000004
 30
0.0
 11
2074.78414704952
 21
394.9999999999996
 31
0.0
  0
LINE
  5
3AB0
330
1F
100
AcDbEntity
  8
HATCH
  6
Continuous
100
AcDbLine
 10
2123.254531231123
 20
360.0000000000008
 30
0.0
 11
2088.254531231124
 21
394.9999999999998
 31
0.0
  0
LINE
  5
3AB1
330
1F
100
AcDbEntity
  8
HATCH
  6
Continuous
100
AcDbLine
 10
2136.724915412727
 20
360.0000000000004
 30
0.0
 11
2101.724915412728
 21
394.9999999999998
 31
0.0
  0
LINE
  5
3AB2
330
1F
100
AcDbEntity
  8
HATCH
  6
Continuous
100
AcDbLine
 10
2150.19529959433
 20
360.0000000000007
 30
0.0
 11
2115.195299594331
 21
394.9999999999997
 31
0.0
  0
LINE
  5
3AB3
330
1F
100
AcDbEntity
  8
HATCH
  6
Continuous
100
AcDbLine
 10
2163.665683775934
 20
360.0000000000006
 30
0.0
 11
2128.665683775935
 21
394.9999999999997
 31
0.0
  0
LINE
  5
3AB4
330
1F
100
AcDbEntity
  8
HATCH
  6
Continuous
100
AcDbLine
 10
2177.136067957538
 20
360.0000000000004
 30
0.0
 11
2142.136067957538
 21
394.9999999999996
 31
0.0
  0
LINE
  5
3AB5
330
1F
100
AcDbEntity
  8
HATCH
  6
Continuous
100
AcDbLine
 10
2190.606452139142
 20
360.0000000000008
 30
0.0
 11
2155.606452139143
 21
394.9999999999998
 31
0.0
  0
LINE
  5
3AB6
330
1F
100
AcDbEntity
  8
HATCH
  6
Continuous
100
AcDbLine
 10
2204.076836320746
 20
360.0000000000006
 30
0.0
 11
2169.076836320746
 21
394.9999999999994
 31
0.0
  0
LINE
  5
3AB7
330
1F
100
AcDbEntity
  8
HATCH
  6
Continuous
100
AcDbLine
 10
2217.547220502349
 20
360.0000000000007
 30
0.0
 11
2182.54722050235
 21
394.9999999999997
 31
0.0
  0
LINE
  5
3AB8
330
1F
100
AcDbEntity
  8
HATCH
  6
Continuous
100
AcDbLine
 10
2231.017604683953
 20
360.0000000000006
 30
0.0
 11
2196.017604683954
 21
394.9999999999997
 31
0.0
  0
LINE
  5
3AB9
330
1F
100
AcDbEntity
  8
HATCH
  6
Continuous
100
AcDbLine
 10
2244.487988865556
 20
360.0000000000004
 30
0.0
 11
2209.487988865557
 21
394.9999999999996
 31
0.0
  0
LINE
  5
3ABA
330
1F
100
AcDbEntity
  8
HATCH
  6
Continuous
100
AcDbLine
 10
2257.95837304716
 20
360.0000000000008
 30
0.0
 11
2222.958373047161
 21
394.9999999999998
 31
0.0
  0
LINE
  5
3ABB
330
1F
100
AcDbEntity
  8
HATCH
  6
Continuous
100
AcDbLine
 10
2271.428757228764
 20
360.0000000000006
 30
0.0
 11
2236.428757228765
 21
394.9999999999994
 31
0.0
  0
LINE
  5
3ABC
330
1F
100
AcDbEntity
  8
HATCH
  6
Continuous
100
AcDbLine
 10
2280.000000000001
 20
364.8991414103673
 30
0.0
 11
2249.899141410368
 21
394.9999999999994
 31
0.0
  0
LINE
  5
3ABD
330
1F
100
AcDbEntity
  8
HATCH
  6
Continuous
100
AcDbLine
 10
2280.000000000001
 20
378.3695255919712
 30
0.0
 11
2263.369525591973
 21
394.9999999999997
 31
0.0
  0
LINE
  5
3ABE
330
1F
100
AcDbEntity
  8
HATCH
  6
Continuous
100
AcDbLine
 10
2280.000000000001
 20
391.8399097735748
 30
0.0
 11
2276.839909773576
 21
394.9999999999996
 31
0.0
  0
LWPOLYLINE
  5
3ABF
330
1F
100
AcDbEntity
  8
KANAMONO
100
AcDbPolyline
 90
       16
 70
     1
 43
0.0
 10
2020.000000000001
 20
601.5
 10
2020.000000000001
 20
741.3707503932705
 42
0.3348602696008476
 10
2015.068103669703
 20
747.9091132372282
 10
2002.500000000001
 20
751.5
 10
1957.500000000001
 20
751.5
 10
1944.931896330298
 20
747.9091132372282
 42
0.3348602696008476
 10
1940.000000000001
 20
741.3707503932705
 10
1940.000000000001
 20
601.5
 10
1940.800000000001
 20
601.5
 10
1940.800000000001
 20
741.3707503932705
 42
-0.3348602696008326
 10
1945.151673232617
 20
747.1398940791154
 10
1957.612043955712
 20
750.6999999999997
 10
2002.387956044289
 20
750.6999999999997
 10
2014.848326767386
 20
747.1398940791159
 42
-0.3348602696008298
 10
2019.200000000001
 20
741.3707503932705
 10
2019.200000000001
 20
601.5
  0
LWPOLYLINE
  5
3AC0
330
1F
100
AcDbEntity
  8
KANAMONO
100
AcDbPolyline
 90
       16
 70
     1
 43
0.0
 10
1960.000000000001
 20
736.6999999999998
 10
1960.000000000001
 20
746.1999999999997
 42
-0.4142135623730951
 10
1964.500000000001
 20
750.6999999999997
 10
1995.500000000001
 20
750.6999999999997
 42
-0.4142135623730951
 10
2000.000000000001
 20
746.1999999999997
 10
2000.000000000001
 20
736.6999999999998
 10
1999.188000000001
 20
736.6999999999998
 10
1999.188000000001
 20
723.6999999999998
 10
1998.500000000001
 20
723.6999999999998
 10
1998.500000000001
 20
746.1999999999997
 42
0.4142135623731117
 10
1995.500000000001
 20
749.1999999999998
 10
1964.500000000001
 20
749.1999999999998
 42
0.4142135623731784
 10
1961.5
 20
746.1999999999997
 10
1961.500000000001
 20
723.6999999999998
 10
1960.812000000002
 20
723.6999999999998
 10
1960.812000000002
 20
736.6999999999998
  0
LWPOLYLINE
  5
3AC1
330
1F
100
AcDbEntity
  8
KANAMONO
100
AcDbPolyline
 90
        4
 70
     0
 43
0.0
 10
1999.188000000001
 20
736.6999999999998
 10
2000.000000000002
 20
736.4824252557464
 10
2000.000000000001
 20
723.9175747442536
 10
1999.188000000001
 20
723.6999999999998
  0
LINE
  5
3AC2
330
1F
100
AcDbEntity
  8
KANAMONO
370
     5
100
AcDbLine
 10
2000.000000000001
 20
739.4999999999996
 30
0.0
 11
1998.500000000001
 21
739.4999999999996
 31
0.0
  0
LWPOLYLINE
  5
3AC3
330
1F
100
AcDbEntity
  8
KANAMONO
100
AcDbPolyline
 90
        4
 70
     0
 43
0.0
 10
1960.812000000001
 20
736.6999999999998
 10
1960.000000000001
 20
736.4824252557464
 10
1960.000000000001
 20
723.9175747442536
 10
1960.812000000001
 20
723.6999999999998
  0
LINE
  5
3AC4
330
1F
100
AcDbEntity
  8
KANAMONO
370
     5
100
AcDbLine
 10
1961.500000000001
 20
739.4999999999996
 30
0.0
 11
1960.000000000001
 21
739.4999999999996
 31
0.0
  0
LINE
  5
3AC5
330
1F
100
AcDbEntity
  8
KANAMONO
370
     5
100
AcDbLine
 10
1999.808131845709
 20
747.4999999999995
 30
0.0
 11
1998.203701166921
 21
747.4999999999995
 31
0.0
  0
LINE
  5
3AC6
330
1F
100
AcDbEntity
  8
KANAMONO
370
     5
100
AcDbLine
 10
1961.796298833081
 20
747.4999999999995
 30
0.0
 11
1960.191868154293
 21
747.4999999999995
 31
0.0
  0
LWPOLYLINE
  5
3AC7
330
1F
100
AcDbEntity
  8
KANAMONO
100
AcDbPolyline
 90
       12
 70
     1
 43
0.0
 10
2019.000000000001
 20
601.5
 10
2019.000000000001
 20
609.8000000000001
 42
0.4142135623730951
 10
2017.300000000001
 20
611.5
 10
2012.350000000001
 20
611.5
 42
-0.4142135623730951
 10
2012.050000000001
 20
611.8000000000002
 10
2012.050000000001
 20
614.5
 10
2011.350000000001
 20
614.5
 10
2011.350000000001
 20
611.7999999999987
 42
0.4142135623721311
 10
2012.35
 20
610.8000000000002
 10
2017.300000000001
 20
610.7999999999996
 42
-0.4142135623733347
 10
2018.300000000001
 20
609.8000000000001
 10
2018.300000000001
 20
601.5
  0
LWPOLYLINE
  5
3AC8
330
1F
100
AcDbEntity
  8
KANAMONO
100
AcDbPolyline
 90
        4
 70
     1
 43
0.0
 10
2130.000000000001
 20
545.0
 10
2130.000000000001
 20
546.4999999999999
 10
1830.000000000001
 20
546.4999999999999
 10
1830.000000000001
 20
545.0
  0
LINE
  5
3AC9
330
1F
100
AcDbEntity
  8
KANAMONO
  6
DASHED
100
AcDbLine
 10
1960.15
 20
690.6415388154045
 30
0.0
 11
1960.15
 21
546.4999999999999
 31
0.0
  0
LINE
  5
3ACA
330
1F
100
AcDbEntity
  8
KANAMONO
  6
DASHED
100
AcDbLine
 10
1999.850000000001
 20
692.3584611845945
 30
0.0
 11
1999.850000000001
 21
546.4999999999999
 31
0.0
  0
LWPOLYLINE
  5
3ACB
330
1F
100
AcDbEntity
  8
KANAMONO
100
AcDbPolyline
 90
        9
 70
     0
 43
0.0
 10
1999.850000000001
 20
692.3584611845945
 10
1999.850000000001
 20
724.0980762113536
 10
1999.188000000001
 20
725.2446938459647
 10
2000.000000000001
 20
725.2446938459652
 10
2000.000000000001
 20
736.5
 10
2000.688000000001
 20
736.5
 10
2000.688000000001
 20
725.6466176346111
 10
2001.350000000002
 20
724.5
 10
2001.350000000002
 20
546.4999999999999
  0
LWPOLYLINE
  5
3ACC
330
1F
100
AcDbEntity
  8
KANAMONO
100
AcDbPolyline
 90
        9
 70
     0
 43
0.0
 10
1960.15
 20
690.6415388154045
 10
1960.15
 20
724.0980762113536
 10
1960.812000000002
 20
725.2446938459647
 10
1960.000000000001
 20
725.2446938459652
 10
1960.000000000001
 20
736.5
 10
1959.312000000001
 20
736.5
 10
1959.312000000001
 20
725.6466176346111
 10
1958.65
 20
724.5
 10
1958.65
 20
546.4999999999999
  0
LWPOLYLINE
  5
3ACD
330
1F
100
AcDbEntity
  8
KANAMONO
100
AcDbPolyline
 90
        4
 70
     0
 43
0.0
 10
2000.000000000001
 20
736.5
 10
1999.188000000001
 20
736.2824252557461
 10
1999.188000000001
 20
725.4622685902186
 10
2000.000000000001
 20
725.2446938459652
  0
LWPOLYLINE
  5
3ACE
330
1F
100
AcDbEntity
  8
KANAMONO
100
AcDbPolyline
 90
        4
 70
     0
 43
0.0
 10
1960.000000000001
 20
736.5
 10
1960.812000000001
 20
736.2824252557461
 10
1960.812000000001
 20
725.4622685902186
 10
1960.000000000001
 20
725.2446938459652
  0
LWPOLYLINE
  5
3ACF
330
1F
100
AcDbEntity
  8
KANAMONO
100
AcDbPolyline
 90
       12
 70
     1
 43
0.0
 10
1941.000000000001
 20
601.5
 10
1941.000000000001
 20
609.8000000000001
 42
-0.4142135623730951
 10
1942.700000000001
 20
611.5
 10
1947.65
 20
611.5
 42
0.4142135623730951
 10
1947.950000000001
 20
611.8000000000002
 10
1947.950000000001
 20
614.5
 10
1948.65
 20
614.5
 10
1948.65
 20
611.7999999999987
 42
-0.4142135623721311
 10
1947.650000000001
 20
610.8000000000002
 10
1942.700000000001
 20
610.7999999999996
 42
0.4142135623733347
 10
1941.700000000001
 20
609.8000000000001
 10
1941.700000000001
 20
601.5
  0
ELLIPSE
  5
3AD0
330
1F
100
AcDbEntity
  8
KANAMONO
370
     5
100
AcDbEllipse
 10
1989.797958971134
 20
743.5
 30
0.0
 11
-0.000000000000001
 21
-4.0
 31
0.0
210
0.0
220
0.0
230
-1.0
 40
0.8660254037844197
 41
0.0
 42
6.283185307179586
  0
ELLIPSE
  5
3AD1
330
1F
100
AcDbEntity
  8
KANAMONO
370
     5
100
AcDbEllipse
 10
1970.202041028868
 20
743.5
 30
0.0
 11
-0.000000000000001
 21
-4.0
 31
0.0
210
0.0
220
0.0
230
1.0
 40
0.8660254037844197
 41
0.0
 42
6.283185307179586
  0
LINE
  5
3AD2
330
1F
100
AcDbEntity
  8
KANAMONO
370
     5
100
AcDbLine
 10
1961.500000000001
 20
723.6999999999998
 30
0.0
 11
1998.500000000001
 21
723.6999999999998
 31
0.0
  0
LINE
  5
3AD3
330
1F
100
AcDbEntity
  8
WAKU
100
AcDbLine
 10
2760.000000000001
 20
1790.0
 30
0.0
 11
0.0
 21
1790.0
 31
0.0
  0
LINE
  5
3AD4
330
1F
100
AcDbEntity
  8
WAKU
100
AcDbLine
 10
0.0
 20
1790.0
 30
0.0
 11
0.0
 21
1910.0
 31
0.0
  0
LINE
  5
3AD5
330
1F
100
AcDbEntity
  8
WAKU
100
AcDbLine
 10
0.0
 20
1910.0
 30
0.0
 11
2760.000000000001
 21
1910.0
 31
0.0
  0
LINE
  5
3AD6
330
1F
100
AcDbEntity
  8
WAKU
100
AcDbLine
 10
2760.000000000001
 20
1910.0
 30
0.0
 11
2760.000000000001
 21
1790.0
 31
0.0
  0
LINE
  5
3AD7
330
1F
100
AcDbEntity
  8
WAKU
100
AcDbLine
 10
0.0
 20
0.0
 30
0.0
 11
2760.000000000001
 21
0.0
 31
0.0
  0
LINE
  5
3AD8
330
1F
100
AcDbEntity
  8
WAKU
100
AcDbLine
 10
2760.000000000001
 20
0.0
 30
0.0
 11
2760.000000000001
 21
1910.0
 31
0.0
  0
LINE
  5
3AD9
330
1F
100
AcDbEntity
  8
WAKU
100
AcDbLine
 10
2760.000000000001
 20
1910.0
 30
0.0
 11
0.0
 21
1910.0
 31
0.0
  0
LINE
  5
3ADA
330
1F
100
AcDbEntity
  8
WAKU
100
AcDbLine
 10
0.0
 20
1910.0
 30
0.0
 11
0.0
 21
0.0
 31
0.0
  0
ENDSEC
  0
SECTION
  2
OBJECTS
  0
DICTIONARY
  5
C
330
0
100
AcDbDictionary
281
     1
  3
ACAD_CIP_PREVIOUS_PRODUCT_INFO
350
3251
  3
ACAD_COLOR
350
3160
  3
ACAD_DETAILVIEWSTYLE
350
324C
  3
ACAD_GROUP
350
D
  3
ACAD_LAYOUT
350
1A
  3
ACAD_MATERIAL
350
3133
  3
ACAD_MLEADERSTYLE
350
3175
  3
ACAD_MLINESTYLE
350
17
  3
ACAD_PLOTSETTINGS
350
19
  3
ACAD_PLOTSTYLENAME
350
E
  3
ACAD_SCALELIST
350
3163
  3
ACAD_SECTIONVIEWSTYLE
350
324A
  3
ACAD_TABLESTYLE
350
3161
  3
ACAD_VISUALSTYLE
350
314C
  3
ACDB_RECOMPOSE_DATA
350
3ADD
  3
AcDbVariableDictionary
350
1835
  3
AEC_PROPERTY_SET_DEFS
350
32B0
  3
DWGPROPS
350
3ADE
  0
DICTIONARY
  5
319B
330
8
100
AcDbDictionary
280
     1
281
     1
  0
DICTIONARY
  5
2D
330
2
100
AcDbDictionary
280
     1
281
     1
  3
ACAD_LAYERFILTERS
360
2E
  3
ACAD_LAYERSTATES
360
918
  0
DICTIONARY
  5
3185
330
10
100
AcDbDictionary
280
     1
281
     1
  3
ADSK_XREC_LAYER_RECONCILED
360
3186
  0
DICTIONARY
  5
3187
330
2294
100
AcDbDictionary
280
     1
281
     1
  3
ADSK_XREC_LAYER_RECONCILED
360
3188
  0
DICTIONARY
  5
3189
330
235F
100
AcDbDictionary
280
     1
281
     1
  3
ADSK_XREC_LAYER_RECONCILED
360
318A
  0
DICTIONARY
  5
318B
330
2360
100
AcDbDictionary
280
     1
281
     1
  3
ADSK_XREC_LAYER_RECONCILED
360
318C
  0
DICTIONARY
  5
318D
330
2361
100
AcDbDictionary
280
     1
281
     1
  3
ADSK_XREC_LAYER_RECONCILED
360
318E
  0
DICTIONARY
  5
318F
330
2363
100
AcDbDictionary
280
     1
281
     1
  3
ADSK_XREC_LAYER_RECONCILED
360
3190
  0
DICTIONARY
  5
3191
330
2364
100
AcDbDictionary
280
     1
281
     1
  3
ADSK_XREC_LAYER_RECONCILED
360
3192
  0
DICTIONARY
  5
3193
330
2501
100
AcDbDictionary
280
     1
281
     1
  3
ADSK_XREC_LAYER_RECONCILED
360
3194
  0
DICTIONARY
  5
3195
330
27C0
100
AcDbDictionary
280
     1
281
     1
  3
ADSK_XREC_LAYER_RECONCILED
360
3196
  0
DICTIONARY
  5
329E
330
329D
100
AcDbDictionary
280
     1
281
     1
  0
DICTIONARY
  5
1C62
330
1F
100
AcDbDictionary
280
     1
281
     1
  3
ACAD_SORTENTS
360
1C63
  0
XRECORD
  5
3251
102
{ACAD_REACTORS
330
C
102
}
330
C
100
AcDbXrecord
280
     1
300
ACD
300
2022
300

  0
DICTIONARY
  5
3160
102
{ACAD_REACTORS
330
C
102
}
330
C
100
AcDbDictionary
281
     1
  0
DICTIONARY
  5
324C
102
{ACAD_REACTORS
330
C
102
}
330
C
100
AcDbDictionary
281
     1
  3
Metric50
350
324D
  0
DICTIONARY
  5
D
102
{ACAD_REACTORS
330
C
102
}
330
C
100
AcDbDictionary
281
     1
  0
DICTIONARY
  5
1A
102
{ACAD_REACTORS
330
C
102
}
330
C
100
AcDbDictionary
281
     1
  3
Model
350
22
  3
\U+FF9A\U+FF72\U+FF71\U+FF73\U+FF841
350
1CD1
  0
DICTIONARY
  5
3133
102
{ACAD_REACTORS
330
C
102
}
330
C
100
AcDbDictionary
281
     1
  3
ByBlock
350
313C
  3
ByLayer
350
3134
  3
Global
350
3144
  0
DICTIONARY
  5
3175
102
{ACAD_REACTORS
330
C
102
}
330
C
100
AcDbDictionary
281
     1
  3
Standard
350
3176
  0
DICTIONARY
  5
17
102
{ACAD_REACTORS
330
C
102
}
330
C
100
AcDbDictionary
281
     1
  3
Standard
350
18
  0
DICTIONARY
  5
19
102
{ACAD_REACTORS
330
C
102
}
330
C
100
AcDbDictionary
281
     1
  0
ACDBDICTIONARYWDFLT
  5
E
102
{ACAD_REACTORS
330
C
102
}
330
C
100
AcDbDictionary
281
     1
  3
Normal
350
F
  3
通常
350
29
100
AcDbDictionaryWithDefault
340
F
  0
DICTIONARY
  5
3163
102
{ACAD_REACTORS
330
C
102
}
330
C
100
AcDbDictionary
281
     1
  3
A0
350
3164
  3
A1
350
3165
  3
A2
350
3166
  3
A3
350
3167
  3
A4
350
3168
  3
A5
350
3169
  3
A6
350
316A
  3
A7
350
316B
  3
A8
350
316C
  3
A9
350
316D
  3
B0
350
316E
  3
B1
350
316F
  3
B2
350
3170
  3
B3
350
3171
  3
B4
350
3172
  3
B5
350
3173
  3
B6
350
3174
  0
DICTIONARY
  5
324A
102
{ACAD_REACTORS
330
C
102
}
330
C
100
AcDbDictionary
281
     1
  3
Metric50
350
324B
  0
DICTIONARY
  5
3161
102
{ACAD_REACTORS
330
C
102
}
330
C
100
AcDbDictionary
281
     1
  3
Standard
350
3162
  0
DICTIONARY
  5
314C
102
{ACAD_REACTORS
330
C
102
}
330
C
100
AcDbDictionary
281
     1
  3
2dWireframe
350
3152
  3
3D Hidden
350
3154
  3
3dWireframe
350
3153
  3
Basic
350
3151
  3
Brighten
350
3158
  3
ColorChange
350
315C
  3
Conceptual
350
3155
  3
Dim
350
3157
  3
EdgeColorOff
350
315F
  3
Facepattern
350
315B
  3
Flat
350
314D
  3
FlatWithEdges
350
314E
  3
Gouraud
350
314F
  3
GouraudWithEdges
350
3150
  3
Hidden
350
3244
  3
JitterOff
350
315D
  3
Linepattern
350
315A
  3
OverhangOff
350
315E
  3
Realistic
350
3156
  3
Shaded
350
3249
  3
Shaded with edges
350
3248
  3
Shades of Gray
350
3245
  3
Sketchy
350
3246
  3
Thicken
350
3159
  3
Wireframe
350
3243
  3
X-Ray
350
3247
  0
XRECORD
  5
3ADD
102
{ACAD_REACTORS
330
C
102
}
330
C
100
AcDbXrecord
280
     1
 90
        1
330
3162
  0
DICTIONARY
  5
1835
102
{ACAD_REACTORS
330
C
102
}
330
C
100
AcDbDictionary
281
     1
  3
CANNOSCALE
350
31CE
  3
CMLEADERSTYLE
350
31CD
  3
CTABLESTYLE
350
31CC
  3
CVIEWDETAILSTYLE
350
3296
  3
CVIEWSECTIONSTYLE
350
3297
  3
DIMASSOC
350
31D0
  3
INDEXCTL
350
31CF
  3
SORTENTS
350
1836
  3
XCLIPFRAME
350
3ADB
  0
DICTIONARY
  5
32B0
102
{ACAD_REACTORS
330
C
102
}
330
C
100
AcDbDictionary
281
     1
  0
XRECORD
  5
3ADE
102
{ACAD_REACTORS
330
C
102
}
330
C
100
AcDbXrecord
280
     1
  1
DWGPROPS COOKIE
  2

  3

  4

  6

  7

  8
2020009
  9

300
=
301
=
302
=
303
=
304
=
305
=
306
=
307
=
308
=
309
=
 40
0.3240148032407407
 41
2453276.413761574
 42
2459970.705439815
  1

 90
        0
  0
DICTIONARY
  5
2E
102
{ACAD_REACTORS
330
2D
102
}
330
2D
100
AcDbDictionary
280
     1
281
     1
  0
DICTIONARY
  5
918
102
{ACAD_REACTORS
330
2D
102
}
330
2D
100
AcDbDictionary
281
     1
  0
XRECORD
  5
3186
102
{ACAD_REACTORS
330
3185
102
}
330
3185
100
AcDbXrecord
280
     1
290
     1
  0
XRECORD
  5
3188
102
{ACAD_REACTORS
330
3187
102
}
330
3187
100
AcDbXrecord
280
     1
290
     1
  0
XRECORD
  5
318A
102
{ACAD_REACTORS
330
3189
102
}
330
3189
100
AcDbXrecord
280
     1
290
     1
  0
XRECORD
  5
318C
102
{ACAD_REACTORS
330
318B
102
}
330
318B
100
AcDbXrecord
280
     1
290
     1
  0
XRECORD
  5
318E
102
{ACAD_REACTORS
330
318D
102
}
330
318D
100
AcDbXrecord
280
     1
290
     1
  0
XRECORD
  5
3190
102
{ACAD_REACTORS
330
318F
102
}
330
318F
100
AcDbXrecord
280
     1
290
     1
  0
XRECORD
  5
3192
102
{ACAD_REACTORS
330
3191
102
}
330
3191
100
AcDbXrecord
280
     1
290
     1
  0
XRECORD
  5
3194
102
{ACAD_REACTORS
330
3193
102
}
330
3193
100
AcDbXrecord
280
     1
290
     1
  0
XRECORD
  5
3196
102
{ACAD_REACTORS
330
3195
102
}
330
3195
100
AcDbXrecord
280
     1
290
     1
  0
SORTENTSTABLE
  5
1C63
102
{ACAD_REACTORS
330
1C62
102
}
330
1C62
100
AcDbSortentsTable
330
1F
331
24F1
  5
28B4
331
24F2
  5
28B8
331
24F4
  5
28B9
331
24F5
  5
28C1
331
28B4
  5
2E09
331
28B8
  5
2E0C
331
28B9
  5
28C2
331
28C1
  5
2E0D
331
28C2
  5
28CA
331
28CA
  5
30EF
331
28CB
  5
312F
331
28CC
  5
28D0
331
28D0
  5
32B9
331
28D1
  5
3437
331
28D3
  5
354D
331
28D4
  5
28D6
331
28D5
  5
354E
331
28D6
  5
391F
331
28E4
  5
3926
331
28E8
  5
28EA
331
28E9
  5
3929
331
28EA
  5
392A
331
28EB
  5
392B
331
28EC
  5
392C
331
28ED
  5
392D
331
28EE
  5
392E
331
2960
  5
392F
331
2A0D
  5
3930
331
2A0E
  5
3931
331
2A0F
  5
3932
331
2A10
  5
3933
331
2A14
  5
3934
331
2A15
  5
3935
331
2B4B
  5
39C1
331
2BD1
  5
39D1
331
2CAE
  5
39D2
331
2DF0
  5
39D3
331
2DF1
  5
39D4
331
2DF2
  5
39D5
331
2DF6
  5
39D6
331
2DF7
  5
39D7
331
2DF8
  5
39D8
331
2E02
  5
39D9
331
2E03
  5
39DA
331
2E04
  5
39DB
331
2E05
  5
39DC
331
2E06
  5
39DD
331
2E07
  5
39DE
331
2E08
  5
39DF
331
2E09
  5
39E0
331
2E0A
  5
39E1
331
2E0B
  5
39E2
331
2E0C
  5
39E3
331
2E0D
  5
39E4
331
3088
  5
39E5
331
3089
  5
39E6
331
32B4
  5
3ACF
331
32B5
  5
3AD0
331
32B7
  5
3AD5
331
32B8
  5
3AD6
331
32B9
  5
3AD7
331
3462
  5
3AD8
331
34C3
  5
3AD9
331
354C
  5
2E0A
331
354D
  5
2E0B
331
354E
  5
3ADA
331
391F
  5
24F1
331
3920
  5
24F2
331
3921
  5
24F4
331
3922
  5
24F5
331
3923
  5
28C3
331
3924
  5
28CC
331
3925
  5
28CE
331
3926
  5
28D2
331
3927
  5
28D3
331
3928
  5
28D5
331
3929
  5
28E3
331
392A
  5
28E4
331
392B
  5
28E8
331
392C
  5
28EB
331
392D
  5
28EC
331
392E
  5
28ED
331
392F
  5
28EE
331
3930
  5
2960
331
3931
  5
2A0D
331
3932
  5
2A0E
331
3933
  5
2A0F
331
3934
  5
2A10
331
3935
  5
2A14
331
3936
  5
2A15
331
3937
  5
2A60
331
3938
  5
2A61
331
3939
  5
2BCF
331
393A
  5
2DF0
331
393B
  5
2DF1
331
393C
  5
2DF2
331
393D
  5
2DF6
331
393E
  5
2DF7
331
393F
  5
2DF8
331
3940
  5
2E02
331
3941
  5
2E03
331
3942
  5
2E04
331
3943
  5
2E05
331
3944
  5
2E06
331
3945
  5
2E07
331
3946
  5
2E08
331
3947
  5
3088
331
3948
  5
3089
331
3949
  5
32B6
331
394A
  5
32B7
331
394B
  5
3438
331
394C
  5
3464
331
394D
  5
3920
331
394E
  5
3921
331
394F
  5
3922
331
3950
  5
3923
331
3951
  5
3924
331
3952
  5
3925
331
3953
  5
3927
331
3954
  5
3928
331
3955
  5
3936
331
3956
  5
3937
331
3957
  5
3938
331
3958
  5
3939
331
3959
  5
393A
331
395A
  5
393B
331
395B
  5
393C
331
395C
  5
393D
331
395D
  5
393E
331
395E
  5
393F
331
395F
  5
3940
331
3960
  5
3941
331
3961
  5
3942
331
3962
  5
3943
331
3963
  5
3944
331
3964
  5
3945
331
3965
  5
3946
331
3966
  5
3947
331
3967
  5
3948
331
3968
  5
3949
331
3969
  5
394A
331
396A
  5
394B
331
396B
  5
394C
331
396C
  5
394D
331
396D
  5
394E
331
396E
  5
394F
331
396F
  5
3950
331
3970
  5
3951
331
3971
  5
3952
331
3972
  5
3953
331
3973
  5
3954
331
3974
  5
3955
331
3975
  5
3956
331
3976
  5
3957
331
3977
  5
3958
331
3978
  5
3959
331
3979
  5
395A
331
397A
  5
395B
331
397B
  5
395C
331
397C
  5
395D
331
397D
  5
395E
331
397E
  5
395F
331
397F
  5
3960
331
3980
  5
3961
331
3981
  5
3962
331
3982
  5
3963
331
3983
  5
3964
331
3984
  5
3965
331
3985
  5
3966
331
3986
  5
3967
331
3987
  5
3968
331
3988
  5
3969
331
3989
  5
396A
331
398A
  5
396B
331
398B
  5
396C
331
398C
  5
396D
331
398D
  5
396E
331
398E
  5
396F
331
398F
  5
3970
331
3990
  5
3971
331
3991
  5
3972
331
3992
  5
3973
331
3993
  5
3974
331
3994
  5
3975
331
3995
  5
3976
331
3996
  5
3977
331
3997
  5
3978
331
3998
  5
3979
331
3999
  5
397A
331
399A
  5
397B
331
399B
  5
397C
331
399C
  5
397D
331
399D
  5
397E
331
399E
  5
397F
331
399F
  5
3980
331
39A0
  5
3981
331
39A1
  5
3982
331
39A2
  5
3983
331
39A3
  5
3984
331
39A4
  5
3985
331
39A5
  5
3986
331
39A6
  5
3987
331
39A7
  5
3988
331
39A8
  5
3989
331
39A9
  5
398A
331
39AA
  5
398B
331
39AB
  5
398C
331
39AC
  5
398D
331
39AD
  5
398E
331
39AE
  5
398F
331
39AF
  5
3990
331
39B0
  5
3991
331
39B1
  5
3992
331
39B2
  5
3993
331
39B3
  5
3994
331
39B4
  5
3995
331
39B5
  5
3996
331
39B6
  5
3997
331
39B7
  5
3998
331
39B8
  5
3999
331
39B9
  5
399A
331
39BA
  5
399B
331
39BB
  5
399C
331
39BC
  5
399D
331
39BD
  5
399E
331
39BE
  5
399F
331
39BF
  5
39A0
331
39C0
  5
39A1
331
39C1
  5
39A2
331
39C2
  5
39A3
331
39C3
  5
39A4
331
39C4
  5
39A5
331
39C5
  5
39A6
331
39C6
  5
39A7
331
39C7
  5
39A8
331
39C8
  5
39A9
331
39C9
  5
39AA
331
39CA
  5
39AB
331
39CB
  5
39AC
331
39CC
  5
39AD
331
39CD
  5
39AE
331
39CE
  5
39AF
331
39CF
  5
39B0
331
39D0
  5
39B1
331
39D1
  5
39B2
331
39D2
  5
39B3
331
39D3
  5
39B4
331
39D4
  5
39B5
331
39D5
  5
39B6
331
39D6
  5
39B7
331
39D7
  5
39B8
331
39D8
  5
39B9
331
39D9
  5
39BA
331
39DA
  5
39BB
331
39DB
  5
39BC
331
39DC
  5
39BD
331
39DD
  5
39BE
331
39DE
  5
39BF
331
39DF
  5
39C0
331
39E0
  5
39C2
331
39E1
  5
39C3
331
39E2
  5
39C4
331
39E3
  5
39C5
331
39E4
  5
39C6
331
39E5
  5
39C7
331
39E6
  5
39C8
331
39E7
  5
39C9
331
39E8
  5
39CA
331
39E9
  5
39CB
331
39EA
  5
39CC
331
39EB
  5
39CD
331
39EC
  5
39CE
331
39ED
  5
39CF
331
39EE
  5
39D0
331
39EF
  5
39E7
331
39F0
  5
39E8
331
39F1
  5
39E9
331
39F2
  5
39EA
331
39F3
  5
39EB
331
39F4
  5
39EC
331
39F5
  5
39ED
331
39F6
  5
39EE
331
39F7
  5
39EF
331
39F8
  5
39F0
331
39F9
  5
39F1
331
39FA
  5
39F2
331
39FB
  5
39F3
331
39FC
  5
39F4
331
39FD
  5
39F5
331
39FE
  5
39F6
331
39FF
  5
39F7
331
3A00
  5
39F8
331
3A01
  5
39F9
331
3A02
  5
39FA
331
3A03
  5
39FB
331
3A04
  5
39FC
331
3A05
  5
39FD
331
3A06
  5
39FE
331
3A07
  5
39FF
331
3A08
  5
3A00
331
3A09
  5
3A01
331
3A0A
  5
3A02
331
3A0B
  5
3A03
331
3A0C
  5
3A04
331
3A0D
  5
3A05
331
3A0E
  5
3A06
331
3A0F
  5
3A07
331
3A10
  5
3A08
331
3A11
  5
3A09
331
3A12
  5
3A0A
331
3A13
  5
3A0B
331
3A14
  5
3A0C
331
3A15
  5
3A0D
331
3A16
  5
3A0E
331
3A17
  5
3A0F
331
3A18
  5
3A10
331
3A19
  5
3A11
331
3A1A
  5
3A12
331
3A1B
  5
3A13
331
3A1C
  5
3A14
331
3A1D
  5
3A15
331
3A1E
  5
3A16
331
3A1F
  5
3A17
331
3A20
  5
3A18
331
3A21
  5
3A19
331
3A22
  5
3A1A
331
3A23
  5
3A1B
331
3A24
  5
3A1C
331
3A25
  5
3A1D
331
3A26
  5
3A1E
331
3A27
  5
3A1F
331
3A28
  5
3A20
331
3A29
  5
3A21
331
3A2A
  5
3A22
331
3A2B
  5
3A23
331
3A2C
  5
3A24
331
3A2D
  5
3A25
331
3A2E
  5
3A26
331
3A2F
  5
3A27
331
3A30
  5
3A28
331
3A31
  5
3A29
331
3A32
  5
3A2A
331
3A33
  5
3A2B
331
3A34
  5
3A2C
331
3A35
  5
3A2D
331
3A36
  5
3A2E
331
3A37
  5
3A2F
331
3A38
  5
3A30
331
3A39
  5
3A31
331
3A3A
  5
3A32
331
3A3B
  5
3A33
331
3A3C
  5
3A34
331
3A3D
  5
3A35
331
3A3E
  5
3A36
331
3A3F
  5
3A37
331
3A40
  5
3A38
331
3A41
  5
3A39
331
3A42
  5
3A3A
331
3A43
  5
3A3B
331
3A44
  5
3A3C
331
3A45
  5
3A3D
331
3A46
  5
3A3E
331
3A47
  5
3A3F
331
3A48
  5
3A40
331
3A49
  5
3A41
331
3A4A
  5
3A42
331
3A4B
  5
3A43
331
3A4C
  5
3A44
331
3A4D
  5
3A45
331
3A4E
  5
3A46
331
3A4F
  5
3A47
331
3A50
  5
3A48
331
3A51
  5
3A49
331
3A52
  5
3A4A
331
3A53
  5
3A4B
331
3A54
  5
3A4C
331
3A55
  5
3A4D
331
3A56
  5
3A4E
331
3A57
  5
3A4F
331
3A58
  5
3A50
331
3A59
  5
3A51
331
3A5A
  5
3A52
331
3A5B
  5
3A53
331
3A5C
  5
3A54
331
3A5D
  5
3A55
331
3A5E
  5
3A56
331
3A5F
  5
3A57
331
3A60
  5
3A58
331
3A61
  5
3A59
331
3A62
  5
3A5A
331
3A63
  5
3A5B
331
3A64
  5
3A5C
331
3A65
  5
3A5D
331
3A66
  5
3A5E
331
3A67
  5
3A5F
331
3A68
  5
3A60
331
3A69
  5
3A61
331
3A6A
  5
3A62
331
3A6B
  5
3A63
331
3A6C
  5
3A64
331
3A6D
  5
3A65
331
3A6E
  5
3A66
331
3A6F
  5
3A67
331
3A70
  5
3A68
331
3A71
  5
3A69
331
3A72
  5
3A6A
331
3A73
  5
3A6B
331
3A74
  5
3A6C
331
3A75
  5
3A6D
331
3A76
  5
3A6E
331
3A77
  5
3A6F
331
3A78
  5
3A70
331
3A79
  5
3A71
331
3A7A
  5
3A72
331
3A7B
  5
3A73
331
3A7C
  5
3A74
331
3A7D
  5
3A75
331
3A7E
  5
3A76
331
3A7F
  5
3A77
331
3A80
  5
3A78
331
3A81
  5
3A79
331
3A82
  5
3A7A
331
3A83
  5
3A7B
331
3A84
  5
3A7C
331
3A85
  5
3A7D
331
3A86
  5
3A7E
331
3A87
  5
3A7F
331
3A88
  5
3A80
331
3A89
  5
3A81
331
3A8A
  5
3A82
331
3A8B
  5
3A83
331
3A8C
  5
3A84
331
3A8D
  5
3A85
331
3A8E
  5
3A86
331
3A8F
  5
3A87
331
3A90
  5
3A88
331
3A91
  5
3A89
331
3A92
  5
3A8A
331
3A93
  5
3A8B
331
3A94
  5
3A8C
331
3A95
  5
3A8D
331
3A96
  5
3A8E
331
3A97
  5
3A8F
331
3A98
  5
3A90
331
3A99
  5
3A91
331
3A9A
  5
3A92
331
3A9B
  5
3A93
331
3A9C
  5
3A94
331
3A9D
  5
3A95
331
3A9E
  5
3A96
331
3A9F
  5
3A97
331
3AA0
  5
3A98
331
3AA1
  5
3A99
331
3AA2
  5
3A9A
331
3AA3
  5
3A9B
331
3AA4
  5
3A9C
331
3AA5
  5
3A9D
331
3AA6
  5
3A9E
331
3AA7
  5
3A9F
331
3AA8
  5
3AA0
331
3AA9
  5
3AA1
331
3AAA
  5
3AA2
331
3AAB
  5
3AA3
331
3AAC
  5
3AA4
331
3AAD
  5
3AA5
331
3AAE
  5
3AA6
331
3AAF
  5
3AA7
331
3AB0
  5
3AA8
331
3AB1
  5
3AA9
331
3AB2
  5
3AAA
331
3AB3
  5
3AAB
331
3AB4
  5
3AAC
331
3AB5
  5
3AAD
331
3AB6
  5
3AAE
331
3AB7
  5
3AAF
331
3AB8
  5
3AB0
331
3AB9
  5
3AB1
331
3ABA
  5
3AB2
331
3ABB
  5
3AB3
331
3ABC
  5
3AB4
331
3ABD
  5
3AB5
331
3ABE
  5
3AB6
331
3ABF
  5
3AB7
331
3AC0
  5
3AB8
331
3AC1
  5
3AB9
331
3AC2
  5
3ABA
331
3AC3
  5
3ABB
331
3AC4
  5
3ABC
331
3AC5
  5
3ABD
331
3AC6
  5
3ABE
331
3AC7
  5
3ABF
331
3AC8
  5
3AC0
331
3AC9
  5
3AC1
331
3ACA
  5
3AC2
331
3ACB
  5
3AC3
331
3ACC
  5
3AC4
331
3ACD
  5
3AC5
331
3ACE
  5
3AC6
331
3ACF
  5
3AC7
331
3AD0
  5
3AC8
331
3AD1
  5
3AC9
331
3AD2
  5
3ACA
331
3AD3
  5
3ACB
331
3AD4
  5
3ACC
331
3AD5
  5
3ACD
331
3AD6
  5
3ACE
331
3AD7
  5
3AD1
331
3AD8
  5
3AD2
331
3AD9
  5
3AD3
331
3ADA
  5
3AD4
  0
ACDBDETAILVIEWSTYLE
  5
324D
102
{ACAD_XDICTIONARY
360
3B1D
102
}
102
{ACAD_REACTORS
330
324C
102
}
330
324C
100
AcDbModelDocViewStyle
 70
     0
  3
Metric50
290
     0
100
AcDbDetailViewStyle
 70
     0
 71
     0
 90
        3
 71
     1
340
11
 40
5.0
340
0
 40
5.0
300

 40
0.0
280
     1
 71
     2
340
16
 90
       25
 71
     3
340
11
 40
5.0
 90
        0
 40
15.0
 90
        1
300
%<\AcVar ViewDetailId>% (%<\AcVar ViewScale \f "%sn">%)
 71
     4
340
16
 90
       25
340
16
 90
       25
280
     0
1001
ACAD
1000
AcRTDxfName
1000
ACDBDETAILVIEWSTYLE
1000
AcRTDxfName
1000
ACDBDETAILVIEWSTYLE
1000
AcRTDxfName
1000
ACDBDETAILVIEWSTYLE
  0
LAYOUT
  5
22
102
{ACAD_XDICTIONARY
360
3ADF
102
}
102
{ACAD_REACTORS
330
1A
102
}
330
1A
100
AcDbPlotSettings
  1

  2
Canon LBP3800 LIPSLX
  4
A4
  6

 40
5.873749732971191
 41
5.873747825622558
 42
5.873748779296875
 43
5.873748779296875
 44
209.9733276367187
 45
296.9259948730469
 46
0.61
 47
0.59
 48
444.9983463649091
 49
-1090.000000918417
140
2395.001653364909
141
1659.999999081583
142
1.0
143
10.0
 70
 11940
 72
     1
 73
     1
 74
     2
  7
monochrome.ctb
 75
     0
147
0.1
148
0.0
149
0.0
100
AcDbLayout
  1
Model
 70
     1
 71
     0
 10
0.0
 20
0.0
 11
12.0
 21
9.0
 12
0.0
 22
0.0
 32
0.0
 14
0.0
 24
0.0
 34
0.0
 15
0.0
 25
0.0
 35
0.0
146
0.0
 13
0.0
 23
0.0
 33
0.0
 16
1.0
 26
0.0
 36
0.0
 17
0.0
 27
1.0
 37
0.0
 76
     0
330
1F
331
3131
  0
LAYOUT
  5
1CD1
102
{ACAD_XDICTIONARY
360
3AE1
102
}
102
{ACAD_REACTORS
330
1A
102
}
330
1A
100
AcDbPlotSettings
  1

  2
\\ek_srv\Canon LBP-880 LIPS4
  4

  6

 40
0.0
 41
0.0
 42
0.0
 43
0.0
 44
0.0
 45
0.0
 46
0.0
 47
0.0
 48
0.0
 49
0.0
140
0.0
141
0.0
142
1.0
143
1.0
 70
   688
 72
     0
 73
     0
 74
     5
  7
monochrome.ctb
 75
    16
147
1.0
148
0.0
149
0.0
100
AcDbLayout
  1
\U+FF9A\U+FF72\U+FF71\U+FF73\U+FF841
 70
     1
 71
     1
 10
0.0
 20
0.0
 11
12.0
 21
9.0
 12
0.0
 22
0.0
 32
0.0
 14
0.0
 24
0.0
 34
0.0
 15
0.0
 25
0.0
 35
0.0
146
0.0
 13
0.0
 23
0.0
 33
0.0
 16
1.0
 26
0.0
 36
0.0
 17
0.0
 27
1.0
 37
0.0
 76
     0
330
1CD0
  0
MATERIAL
  5
313C
102
{ACAD_XDICTIONARY
360
313D
102
}
102
{ACAD_REACTORS
330
3133
102
}
330
3133
100
AcDbMaterial
  1
ByBlock
 72
     0
 43
0.0008202099737533
 43
0.0
 43
0.0
 43
0.0
 43
0.0
 43
0.0008202099737533
 43
0.0
 43
0.0
 43
0.0
 43
0.0
 43
1.0
 43
0.0
 43
0.0
 43
0.0
 43
0.0
 43
1.0
 77
     0
 47
0.0008202099737533
 47
0.0
 47
0.0
 47
0.0
 47
0.0
 47
0.0008202099737533
 47
0.0
 47
0.0
 47
0.0
 47
0.0
 47
1.0
 47
0.0
 47
0.0
 47
0.0
 47
0.0
 47
1.0
171
     0
 49
0.0008202099737533
 49
0.0
 49
0.0
 49
0.0
 49
0.0
 49
0.0008202099737533
 49
0.0
 49
0.0
 49
0.0
 49
0.0
 49
1.0
 49
0.0
 49
0.0
 49
0.0
 49
0.0
 49
1.0
175
     0
142
0.0008202099737533
142
0.0
142
0.0
142
0.0
142
0.0
142
0.0008202099737533
142
0.0
142
0.0
142
0.0
142
0.0
142
1.0
142
0.0
142
0.0
142
0.0
142
0.0
142
1.0
179
     0
144
0.0008202099737533
144
0.0
144
0.0
144
0.0
144
0.0
144
0.0008202099737533
144
0.0
144
0.0
144
0.0
144
0.0
144
1.0
144
0.0
144
0.0
144
0.0
144
0.0
144
1.0
147
0.0008202099737533
147
0.0
147
0.0
147
0.0
147
0.0
147
0.0008202099737533
147
0.0
147
0.0
147
0.0
147
0.0
147
1.0
147
0.0
147
0.0
147
0.0
147
0.0
147
1.0
  0
MATERIAL
  5
3134
102
{ACAD_XDICTIONARY
360
3135
102
}
102
{ACAD_REACTORS
330
3133
102
}
330
3133
100
AcDbMaterial
  1
ByLayer
 72
     0
 43
0.0008202099737533
 43
0.0
 43
0.0
 43
0.0
 43
0.0
 43
0.0008202099737533
 43
0.0
 43
0.0
 43
0.0
 43
0.0
 43
1.0
 43
0.0
 43
0.0
 43
0.0
 43
0.0
 43
1.0
 77
     0
 47
0.0008202099737533
 47
0.0
 47
0.0
 47
0.0
 47
0.0
 47
0.0008202099737533
 47
0.0
 47
0.0
 47
0.0
 47
0.0
 47
1.0
 47
0.0
 47
0.0
 47
0.0
 47
0.0
 47
1.0
171
     0
 49
0.0008202099737533
 49
0.0
 49
0.0
 49
0.0
 49
0.0
 49
0.0008202099737533
 49
0.0
 49
0.0
 49
0.0
 49
0.0
 49
1.0
 49
0.0
 49
0.0
 49
0.0
 49
0.0
 49
1.0
175
     0
142
0.0008202099737533
142
0.0
142
0.0
142
0.0
142
0.0
142
0.0008202099737533
142
0.0
142
0.0
142
0.0
142
0.0
142
1.0
142
0.0
142
0.0
142
0.0
142
0.0
142
1.0
179
     0
144
0.0008202099737533
144
0.0
144
0.0
144
0.0
144
0.0
144
0.0008202099737533
144
0.0
144
0.0
144
0.0
144
0.0
144
1.0
144
0.0
144
0.0
144
0.0
144
0.0
144
1.0
147
0.0008202099737533
147
0.0
147
0.0
147
0.0
147
0.0
147
0.0008202099737533
147
0.0
147
0.0
147
0.0
147
0.0
147
1.0
147
0.0
147
0.0
147
0.0
147
0.0
147
1.0
  0
MATERIAL
  5
3144
102
{ACAD_XDICTIONARY
360
3145
102
}
102
{ACAD_REACTORS
330
3133
102
}
330
3133
100
AcDbMaterial
  1
Global
 72
     0
 43
0.0008202099737533
 43
0.0
 43
0.0
 43
0.0
 43
0.0
 43
0.0008202099737533
 43
0.0
 43
0.0
 43
0.0
 43
0.0
 43
1.0
 43
0.0
 43
0.0
 43
0.0
 43
0.0
 43
1.0
 77
     0
 47
0.0008202099737533
 47
0.0
 47
0.0
 47
0.0
 47
0.0
 47
0.0008202099737533
 47
0.0
 47
0.0
 47
0.0
 47
0.0
 47
1.0
 47
0.0
 47
0.0
 47
0.0
 47
0.0
 47
1.0
171
     0
 49
0.0008202099737533
 49
0.0
 49
0.0
 49
0.0
 49
0.0
 49
0.0008202099737533
 49
0.0
 49
0.0
 49
0.0
 49
0.0
 49
1.0
 49
0.0
 49
0.0
 49
0.0
 49
0.0
 49
1.0
175
     0
142
0.0008202099737533
142
0.0
142
0.0
142
0.0
142
0.0
142
0.0008202099737533
142
0.0
142
0.0
142
0.0
142
0.0
142
1.0
142
0.0
142
0.0
142
0.0
142
0.0
142
1.0
179
     0
144
0.0008202099737533
144
0.0
144
0.0
144
0.0
144
0.0
144
0.0008202099737533
144
0.0
144
0.0
144
0.0
144
0.0
144
1.0
144
0.0
144
0.0
144
0.0
144
0.0
144
1.0
147
0.0008202099737533
147
0.0
147
0.0
147
0.0
147
0.0
147
0.0008202099737533
147
0.0
147
0.0
147
0.0
147
0.0
147
1.0
147
0.0
147
0.0
147
0.0
147
0.0
147
1.0
  0
MLEADERSTYLE
  5
3176
102
{ACAD_REACTORS
330
3175
102
}
330
3175
100
AcDbMLeaderStyle
170
     2
171
     1
172
     0
 90
        2
 40
0.0
 41
0.0
173
     1
 91
-1056964608
340
14
 92
       -2
290
     1
 42
2.0
291
     1
 43
0.36
  3
Standard
 44
4.0
300

342
11
174
     1
178
     6
175
     1
176
     0
 93
-1056964608
 45
4.0
292
     0
297
     0
 46
4.0
 94
-1056964608
 47
1.0
 49
1.0
140
1.0
293
     1
141
0.0
294
     1
177
     0
142
1.0
295
     0
296
     0
143
0.125
1001
ACAD_MLEADERVER
1070
     2
  0
MLINESTYLE
  5
18
102
{ACAD_REACTORS
330
17
102
}
330
17
100
AcDbMlineStyle
  2
STANDARD
 70
     0
  3

 62
   256
 51
90.0
 52
90.0
 71
     2
 49
0.5
 62
   256
  6
BYLAYER
 49
-0.5
 62
   256
  6
BYLAYER
  0
ACDBPLACEHOLDER
  5
F
102
{ACAD_REACTORS
330
E
102
}
330
E
  0
ACDBPLACEHOLDER
  5
29
102
{ACAD_REACTORS
330
E
102
}
330
E
  0
SCALE
  5
3164
102
{ACAD_REACTORS
330
3163
102
}
330
3163
100
AcDbScale
 70
     0
300
1:1
140
1.0
141
1.0
290
     1
  0
SCALE
  5
3165
102
{ACAD_REACTORS
330
3163
102
}
330
3163
100
AcDbScale
 70
     0
300
1:2
140
1.0
141
2.0
290
     0
  0
SCALE
  5
3166
102
{ACAD_REACTORS
330
3163
102
}
330
3163
100
AcDbScale
 70
     0
300
1:4
140
1.0
141
4.0
290
     0
  0
SCALE
  5
3167
102
{ACAD_REACTORS
330
3163
102
}
330
3163
100
AcDbScale
 70
     0
300
1:5
140
1.0
141
5.0
290
     0
  0
SCALE
  5
3168
102
{ACAD_REACTORS
330
3163
102
}
330
3163
100
AcDbScale
 70
     0
300
1:8
140
1.0
141
8.0
290
     0
  0
SCALE
  5
3169
102
{ACAD_REACTORS
330
3163
102
}
330
3163
100
AcDbScale
 70
     0
300
1:10
140
1.0
141
10.0
290
     0
  0
SCALE
  5
316A
102
{ACAD_REACTORS
330
3163
102
}
330
3163
100
AcDbScale
 70
     0
300
1:16
140
1.0
141
16.0
290
     0
  0
SCALE
  5
316B
102
{ACAD_REACTORS
330
3163
102
}
330
3163
100
AcDbScale
 70
     0
300
1:20
140
1.0
141
20.0
290
     0
  0
SCALE
  5
316C
102
{ACAD_REACTORS
330
3163
102
}
330
3163
100
AcDbScale
 70
     0
300
1:30
140
1.0
141
30.0
290
     0
  0
SCALE
  5
316D
102
{ACAD_REACTORS
330
3163
102
}
330
3163
100
AcDbScale
 70
     0
300
1:40
140
1.0
141
40.0
290
     0
  0
SCALE
  5
316E
102
{ACAD_REACTORS
330
3163
102
}
330
3163
100
AcDbScale
 70
     0
300
1:50
140
1.0
141
50.0
290
     0
  0
SCALE
  5
316F
102
{ACAD_REACTORS
330
3163
102
}
330
3163
100
AcDbScale
 70
     0
300
1:100
140
1.0
141
100.0
290
     0
  0
SCALE
  5
3170
102
{ACAD_REACTORS
330
3163
102
}
330
3163
100
AcDbScale
 70
     0
300
2:1
140
2.0
141
1.0
290
     0
  0
SCALE
  5
3171
102
{ACAD_REACTORS
330
3163
102
}
330
3163
100
AcDbScale
 70
     0
300
4:1
140
4.0
141
1.0
290
     0
  0
SCALE
  5
3172
102
{ACAD_REACTORS
330
3163
102
}
330
3163
100
AcDbScale
 70
     0
300
8:1
140
8.0
141
1.0
290
     0
  0
SCALE
  5
3173
102
{ACAD_REACTORS
330
3163
102
}
330
3163
100
AcDbScale
 70
     0
300
10:1
140
10.0
141
1.0
290
     0
  0
SCALE
  5
3174
102
{ACAD_REACTORS
330
3163
102
}
330
3163
100
AcDbScale
 70
     0
300
100:1
140
100.0
141
1.0
290
     0
  0
ACDBSECTIONVIEWSTYLE
  5
324B
102
{ACAD_XDICTIONARY
360
3B1B
102
}
102
{ACAD_REACTORS
330
324A
102
}
330
324A
100
AcDbModelDocViewStyle
 70
     0
  3
Metric50
290
     0
100
AcDbSectionViewStyle
 70
     0
 71
     0
 90
      102
 71
     1
340
11
 40
5.0
340
0
340
0
 40
5.0
300
I, O, Q, S, X, Z
 40
10.0
 90
        0
 40
2.5
 90
        0
 71
     2
340
16
 90
       25
340
16
 90
       50
 40
5.0
 40
2.5
 40
5.0
 71
     3
340
11
 40
5.0
 90
        0
 40
15.0
 90
        1
300
%<\AcVar ViewSectionStartId>%-%<\AcVar ViewSectionEndId>% (%<\AcVar ViewScale \f "%sn">%)
 71
     4
300
ANSI31
 40
1.0
 90
        0
290
     0
290
     0
 90
        6
 40
0.0
 40
1.570796326794896
 40
0.2617993877991494
 40
1.308996938995747
 40
-0.2617993877991494
 40
1.832595714594046
1001
ACAD
1000
AcRTDxfName
1000
ACDBSECTIONVIEWSTYLE
1000
AcRTDxfName
1000
ACDBSECTIONVIEWSTYLE
1000
AcRTDxfName
1000
ACDBSECTIONVIEWSTYLE
  0
TABLESTYLE
  5
3162
102
{ACAD_XDICTIONARY
360
3197
102
}
102
{ACAD_REACTORS
330
3161
102
}
330
3161
100
AcDbTableStyle
  3
Standard
 70
     0
 71
     0
 40
1.5
 41
1.5
280
     0
281
     0
  7
Standard
140
4.5
170
     2
 62
     0
 63
     7
283
     0
274
    -2
284
     1
 64
     0
275
    -2
285
     1
 65
     0
276
    -2
286
     1
 66
     0
277
    -2
287
     1
 67
     0
278
    -2
288
     1
 68
     0
279
    -2
289
     1
 69
     0
  7
Standard
140
6.0
170
     5
 62
     0
 63
     7
283
     0
274
    -2
284
     1
 64
     0
275
    -2
285
     1
 65
     0
276
    -2
286
     1
 66
     0
277
    -2
287
     1
 67
     0
278
    -2
288
     1
 68
     0
279
    -2
289
     1
 69
     0
  7
Standard
140
4.5
170
     5
 62
     0
 63
     7
283
     0
274
    -2
284
     1
 64
     0
275
    -2
285
     1
 65
     0
276
    -2
286
     1
 66
     0
277
    -2
287
     1
 67
     0
278
    -2
288
     1
 68
     0
279
    -2
289
     1
 69
     0
  0
VISUALSTYLE
  5
3152
102
{ACAD_XDICTIONARY
360
3AF0
102
}
102
{ACAD_REACTORS
330
314C
102
}
330
314C
100
AcDbVisualStyle
  2
2dWireframe
 70
     4
 71
     0
 72
     2
 73
     0
 90
        0
 40
-0.6
 41
-30.0
 62
     5
 63
     7
 74
     1
 91
        4
 64
     7
 65
   257
 75
     1
175
     1
 42
1.0
 92
        0
 66
   257
 43
1.0
 76
     1
 77
     6
 78
     2
 67
     7
 79
     5
170
     0
171
     0
290
     0
174
     0
 93
        1
 44
0.0
173
     0
291
     0
 45
0.0
1001
ACAD
1000
AcDbSavedByObjectVersion
1070
     0
  0
VISUALSTYLE
  5
3154
102
{ACAD_XDICTIONARY
360
3AF4
102
}
102
{ACAD_REACTORS
330
314C
102
}
330
314C
100
AcDbVisualStyle
  2
3D Hidden
 70
     6
 71
     1
 72
     2
 73
     2
 90
        0
 40
-0.6
 41
-30.0
 62
     5
 63
     7
 74
     2
 91
        2
 64
     7
 65
   257
 75
     2
175
     1
 42
179.0
 92
        0
 66
   257
 43
1.0
 76
     1
 77
     6
 78
     2
 67
     7
 79
     3
170
     0
171
     0
290
     0
174
     0
 93
        1
 44
0.0
173
     0
291
     0
 45
0.0
1001
ACAD
1000
AcDbSavedByObjectVersion
1070
     0
  0
VISUALSTYLE
  5
3153
102
{ACAD_XDICTIONARY
360
3AF2
102
}
102
{ACAD_REACTORS
330
314C
102
}
330
314C
100
AcDbVisualStyle
  2
3dWireframe
 70
     5
 71
     0
 72
     2
 73
     0
 90
        0
 40
-0.6
 41
-30.0
 62
     5
 63
     7
 74
     1
 91
        4
 64
     7
 65
   257
 75
     1
175
     1
 42
1.0
 92
        0
 66
   257
 43
1.0
 76
     1
 77
     6
 78
     2
 67
     7
 79
     5
170
     0
171
     0
290
     0
174
     0
 93
        1
 44
0.0
173
     0
291
     0
 45
0.0
1001
ACAD
1000
AcDbSavedByObjectVersion
1070
     0
  0
VISUALSTYLE
  5
3151
102
{ACAD_XDICTIONARY
360
3AEE
102
}
102
{ACAD_REACTORS
330
314C
102
}
330
314C
100
AcDbVisualStyle
  2
Basic
 70
     7
 71
     1
 72
     0
 73
     1
 90
        0
 40
-0.6
 41
-30.0
 62
     5
 63
     7
 74
     0
 91
        4
 64
     7
 65
   257
 75
     1
175
     1
 42
1.0
 92
        8
 66
     7
 43
1.0
 76
     1
 77
     6
 78
     2
 67
     7
 79
     5
170
     0
171
     0
290
     0
174
     0
 93
        1
 44
0.0
173
     0
291
     1
 45
0.0
1001
ACAD
1000
AcDbSavedByObjectVersion
1070
     0
  0
VISUALSTYLE
  5
3158
102
{ACAD_XDICTIONARY
360
3AFC
102
}
102
{ACAD_REACTORS
330
314C
102
}
330
314C
100
AcDbVisualStyle
  2
Brighten
 70
    12
 71
     2
 72
     2
 73
     0
 90
        0
 40
-0.6
 41
-30.0
 62
     5
 63
     7
 74
     1
 91
        4
 64
     7
 65
   257
 75
     1
175
     1
 42
1.0
 92
        8
 66
     7
 43
1.0
 76
     1
 77
     6
 78
     2
 67
     7
 79
     5
170
     0
171
     0
290
     0
174
     0
 93
        1
 44
50.0
173
     0
291
     1
 45
0.0
1001
ACAD
1000
AcDbSavedByObjectVersion
1070
     0
  0
VISUALSTYLE
  5
315C
102
{ACAD_XDICTIONARY
360
3B04
102
}
102
{ACAD_REACTORS
330
314C
102
}
330
314C
100
AcDbVisualStyle
  2
ColorChange
 70
    16
 71
     2
 72
     2
 73
     3
 90
        0
 40
-0.6
 41
-30.0
 62
     5
 63
     8
 74
     1
 91
        4
 64
     7
 65
   257
 75
     1
175
     1
 42
1.0
 92
        8
 66
     8
 43
1.0
 76
     1
 77
     6
 78
     2
 67
     7
 79
     5
170
     0
171
     0
290
     0
174
     0
 93
        1
 44
0.0
173
     0
291
     1
 45
0.0
1001
ACAD
1000
AcDbSavedByObjectVersion
1070
     0
  0
VISUALSTYLE
  5
3155
102
{ACAD_XDICTIONARY
360
3AF6
102
}
102
{ACAD_REACTORS
330
314C
102
}
330
314C
100
AcDbVisualStyle
  2
Conceptual
 70
     9
 71
     3
 72
     2
 73
     0
 90
        0
 40
-0.6
 41
-30.0
 62
     5
 63
     7
 74
     2
 91
        2
 64
     7
 65
   257
 75
     1
175
     1
 42
179.0
 92
        8
 66
     7
 43
1.0
 76
     1
 77
     6
 78
     2
 67
     7
 79
     3
170
     0
171
     0
290
     0
174
     0
 93
        1
 44
0.0
173
     0
291
     0
 45
0.0
1001
ACAD
1000
AcDbSavedByObjectVersion
1070
     0
  0
VISUALSTYLE
  5
3157
102
{ACAD_XDICTIONARY
360
3AFA
102
}
102
{ACAD_REACTORS
330
314C
102
}
330
314C
100
AcDbVisualStyle
  2
Dim
 70
    11
 71
     2
 72
     2
 73
     0
 90
        0
 40
-0.6
 41
-30.0
 62
     5
 63
     7
 74
     1
 91
        4
 64
     7
 65
   257
 75
     1
175
     1
 42
1.0
 92
        8
 66
     7
 43
1.0
 76
     1
 77
     6
 78
     2
 67
     7
 79
     5
170
     0
171
     0
290
     0
174
     0
 93
        1
 44
-50.0
173
     0
291
     1
 45
0.0
1001
ACAD
1000
AcDbSavedByObjectVersion
1070
     0
  0
VISUALSTYLE
  5
315F
102
{ACAD_XDICTIONARY
360
3B0A
102
}
102
{ACAD_REACTORS
330
314C
102
}
330
314C
100
AcDbVisualStyle
  2
EdgeColorOff
 70
    22
 71
     2
 72
     2
 73
     0
 90
        0
 40
-0.6
 41
-30.0
 62
     5
 63
     7
 74
     1
 91
        4
 64
     7
 65
   257
 75
     1
175
     1
 42
1.0
 92
        8
 66
     7
 43
1.0
 76
     1
 77
     6
 78
     2
 67
     7
 79
     5
170
     0
171
     0
290
     0
174
     0
 93
        1
 44
0.0
173
     0
291
     1
 45
0.0
1001
ACAD
1000
AcDbSavedByObjectVersion
1070
     0
  0
VISUALSTYLE
  5
315B
102
{ACAD_XDICTIONARY
360
3B02
102
}
102
{ACAD_REACTORS
330
314C
102
}
330
314C
100
AcDbVisualStyle
  2
Facepattern
 70
    15
 71
     2
 72
     2
 73
     0
 90
        0
 40
-0.6
 41
-30.0
 62
     5
 63
     7
 74
     1
 91
        4
 64
     7
 65
   257
 75
     1
175
     1
 42
1.0
 92
        8
 66
     7
 43
1.0
 76
     1
 77
     6
 78
     2
 67
     7
 79
     5
170
     0
171
     0
290
     0
174
     0
 93
        1
 44
0.0
173
     0
291
     1
 45
0.0
1001
ACAD
1000
AcDbSavedByObjectVersion
1070
     0
  0
VISUALSTYLE
  5
314D
102
{ACAD_XDICTIONARY
360
3AE6
102
}
102
{ACAD_REACTORS
330
314C
102
}
330
314C
100
AcDbVisualStyle
  2
Flat
 70
     0
 71
     2
 72
     1
 73
     1
 90
        2
 40
-0.6
 41
30.0
 62
     5
 63
     7
 74
     0
 91
        4
 64
     7
 65
   257
 75
     1
175
     1
 42
1.0
 92
        8
 66
     7
 43
1.0
 76
     1
 77
     6
 78
     2
 67
     7
 79
     5
170
     0
171
     0
290
     0
174
     0
 93
       13
 44
0.0
173
     0
291
     1
 45
0.0
1001
ACAD
1000
AcDbSavedByObjectVersion
1070
     0
  0
VISUALSTYLE
  5
314E
102
{ACAD_XDICTIONARY
360
3AE8
102
}
102
{ACAD_REACTORS
330
314C
102
}
330
314C
100
AcDbVisualStyle
  2
FlatWithEdges
 70
     1
 71
     2
 72
     1
 73
     1
 90
        2
 40
-0.6
 41
30.0
 62
     5
 63
     7
 74
     1
 91
        4
 64
     7
 65
   257
 75
     1
175
     1
 42
1.0
 92
        0
 66
   257
 43
1.0
 76
     1
 77
     6
 78
     2
 67
     7
 79
     5
170
     0
171
     0
290
     0
174
     0
 93
       13
 44
0.0
173
     0
291
     1
 45
0.0
1001
ACAD
1000
AcDbSavedByObjectVersion
1070
     0
  0
VISUALSTYLE
  5
314F
102
{ACAD_XDICTIONARY
360
3AEA
102
}
102
{ACAD_REACTORS
330
314C
102
}
330
314C
100
AcDbVisualStyle
  2
Gouraud
 70
     2
 71
     2
 72
     2
 73
     1
 90
        2
 40
-0.6
 41
30.0
 62
     5
 63
     7
 74
     0
 91
        4
 64
     7
 65
   257
 75
     1
175
     1
 42
1.0
 92
        0
 66
     7
 43
1.0
 76
     1
 77
     6
 78
     2
 67
     7
 79
     5
170
     0
171
     0
290
     0
174
     0
 93
       13
 44
0.0
173
     0
291
     1
 45
0.0
1001
ACAD
1000
AcDbSavedByObjectVersion
1070
     0
  0
VISUALSTYLE
  5
3150
102
{ACAD_XDICTIONARY
360
3AEC
102
}
102
{ACAD_REACTORS
330
314C
102
}
330
314C
100
AcDbVisualStyle
  2
GouraudWithEdges
 70
     3
 71
     2
 72
     2
 73
     1
 90
        2
 40
-0.6
 41
30.0
 62
     5
 63
     7
 74
     1
 91
        4
 64
     7
 65
   257
 75
     1
175
     1
 42
1.0
 92
        0
 66
   257
 43
1.0
 76
     1
 77
     6
 78
     2
 67
     7
 79
     5
170
     0
171
     0
290
     0
174
     0
 93
       13
 44
0.0
173
     0
291
     1
 45
0.0
1001
ACAD
1000
AcDbSavedByObjectVersion
1070
     0
  0
VISUALSTYLE
  5
3244
102
{ACAD_XDICTIONARY
360
3B0F
102
}
102
{ACAD_REACTORS
330
314C
102
}
330
314C
100
AcDbVisualStyle
  2
Hidden
 70
     6
 71
     1
 72
     2
 73
     2
 90
        0
 40
-0.6
 41
-30.0
 62
     5
 63
     7
 74
     2
 91
        2
 64
     7
 65
   257
 75
     2
175
     1
 42
40.0
 92
        0
 66
   257
 43
1.0
 76
     1
 77
     6
 78
     2
 67
     7
 79
     3
170
     0
171
     0
290
     0
174
     0
 93
        1
 44
0.0
173
     0
291
     0
 45
0.0
1001
ACAD
1000
AcDbSavedByObjectVersion
1070
     0
  0
VISUALSTYLE
  5
315D
102
{ACAD_XDICTIONARY
360
3B06
102
}
102
{ACAD_REACTORS
330
314C
102
}
330
314C
100
AcDbVisualStyle
  2
JitterOff
 70
    20
 71
     2
 72
     2
 73
     0
 90
        0
 40
-0.6
 41
-30.0
 62
     5
 63
     7
 74
     1
 91
        4
 64
     7
 65
   257
 75
     1
175
     1
 42
1.0
 92
       10
 66
     7
 43
1.0
 76
     1
 77
     6
 78
     2
 67
     7
 79
     5
170
     0
171
     0
290
     0
174
     0
 93
        1
 44
0.0
173
     0
291
     1
 45
0.0
1001
ACAD
1000
AcDbSavedByObjectVersion
1070
     0
  0
VISUALSTYLE
  5
315A
102
{ACAD_XDICTIONARY
360
3B00
102
}
102
{ACAD_REACTORS
330
314C
102
}
330
314C
100
AcDbVisualStyle
  2
Linepattern
 70
    14
 71
     2
 72
     2
 73
     0
 90
        0
 40
-0.6
 41
-30.0
 62
     5
 63
     7
 74
     1
 91
        4
 64
     7
 65
   257
 75
     7
175
     7
 42
1.0
 92
        8
 66
     7
 43
1.0
 76
     1
 77
     6
 78
     2
 67
     7
 79
     5
170
     0
171
     0
290
     0
174
     0
 93
        1
 44
0.0
173
     0
291
     1
 45
0.0
1001
ACAD
1000
AcDbSavedByObjectVersion
1070
     0
  0
VISUALSTYLE
  5
315E
102
{ACAD_XDICTIONARY
360
3B08
102
}
102
{ACAD_REACTORS
330
314C
102
}
330
314C
100
AcDbVisualStyle
  2
OverhangOff
 70
    21
 71
     2
 72
     2
 73
     0
 90
        0
 40
-0.6
 41
-30.0
 62
     5
 63
     7
 74
     1
 91
        4
 64
     7
 65
   257
 75
     1
175
     1
 42
1.0
 92
        9
 66
     7
 43
1.0
 76
     1
 77
     6
 78
     2
 67
     7
 79
     5
170
     0
171
     0
290
     0
174
     0
 93
        1
 44
0.0
173
     0
291
     1
 45
0.0
1001
ACAD
1000
AcDbSavedByObjectVersion
1070
     0
  0
VISUALSTYLE
  5
3156
102
{ACAD_XDICTIONARY
360
3AF8
102
}
102
{ACAD_REACTORS
330
314C
102
}
330
314C
100
AcDbVisualStyle
  2
Realistic
 70
     8
 71
     2
 72
     2
 73
     0
 90
        0
 40
-0.6
 41
-30.0
 62
     5
 63
     7
 74
     1
 91
        0
 64
     7
 65
   257
 75
     1
175
     1
 42
1.0
 92
        8
 66
     8
 43
1.0
 76
     1
 77
     6
 78
     2
 67
     7
 79
     5
170
     0
171
     0
290
     0
174
     0
 93
       13
 44
0.0
173
     0
291
     0
 45
0.0
1001
ACAD
1000
AcDbSavedByObjectVersion
1070
     0
  0
VISUALSTYLE
  5
3249
102
{ACAD_XDICTIONARY
360
3B19
102
}
102
{ACAD_REACTORS
330
314C
102
}
330
314C
100
AcDbVisualStyle
  2
Shaded
 70
    27
 71
     2
 72
     2
 73
     1
 90
        2
 40
-0.6
 41
30.0
 62
     5
 63
     7
 74
     0
 91
        4
 64
     7
 65
   257
 75
     1
175
     1
 42
1.0
 92
        8
 66
   257
 43
1.0
 76
     1
 77
     6
 78
     2
 67
     8
 79
     3
170
     0
171
     0
290
     0
174
     0
 93
        5
 44
0.0
173
     0
291
     0
 45
0.0
1001
ACAD
1000
AcDbSavedByObjectVersion
1070
     0
  0
VISUALSTYLE
  5
3248
102
{ACAD_XDICTIONARY
360
3B17
102
}
102
{ACAD_REACTORS
330
314C
102
}
330
314C
100
AcDbVisualStyle
  2
Shaded with edges
 70
    26
 71
     2
 72
     2
 73
     1
 90
        2
 40
-0.6
 41
30.0
 62
     5
 63
     7
 74
     1
 91
        2
 64
     7
 65
   257
 75
     2
175
     1
 42
1.0
 92
        8
 66
   257
 43
1.0
 76
     1
 77
     6
 78
     2
 67
     7
 79
     3
170
     0
171
     0
290
     0
174
     0
 93
        5
 44
0.0
173
     0
291
     0
 45
0.0
1001
ACAD
1000
AcDbSavedByObjectVersion
1070
     0
  0
VISUALSTYLE
  5
3245
102
{ACAD_XDICTIONARY
360
3B11
102
}
102
{ACAD_REACTORS
330
314C
102
}
330
314C
100
AcDbVisualStyle
  2
Shades of Gray
 70
    23
 71
     2
 72
     2
 73
     3
 90
        0
 40
-0.6
 41
-30.0
 62
     5
 63
     7
 74
     2
 91
        2
 64
     7
 65
     7
 75
     1
175
     1
 42
40.0
 92
        8
 66
     7
 43
1.0
 76
     1
 77
     6
 78
     2
 67
     7
 79
     3
170
     0
171
     0
290
     0
174
     0
 93
        1
 44
0.0
173
     0
291
     0
 45
0.0
1001
ACAD
1000
AcDbSavedByObjectVersion
1070
     0
  0
VISUALSTYLE
  5
3246
102
{ACAD_XDICTIONARY
360
3B13
102
}
102
{ACAD_REACTORS
330
314C
102
}
330
314C
100
AcDbVisualStyle
  2
Sketchy
 70
    24
 71
     1
 72
     2
 73
     2
 90
        0
 40
-0.6
 41
-30.0
 62
     5
 63
     7
 74
     2
 91
        2
 64
     7
 65
     7
 75
     1
175
     1
 42
40.0
 92
       11
 66
     7
 43
1.0
 76
     1
 77
     6
 78
     2
 67
     7
 79
     6
170
     0
171
     0
290
     0
174
     0
 93
        1
 44
0.0
173
     0
291
     0
 45
0.0
1001
ACAD
1000
AcDbSavedByObjectVersion
1070
     0
  0
VISUALSTYLE
  5
3159
102
{ACAD_XDICTIONARY
360
3AFE
102
}
102
{ACAD_REACTORS
330
314C
102
}
330
314C
100
AcDbVisualStyle
  2
Thicken
 70
    13
 71
     2
 72
     2
 73
     0
 90
        0
 40
-0.6
 41
-30.0
 62
     5
 63
     7
 74
     1
 91
        4
 64
     7
 65
   257
 75
     1
175
     1
 42
1.0
 92
       12
 66
     7
 43
1.0
 76
     1
 77
     6
 78
     2
 67
     7
 79
     5
170
     0
171
     0
290
     0
174
     0
 93
        1
 44
0.0
173
     0
291
     1
 45
0.0
1001
ACAD
1000
AcDbSavedByObjectVersion
1070
     0
  0
VISUALSTYLE
  5
3243
102
{ACAD_XDICTIONARY
360
3B0D
102
}
102
{ACAD_REACTORS
330
314C
102
}
330
314C
100
AcDbVisualStyle
  2
Wireframe
 70
     5
 71
     0
 72
     2
 73
     0
 90
        0
 40
-0.6
 41
-30.0
 62
     5
 63
     7
 74
     1
 91
        4
 64
     7
 65
   257
 75
     1
175
     1
 42
1.0
 92
        0
 66
   257
 43
1.0
 76
     1
 77
     6
 78
     2
 67
     7
 79
     3
170
     0
171
     0
290
     0
174
     0
 93
        1
 44
0.0
173
     0
291
     0
 45
0.0
1001
ACAD
1000
AcDbSavedByObjectVersion
1070
     0
  0
VISUALSTYLE
  5
3247
102
{ACAD_XDICTIONARY
360
3B15
102
}
102
{ACAD_REACTORS
330
314C
102
}
330
314C
100
AcDbVisualStyle
  2
X-Ray
 70
    25
 71
     2
 72
     2
 73
     1
 90
        1
 40
0.5
 41
-30.0
 62
     5
 63
     7
 74
     1
 91
        0
 64
     7
 65
   257
 75
     1
175
     1
 42
1.0
 92
        8
 66
     7
 43
1.0
 76
     1
 77
     6
 78
     2
 67
     7
 79
     3
170
     0
171
     0
290
     0
174
     0
 93
       13
 44
0.0
173
     0
291
     0
 45
0.0
1001
ACAD
1000
AcDbSavedByObjectVersion
1070
     0
  0
DICTIONARYVAR
  5
31CE
102
{ACAD_REACTORS
330
1835
102
}
330
1835
100
DictionaryVariables
280
     0
  1
1:1
  0
DICTIONARYVAR
  5
31CD
102
{ACAD_REACTORS
330
1835
102
}
330
1835
100
DictionaryVariables
280
     0
  1
STANDARD
  0
DICTIONARYVAR
  5
31CC
102
{ACAD_REACTORS
330
1835
102
}
330
1835
100
DictionaryVariables
280
     0
  1
STANDARD
  0
DICTIONARYVAR
  5
3296
102
{ACAD_REACTORS
330
1835
102
}
330
1835
100
DictionaryVariables
280
     0
  1
Metric50
  0
DICTIONARYVAR
  5
3297
102
{ACAD_REACTORS
330
1835
102
}
330
1835
100
DictionaryVariables
280
     0
  1
Metric50
  0
DICTIONARYVAR
  5
31D0
102
{ACAD_REACTORS
330
1835
102
}
330
1835
100
DictionaryVariables
280
     0
  1
1
  0
DICTIONARYVAR
  5
31CF
102
{ACAD_REACTORS
330
1835
102
}
330
1835
100
DictionaryVariables
280
     0
  1
0
  0
DICTIONARYVAR
  5
1836
102
{ACAD_REACTORS
330
1835
102
}
330
1835
100
DictionaryVariables
280
     0
  1
127
  0
DICTIONARYVAR
  5
3ADB
102
{ACAD_REACTORS
330
1835
102
}
330
1835
100
DictionaryVariables
280
     0
  1
2
  0
DICTIONARY
  5
3B1D
330
324D
100
AcDbDictionary
280
     1
281
     1
  3
ACAD_XREC_ROUNDTRIP
360
3B1E
  0
DICTIONARY
  5
3ADF
330
22
100
AcDbDictionary
280
     1
281
     1
  3
ACAD_XREC_ROUNDTRIP
360
3AE0
  0
DICTIONARY
  5
3AE1
330
1CD1
100
AcDbDictionary
280
     1
281
     1
  3
ACAD_XREC_ROUNDTRIP
360
3AE2
  0
DICTIONARY
  5
313D
330
313C
100
AcDbDictionary
280
     1
281
     1
  3
ACAD_XREC_ROUNDTRIP
360
3AE4
  3
BUMPTILE
360
313F
  3
DIFFUSETILE
360
313E
  3
OPACITYTILE
360
3142
  3
REFLECTIONTILE
360
3141
  3
REFRACTIONTILE
360
3143
  3
SPECULARTILE
360
3140
  0
DICTIONARY
  5
3135
330
3134
100
AcDbDictionary
280
     1
281
     1
  3
ACAD_XREC_ROUNDTRIP
360
3AE3
  3
BUMPTILE
360
3137
  3
DIFFUSETILE
360
3136
  3
OPACITYTILE
360
313A
  3
REFLECTIONTILE
360
3139
  3
REFRACTIONTILE
360
313B
  3
SPECULARTILE
360
3138
  0
DICTIONARY
  5
3145
330
3144
100
AcDbDictionary
280
     1
281
     1
  3
ACAD_XREC_ROUNDTRIP
360
3AE5
  3
BUMPTILE
360
3147
  3
DIFFUSETILE
360
3146
  3
OPACITYTILE
360
314A
  3
REFLECTIONTILE
360
3149
  3
REFRACTIONTILE
360
314B
  3
SPECULARTILE
360
3148
  0
DICTIONARY
  5
3B1B
330
324B
100
AcDbDictionary
280
     1
281
     1
  3
ACAD_XREC_ROUNDTRIP
360
3B1C
  0
DICTIONARY
  5
3197
330
3162
100
AcDbDictionary
280
     1
281
     1
  3
ACAD_ROUNDTRIP_2008_TABLESTYLE_CELLSTYLEMAP
360
3ADC
  3
ACAD_XREC_ROUNDTRIP
360
3B0C
  0
DICTIONARY
  5
3AF0
330
3152
100
AcDbDictionary
280
     1
281
     1
  3
ACAD_XREC_ROUNDTRIP
360
3AF1
  0
DICTIONARY
  5
3AF4
330
3154
100
AcDbDictionary
280
     1
281
     1
  3
ACAD_XREC_ROUNDTRIP
360
3AF5
  0
DICTIONARY
  5
3AF2
330
3153
100
AcDbDictionary
280
     1
281
     1
  3
ACAD_XREC_ROUNDTRIP
360
3AF3
  0
DICTIONARY
  5
3AEE
330
3151
100
AcDbDictionary
280
     1
281
     1
  3
ACAD_XREC_ROUNDTRIP
360
3AEF
  0
DICTIONARY
  5
3AFC
330
3158
100
AcDbDictionary
280
     1
281
     1
  3
ACAD_XREC_ROUNDTRIP
360
3AFD
  0
DICTIONARY
  5
3B04
330
315C
100
AcDbDictionary
280
     1
281
     1
  3
ACAD_XREC_ROUNDTRIP
360
3B05
  0
DICTIONARY
  5
3AF6
330
3155
100
AcDbDictionary
280
     1
281
     1
  3
ACAD_XREC_ROUNDTRIP
360
3AF7
  0
DICTIONARY
  5
3AFA
330
3157
100
AcDbDictionary
280
     1
281
     1
  3
ACAD_XREC_ROUNDTRIP
360
3AFB
  0
DICTIONARY
  5
3B0A
330
315F
100
AcDbDictionary
280
     1
281
     1
  3
ACAD_XREC_ROUNDTRIP
360
3B0B
  0
DICTIONARY
  5
3B02
330
315B
100
AcDbDictionary
280
     1
281
     1
  3
ACAD_XREC_ROUNDTRIP
360
3B03
  0
DICTIONARY
  5
3AE6
330
314D
100
AcDbDictionary
280
     1
281
     1
  3
ACAD_XREC_ROUNDTRIP
360
3AE7
  0
DICTIONARY
  5
3AE8
330
314E
100
AcDbDictionary
280
     1
281
     1
  3
ACAD_XREC_ROUNDTRIP
360
3AE9
  0
DICTIONARY
  5
3AEA
330
314F
100
AcDbDictionary
280
     1
281
     1
  3
ACAD_XREC_ROUNDTRIP
360
3AEB
  0
DICTIONARY
  5
3AEC
330
3150
100
AcDbDictionary
280
     1
281
     1
  3
ACAD_XREC_ROUNDTRIP
360
3AED
  0
DICTIONARY
  5
3B0F
330
3244
100
AcDbDictionary
280
     1
281
     1
  3
ACAD_XREC_ROUNDTRIP
360
3B10
  0
DICTIONARY
  5
3B06
330
315D
100
AcDbDictionary
280
     1
281
     1
  3
ACAD_XREC_ROUNDTRIP
360
3B07
  0
DICTIONARY
  5
3B00
330
315A
100
AcDbDictionary
280
     1
281
     1
  3
ACAD_XREC_ROUNDTRIP
360
3B01
  0
DICTIONARY
  5
3B08
330
315E
100
AcDbDictionary
280
     1
281
     1
  3
ACAD_XREC_ROUNDTRIP
360
3B09
  0
DICTIONARY
  5
3AF8
330
3156
100
AcDbDictionary
280
     1
281
     1
  3
ACAD_XREC_ROUNDTRIP
360
3AF9
  0
DICTIONARY
  5
3B19
330
3249
100
AcDbDictionary
280
     1
281
     1
  3
ACAD_XREC_ROUNDTRIP
360
3B1A
  0
DICTIONARY
  5
3B17
330
3248
100
AcDbDictionary
280
     1
281
     1
  3
ACAD_XREC_ROUNDTRIP
360
3B18
  0
DICTIONARY
  5
3B11
330
3245
100
AcDbDictionary
280
     1
281
     1
  3
ACAD_XREC_ROUNDTRIP
360
3B12
  0
DICTIONARY
  5
3B13
330
3246
100
AcDbDictionary
280
     1
281
     1
  3
ACAD_XREC_ROUNDTRIP
360
3B14
  0
DICTIONARY
  5
3AFE
330
3159
100
AcDbDictionary
280
     1
281
     1
  3
ACAD_XREC_ROUNDTRIP
360
3AFF
  0
DICTIONARY
  5
3B0D
330
3243
100
AcDbDictionary
280
     1
281
     1
  3
ACAD_XREC_ROUNDTRIP
360
3B0E
  0
DICTIONARY
  5
3B15
330
3247
100
AcDbDictionary
280
     1
281
     1
  3
ACAD_XREC_ROUNDTRIP
360
3B16
  0
XRECORD
  5
3B1E
102
{ACAD_REACTORS
330
3B1D
102
}
330
3B1D
100
AcDbXrecord
280
     1
102
DISPLAYNAME
  1
Metric50
102
FLAGS
 90
        0
  0
XRECORD
  5
3AE0
102
{ACAD_REACTORS
330
3ADF
102
}
330
3ADF
100
AcDbXrecord
280
     1
102
SHADEPLOT
 70
     0
102
SHADEPLOTRESLEVEL
 70
     2
102
SHADEPLOTCUSTOMDPI
 70
   300
  0
XRECORD
  5
3AE2
102
{ACAD_REACTORS
330
3AE1
102
}
330
3AE1
100
AcDbXrecord
280
     1
102
SHADEPLOT
 70
     0
102
SHADEPLOTRESLEVEL
 70
     2
102
SHADEPLOTCUSTOMDPI
 70
   300
  0
XRECORD
  5
3AE4
102
{ACAD_REACTORS
330
313D
102
}
330
313D
100
AcDbXrecord
280
     1
102
MATERIAL
148
0.0
149
0.0
149
0.0
 93
        0
 94
      127
282
     0
 72
     0
 77
     0
171
     0
175
     0
179
     0
273
     0
  0
XRECORD
  5
313F
102
{ACAD_REACTORS
330
313D
102
}
330
313D
100
AcDbXrecord
280
     1
270
     1
271
     1
  0
XRECORD
  5
313E
102
{ACAD_REACTORS
330
313D
102
}
330
313D
100
AcDbXrecord
280
     1
270
     1
271
     1
  0
XRECORD
  5
3142
102
{ACAD_REACTORS
330
313D
102
}
330
313D
100
AcDbXrecord
280
     1
270
     1
271
     1
  0
XRECORD
  5
3141
102
{ACAD_REACTORS
330
313D
102
}
330
313D
100
AcDbXrecord
280
     1
270
     1
271
     1
  0
XRECORD
  5
3143
102
{ACAD_REACTORS
330
313D
102
}
330
313D
100
AcDbXrecord
280
     1
270
     1
271
     1
  0
XRECORD
  5
3140
102
{ACAD_REACTORS
330
313D
102
}
330
313D
100
AcDbXrecord
280
     1
270
     1
271
     1
  0
XRECORD
  5
3AE3
102
{ACAD_REACTORS
330
3135
102
}
330
3135
100
AcDbXrecord
280
     1
102
MATERIAL
148
0.0
149
0.0
149
0.0
 93
        0
 94
      127
282
     0
 72
     0
 77
     0
171
     0
175
     0
179
     0
273
     0
  0
XRECORD
  5
3137
102
{ACAD_REACTORS
330
3135
102
}
330
3135
100
AcDbXrecord
280
     1
270
     1
271
     1
  0
XRECORD
  5
3136
102
{ACAD_REACTORS
330
3135
102
}
330
3135
100
AcDbXrecord
280
     1
270
     1
271
     1
  0
XRECORD
  5
313A
102
{ACAD_REACTORS
330
3135
102
}
330
3135
100
AcDbXrecord
280
     1
270
     1
271
     1
  0
XRECORD
  5
3139
102
{ACAD_REACTORS
330
3135
102
}
330
3135
100
AcDbXrecord
280
     1
270
     1
271
     1
  0
XRECORD
  5
313B
102
{ACAD_REACTORS
330
3135
102
}
330
3135
100
AcDbXrecord
280
     1
270
     1
271
     1
  0
XRECORD
  5
3138
102
{ACAD_REACTORS
330
3135
102
}
330
3135
100
AcDbXrecord
280
     1
270
     1
271
     1
  0
XRECORD
  5
3AE5
102
{ACAD_REACTORS
330
3145
102
}
330
3145
100
AcDbXrecord
280
     1
102
MATERIAL
148
0.0
149
0.0
149
0.0
 93
        0
 94
      127
282
     0
 72
     0
 77
     0
171
     0
175
     0
179
     0
273
     0
  0
XRECORD
  5
3147
102
{ACAD_REACTORS
330
3145
102
}
330
3145
100
AcDbXrecord
280
     1
270
     1
271
     1
  0
XRECORD
  5
3146
102
{ACAD_REACTORS
330
3145
102
}
330
3145
100
AcDbXrecord
280
     1
270
     1
271
     1
  0
XRECORD
  5
314A
102
{ACAD_REACTORS
330
3145
102
}
330
3145
100
AcDbXrecord
280
     1
270
     1
271
     1
  0
XRECORD
  5
3149
102
{ACAD_REACTORS
330
3145
102
}
330
3145
100
AcDbXrecord
280
     1
270
     1
271
     1
  0
XRECORD
  5
314B
102
{ACAD_REACTORS
330
3145
102
}
330
3145
100
AcDbXrecord
280
     1
270
     1
271
     1
  0
XRECORD
  5
3148
102
{ACAD_REACTORS
330
3145
102
}
330
3145
100
AcDbXrecord
280
     1
270
     1
271
     1
  0
XRECORD
  5
3B1C
102
{ACAD_REACTORS
330
3B1B
102
}
330
3B1B
100
AcDbXrecord
280
     1
102
DISPLAYNAME
  1
Metric50
102
FLAGS
 90
        0
  0
CELLSTYLEMAP
  5
3ADC
102
{ACAD_REACTORS
330
3197
102
}
330
3197
100
AcDbCellStyleMap
 90
        3
300
CELLSTYLE
  1
TABLEFORMAT_BEGIN
 90
        5
170
     1
 91
        0
 92
    32768
 62
   257
 93
        1
300
CONTENTFORMAT
  1
CONTENTFORMAT_BEGIN
 90
        0
 91
        0
 92
      512
 93
        0
300

 40
0.0
140
1.0
 94
        5
 62
     0
340
11
144
6.0
309
CONTENTFORMAT_END
171
     1
301
MARGIN
  1
CELLMARGIN_BEGIN
 40
1.5
 40
1.5
 40
1.5
 40
1.5
 40
4.5
 40
4.5
309
CELLMARGIN_END
 94
        6
 95
        1
302
GRIDFORMAT
  1
GRIDFORMAT_BEGIN
 90
        0
 91
        1
 62
     0
 92
       -2
340
0
 93
        0
 40
1.125
309
GRIDFORMAT_END
 95
        2
302
GRIDFORMAT
  1
GRIDFORMAT_BEGIN
 90
        0
 91
        1
 62
     0
 92
       -2
340
0
 93
        0
 40
1.125
309
GRIDFORMAT_END
 95
        4
302
GRIDFORMAT
  1
GRIDFORMAT_BEGIN
 90
        0
 91
        1
 62
     0
 92
       -2
340
0
 93
        0
 40
1.125
309
GRIDFORMAT_END
 95
        8
302
GRIDFORMAT
  1
GRIDFORMAT_BEGIN
 90
        0
 91
        1
 62
     0
 92
       -2
340
0
 93
        0
 40
1.125
309
GRIDFORMAT_END
 95
       16
302
GRIDFORMAT
  1
GRIDFORMAT_BEGIN
 90
        0
 91
        1
 62
     0
 92
       -2
340
0
 93
        0
 40
1.125
309
GRIDFORMAT_END
 95
       32
302
GRIDFORMAT
  1
GRIDFORMAT_BEGIN
 90
        0
 91
        1
 62
     0
 92
       -2
340
0
 93
        0
 40
1.125
309
GRIDFORMAT_END
309
TABLEFORMAT_END
  1
CELLSTYLE_BEGIN
 90
        1
 91
        1
300
_TITLE
309
CELLSTYLE_END
300
CELLSTYLE
  1
TABLEFORMAT_BEGIN
 90
        5
170
     1
 91
        0
 92
        0
 62
   257
 93
        1
300
CONTENTFORMAT
  1
CONTENTFORMAT_BEGIN
 90
        0
 91
        0
 92
      512
 93
        0
300

 40
0.0
140
1.0
 94
        5
 62
     0
340
11
144
4.5
309
CONTENTFORMAT_END
171
     1
301
MARGIN
  1
CELLMARGIN_BEGIN
 40
1.5
 40
1.5
 40
1.5
 40
1.5
 40
4.5
 40
4.5
309
CELLMARGIN_END
 94
        6
 95
        1
302
GRIDFORMAT
  1
GRIDFORMAT_BEGIN
 90
        0
 91
        1
 62
     0
 92
       -2
340
0
 93
        0
 40
1.125
309
GRIDFORMAT_END
 95
        2
302
GRIDFORMAT
  1
GRIDFORMAT_BEGIN
 90
        0
 91
        1
 62
     0
 92
       -2
340
0
 93
        0
 40
1.125
309
GRIDFORMAT_END
 95
        4
302
GRIDFORMAT
  1
GRIDFORMAT_BEGIN
 90
        0
 91
        1
 62
     0
 92
       -2
340
0
 93
        0
 40
1.125
309
GRIDFORMAT_END
 95
        8
302
GRIDFORMAT
  1
GRIDFORMAT_BEGIN
 90
        0
 91
        1
 62
     0
 92
       -2
340
0
 93
        0
 40
1.125
309
GRIDFORMAT_END
 95
       16
302
GRIDFORMAT
  1
GRIDFORMAT_BEGIN
 90
        0
 91
        1
 62
     0
 92
       -2
340
0
 93
        0
 40
1.125
309
GRIDFORMAT_END
 95
       32
302
GRIDFORMAT
  1
GRIDFORMAT_BEGIN
 90
        0
 91
        1
 62
     0
 92
       -2
340
0
 93
        0
 40
1.125
309
GRIDFORMAT_END
309
TABLEFORMAT_END
  1
CELLSTYLE_BEGIN
 90
        2
 91
        1
300
_HEADER
309
CELLSTYLE_END
300
CELLSTYLE
  1
TABLEFORMAT_BEGIN
 90
        5
170
     1
 91
        0
 92
        0
 62
   257
 93
        1
300
CONTENTFORMAT
  1
CONTENTFORMAT_BEGIN
 90
        0
 91
        0
 92
      512
 93
        0
300

 40
0.0
140
1.0
 94
        2
 62
     0
340
11
144
4.5
309
CONTENTFORMAT_END
171
     1
301
MARGIN
  1
CELLMARGIN_BEGIN
 40
1.5
 40
1.5
 40
1.5
 40
1.5
 40
4.5
 40
4.5
309
CELLMARGIN_END
 94
        6
 95
        1
302
GRIDFORMAT
  1
GRIDFORMAT_BEGIN
 90
        0
 91
        1
 62
     0
 92
       -2
340
0
 93
        0
 40
1.125
309
GRIDFORMAT_END
 95
        2
302
GRIDFORMAT
  1
GRIDFORMAT_BEGIN
 90
        0
 91
        1
 62
     0
 92
       -2
340
0
 93
        0
 40
1.125
309
GRIDFORMAT_END
 95
        4
302
GRIDFORMAT
  1
GRIDFORMAT_BEGIN
 90
        0
 91
        1
 62
     0
 92
       -2
340
0
 93
        0
 40
1.125
309
GRIDFORMAT_END
 95
        8
302
GRIDFORMAT
  1
GRIDFORMAT_BEGIN
 90
        0
 91
        1
 62
     0
 92
       -2
340
0
 93
        0
 40
1.125
309
GRIDFORMAT_END
 95
       16
302
GRIDFORMAT
  1
GRIDFORMAT_BEGIN
 90
        0
 91
        1
 62
     0
 92
       -2
340
0
 93
        0
 40
1.125
309
GRIDFORMAT_END
 95
       32
302
GRIDFORMAT
  1
GRIDFORMAT_BEGIN
 90
        0
 91
        1
 62
     0
 92
       -2
340
0
 93
        0
 40
1.125
309
GRIDFORMAT_END
309
TABLEFORMAT_END
  1
CELLSTYLE_BEGIN
 90
        3
 91
        2
300
_DATA
309
CELLSTYLE_END
  0
XRECORD
  5
3B0C
102
{ACAD_REACTORS
330
3197
102
}
330
3197
100
AcDbXrecord
280
     1
102
ACAD_ROUNDTRIP_PRE2007_TABLESTYLE
 90
      512
 91
        0
  1

 92
      512
 93
        0
  2

 94
      512
 95
        0
  3

  0
XRECORD
  5
3AF1
102
{ACAD_REACTORS
330
3AF0
102
}
330
3AF0
100
AcDbXrecord
280
     1
102
RTVSPost2010Prop28
280
     1
102
RTVSPost2010PropOp28
 70
     1
102
RTVSPost2010Prop29
280
     1
102
RTVSPost2010PropOp29
 70
     1
102
RTVSPost2010Prop30
280
     0
102
RTVSPost2010PropOp30
 70
     1
102
RTVSPost2010Prop31
280
     0
102
RTVSPost2010PropOp31
 70
     1
102
RTVSPost2010Prop32
280
     0
102
RTVSPost2010PropOp32
 70
     1
102
RTVSPost2010Prop33
280
     0
102
RTVSPost2010PropOp33
 70
     1
102
RTVSPost2010Prop34
280
     0
102
RTVSPost2010PropOp34
 70
     1
102
RTVSPost2010Prop35
280
     0
102
RTVSPost2010PropOp35
 70
     1
102
RTVSPost2010Prop36
280
     0
102
RTVSPost2010PropOp36
 70
     1
102
RTVSPost2010Prop37
 90
       50
102
RTVSPost2010PropOp37
 70
     1
102
RTVSPost2010Prop38
140
0.0
102
RTVSPost2010PropOp38
 70
     1
102
RTVSPost2010Prop39
140
1.0
102
RTVSPost2010PropOp39
 70
     1
102
RTVSPost2010Prop40
 90
        0
102
RTVSPost2010PropOp40
 70
     1
102
RTVSPost2010Prop41ColorIndex
 90
       18
102
RTVSPost2010Prop41ColorRGB
 90
        0
102
RTVSPost2010PropOp41
 70
     1
102
RTVSPost2010Prop42
 90
       50
102
RTVSPost2010PropOp42
 70
     1
102
RTVSPost2010Prop43
 90
        3
102
RTVSPost2010PropOp43
 70
     1
102
RTVSPost2010Prop44ColorIndex
 90
        5
102
RTVSPost2010Prop44ColorRGB
 90
      255
102
RTVSPost2010PropOp44
 70
     1
102
RTVSPost2010Prop45
280
     0
102
RTVSPost2010PropOp45
 70
     1
102
RTVSPost2010Prop46
 90
       50
102
RTVSPost2010PropOp46
 70
     1
102
RTVSPost2010Prop47
 90
       50
102
RTVSPost2010PropOp47
 70
     1
102
RTVSPost2010Prop48
 90
       50
102
RTVSPost2010PropOp48
 70
     1
102
RTVSPost2010Prop49
280
     0
102
RTVSPost2010PropOp49
 70
     1
102
RTVSPost2010Prop50
 90
       50
102
RTVSPost2010PropOp50
 70
     1
102
RTVSPost2010Prop51ColorIndex
 90
      256
102
RTVSPost2010Prop51ColorRGB
 90
-16777216
102
RTVSPost2010PropOp51
 70
     0
102
RTVSPost2010Prop52
140
1.0
102
RTVSPost2010PropOp52
 70
     0
102
RTVSPost2010Prop53
 90
        2
102
RTVSPost2010PropOp53
 70
     1
102
RTVSPost2010Prop54
  1
strokes_ogs.tif
102
RTVSPost2010PropOp54
 70
     1
102
RTVSPost2010Prop55
280
     0
102
RTVSPost2010PropOp55
 70
     1
102
RTVSPost2010Prop56
140
1.0
102
RTVSPost2010PropOp56
 70
     1
102
RTVSPost2010Prop57
140
1.0
102
RTVSPost2010PropOp57
 70
     1
102
RTVSPropertyOp0
 70
     1
102
RTVSPropertyOp1
 70
     1
102
RTVSPropertyOp2
 70
     1
102
RTVSPropertyOp3
 70
     1
102
RTVSPropertyOp4
 70
     1
102
RTVSPropertyOp5
 70
     1
102
RTVSPropertyOp6
 70
     1
102
RTVSPropertyOp7
 70
     1
102
RTVSPropertyOp8
 70
     1
102
RTVSPropertyOp9
 70
     1
102
RTVSPropertyOp10
 70
     1
102
RTVSPropertyOp11
 70
     1
102
RTVSPropertyOp12
 70
     1
102
RTVSPropertyOp13
 70
     1
102
RTVSPropertyOp14
 70
     1
102
RTVSPropertyOp15
 70
     1
102
RTVSPropertyOp16
 70
     1
102
RTVSPropertyOp17
 70
     1
102
RTVSPropertyOp18
 70
     1
102
RTVSPropertyOp19
 70
     1
102
RTVSPropertyOp20
 70
     1
102
RTVSPropertyOp21
 70
     1
102
RTVSPropertyOp22
 70
     1
102
RTVSPropertyOp23
 70
     1
102
RTVSPropertyOp24
 70
     1
102
RTVSPropertyOp25
 70
     1
102
RTVSPropertyOp26
 70
     1
102
RTVSPropertyOp27
 70
     1
102
RTVSPropertyOp28
 70
     1
102
RTVSPropertyOp29
 70
     1
102
RTVSPropertyOp30
 70
     1
102
RTVSPropertyOp31
 70
     1
102
RTVSPropertyOp32
 70
     1
102
RTVSPropertyOp33
 70
     1
102
RTVSPropertyOp34
 70
     1
102
RTVSPropertyOp35
 70
     1
102
RTVSPropertyOp36
 70
     1
102
RTVSPropertyOp37
 70
     1
102
RTVSPropertyOp38
 70
     1
102
RTVSPropertyOp39
 70
     1
102
RTVSPropertyOp40
 70
     1
102
RTVSPropertyOp41
 70
     1
102
RTVSPropertyOp42
 70
     1
102
RTVSPropertyOp43
 70
     1
102
RTVSPropertyOp44
 70
     1
102
RTVSPropertyOp45
 70
     1
102
RTVSPropertyOp46
 70
     1
102
RTVSPropertyOp47
 70
     1
102
RTVSPropertyOp48
 70
     1
102
RTVSPropertyOp49
 70
     1
102
RTVSPropertyOp50
 70
     1
102
RTVSPropertyOp51
 70
     0
102
RTVSPropertyOp52
 70
     0
102
RTVSPropertyOp53
 70
     1
102
RTVSPropertyOp54
 70
     1
102
RTVSPropertyOp55
 70
     1
102
RTVSPropertyOp56
 70
     1
102
RTVSPropertyOp57
 70
     1
102
RTVSPropertyOp58
 70
     1
102
RTVSPropertyOp59
 70
     1
102
RTVSPropertyOp60
 70
     1
102
RTVSPropertyOp61
 70
     1
102
RTVSPropertyOp62
 70
     1
  0
XRECORD
  5
3AF5
102
{ACAD_REACTORS
330
3AF4
102
}
330
3AF4
100
AcDbXrecord
280
     1
102
RTVSPost2010Prop28
280
     0
102
RTVSPost2010PropOp28
 70
     1
102
RTVSPost2010Prop29
280
     1
102
RTVSPost2010PropOp29
 70
     1
102
RTVSPost2010Prop30
280
     1
102
RTVSPost2010PropOp30
 70
     1
102
RTVSPost2010Prop31
280
     0
102
RTVSPost2010PropOp31
 70
     1
102
RTVSPost2010Prop32
280
     0
102
RTVSPost2010PropOp32
 70
     1
102
RTVSPost2010Prop33
280
     0
102
RTVSPost2010PropOp33
 70
     1
102
RTVSPost2010Prop34
280
     0
102
RTVSPost2010PropOp34
 70
     1
102
RTVSPost2010Prop35
280
     0
102
RTVSPost2010PropOp35
 70
     1
102
RTVSPost2010Prop36
280
     0
102
RTVSPost2010PropOp36
 70
     1
102
RTVSPost2010Prop37
 90
       50
102
RTVSPost2010PropOp37
 70
     1
102
RTVSPost2010Prop38
140
0.0
102
RTVSPost2010PropOp38
 70
     1
102
RTVSPost2010Prop39
140
1.0
102
RTVSPost2010PropOp39
 70
     1
102
RTVSPost2010Prop40
 90
        0
102
RTVSPost2010PropOp40
 70
     1
102
RTVSPost2010Prop41ColorIndex
 90
       18
102
RTVSPost2010Prop41ColorRGB
 90
        0
102
RTVSPost2010PropOp41
 70
     1
102
RTVSPost2010Prop42
 90
       50
102
RTVSPost2010PropOp42
 70
     1
102
RTVSPost2010Prop43
 90
        3
102
RTVSPost2010PropOp43
 70
     1
102
RTVSPost2010Prop44ColorIndex
 90
        5
102
RTVSPost2010Prop44ColorRGB
 90
      255
102
RTVSPost2010PropOp44
 70
     1
102
RTVSPost2010Prop45
280
     0
102
RTVSPost2010PropOp45
 70
     1
102
RTVSPost2010Prop46
 90
       50
102
RTVSPost2010PropOp46
 70
     1
102
RTVSPost2010Prop47
 90
       50
102
RTVSPost2010PropOp47
 70
     1
102
RTVSPost2010Prop48
 90
       50
102
RTVSPost2010PropOp48
 70
     1
102
RTVSPost2010Prop49
280
     0
102
RTVSPost2010PropOp49
 70
     1
102
RTVSPost2010Prop50
 90
       50
102
RTVSPost2010PropOp50
 70
     1
102
RTVSPost2010Prop51ColorIndex
 90
      256
102
RTVSPost2010Prop51ColorRGB
 90
-16777216
102
RTVSPost2010PropOp51
 70
     0
102
RTVSPost2010Prop52
140
1.0
102
RTVSPost2010PropOp52
 70
     0
102
RTVSPost2010Prop53
 90
        2
102
RTVSPost2010PropOp53
 70
     1
102
RTVSPost2010Prop54
  1
strokes_ogs.tif
102
RTVSPost2010PropOp54
 70
     1
102
RTVSPost2010Prop55
280
     0
102
RTVSPost2010PropOp55
 70
     1
102
RTVSPost2010Prop56
140
1.0
102
RTVSPost2010PropOp56
 70
     1
102
RTVSPost2010Prop57
140
1.0
102
RTVSPost2010PropOp57
 70
     1
102
RTVSPropertyOp0
 70
     1
102
RTVSPropertyOp1
 70
     1
102
RTVSPropertyOp2
 70
     1
102
RTVSPropertyOp3
 70
     1
102
RTVSPropertyOp4
 70
     1
102
RTVSPropertyOp5
 70
     1
102
RTVSPropertyOp6
 70
     1
102
RTVSPropertyOp7
 70
     1
102
RTVSPropertyOp8
 70
     1
102
RTVSPropertyOp9
 70
     1
102
RTVSPropertyOp10
 70
     1
102
RTVSPropertyOp11
 70
     1
102
RTVSPropertyOp12
 70
     1
102
RTVSPropertyOp13
 70
     1
102
RTVSPropertyOp14
 70
     1
102
RTVSPropertyOp15
 70
     1
102
RTVSPropertyOp16
 70
     1
102
RTVSPropertyOp17
 70
     1
102
RTVSPropertyOp18
 70
     1
102
RTVSPropertyOp19
 70
     1
102
RTVSPropertyOp20
 70
     1
102
RTVSPropertyOp21
 70
     1
102
RTVSPropertyOp22
 70
     1
102
RTVSPropertyOp23
 70
     1
102
RTVSPropertyOp24
 70
     1
102
RTVSPropertyOp25
 70
     1
102
RTVSPropertyOp26
 70
     1
102
RTVSPropertyOp27
 70
     1
102
RTVSPropertyOp28
 70
     1
102
RTVSPropertyOp29
 70
     1
102
RTVSPropertyOp30
 70
     1
102
RTVSPropertyOp31
 70
     1
102
RTVSPropertyOp32
 70
     1
102
RTVSPropertyOp33
 70
     1
102
RTVSPropertyOp34
 70
     1
102
RTVSPropertyOp35
 70
     1
102
RTVSPropertyOp36
 70
     1
102
RTVSPropertyOp37
 70
     1
102
RTVSPropertyOp38
 70
     1
102
RTVSPropertyOp39
 70
     1
102
RTVSPropertyOp40
 70
     1
102
RTVSPropertyOp41
 70
     1
102
RTVSPropertyOp42
 70
     1
102
RTVSPropertyOp43
 70
     1
102
RTVSPropertyOp44
 70
     1
102
RTVSPropertyOp45
 70
     1
102
RTVSPropertyOp46
 70
     1
102
RTVSPropertyOp47
 70
     1
102
RTVSPropertyOp48
 70
     1
102
RTVSPropertyOp49
 70
     1
102
RTVSPropertyOp50
 70
     1
102
RTVSPropertyOp51
 70
     0
102
RTVSPropertyOp52
 70
     0
102
RTVSPropertyOp53
 70
     1
102
RTVSPropertyOp54
 70
     1
102
RTVSPropertyOp55
 70
     1
102
RTVSPropertyOp56
 70
     1
102
RTVSPropertyOp57
 70
     1
102
RTVSPropertyOp58
 70
     1
102
RTVSPropertyOp59
 70
     1
102
RTVSPropertyOp60
 70
     1
102
RTVSPropertyOp61
 70
     1
102
RTVSPropertyOp62
 70
     1
  0
XRECORD
  5
3AF3
102
{ACAD_REACTORS
330
3AF2
102
}
330
3AF2
100
AcDbXrecord
280
     1
102
RTVSPost2010Prop28
280
     0
102
RTVSPost2010PropOp28
 70
     1
102
RTVSPost2010Prop29
280
     1
102
RTVSPost2010PropOp29
 70
     1
102
RTVSPost2010Prop30
280
     1
102
RTVSPost2010PropOp30
 70
     1
102
RTVSPost2010Prop31
280
     0
102
RTVSPost2010PropOp31
 70
     1
102
RTVSPost2010Prop32
280
     0
102
RTVSPost2010PropOp32
 70
     1
102
RTVSPost2010Prop33
280
     0
102
RTVSPost2010PropOp33
 70
     1
102
RTVSPost2010Prop34
280
     0
102
RTVSPost2010PropOp34
 70
     1
102
RTVSPost2010Prop35
280
     0
102
RTVSPost2010PropOp35
 70
     1
102
RTVSPost2010Prop36
280
     0
102
RTVSPost2010PropOp36
 70
     1
102
RTVSPost2010Prop37
 90
       50
102
RTVSPost2010PropOp37
 70
     1
102
RTVSPost2010Prop38
140
0.0
102
RTVSPost2010PropOp38
 70
     1
102
RTVSPost2010Prop39
140
1.0
102
RTVSPost2010PropOp39
 70
     1
102
RTVSPost2010Prop40
 90
        0
102
RTVSPost2010PropOp40
 70
     1
102
RTVSPost2010Prop41ColorIndex
 90
       18
102
RTVSPost2010Prop41ColorRGB
 90
        0
102
RTVSPost2010PropOp41
 70
     1
102
RTVSPost2010Prop42
 90
       50
102
RTVSPost2010PropOp42
 70
     1
102
RTVSPost2010Prop43
 90
        3
102
RTVSPost2010PropOp43
 70
     1
102
RTVSPost2010Prop44ColorIndex
 90
        5
102
RTVSPost2010Prop44ColorRGB
 90
      255
102
RTVSPost2010PropOp44
 70
     1
102
RTVSPost2010Prop45
280
     0
102
RTVSPost2010PropOp45
 70
     1
102
RTVSPost2010Prop46
 90
       50
102
RTVSPost2010PropOp46
 70
     1
102
RTVSPost2010Prop47
 90
       50
102
RTVSPost2010PropOp47
 70
     1
102
RTVSPost2010Prop48
 90
       50
102
RTVSPost2010PropOp48
 70
     1
102
RTVSPost2010Prop49
280
     0
102
RTVSPost2010PropOp49
 70
     1
102
RTVSPost2010Prop50
 90
       50
102
RTVSPost2010PropOp50
 70
     1
102
RTVSPost2010Prop51ColorIndex
 90
      256
102
RTVSPost2010Prop51ColorRGB
 90
-16777216
102
RTVSPost2010PropOp51
 70
     0
102
RTVSPost2010Prop52
140
1.0
102
RTVSPost2010PropOp52
 70
     0
102
RTVSPost2010Prop53
 90
        2
102
RTVSPost2010PropOp53
 70
     1
102
RTVSPost2010Prop54
  1
strokes_ogs.tif
102
RTVSPost2010PropOp54
 70
     1
102
RTVSPost2010Prop55
280
     0
102
RTVSPost2010PropOp55
 70
     1
102
RTVSPost2010Prop56
140
1.0
102
RTVSPost2010PropOp56
 70
     1
102
RTVSPost2010Prop57
140
1.0
102
RTVSPost2010PropOp57
 70
     1
102
RTVSPropertyOp0
 70
     1
102
RTVSPropertyOp1
 70
     1
102
RTVSPropertyOp2
 70
     1
102
RTVSPropertyOp3
 70
     1
102
RTVSPropertyOp4
 70
     1
102
RTVSPropertyOp5
 70
     1
102
RTVSPropertyOp6
 70
     1
102
RTVSPropertyOp7
 70
     1
102
RTVSPropertyOp8
 70
     1
102
RTVSPropertyOp9
 70
     1
102
RTVSPropertyOp10
 70
     1
102
RTVSPropertyOp11
 70
     1
102
RTVSPropertyOp12
 70
     1
102
RTVSPropertyOp13
 70
     1
102
RTVSPropertyOp14
 70
     1
102
RTVSPropertyOp15
 70
     1
102
RTVSPropertyOp16
 70
     1
102
RTVSPropertyOp17
 70
     1
102
RTVSPropertyOp18
 70
     1
102
RTVSPropertyOp19
 70
     1
102
RTVSPropertyOp20
 70
     1
102
RTVSPropertyOp21
 70
     1
102
RTVSPropertyOp22
 70
     1
102
RTVSPropertyOp23
 70
     1
102
RTVSPropertyOp24
 70
     1
102
RTVSPropertyOp25
 70
     1
102
RTVSPropertyOp26
 70
     1
102
RTVSPropertyOp27
 70
     1
102
RTVSPropertyOp28
 70
     1
102
RTVSPropertyOp29
 70
     1
102
RTVSPropertyOp30
 70
     1
102
RTVSPropertyOp31
 70
     1
102
RTVSPropertyOp32
 70
     1
102
RTVSPropertyOp33
 70
     1
102
RTVSPropertyOp34
 70
     1
102
RTVSPropertyOp35
 70
     1
102
RTVSPropertyOp36
 70
     1
102
RTVSPropertyOp37
 70
     1
102
RTVSPropertyOp38
 70
     1
102
RTVSPropertyOp39
 70
     1
102
RTVSPropertyOp40
 70
     1
102
RTVSPropertyOp41
 70
     1
102
RTVSPropertyOp42
 70
     1
102
RTVSPropertyOp43
 70
     1
102
RTVSPropertyOp44
 70
     1
102
RTVSPropertyOp45
 70
     1
102
RTVSPropertyOp46
 70
     1
102
RTVSPropertyOp47
 70
     1
102
RTVSPropertyOp48
 70
     1
102
RTVSPropertyOp49
 70
     1
102
RTVSPropertyOp50
 70
     1
102
RTVSPropertyOp51
 70
     0
102
RTVSPropertyOp52
 70
     0
102
RTVSPropertyOp53
 70
     1
102
RTVSPropertyOp54
 70
     1
102
RTVSPropertyOp55
 70
     1
102
RTVSPropertyOp56
 70
     1
102
RTVSPropertyOp57
 70
     1
102
RTVSPropertyOp58
 70
     1
102
RTVSPropertyOp59
 70
     1
102
RTVSPropertyOp60
 70
     1
102
RTVSPropertyOp61
 70
     1
102
RTVSPropertyOp62
 70
     1
  0
XRECORD
  5
3AEF
102
{ACAD_REACTORS
330
3AEE
102
}
330
3AEE
100
AcDbXrecord
280
     1
102
RTVSPost2010Prop28
280
     0
102
RTVSPost2010PropOp28
 70
     1
102
RTVSPost2010Prop29
280
     1
102
RTVSPost2010PropOp29
 70
     1
102
RTVSPost2010Prop30
280
     1
102
RTVSPost2010PropOp30
 70
     1
102
RTVSPost2010Prop31
280
     0
102
RTVSPost2010PropOp31
 70
     1
102
RTVSPost2010Prop32
280
     0
102
RTVSPost2010PropOp32
 70
     1
102
RTVSPost2010Prop33
280
     0
102
RTVSPost2010PropOp33
 70
     1
102
RTVSPost2010Prop34
280
     0
102
RTVSPost2010PropOp34
 70
     1
102
RTVSPost2010Prop35
280
     0
102
RTVSPost2010PropOp35
 70
     1
102
RTVSPost2010Prop36
280
     0
102
RTVSPost2010PropOp36
 70
     1
102
RTVSPost2010Prop37
 90
       50
102
RTVSPost2010PropOp37
 70
     1
102
RTVSPost2010Prop38
140
0.0
102
RTVSPost2010PropOp38
 70
     1
102
RTVSPost2010Prop39
140
1.0
102
RTVSPost2010PropOp39
 70
     1
102
RTVSPost2010Prop40
 90
        0
102
RTVSPost2010PropOp40
 70
     1
102
RTVSPost2010Prop41ColorIndex
 90
       18
102
RTVSPost2010Prop41ColorRGB
 90
        0
102
RTVSPost2010PropOp41
 70
     1
102
RTVSPost2010Prop42
 90
       50
102
RTVSPost2010PropOp42
 70
     1
102
RTVSPost2010Prop43
 90
        3
102
RTVSPost2010PropOp43
 70
     1
102
RTVSPost2010Prop44ColorIndex
 90
        5
102
RTVSPost2010Prop44ColorRGB
 90
      255
102
RTVSPost2010PropOp44
 70
     1
102
RTVSPost2010Prop45
280
     0
102
RTVSPost2010PropOp45
 70
     1
102
RTVSPost2010Prop46
 90
       50
102
RTVSPost2010PropOp46
 70
     1
102
RTVSPost2010Prop47
 90
       50
102
RTVSPost2010PropOp47
 70
     1
102
RTVSPost2010Prop48
 90
       50
102
RTVSPost2010PropOp48
 70
     1
102
RTVSPost2010Prop49
280
     0
102
RTVSPost2010PropOp49
 70
     1
102
RTVSPost2010Prop50
 90
       50
102
RTVSPost2010PropOp50
 70
     1
102
RTVSPost2010Prop51ColorIndex
 90
      256
102
RTVSPost2010Prop51ColorRGB
 90
-16777216
102
RTVSPost2010PropOp51
 70
     0
102
RTVSPost2010Prop52
140
1.0
102
RTVSPost2010PropOp52
 70
     0
102
RTVSPost2010Prop53
 90
        2
102
RTVSPost2010PropOp53
 70
     1
102
RTVSPost2010Prop54
  1
strokes_ogs.tif
102
RTVSPost2010PropOp54
 70
     1
102
RTVSPost2010Prop55
280
     0
102
RTVSPost2010PropOp55
 70
     1
102
RTVSPost2010Prop56
140
1.0
102
RTVSPost2010PropOp56
 70
     1
102
RTVSPost2010Prop57
140
1.0
102
RTVSPost2010PropOp57
 70
     1
102
RTVSPropertyOp0
 70
     1
102
RTVSPropertyOp1
 70
     1
102
RTVSPropertyOp2
 70
     1
102
RTVSPropertyOp3
 70
     1
102
RTVSPropertyOp4
 70
     1
102
RTVSPropertyOp5
 70
     1
102
RTVSPropertyOp6
 70
     1
102
RTVSPropertyOp7
 70
     1
102
RTVSPropertyOp8
 70
     1
102
RTVSPropertyOp9
 70
     1
102
RTVSPropertyOp10
 70
     1
102
RTVSPropertyOp11
 70
     1
102
RTVSPropertyOp12
 70
     1
102
RTVSPropertyOp13
 70
     1
102
RTVSPropertyOp14
 70
     1
102
RTVSPropertyOp15
 70
     1
102
RTVSPropertyOp16
 70
     1
102
RTVSPropertyOp17
 70
     1
102
RTVSPropertyOp18
 70
     1
102
RTVSPropertyOp19
 70
     1
102
RTVSPropertyOp20
 70
     1
102
RTVSPropertyOp21
 70
     1
102
RTVSPropertyOp22
 70
     1
102
RTVSPropertyOp23
 70
     1
102
RTVSPropertyOp24
 70
     1
102
RTVSPropertyOp25
 70
     1
102
RTVSPropertyOp26
 70
     1
102
RTVSPropertyOp27
 70
     1
102
RTVSPropertyOp28
 70
     1
102
RTVSPropertyOp29
 70
     1
102
RTVSPropertyOp30
 70
     1
102
RTVSPropertyOp31
 70
     1
102
RTVSPropertyOp32
 70
     1
102
RTVSPropertyOp33
 70
     1
102
RTVSPropertyOp34
 70
     1
102
RTVSPropertyOp35
 70
     1
102
RTVSPropertyOp36
 70
     1
102
RTVSPropertyOp37
 70
     1
102
RTVSPropertyOp38
 70
     1
102
RTVSPropertyOp39
 70
     1
102
RTVSPropertyOp40
 70
     1
102
RTVSPropertyOp41
 70
     1
102
RTVSPropertyOp42
 70
     1
102
RTVSPropertyOp43
 70
     1
102
RTVSPropertyOp44
 70
     1
102
RTVSPropertyOp45
 70
     1
102
RTVSPropertyOp46
 70
     1
102
RTVSPropertyOp47
 70
     1
102
RTVSPropertyOp48
 70
     1
102
RTVSPropertyOp49
 70
     1
102
RTVSPropertyOp50
 70
     1
102
RTVSPropertyOp51
 70
     0
102
RTVSPropertyOp52
 70
     0
102
RTVSPropertyOp53
 70
     1
102
RTVSPropertyOp54
 70
     1
102
RTVSPropertyOp55
 70
     1
102
RTVSPropertyOp56
 70
     1
102
RTVSPropertyOp57
 70
     1
102
RTVSPropertyOp58
 70
     1
102
RTVSPropertyOp59
 70
     1
102
RTVSPropertyOp60
 70
     1
102
RTVSPropertyOp61
 70
     1
102
RTVSPropertyOp62
 70
     1
  0
XRECORD
  5
3AFD
102
{ACAD_REACTORS
330
3AFC
102
}
330
3AFC
100
AcDbXrecord
280
     1
102
RTVSPost2010Prop28
280
     0
102
RTVSPost2010PropOp28
 70
     1
102
RTVSPost2010Prop29
280
     1
102
RTVSPost2010PropOp29
 70
     1
102
RTVSPost2010Prop30
280
     1
102
RTVSPost2010PropOp30
 70
     1
102
RTVSPost2010Prop31
280
     0
102
RTVSPost2010PropOp31
 70
     1
102
RTVSPost2010Prop32
280
     0
102
RTVSPost2010PropOp32
 70
     1
102
RTVSPost2010Prop33
280
     0
102
RTVSPost2010PropOp33
 70
     1
102
RTVSPost2010Prop34
280
     0
102
RTVSPost2010PropOp34
 70
     1
102
RTVSPost2010Prop35
280
     0
102
RTVSPost2010PropOp35
 70
     1
102
RTVSPost2010Prop36
280
     0
102
RTVSPost2010PropOp36
 70
     1
102
RTVSPost2010Prop37
 90
       50
102
RTVSPost2010PropOp37
 70
     1
102
RTVSPost2010Prop38
140
0.0
102
RTVSPost2010PropOp38
 70
     1
102
RTVSPost2010Prop39
140
1.0
102
RTVSPost2010PropOp39
 70
     1
102
RTVSPost2010Prop40
 90
        0
102
RTVSPost2010PropOp40
 70
     1
102
RTVSPost2010Prop41ColorIndex
 90
       18
102
RTVSPost2010Prop41ColorRGB
 90
        0
102
RTVSPost2010PropOp41
 70
     1
102
RTVSPost2010Prop42
 90
       50
102
RTVSPost2010PropOp42
 70
     1
102
RTVSPost2010Prop43
 90
        3
102
RTVSPost2010PropOp43
 70
     1
102
RTVSPost2010Prop44ColorIndex
 90
        5
102
RTVSPost2010Prop44ColorRGB
 90
      255
102
RTVSPost2010PropOp44
 70
     1
102
RTVSPost2010Prop45
280
     0
102
RTVSPost2010PropOp45
 70
     1
102
RTVSPost2010Prop46
 90
       50
102
RTVSPost2010PropOp46
 70
     1
102
RTVSPost2010Prop47
 90
       50
102
RTVSPost2010PropOp47
 70
     1
102
RTVSPost2010Prop48
 90
       50
102
RTVSPost2010PropOp48
 70
     1
102
RTVSPost2010Prop49
280
     0
102
RTVSPost2010PropOp49
 70
     1
102
RTVSPost2010Prop50
 90
       50
102
RTVSPost2010PropOp50
 70
     1
102
RTVSPost2010Prop51ColorIndex
 90
      256
102
RTVSPost2010Prop51ColorRGB
 90
-16777216
102
RTVSPost2010PropOp51
 70
     0
102
RTVSPost2010Prop52
140
1.0
102
RTVSPost2010PropOp52
 70
     0
102
RTVSPost2010Prop53
 90
        2
102
RTVSPost2010PropOp53
 70
     1
102
RTVSPost2010Prop54
  1
strokes_ogs.tif
102
RTVSPost2010PropOp54
 70
     1
102
RTVSPost2010Prop55
280
     0
102
RTVSPost2010PropOp55
 70
     1
102
RTVSPost2010Prop56
140
1.0
102
RTVSPost2010PropOp56
 70
     1
102
RTVSPost2010Prop57
140
1.0
102
RTVSPost2010PropOp57
 70
     1
102
RTVSPropertyOp0
 70
     1
102
RTVSPropertyOp1
 70
     1
102
RTVSPropertyOp2
 70
     1
102
RTVSPropertyOp3
 70
     1
102
RTVSPropertyOp4
 70
     1
102
RTVSPropertyOp5
 70
     1
102
RTVSPropertyOp6
 70
     1
102
RTVSPropertyOp7
 70
     1
102
RTVSPropertyOp8
 70
     1
102
RTVSPropertyOp9
 70
     1
102
RTVSPropertyOp10
 70
     1
102
RTVSPropertyOp11
 70
     1
102
RTVSPropertyOp12
 70
     1
102
RTVSPropertyOp13
 70
     1
102
RTVSPropertyOp14
 70
     1
102
RTVSPropertyOp15
 70
     1
102
RTVSPropertyOp16
 70
     1
102
RTVSPropertyOp17
 70
     1
102
RTVSPropertyOp18
 70
     1
102
RTVSPropertyOp19
 70
     1
102
RTVSPropertyOp20
 70
     1
102
RTVSPropertyOp21
 70
     1
102
RTVSPropertyOp22
 70
     1
102
RTVSPropertyOp23
 70
     1
102
RTVSPropertyOp24
 70
     1
102
RTVSPropertyOp25
 70
     1
102
RTVSPropertyOp26
 70
     1
102
RTVSPropertyOp27
 70
     1
102
RTVSPropertyOp28
 70
     1
102
RTVSPropertyOp29
 70
     1
102
RTVSPropertyOp30
 70
     1
102
RTVSPropertyOp31
 70
     1
102
RTVSPropertyOp32
 70
     1
102
RTVSPropertyOp33
 70
     1
102
RTVSPropertyOp34
 70
     1
102
RTVSPropertyOp35
 70
     1
102
RTVSPropertyOp36
 70
     1
102
RTVSPropertyOp37
 70
     1
102
RTVSPropertyOp38
 70
     1
102
RTVSPropertyOp39
 70
     1
102
RTVSPropertyOp40
 70
     1
102
RTVSPropertyOp41
 70
     1
102
RTVSPropertyOp42
 70
     1
102
RTVSPropertyOp43
 70
     1
102
RTVSPropertyOp44
 70
     1
102
RTVSPropertyOp45
 70
     1
102
RTVSPropertyOp46
 70
     1
102
RTVSPropertyOp47
 70
     1
102
RTVSPropertyOp48
 70
     1
102
RTVSPropertyOp49
 70
     1
102
RTVSPropertyOp50
 70
     1
102
RTVSPropertyOp51
 70
     0
102
RTVSPropertyOp52
 70
     0
102
RTVSPropertyOp53
 70
     1
102
RTVSPropertyOp54
 70
     1
102
RTVSPropertyOp55
 70
     1
102
RTVSPropertyOp56
 70
     1
102
RTVSPropertyOp57
 70
     1
102
RTVSPropertyOp58
 70
     1
102
RTVSPropertyOp59
 70
     1
102
RTVSPropertyOp60
 70
     1
102
RTVSPropertyOp61
 70
     1
102
RTVSPropertyOp62
 70
     1
  0
XRECORD
  5
3B05
102
{ACAD_REACTORS
330
3B04
102
}
330
3B04
100
AcDbXrecord
280
     1
102
RTVSPost2010Prop28
280
     0
102
RTVSPost2010PropOp28
 70
     1
102
RTVSPost2010Prop29
280
     1
102
RTVSPost2010PropOp29
 70
     1
102
RTVSPost2010Prop30
280
     1
102
RTVSPost2010PropOp30
 70
     1
102
RTVSPost2010Prop31
280
     0
102
RTVSPost2010PropOp31
 70
     1
102
RTVSPost2010Prop32
280
     0
102
RTVSPost2010PropOp32
 70
     1
102
RTVSPost2010Prop33
280
     0
102
RTVSPost2010PropOp33
 70
     1
102
RTVSPost2010Prop34
280
     0
102
RTVSPost2010PropOp34
 70
     1
102
RTVSPost2010Prop35
280
     0
102
RTVSPost2010PropOp35
 70
     1
102
RTVSPost2010Prop36
280
     0
102
RTVSPost2010PropOp36
 70
     1
102
RTVSPost2010Prop37
 90
       50
102
RTVSPost2010PropOp37
 70
     1
102
RTVSPost2010Prop38
140
0.0
102
RTVSPost2010PropOp38
 70
     1
102
RTVSPost2010Prop39
140
1.0
102
RTVSPost2010PropOp39
 70
     1
102
RTVSPost2010Prop40
 90
        0
102
RTVSPost2010PropOp40
 70
     1
102
RTVSPost2010Prop41ColorIndex
 90
       18
102
RTVSPost2010Prop41ColorRGB
 90
        0
102
RTVSPost2010PropOp41
 70
     1
102
RTVSPost2010Prop42
 90
       50
102
RTVSPost2010PropOp42
 70
     1
102
RTVSPost2010Prop43
 90
        3
102
RTVSPost2010PropOp43
 70
     1
102
RTVSPost2010Prop44ColorIndex
 90
        5
102
RTVSPost2010Prop44ColorRGB
 90
      255
102
RTVSPost2010PropOp44
 70
     1
102
RTVSPost2010Prop45
280
     0
102
RTVSPost2010PropOp45
 70
     1
102
RTVSPost2010Prop46
 90
       50
102
RTVSPost2010PropOp46
 70
     1
102
RTVSPost2010Prop47
 90
       50
102
RTVSPost2010PropOp47
 70
     1
102
RTVSPost2010Prop48
 90
       50
102
RTVSPost2010PropOp48
 70
     1
102
RTVSPost2010Prop49
280
     0
102
RTVSPost2010PropOp49
 70
     1
102
RTVSPost2010Prop50
 90
       50
102
RTVSPost2010PropOp50
 70
     1
102
RTVSPost2010Prop51ColorIndex
 90
      256
102
RTVSPost2010Prop51ColorRGB
 90
-16777216
102
RTVSPost2010PropOp51
 70
     0
102
RTVSPost2010Prop52
140
1.0
102
RTVSPost2010PropOp52
 70
     0
102
RTVSPost2010Prop53
 90
        2
102
RTVSPost2010PropOp53
 70
     1
102
RTVSPost2010Prop54
  1
strokes_ogs.tif
102
RTVSPost2010PropOp54
 70
     1
102
RTVSPost2010Prop55
280
     0
102
RTVSPost2010PropOp55
 70
     1
102
RTVSPost2010Prop56
140
1.0
102
RTVSPost2010PropOp56
 70
     1
102
RTVSPost2010Prop57
140
1.0
102
RTVSPost2010PropOp57
 70
     1
102
RTVSPropertyOp0
 70
     1
102
RTVSPropertyOp1
 70
     1
102
RTVSPropertyOp2
 70
     1
102
RTVSPropertyOp3
 70
     1
102
RTVSPropertyOp4
 70
     1
102
RTVSPropertyOp5
 70
     1
102
RTVSPropertyOp6
 70
     1
102
RTVSPropertyOp7
 70
     1
102
RTVSPropertyOp8
 70
     1
102
RTVSPropertyOp9
 70
     1
102
RTVSPropertyOp10
 70
     1
102
RTVSPropertyOp11
 70
     1
102
RTVSPropertyOp12
 70
     1
102
RTVSPropertyOp13
 70
     1
102
RTVSPropertyOp14
 70
     1
102
RTVSPropertyOp15
 70
     1
102
RTVSPropertyOp16
 70
     1
102
RTVSPropertyOp17
 70
     1
102
RTVSPropertyOp18
 70
     1
102
RTVSPropertyOp19
 70
     1
102
RTVSPropertyOp20
 70
     1
102
RTVSPropertyOp21
 70
     1
102
RTVSPropertyOp22
 70
     1
102
RTVSPropertyOp23
 70
     1
102
RTVSPropertyOp24
 70
     1
102
RTVSPropertyOp25
 70
     1
102
RTVSPropertyOp26
 70
     1
102
RTVSPropertyOp27
 70
     1
102
RTVSPropertyOp28
 70
     1
102
RTVSPropertyOp29
 70
     1
102
RTVSPropertyOp30
 70
     1
102
RTVSPropertyOp31
 70
     1
102
RTVSPropertyOp32
 70
     1
102
RTVSPropertyOp33
 70
     1
102
RTVSPropertyOp34
 70
     1
102
RTVSPropertyOp35
 70
     1
102
RTVSPropertyOp36
 70
     1
102
RTVSPropertyOp37
 70
     1
102
RTVSPropertyOp38
 70
     1
102
RTVSPropertyOp39
 70
     1
102
RTVSPropertyOp40
 70
     1
102
RTVSPropertyOp41
 70
     1
102
RTVSPropertyOp42
 70
     1
102
RTVSPropertyOp43
 70
     1
102
RTVSPropertyOp44
 70
     1
102
RTVSPropertyOp45
 70
     1
102
RTVSPropertyOp46
 70
     1
102
RTVSPropertyOp47
 70
     1
102
RTVSPropertyOp48
 70
     1
102
RTVSPropertyOp49
 70
     1
102
RTVSPropertyOp50
 70
     1
102
RTVSPropertyOp51
 70
     0
102
RTVSPropertyOp52
 70
     0
102
RTVSPropertyOp53
 70
     1
102
RTVSPropertyOp54
 70
     1
102
RTVSPropertyOp55
 70
     1
102
RTVSPropertyOp56
 70
     1
102
RTVSPropertyOp57
 70
     1
102
RTVSPropertyOp58
 70
     1
102
RTVSPropertyOp59
 70
     1
102
RTVSPropertyOp60
 70
     1
102
RTVSPropertyOp61
 70
     1
102
RTVSPropertyOp62
 70
     1
  0
XRECORD
  5
3AF7
102
{ACAD_REACTORS
330
3AF6
102
}
330
3AF6
100
AcDbXrecord
280
     1
102
RTVSPost2010Prop28
280
     0
102
RTVSPost2010PropOp28
 70
     1
102
RTVSPost2010Prop29
280
     1
102
RTVSPost2010PropOp29
 70
     1
102
RTVSPost2010Prop30
280
     1
102
RTVSPost2010PropOp30
 70
     1
102
RTVSPost2010Prop31
280
     0
102
RTVSPost2010PropOp31
 70
     1
102
RTVSPost2010Prop32
280
     0
102
RTVSPost2010PropOp32
 70
     1
102
RTVSPost2010Prop33
280
     0
102
RTVSPost2010PropOp33
 70
     1
102
RTVSPost2010Prop34
280
     0
102
RTVSPost2010PropOp34
 70
     1
102
RTVSPost2010Prop35
280
     0
102
RTVSPost2010PropOp35
 70
     1
102
RTVSPost2010Prop36
280
     0
102
RTVSPost2010PropOp36
 70
     1
102
RTVSPost2010Prop37
 90
       50
102
RTVSPost2010PropOp37
 70
     1
102
RTVSPost2010Prop38
140
0.0
102
RTVSPost2010PropOp38
 70
     1
102
RTVSPost2010Prop39
140
1.0
102
RTVSPost2010PropOp39
 70
     1
102
RTVSPost2010Prop40
 90
        0
102
RTVSPost2010PropOp40
 70
     1
102
RTVSPost2010Prop41ColorIndex
 90
       18
102
RTVSPost2010Prop41ColorRGB
 90
        0
102
RTVSPost2010PropOp41
 70
     1
102
RTVSPost2010Prop42
 90
       50
102
RTVSPost2010PropOp42
 70
     1
102
RTVSPost2010Prop43
 90
        3
102
RTVSPost2010PropOp43
 70
     1
102
RTVSPost2010Prop44ColorIndex
 90
        5
102
RTVSPost2010Prop44ColorRGB
 90
      255
102
RTVSPost2010PropOp44
 70
     1
102
RTVSPost2010Prop45
280
     0
102
RTVSPost2010PropOp45
 70
     1
102
RTVSPost2010Prop46
 90
       50
102
RTVSPost2010PropOp46
 70
     1
102
RTVSPost2010Prop47
 90
       50
102
RTVSPost2010PropOp47
 70
     1
102
RTVSPost2010Prop48
 90
       50
102
RTVSPost2010PropOp48
 70
     1
102
RTVSPost2010Prop49
280
     0
102
RTVSPost2010PropOp49
 70
     1
102
RTVSPost2010Prop50
 90
       50
102
RTVSPost2010PropOp50
 70
     1
102
RTVSPost2010Prop51ColorIndex
 90
      256
102
RTVSPost2010Prop51ColorRGB
 90
-16777216
102
RTVSPost2010PropOp51
 70
     0
102
RTVSPost2010Prop52
140
1.0
102
RTVSPost2010PropOp52
 70
     0
102
RTVSPost2010Prop53
 90
        2
102
RTVSPost2010PropOp53
 70
     1
102
RTVSPost2010Prop54
  1
strokes_ogs.tif
102
RTVSPost2010PropOp54
 70
     1
102
RTVSPost2010Prop55
280
     0
102
RTVSPost2010PropOp55
 70
     1
102
RTVSPost2010Prop56
140
1.0
102
RTVSPost2010PropOp56
 70
     1
102
RTVSPost2010Prop57
140
1.0
102
RTVSPost2010PropOp57
 70
     1
102
RTVSPropertyOp0
 70
     1
102
RTVSPropertyOp1
 70
     1
102
RTVSPropertyOp2
 70
     1
102
RTVSPropertyOp3
 70
     1
102
RTVSPropertyOp4
 70
     1
102
RTVSPropertyOp5
 70
     1
102
RTVSPropertyOp6
 70
     1
102
RTVSPropertyOp7
 70
     1
102
RTVSPropertyOp8
 70
     1
102
RTVSPropertyOp9
 70
     1
102
RTVSPropertyOp10
 70
     1
102
RTVSPropertyOp11
 70
     1
102
RTVSPropertyOp12
 70
     1
102
RTVSPropertyOp13
 70
     1
102
RTVSPropertyOp14
 70
     1
102
RTVSPropertyOp15
 70
     1
102
RTVSPropertyOp16
 70
     1
102
RTVSPropertyOp17
 70
     1
102
RTVSPropertyOp18
 70
     1
102
RTVSPropertyOp19
 70
     1
102
RTVSPropertyOp20
 70
     1
102
RTVSPropertyOp21
 70
     1
102
RTVSPropertyOp22
 70
     1
102
RTVSPropertyOp23
 70
     1
102
RTVSPropertyOp24
 70
     1
102
RTVSPropertyOp25
 70
     1
102
RTVSPropertyOp26
 70
     1
102
RTVSPropertyOp27
 70
     1
102
RTVSPropertyOp28
 70
     1
102
RTVSPropertyOp29
 70
     1
102
RTVSPropertyOp30
 70
     1
102
RTVSPropertyOp31
 70
     1
102
RTVSPropertyOp32
 70
     1
102
RTVSPropertyOp33
 70
     1
102
RTVSPropertyOp34
 70
     1
102
RTVSPropertyOp35
 70
     1
102
RTVSPropertyOp36
 70
     1
102
RTVSPropertyOp37
 70
     1
102
RTVSPropertyOp38
 70
     1
102
RTVSPropertyOp39
 70
     1
102
RTVSPropertyOp40
 70
     1
102
RTVSPropertyOp41
 70
     1
102
RTVSPropertyOp42
 70
     1
102
RTVSPropertyOp43
 70
     1
102
RTVSPropertyOp44
 70
     1
102
RTVSPropertyOp45
 70
     1
102
RTVSPropertyOp46
 70
     1
102
RTVSPropertyOp47
 70
     1
102
RTVSPropertyOp48
 70
     1
102
RTVSPropertyOp49
 70
     1
102
RTVSPropertyOp50
 70
     1
102
RTVSPropertyOp51
 70
     0
102
RTVSPropertyOp52
 70
     0
102
RTVSPropertyOp53
 70
     1
102
RTVSPropertyOp54
 70
     1
102
RTVSPropertyOp55
 70
     1
102
RTVSPropertyOp56
 70
     1
102
RTVSPropertyOp57
 70
     1
102
RTVSPropertyOp58
 70
     1
102
RTVSPropertyOp59
 70
     1
102
RTVSPropertyOp60
 70
     1
102
RTVSPropertyOp61
 70
     1
102
RTVSPropertyOp62
 70
     1
  0
XRECORD
  5
3AFB
102
{ACAD_REACTORS
330
3AFA
102
}
330
3AFA
100
AcDbXrecord
280
     1
102
RTVSPost2010Prop28
280
     0
102
RTVSPost2010PropOp28
 70
     1
102
RTVSPost2010Prop29
280
     1
102
RTVSPost2010PropOp29
 70
     1
102
RTVSPost2010Prop30
280
     1
102
RTVSPost2010PropOp30
 70
     1
102
RTVSPost2010Prop31
280
     0
102
RTVSPost2010PropOp31
 70
     1
102
RTVSPost2010Prop32
280
     0
102
RTVSPost2010PropOp32
 70
     1
102
RTVSPost2010Prop33
280
     0
102
RTVSPost2010PropOp33
 70
     1
102
RTVSPost2010Prop34
280
     0
102
RTVSPost2010PropOp34
 70
     1
102
RTVSPost2010Prop35
280
     0
102
RTVSPost2010PropOp35
 70
     1
102
RTVSPost2010Prop36
280
     0
102
RTVSPost2010PropOp36
 70
     1
102
RTVSPost2010Prop37
 90
       50
102
RTVSPost2010PropOp37
 70
     1
102
RTVSPost2010Prop38
140
0.0
102
RTVSPost2010PropOp38
 70
     1
102
RTVSPost2010Prop39
140
1.0
102
RTVSPost2010PropOp39
 70
     1
102
RTVSPost2010Prop40
 90
        0
102
RTVSPost2010PropOp40
 70
     1
102
RTVSPost2010Prop41ColorIndex
 90
       18
102
RTVSPost2010Prop41ColorRGB
 90
        0
102
RTVSPost2010PropOp41
 70
     1
102
RTVSPost2010Prop42
 90
       50
102
RTVSPost2010PropOp42
 70
     1
102
RTVSPost2010Prop43
 90
        3
102
RTVSPost2010PropOp43
 70
     1
102
RTVSPost2010Prop44ColorIndex
 90
        5
102
RTVSPost2010Prop44ColorRGB
 90
      255
102
RTVSPost2010PropOp44
 70
     1
102
RTVSPost2010Prop45
280
     0
102
RTVSPost2010PropOp45
 70
     1
102
RTVSPost2010Prop46
 90
       50
102
RTVSPost2010PropOp46
 70
     1
102
RTVSPost2010Prop47
 90
       50
102
RTVSPost2010PropOp47
 70
     1
102
RTVSPost2010Prop48
 90
       50
102
RTVSPost2010PropOp48
 70
     1
102
RTVSPost2010Prop49
280
     0
102
RTVSPost2010PropOp49
 70
     1
102
RTVSPost2010Prop50
 90
       50
102
RTVSPost2010PropOp50
 70
     1
102
RTVSPost2010Prop51ColorIndex
 90
      256
102
RTVSPost2010Prop51ColorRGB
 90
-16777216
102
RTVSPost2010PropOp51
 70
     0
102
RTVSPost2010Prop52
140
1.0
102
RTVSPost2010PropOp52
 70
     0
102
RTVSPost2010Prop53
 90
        2
102
RTVSPost2010PropOp53
 70
     1
102
RTVSPost2010Prop54
  1
strokes_ogs.tif
102
RTVSPost2010PropOp54
 70
     1
102
RTVSPost2010Prop55
280
     0
102
RTVSPost2010PropOp55
 70
     1
102
RTVSPost2010Prop56
140
1.0
102
RTVSPost2010PropOp56
 70
     1
102
RTVSPost2010Prop57
140
1.0
102
RTVSPost2010PropOp57
 70
     1
102
RTVSPropertyOp0
 70
     1
102
RTVSPropertyOp1
 70
     1
102
RTVSPropertyOp2
 70
     1
102
RTVSPropertyOp3
 70
     1
102
RTVSPropertyOp4
 70
     1
102
RTVSPropertyOp5
 70
     1
102
RTVSPropertyOp6
 70
     1
102
RTVSPropertyOp7
 70
     1
102
RTVSPropertyOp8
 70
     1
102
RTVSPropertyOp9
 70
     1
102
RTVSPropertyOp10
 70
     1
102
RTVSPropertyOp11
 70
     1
102
RTVSPropertyOp12
 70
     1
102
RTVSPropertyOp13
 70
     1
102
RTVSPropertyOp14
 70
     1
102
RTVSPropertyOp15
 70
     1
102
RTVSPropertyOp16
 70
     1
102
RTVSPropertyOp17
 70
     1
102
RTVSPropertyOp18
 70
     1
102
RTVSPropertyOp19
 70
     1
102
RTVSPropertyOp20
 70
     1
102
RTVSPropertyOp21
 70
     1
102
RTVSPropertyOp22
 70
     1
102
RTVSPropertyOp23
 70
     1
102
RTVSPropertyOp24
 70
     1
102
RTVSPropertyOp25
 70
     1
102
RTVSPropertyOp26
 70
     1
102
RTVSPropertyOp27
 70
     1
102
RTVSPropertyOp28
 70
     1
102
RTVSPropertyOp29
 70
     1
102
RTVSPropertyOp30
 70
     1
102
RTVSPropertyOp31
 70
     1
102
RTVSPropertyOp32
 70
     1
102
RTVSPropertyOp33
 70
     1
102
RTVSPropertyOp34
 70
     1
102
RTVSPropertyOp35
 70
     1
102
RTVSPropertyOp36
 70
     1
102
RTVSPropertyOp37
 70
     1
102
RTVSPropertyOp38
 70
     1
102
RTVSPropertyOp39
 70
     1
102
RTVSPropertyOp40
 70
     1
102
RTVSPropertyOp41
 70
     1
102
RTVSPropertyOp42
 70
     1
102
RTVSPropertyOp43
 70
     1
102
RTVSPropertyOp44
 70
     1
102
RTVSPropertyOp45
 70
     1
102
RTVSPropertyOp46
 70
     1
102
RTVSPropertyOp47
 70
     1
102
RTVSPropertyOp48
 70
     1
102
RTVSPropertyOp49
 70
     1
102
RTVSPropertyOp50
 70
     1
102
RTVSPropertyOp51
 70
     0
102
RTVSPropertyOp52
 70
     0
102
RTVSPropertyOp53
 70
     1
102
RTVSPropertyOp54
 70
     1
102
RTVSPropertyOp55
 70
     1
102
RTVSPropertyOp56
 70
     1
102
RTVSPropertyOp57
 70
     1
102
RTVSPropertyOp58
 70
     1
102
RTVSPropertyOp59
 70
     1
102
RTVSPropertyOp60
 70
     1
102
RTVSPropertyOp61
 70
     1
102
RTVSPropertyOp62
 70
     1
  0
XRECORD
  5
3B0B
102
{ACAD_REACTORS
330
3B0A
102
}
330
3B0A
100
AcDbXrecord
280
     1
102
RTVSPost2010Prop28
280
     0
102
RTVSPost2010PropOp28
 70
     1
102
RTVSPost2010Prop29
280
     1
102
RTVSPost2010PropOp29
 70
     1
102
RTVSPost2010Prop30
280
     1
102
RTVSPost2010PropOp30
 70
     1
102
RTVSPost2010Prop31
280
     0
102
RTVSPost2010PropOp31
 70
     1
102
RTVSPost2010Prop32
280
     0
102
RTVSPost2010PropOp32
 70
     1
102
RTVSPost2010Prop33
280
     0
102
RTVSPost2010PropOp33
 70
     1
102
RTVSPost2010Prop34
280
     0
102
RTVSPost2010PropOp34
 70
     1
102
RTVSPost2010Prop35
280
     0
102
RTVSPost2010PropOp35
 70
     1
102
RTVSPost2010Prop36
280
     0
102
RTVSPost2010PropOp36
 70
     1
102
RTVSPost2010Prop37
 90
       50
102
RTVSPost2010PropOp37
 70
     1
102
RTVSPost2010Prop38
140
0.0
102
RTVSPost2010PropOp38
 70
     1
102
RTVSPost2010Prop39
140
1.0
102
RTVSPost2010PropOp39
 70
     1
102
RTVSPost2010Prop40
 90
        0
102
RTVSPost2010PropOp40
 70
     1
102
RTVSPost2010Prop41ColorIndex
 90
       18
102
RTVSPost2010Prop41ColorRGB
 90
        0
102
RTVSPost2010PropOp41
 70
     1
102
RTVSPost2010Prop42
 90
       50
102
RTVSPost2010PropOp42
 70
     1
102
RTVSPost2010Prop43
 90
        3
102
RTVSPost2010PropOp43
 70
     1
102
RTVSPost2010Prop44ColorIndex
 90
        5
102
RTVSPost2010Prop44ColorRGB
 90
      255
102
RTVSPost2010PropOp44
 70
     1
102
RTVSPost2010Prop45
280
     0
102
RTVSPost2010PropOp45
 70
     1
102
RTVSPost2010Prop46
 90
       50
102
RTVSPost2010PropOp46
 70
     1
102
RTVSPost2010Prop47
 90
       50
102
RTVSPost2010PropOp47
 70
     1
102
RTVSPost2010Prop48
 90
       50
102
RTVSPost2010PropOp48
 70
     1
102
RTVSPost2010Prop49
280
     0
102
RTVSPost2010PropOp49
 70
     1
102
RTVSPost2010Prop50
 90
       50
102
RTVSPost2010PropOp50
 70
     1
102
RTVSPost2010Prop51ColorIndex
 90
      256
102
RTVSPost2010Prop51ColorRGB
 90
-16777216
102
RTVSPost2010PropOp51
 70
     0
102
RTVSPost2010Prop52
140
1.0
102
RTVSPost2010PropOp52
 70
     0
102
RTVSPost2010Prop53
 90
        2
102
RTVSPost2010PropOp53
 70
     1
102
RTVSPost2010Prop54
  1
strokes_ogs.tif
102
RTVSPost2010PropOp54
 70
     1
102
RTVSPost2010Prop55
280
     0
102
RTVSPost2010PropOp55
 70
     1
102
RTVSPost2010Prop56
140
1.0
102
RTVSPost2010PropOp56
 70
     1
102
RTVSPost2010Prop57
140
1.0
102
RTVSPost2010PropOp57
 70
     1
102
RTVSPropertyOp0
 70
     0
102
RTVSPropertyOp1
 70
     0
102
RTVSPropertyOp2
 70
     0
102
RTVSPropertyOp3
 70
     0
102
RTVSPropertyOp4
 70
     0
102
RTVSPropertyOp5
 70
     0
102
RTVSPropertyOp6
 70
     0
102
RTVSPropertyOp7
 70
     0
102
RTVSPropertyOp8
 70
     0
102
RTVSPropertyOp9
 70
     0
102
RTVSPropertyOp10
 70
     0
102
RTVSPropertyOp11
 70
     0
102
RTVSPropertyOp12
 70
     0
102
RTVSPropertyOp13
 70
     0
102
RTVSPropertyOp14
 70
     2
102
RTVSPropertyOp15
 70
     0
102
RTVSPropertyOp16
 70
     0
102
RTVSPropertyOp17
 70
     0
102
RTVSPropertyOp18
 70
     0
102
RTVSPropertyOp19
 70
     0
102
RTVSPropertyOp20
 70
     0
102
RTVSPropertyOp21
 70
     0
102
RTVSPropertyOp22
 70
     0
102
RTVSPropertyOp23
 70
     0
102
RTVSPropertyOp24
 70
     0
102
RTVSPropertyOp25
 70
     0
102
RTVSPropertyOp26
 70
     0
102
RTVSPropertyOp27
 70
     0
102
RTVSPropertyOp28
 70
     1
102
RTVSPropertyOp29
 70
     1
102
RTVSPropertyOp30
 70
     1
102
RTVSPropertyOp31
 70
     1
102
RTVSPropertyOp32
 70
     1
102
RTVSPropertyOp33
 70
     1
102
RTVSPropertyOp34
 70
     1
102
RTVSPropertyOp35
 70
     1
102
RTVSPropertyOp36
 70
     1
102
RTVSPropertyOp37
 70
     1
102
RTVSPropertyOp38
 70
     1
102
RTVSPropertyOp39
 70
     1
102
RTVSPropertyOp40
 70
     1
102
RTVSPropertyOp41
 70
     1
102
RTVSPropertyOp42
 70
     1
102
RTVSPropertyOp43
 70
     1
102
RTVSPropertyOp44
 70
     1
102
RTVSPropertyOp45
 70
     1
102
RTVSPropertyOp46
 70
     1
102
RTVSPropertyOp47
 70
     1
102
RTVSPropertyOp48
 70
     1
102
RTVSPropertyOp49
 70
     1
102
RTVSPropertyOp50
 70
     1
102
RTVSPropertyOp51
 70
     0
102
RTVSPropertyOp52
 70
     0
102
RTVSPropertyOp53
 70
     1
102
RTVSPropertyOp54
 70
     1
102
RTVSPropertyOp55
 70
     1
102
RTVSPropertyOp56
 70
     1
102
RTVSPropertyOp57
 70
     1
102
RTVSPropertyOp58
 70
     1
102
RTVSPropertyOp59
 70
     1
102
RTVSPropertyOp60
 70
     1
102
RTVSPropertyOp61
 70
     1
102
RTVSPropertyOp62
 70
     1
  0
XRECORD
  5
3B03
102
{ACAD_REACTORS
330
3B02
102
}
330
3B02
100
AcDbXrecord
280
     1
102
RTVSPost2010Prop28
280
     0
102
RTVSPost2010PropOp28
 70
     1
102
RTVSPost2010Prop29
280
     1
102
RTVSPost2010PropOp29
 70
     1
102
RTVSPost2010Prop30
280
     1
102
RTVSPost2010PropOp30
 70
     1
102
RTVSPost2010Prop31
280
     0
102
RTVSPost2010PropOp31
 70
     1
102
RTVSPost2010Prop32
280
     0
102
RTVSPost2010PropOp32
 70
     1
102
RTVSPost2010Prop33
280
     0
102
RTVSPost2010PropOp33
 70
     1
102
RTVSPost2010Prop34
280
     0
102
RTVSPost2010PropOp34
 70
     1
102
RTVSPost2010Prop35
280
     0
102
RTVSPost2010PropOp35
 70
     1
102
RTVSPost2010Prop36
280
     0
102
RTVSPost2010PropOp36
 70
     1
102
RTVSPost2010Prop37
 90
       50
102
RTVSPost2010PropOp37
 70
     1
102
RTVSPost2010Prop38
140
0.0
102
RTVSPost2010PropOp38
 70
     1
102
RTVSPost2010Prop39
140
1.0
102
RTVSPost2010PropOp39
 70
     1
102
RTVSPost2010Prop40
 90
        0
102
RTVSPost2010PropOp40
 70
     1
102
RTVSPost2010Prop41ColorIndex
 90
       18
102
RTVSPost2010Prop41ColorRGB
 90
        0
102
RTVSPost2010PropOp41
 70
     1
102
RTVSPost2010Prop42
 90
       50
102
RTVSPost2010PropOp42
 70
     1
102
RTVSPost2010Prop43
 90
        3
102
RTVSPost2010PropOp43
 70
     1
102
RTVSPost2010Prop44ColorIndex
 90
        5
102
RTVSPost2010Prop44ColorRGB
 90
      255
102
RTVSPost2010PropOp44
 70
     1
102
RTVSPost2010Prop45
280
     0
102
RTVSPost2010PropOp45
 70
     1
102
RTVSPost2010Prop46
 90
       50
102
RTVSPost2010PropOp46
 70
     1
102
RTVSPost2010Prop47
 90
       50
102
RTVSPost2010PropOp47
 70
     1
102
RTVSPost2010Prop48
 90
       50
102
RTVSPost2010PropOp48
 70
     1
102
RTVSPost2010Prop49
280
     0
102
RTVSPost2010PropOp49
 70
     1
102
RTVSPost2010Prop50
 90
       50
102
RTVSPost2010PropOp50
 70
     1
102
RTVSPost2010Prop51ColorIndex
 90
      256
102
RTVSPost2010Prop51ColorRGB
 90
-16777216
102
RTVSPost2010PropOp51
 70
     0
102
RTVSPost2010Prop52
140
1.0
102
RTVSPost2010PropOp52
 70
     0
102
RTVSPost2010Prop53
 90
        2
102
RTVSPost2010PropOp53
 70
     1
102
RTVSPost2010Prop54
  1
strokes_ogs.tif
102
RTVSPost2010PropOp54
 70
     1
102
RTVSPost2010Prop55
280
     0
102
RTVSPost2010PropOp55
 70
     1
102
RTVSPost2010Prop56
140
1.0
102
RTVSPost2010PropOp56
 70
     1
102
RTVSPost2010Prop57
140
1.0
102
RTVSPost2010PropOp57
 70
     1
102
RTVSPropertyOp0
 70
     1
102
RTVSPropertyOp1
 70
     1
102
RTVSPropertyOp2
 70
     1
102
RTVSPropertyOp3
 70
     1
102
RTVSPropertyOp4
 70
     1
102
RTVSPropertyOp5
 70
     1
102
RTVSPropertyOp6
 70
     1
102
RTVSPropertyOp7
 70
     1
102
RTVSPropertyOp8
 70
     1
102
RTVSPropertyOp9
 70
     1
102
RTVSPropertyOp10
 70
     1
102
RTVSPropertyOp11
 70
     1
102
RTVSPropertyOp12
 70
     1
102
RTVSPropertyOp13
 70
     1
102
RTVSPropertyOp14
 70
     1
102
RTVSPropertyOp15
 70
     1
102
RTVSPropertyOp16
 70
     1
102
RTVSPropertyOp17
 70
     1
102
RTVSPropertyOp18
 70
     1
102
RTVSPropertyOp19
 70
     1
102
RTVSPropertyOp20
 70
     1
102
RTVSPropertyOp21
 70
     1
102
RTVSPropertyOp22
 70
     1
102
RTVSPropertyOp23
 70
     1
102
RTVSPropertyOp24
 70
     1
102
RTVSPropertyOp25
 70
     1
102
RTVSPropertyOp26
 70
     1
102
RTVSPropertyOp27
 70
     1
102
RTVSPropertyOp28
 70
     1
102
RTVSPropertyOp29
 70
     1
102
RTVSPropertyOp30
 70
     1
102
RTVSPropertyOp31
 70
     1
102
RTVSPropertyOp32
 70
     1
102
RTVSPropertyOp33
 70
     1
102
RTVSPropertyOp34
 70
     1
102
RTVSPropertyOp35
 70
     1
102
RTVSPropertyOp36
 70
     1
102
RTVSPropertyOp37
 70
     1
102
RTVSPropertyOp38
 70
     1
102
RTVSPropertyOp39
 70
     1
102
RTVSPropertyOp40
 70
     1
102
RTVSPropertyOp41
 70
     1
102
RTVSPropertyOp42
 70
     1
102
RTVSPropertyOp43
 70
     1
102
RTVSPropertyOp44
 70
     1
102
RTVSPropertyOp45
 70
     1
102
RTVSPropertyOp46
 70
     1
102
RTVSPropertyOp47
 70
     1
102
RTVSPropertyOp48
 70
     1
102
RTVSPropertyOp49
 70
     1
102
RTVSPropertyOp50
 70
     1
102
RTVSPropertyOp51
 70
     0
102
RTVSPropertyOp52
 70
     0
102
RTVSPropertyOp53
 70
     1
102
RTVSPropertyOp54
 70
     1
102
RTVSPropertyOp55
 70
     1
102
RTVSPropertyOp56
 70
     1
102
RTVSPropertyOp57
 70
     1
102
RTVSPropertyOp58
 70
     1
102
RTVSPropertyOp59
 70
     1
102
RTVSPropertyOp60
 70
     1
102
RTVSPropertyOp61
 70
     1
102
RTVSPropertyOp62
 70
     1
  0
XRECORD
  5
3AE7
102
{ACAD_REACTORS
330
3AE6
102
}
330
3AE6
100
AcDbXrecord
280
     1
102
RTVSPost2010Prop28
280
     0
102
RTVSPost2010PropOp28
 70
     1
102
RTVSPost2010Prop29
280
     1
102
RTVSPost2010PropOp29
 70
     1
102
RTVSPost2010Prop30
280
     1
102
RTVSPost2010PropOp30
 70
     1
102
RTVSPost2010Prop31
280
     0
102
RTVSPost2010PropOp31
 70
     1
102
RTVSPost2010Prop32
280
     0
102
RTVSPost2010PropOp32
 70
     1
102
RTVSPost2010Prop33
280
     0
102
RTVSPost2010PropOp33
 70
     1
102
RTVSPost2010Prop34
280
     0
102
RTVSPost2010PropOp34
 70
     1
102
RTVSPost2010Prop35
280
     0
102
RTVSPost2010PropOp35
 70
     1
102
RTVSPost2010Prop36
280
     0
102
RTVSPost2010PropOp36
 70
     1
102
RTVSPost2010Prop37
 90
       50
102
RTVSPost2010PropOp37
 70
     1
102
RTVSPost2010Prop38
140
0.0
102
RTVSPost2010PropOp38
 70
     1
102
RTVSPost2010Prop39
140
1.0
102
RTVSPost2010PropOp39
 70
     1
102
RTVSPost2010Prop40
 90
        0
102
RTVSPost2010PropOp40
 70
     1
102
RTVSPost2010Prop41ColorIndex
 90
       18
102
RTVSPost2010Prop41ColorRGB
 90
        0
102
RTVSPost2010PropOp41
 70
     1
102
RTVSPost2010Prop42
 90
       50
102
RTVSPost2010PropOp42
 70
     1
102
RTVSPost2010Prop43
 90
        3
102
RTVSPost2010PropOp43
 70
     1
102
RTVSPost2010Prop44ColorIndex
 90
        5
102
RTVSPost2010Prop44ColorRGB
 90
      255
102
RTVSPost2010PropOp44
 70
     1
102
RTVSPost2010Prop45
280
     0
102
RTVSPost2010PropOp45
 70
     1
102
RTVSPost2010Prop46
 90
       50
102
RTVSPost2010PropOp46
 70
     1
102
RTVSPost2010Prop47
 90
       50
102
RTVSPost2010PropOp47
 70
     1
102
RTVSPost2010Prop48
 90
       50
102
RTVSPost2010PropOp48
 70
     1
102
RTVSPost2010Prop49
280
     0
102
RTVSPost2010PropOp49
 70
     1
102
RTVSPost2010Prop50
 90
       50
102
RTVSPost2010PropOp50
 70
     1
102
RTVSPost2010Prop51ColorIndex
 90
      256
102
RTVSPost2010Prop51ColorRGB
 90
-16777216
102
RTVSPost2010PropOp51
 70
     0
102
RTVSPost2010Prop52
140
1.0
102
RTVSPost2010PropOp52
 70
     0
102
RTVSPost2010Prop53
 90
        2
102
RTVSPost2010PropOp53
 70
     1
102
RTVSPost2010Prop54
  1
strokes_ogs.tif
102
RTVSPost2010PropOp54
 70
     1
102
RTVSPost2010Prop55
280
     0
102
RTVSPost2010PropOp55
 70
     1
102
RTVSPost2010Prop56
140
1.0
102
RTVSPost2010PropOp56
 70
     1
102
RTVSPost2010Prop57
140
1.0
102
RTVSPost2010PropOp57
 70
     1
102
RTVSPropertyOp0
 70
     1
102
RTVSPropertyOp1
 70
     1
102
RTVSPropertyOp2
 70
     1
102
RTVSPropertyOp3
 70
     1
102
RTVSPropertyOp4
 70
     1
102
RTVSPropertyOp5
 70
     1
102
RTVSPropertyOp6
 70
     1
102
RTVSPropertyOp7
 70
     1
102
RTVSPropertyOp8
 70
     1
102
RTVSPropertyOp9
 70
     1
102
RTVSPropertyOp10
 70
     1
102
RTVSPropertyOp11
 70
     1
102
RTVSPropertyOp12
 70
     1
102
RTVSPropertyOp13
 70
     1
102
RTVSPropertyOp14
 70
     1
102
RTVSPropertyOp15
 70
     1
102
RTVSPropertyOp16
 70
     1
102
RTVSPropertyOp17
 70
     1
102
RTVSPropertyOp18
 70
     1
102
RTVSPropertyOp19
 70
     1
102
RTVSPropertyOp20
 70
     1
102
RTVSPropertyOp21
 70
     1
102
RTVSPropertyOp22
 70
     1
102
RTVSPropertyOp23
 70
     1
102
RTVSPropertyOp24
 70
     1
102
RTVSPropertyOp25
 70
     1
102
RTVSPropertyOp26
 70
     1
102
RTVSPropertyOp27
 70
     1
102
RTVSPropertyOp28
 70
     1
102
RTVSPropertyOp29
 70
     1
102
RTVSPropertyOp30
 70
     1
102
RTVSPropertyOp31
 70
     1
102
RTVSPropertyOp32
 70
     1
102
RTVSPropertyOp33
 70
     1
102
RTVSPropertyOp34
 70
     1
102
RTVSPropertyOp35
 70
     1
102
RTVSPropertyOp36
 70
     1
102
RTVSPropertyOp37
 70
     1
102
RTVSPropertyOp38
 70
     1
102
RTVSPropertyOp39
 70
     1
102
RTVSPropertyOp40
 70
     1
102
RTVSPropertyOp41
 70
     1
102
RTVSPropertyOp42
 70
     1
102
RTVSPropertyOp43
 70
     1
102
RTVSPropertyOp44
 70
     1
102
RTVSPropertyOp45
 70
     1
102
RTVSPropertyOp46
 70
     1
102
RTVSPropertyOp47
 70
     1
102
RTVSPropertyOp48
 70
     1
102
RTVSPropertyOp49
 70
     1
102
RTVSPropertyOp50
 70
     1
102
RTVSPropertyOp51
 70
     0
102
RTVSPropertyOp52
 70
     0
102
RTVSPropertyOp53
 70
     1
102
RTVSPropertyOp54
 70
     1
102
RTVSPropertyOp55
 70
     1
102
RTVSPropertyOp56
 70
     1
102
RTVSPropertyOp57
 70
     1
102
RTVSPropertyOp58
 70
     1
102
RTVSPropertyOp59
 70
     1
102
RTVSPropertyOp60
 70
     1
102
RTVSPropertyOp61
 70
     1
102
RTVSPropertyOp62
 70
     1
  0
XRECORD
  5
3AE9
102
{ACAD_REACTORS
330
3AE8
102
}
330
3AE8
100
AcDbXrecord
280
     1
102
RTVSPost2010Prop28
280
     0
102
RTVSPost2010PropOp28
 70
     1
102
RTVSPost2010Prop29
280
     1
102
RTVSPost2010PropOp29
 70
     1
102
RTVSPost2010Prop30
280
     1
102
RTVSPost2010PropOp30
 70
     1
102
RTVSPost2010Prop31
280
     0
102
RTVSPost2010PropOp31
 70
     1
102
RTVSPost2010Prop32
280
     0
102
RTVSPost2010PropOp32
 70
     1
102
RTVSPost2010Prop33
280
     0
102
RTVSPost2010PropOp33
 70
     1
102
RTVSPost2010Prop34
280
     0
102
RTVSPost2010PropOp34
 70
     1
102
RTVSPost2010Prop35
280
     0
102
RTVSPost2010PropOp35
 70
     1
102
RTVSPost2010Prop36
280
     0
102
RTVSPost2010PropOp36
 70
     1
102
RTVSPost2010Prop37
 90
       50
102
RTVSPost2010PropOp37
 70
     1
102
RTVSPost2010Prop38
140
0.0
102
RTVSPost2010PropOp38
 70
     1
102
RTVSPost2010Prop39
140
1.0
102
RTVSPost2010PropOp39
 70
     1
102
RTVSPost2010Prop40
 90
        0
102
RTVSPost2010PropOp40
 70
     1
102
RTVSPost2010Prop41ColorIndex
 90
       18
102
RTVSPost2010Prop41ColorRGB
 90
        0
102
RTVSPost2010PropOp41
 70
     1
102
RTVSPost2010Prop42
 90
       50
102
RTVSPost2010PropOp42
 70
     1
102
RTVSPost2010Prop43
 90
        3
102
RTVSPost2010PropOp43
 70
     1
102
RTVSPost2010Prop44ColorIndex
 90
        5
102
RTVSPost2010Prop44ColorRGB
 90
      255
102
RTVSPost2010PropOp44
 70
     1
102
RTVSPost2010Prop45
280
     0
102
RTVSPost2010PropOp45
 70
     1
102
RTVSPost2010Prop46
 90
       50
102
RTVSPost2010PropOp46
 70
     1
102
RTVSPost2010Prop47
 90
       50
102
RTVSPost2010PropOp47
 70
     1
102
RTVSPost2010Prop48
 90
       50
102
RTVSPost2010PropOp48
 70
     1
102
RTVSPost2010Prop49
280
     0
102
RTVSPost2010PropOp49
 70
     1
102
RTVSPost2010Prop50
 90
       50
102
RTVSPost2010PropOp50
 70
     1
102
RTVSPost2010Prop51ColorIndex
 90
      256
102
RTVSPost2010Prop51ColorRGB
 90
-16777216
102
RTVSPost2010PropOp51
 70
     0
102
RTVSPost2010Prop52
140
1.0
102
RTVSPost2010PropOp52
 70
     0
102
RTVSPost2010Prop53
 90
        2
102
RTVSPost2010PropOp53
 70
     1
102
RTVSPost2010Prop54
  1
strokes_ogs.tif
102
RTVSPost2010PropOp54
 70
     1
102
RTVSPost2010Prop55
280
     0
102
RTVSPost2010PropOp55
 70
     1
102
RTVSPost2010Prop56
140
1.0
102
RTVSPost2010PropOp56
 70
     1
102
RTVSPost2010Prop57
140
1.0
102
RTVSPost2010PropOp57
 70
     1
102
RTVSPropertyOp0
 70
     1
102
RTVSPropertyOp1
 70
     1
102
RTVSPropertyOp2
 70
     1
102
RTVSPropertyOp3
 70
     1
102
RTVSPropertyOp4
 70
     1
102
RTVSPropertyOp5
 70
     1
102
RTVSPropertyOp6
 70
     1
102
RTVSPropertyOp7
 70
     1
102
RTVSPropertyOp8
 70
     1
102
RTVSPropertyOp9
 70
     1
102
RTVSPropertyOp10
 70
     1
102
RTVSPropertyOp11
 70
     1
102
RTVSPropertyOp12
 70
     1
102
RTVSPropertyOp13
 70
     1
102
RTVSPropertyOp14
 70
     1
102
RTVSPropertyOp15
 70
     1
102
RTVSPropertyOp16
 70
     1
102
RTVSPropertyOp17
 70
     1
102
RTVSPropertyOp18
 70
     1
102
RTVSPropertyOp19
 70
     1
102
RTVSPropertyOp20
 70
     1
102
RTVSPropertyOp21
 70
     1
102
RTVSPropertyOp22
 70
     1
102
RTVSPropertyOp23
 70
     1
102
RTVSPropertyOp24
 70
     1
102
RTVSPropertyOp25
 70
     1
102
RTVSPropertyOp26
 70
     1
102
RTVSPropertyOp27
 70
     1
102
RTVSPropertyOp28
 70
     1
102
RTVSPropertyOp29
 70
     1
102
RTVSPropertyOp30
 70
     1
102
RTVSPropertyOp31
 70
     1
102
RTVSPropertyOp32
 70
     1
102
RTVSPropertyOp33
 70
     1
102
RTVSPropertyOp34
 70
     1
102
RTVSPropertyOp35
 70
     1
102
RTVSPropertyOp36
 70
     1
102
RTVSPropertyOp37
 70
     1
102
RTVSPropertyOp38
 70
     1
102
RTVSPropertyOp39
 70
     1
102
RTVSPropertyOp40
 70
     1
102
RTVSPropertyOp41
 70
     1
102
RTVSPropertyOp42
 70
     1
102
RTVSPropertyOp43
 70
     1
102
RTVSPropertyOp44
 70
     1
102
RTVSPropertyOp45
 70
     1
102
RTVSPropertyOp46
 70
     1
102
RTVSPropertyOp47
 70
     1
102
RTVSPropertyOp48
 70
     1
102
RTVSPropertyOp49
 70
     1
102
RTVSPropertyOp50
 70
     1
102
RTVSPropertyOp51
 70
     0
102
RTVSPropertyOp52
 70
     0
102
RTVSPropertyOp53
 70
     1
102
RTVSPropertyOp54
 70
     1
102
RTVSPropertyOp55
 70
     1
102
RTVSPropertyOp56
 70
     1
102
RTVSPropertyOp57
 70
     1
102
RTVSPropertyOp58
 70
     1
102
RTVSPropertyOp59
 70
     1
102
RTVSPropertyOp60
 70
     1
102
RTVSPropertyOp61
 70
     1
102
RTVSPropertyOp62
 70
     1
  0
XRECORD
  5
3AEB
102
{ACAD_REACTORS
330
3AEA
102
}
330
3AEA
100
AcDbXrecord
280
     1
102
RTVSPost2010Prop28
280
     0
102
RTVSPost2010PropOp28
 70
     1
102
RTVSPost2010Prop29
280
     1
102
RTVSPost2010PropOp29
 70
     1
102
RTVSPost2010Prop30
280
     1
102
RTVSPost2010PropOp30
 70
     1
102
RTVSPost2010Prop31
280
     0
102
RTVSPost2010PropOp31
 70
     1
102
RTVSPost2010Prop32
280
     0
102
RTVSPost2010PropOp32
 70
     1
102
RTVSPost2010Prop33
280
     0
102
RTVSPost2010PropOp33
 70
     1
102
RTVSPost2010Prop34
280
     0
102
RTVSPost2010PropOp34
 70
     1
102
RTVSPost2010Prop35
280
     0
102
RTVSPost2010PropOp35
 70
     1
102
RTVSPost2010Prop36
280
     0
102
RTVSPost2010PropOp36
 70
     1
102
RTVSPost2010Prop37
 90
       50
102
RTVSPost2010PropOp37
 70
     1
102
RTVSPost2010Prop38
140
0.0
102
RTVSPost2010PropOp38
 70
     1
102
RTVSPost2010Prop39
140
1.0
102
RTVSPost2010PropOp39
 70
     1
102
RTVSPost2010Prop40
 90
        0
102
RTVSPost2010PropOp40
 70
     1
102
RTVSPost2010Prop41ColorIndex
 90
       18
102
RTVSPost2010Prop41ColorRGB
 90
        0
102
RTVSPost2010PropOp41
 70
     1
102
RTVSPost2010Prop42
 90
       50
102
RTVSPost2010PropOp42
 70
     1
102
RTVSPost2010Prop43
 90
        3
102
RTVSPost2010PropOp43
 70
     1
102
RTVSPost2010Prop44ColorIndex
 90
        5
102
RTVSPost2010Prop44ColorRGB
 90
      255
102
RTVSPost2010PropOp44
 70
     1
102
RTVSPost2010Prop45
280
     0
102
RTVSPost2010PropOp45
 70
     1
102
RTVSPost2010Prop46
 90
       50
102
RTVSPost2010PropOp46
 70
     1
102
RTVSPost2010Prop47
 90
       50
102
RTVSPost2010PropOp47
 70
     1
102
RTVSPost2010Prop48
 90
       50
102
RTVSPost2010PropOp48
 70
     1
102
RTVSPost2010Prop49
280
     0
102
RTVSPost2010PropOp49
 70
     1
102
RTVSPost2010Prop50
 90
       50
102
RTVSPost2010PropOp50
 70
     1
102
RTVSPost2010Prop51ColorIndex
 90
      256
102
RTVSPost2010Prop51ColorRGB
 90
-16777216
102
RTVSPost2010PropOp51
 70
     0
102
RTVSPost2010Prop52
140
1.0
102
RTVSPost2010PropOp52
 70
     0
102
RTVSPost2010Prop53
 90
        2
102
RTVSPost2010PropOp53
 70
     1
102
RTVSPost2010Prop54
  1
strokes_ogs.tif
102
RTVSPost2010PropOp54
 70
     1
102
RTVSPost2010Prop55
280
     0
102
RTVSPost2010PropOp55
 70
     1
102
RTVSPost2010Prop56
140
1.0
102
RTVSPost2010PropOp56
 70
     1
102
RTVSPost2010Prop57
140
1.0
102
RTVSPost2010PropOp57
 70
     1
102
RTVSPropertyOp0
 70
     1
102
RTVSPropertyOp1
 70
     1
102
RTVSPropertyOp2
 70
     1
102
RTVSPropertyOp3
 70
     1
102
RTVSPropertyOp4
 70
     1
102
RTVSPropertyOp5
 70
     1
102
RTVSPropertyOp6
 70
     1
102
RTVSPropertyOp7
 70
     1
102
RTVSPropertyOp8
 70
     1
102
RTVSPropertyOp9
 70
     1
102
RTVSPropertyOp10
 70
     1
102
RTVSPropertyOp11
 70
     1
102
RTVSPropertyOp12
 70
     1
102
RTVSPropertyOp13
 70
     1
102
RTVSPropertyOp14
 70
     1
102
RTVSPropertyOp15
 70
     1
102
RTVSPropertyOp16
 70
     1
102
RTVSPropertyOp17
 70
     1
102
RTVSPropertyOp18
 70
     1
102
RTVSPropertyOp19
 70
     1
102
RTVSPropertyOp20
 70
     1
102
RTVSPropertyOp21
 70
     1
102
RTVSPropertyOp22
 70
     1
102
RTVSPropertyOp23
 70
     1
102
RTVSPropertyOp24
 70
     1
102
RTVSPropertyOp25
 70
     1
102
RTVSPropertyOp26
 70
     1
102
RTVSPropertyOp27
 70
     1
102
RTVSPropertyOp28
 70
     1
102
RTVSPropertyOp29
 70
     1
102
RTVSPropertyOp30
 70
     1
102
RTVSPropertyOp31
 70
     1
102
RTVSPropertyOp32
 70
     1
102
RTVSPropertyOp33
 70
     1
102
RTVSPropertyOp34
 70
     1
102
RTVSPropertyOp35
 70
     1
102
RTVSPropertyOp36
 70
     1
102
RTVSPropertyOp37
 70
     1
102
RTVSPropertyOp38
 70
     1
102
RTVSPropertyOp39
 70
     1
102
RTVSPropertyOp40
 70
     1
102
RTVSPropertyOp41
 70
     1
102
RTVSPropertyOp42
 70
     1
102
RTVSPropertyOp43
 70
     1
102
RTVSPropertyOp44
 70
     1
102
RTVSPropertyOp45
 70
     1
102
RTVSPropertyOp46
 70
     1
102
RTVSPropertyOp47
 70
     1
102
RTVSPropertyOp48
 70
     1
102
RTVSPropertyOp49
 70
     1
102
RTVSPropertyOp50
 70
     1
102
RTVSPropertyOp51
 70
     0
102
RTVSPropertyOp52
 70
     0
102
RTVSPropertyOp53
 70
     1
102
RTVSPropertyOp54
 70
     1
102
RTVSPropertyOp55
 70
     1
102
RTVSPropertyOp56
 70
     1
102
RTVSPropertyOp57
 70
     1
102
RTVSPropertyOp58
 70
     1
102
RTVSPropertyOp59
 70
     1
102
RTVSPropertyOp60
 70
     1
102
RTVSPropertyOp61
 70
     1
102
RTVSPropertyOp62
 70
     1
  0
XRECORD
  5
3AED
102
{ACAD_REACTORS
330
3AEC
102
}
330
3AEC
100
AcDbXrecord
280
     1
102
RTVSPost2010Prop28
280
     0
102
RTVSPost2010PropOp28
 70
     1
102
RTVSPost2010Prop29
280
     1
102
RTVSPost2010PropOp29
 70
     1
102
RTVSPost2010Prop30
280
     1
102
RTVSPost2010PropOp30
 70
     1
102
RTVSPost2010Prop31
280
     0
102
RTVSPost2010PropOp31
 70
     1
102
RTVSPost2010Prop32
280
     0
102
RTVSPost2010PropOp32
 70
     1
102
RTVSPost2010Prop33
280
     0
102
RTVSPost2010PropOp33
 70
     1
102
RTVSPost2010Prop34
280
     0
102
RTVSPost2010PropOp34
 70
     1
102
RTVSPost2010Prop35
280
     0
102
RTVSPost2010PropOp35
 70
     1
102
RTVSPost2010Prop36
280
     0
102
RTVSPost2010PropOp36
 70
     1
102
RTVSPost2010Prop37
 90
       50
102
RTVSPost2010PropOp37
 70
     1
102
RTVSPost2010Prop38
140
0.0
102
RTVSPost2010PropOp38
 70
     1
102
RTVSPost2010Prop39
140
1.0
102
RTVSPost2010PropOp39
 70
     1
102
RTVSPost2010Prop40
 90
        0
102
RTVSPost2010PropOp40
 70
     1
102
RTVSPost2010Prop41ColorIndex
 90
       18
102
RTVSPost2010Prop41ColorRGB
 90
        0
102
RTVSPost2010PropOp41
 70
     1
102
RTVSPost2010Prop42
 90
       50
102
RTVSPost2010PropOp42
 70
     1
102
RTVSPost2010Prop43
 90
        3
102
RTVSPost2010PropOp43
 70
     1
102
RTVSPost2010Prop44ColorIndex
 90
        5
102
RTVSPost2010Prop44ColorRGB
 90
      255
102
RTVSPost2010PropOp44
 70
     1
102
RTVSPost2010Prop45
280
     0
102
RTVSPost2010PropOp45
 70
     1
102
RTVSPost2010Prop46
 90
       50
102
RTVSPost2010PropOp46
 70
     1
102
RTVSPost2010Prop47
 90
       50
102
RTVSPost2010PropOp47
 70
     1
102
RTVSPost2010Prop48
 90
       50
102
RTVSPost2010PropOp48
 70
     1
102
RTVSPost2010Prop49
280
     0
102
RTVSPost2010PropOp49
 70
     1
102
RTVSPost2010Prop50
 90
       50
102
RTVSPost2010PropOp50
 70
     1
102
RTVSPost2010Prop51ColorIndex
 90
      256
102
RTVSPost2010Prop51ColorRGB
 90
-16777216
102
RTVSPost2010PropOp51
 70
     0
102
RTVSPost2010Prop52
140
1.0
102
RTVSPost2010PropOp52
 70
     0
102
RTVSPost2010Prop53
 90
        2
102
RTVSPost2010PropOp53
 70
     1
102
RTVSPost2010Prop54
  1
strokes_ogs.tif
102
RTVSPost2010PropOp54
 70
     1
102
RTVSPost2010Prop55
280
     0
102
RTVSPost2010PropOp55
 70
     1
102
RTVSPost2010Prop56
140
1.0
102
RTVSPost2010PropOp56
 70
     1
102
RTVSPost2010Prop57
140
1.0
102
RTVSPost2010PropOp57
 70
     1
102
RTVSPropertyOp0
 70
     1
102
RTVSPropertyOp1
 70
     1
102
RTVSPropertyOp2
 70
     1
102
RTVSPropertyOp3
 70
     1
102
RTVSPropertyOp4
 70
     1
102
RTVSPropertyOp5
 70
     1
102
RTVSPropertyOp6
 70
     1
102
RTVSPropertyOp7
 70
     1
102
RTVSPropertyOp8
 70
     1
102
RTVSPropertyOp9
 70
     1
102
RTVSPropertyOp10
 70
     1
102
RTVSPropertyOp11
 70
     1
102
RTVSPropertyOp12
 70
     1
102
RTVSPropertyOp13
 70
     1
102
RTVSPropertyOp14
 70
     1
102
RTVSPropertyOp15
 70
     1
102
RTVSPropertyOp16
 70
     1
102
RTVSPropertyOp17
 70
     1
102
RTVSPropertyOp18
 70
     1
102
RTVSPropertyOp19
 70
     1
102
RTVSPropertyOp20
 70
     1
102
RTVSPropertyOp21
 70
     1
102
RTVSPropertyOp22
 70
     1
102
RTVSPropertyOp23
 70
     1
102
RTVSPropertyOp24
 70
     1
102
RTVSPropertyOp25
 70
     1
102
RTVSPropertyOp26
 70
     1
102
RTVSPropertyOp27
 70
     1
102
RTVSPropertyOp28
 70
     1
102
RTVSPropertyOp29
 70
     1
102
RTVSPropertyOp30
 70
     1
102
RTVSPropertyOp31
 70
     1
102
RTVSPropertyOp32
 70
     1
102
RTVSPropertyOp33
 70
     1
102
RTVSPropertyOp34
 70
     1
102
RTVSPropertyOp35
 70
     1
102
RTVSPropertyOp36
 70
     1
102
RTVSPropertyOp37
 70
     1
102
RTVSPropertyOp38
 70
     1
102
RTVSPropertyOp39
 70
     1
102
RTVSPropertyOp40
 70
     1
102
RTVSPropertyOp41
 70
     1
102
RTVSPropertyOp42
 70
     1
102
RTVSPropertyOp43
 70
     1
102
RTVSPropertyOp44
 70
     1
102
RTVSPropertyOp45
 70
     1
102
RTVSPropertyOp46
 70
     1
102
RTVSPropertyOp47
 70
     1
102
RTVSPropertyOp48
 70
     1
102
RTVSPropertyOp49
 70
     1
102
RTVSPropertyOp50
 70
     1
102
RTVSPropertyOp51
 70
     0
102
RTVSPropertyOp52
 70
     0
102
RTVSPropertyOp53
 70
     1
102
RTVSPropertyOp54
 70
     1
102
RTVSPropertyOp55
 70
     1
102
RTVSPropertyOp56
 70
     1
102
RTVSPropertyOp57
 70
     1
102
RTVSPropertyOp58
 70
     1
102
RTVSPropertyOp59
 70
     1
102
RTVSPropertyOp60
 70
     1
102
RTVSPropertyOp61
 70
     1
102
RTVSPropertyOp62
 70
     1
  0
XRECORD
  5
3B10
102
{ACAD_REACTORS
330
3B0F
102
}
330
3B0F
100
AcDbXrecord
280
     1
102
RTVSPost2010Prop28
280
     0
102
RTVSPost2010PropOp28
 70
     1
102
RTVSPost2010Prop29
280
     1
102
RTVSPost2010PropOp29
 70
     1
102
RTVSPost2010Prop30
280
     1
102
RTVSPost2010PropOp30
 70
     1
102
RTVSPost2010Prop31
280
     0
102
RTVSPost2010PropOp31
 70
     1
102
RTVSPost2010Prop32
280
     0
102
RTVSPost2010PropOp32
 70
     1
102
RTVSPost2010Prop33
280
     0
102
RTVSPost2010PropOp33
 70
     1
102
RTVSPost2010Prop34
280
     0
102
RTVSPost2010PropOp34
 70
     1
102
RTVSPost2010Prop35
280
     0
102
RTVSPost2010PropOp35
 70
     1
102
RTVSPost2010Prop36
280
     0
102
RTVSPost2010PropOp36
 70
     1
102
RTVSPost2010Prop37
 90
       50
102
RTVSPost2010PropOp37
 70
     1
102
RTVSPost2010Prop38
140
0.0
102
RTVSPost2010PropOp38
 70
     1
102
RTVSPost2010Prop39
140
1.0
102
RTVSPost2010PropOp39
 70
     1
102
RTVSPost2010Prop40
 90
        0
102
RTVSPost2010PropOp40
 70
     1
102
RTVSPost2010Prop41ColorIndex
 90
       18
102
RTVSPost2010Prop41ColorRGB
 90
        0
102
RTVSPost2010PropOp41
 70
     1
102
RTVSPost2010Prop42
 90
       50
102
RTVSPost2010PropOp42
 70
     1
102
RTVSPost2010Prop43
 90
        3
102
RTVSPost2010PropOp43
 70
     1
102
RTVSPost2010Prop44ColorIndex
 90
        5
102
RTVSPost2010Prop44ColorRGB
 90
      255
102
RTVSPost2010PropOp44
 70
     1
102
RTVSPost2010Prop45
280
     0
102
RTVSPost2010PropOp45
 70
     1
102
RTVSPost2010Prop46
 90
       50
102
RTVSPost2010PropOp46
 70
     1
102
RTVSPost2010Prop47
 90
       50
102
RTVSPost2010PropOp47
 70
     1
102
RTVSPost2010Prop48
 90
       50
102
RTVSPost2010PropOp48
 70
     1
102
RTVSPost2010Prop49
280
     0
102
RTVSPost2010PropOp49
 70
     1
102
RTVSPost2010Prop50
 90
       50
102
RTVSPost2010PropOp50
 70
     1
102
RTVSPost2010Prop51ColorIndex
 90
      256
102
RTVSPost2010Prop51ColorRGB
 90
-16777216
102
RTVSPost2010PropOp51
 70
     0
102
RTVSPost2010Prop52
140
1.0
102
RTVSPost2010PropOp52
 70
     0
102
RTVSPost2010Prop53
 90
        2
102
RTVSPost2010PropOp53
 70
     1
102
RTVSPost2010Prop54
  1
strokes_ogs.tif
102
RTVSPost2010PropOp54
 70
     1
102
RTVSPost2010Prop55
280
     0
102
RTVSPost2010PropOp55
 70
     1
102
RTVSPost2010Prop56
140
1.0
102
RTVSPost2010PropOp56
 70
     1
102
RTVSPost2010Prop57
140
1.0
102
RTVSPost2010PropOp57
 70
     1
102
RTVSPropertyOp0
 70
     1
102
RTVSPropertyOp1
 70
     1
102
RTVSPropertyOp2
 70
     1
102
RTVSPropertyOp3
 70
     1
102
RTVSPropertyOp4
 70
     1
102
RTVSPropertyOp5
 70
     1
102
RTVSPropertyOp6
 70
     1
102
RTVSPropertyOp7
 70
     1
102
RTVSPropertyOp8
 70
     1
102
RTVSPropertyOp9
 70
     1
102
RTVSPropertyOp10
 70
     1
102
RTVSPropertyOp11
 70
     1
102
RTVSPropertyOp12
 70
     1
102
RTVSPropertyOp13
 70
     1
102
RTVSPropertyOp14
 70
     1
102
RTVSPropertyOp15
 70
     1
102
RTVSPropertyOp16
 70
     1
102
RTVSPropertyOp17
 70
     1
102
RTVSPropertyOp18
 70
     1
102
RTVSPropertyOp19
 70
     1
102
RTVSPropertyOp20
 70
     1
102
RTVSPropertyOp21
 70
     1
102
RTVSPropertyOp22
 70
     1
102
RTVSPropertyOp23
 70
     1
102
RTVSPropertyOp24
 70
     1
102
RTVSPropertyOp25
 70
     1
102
RTVSPropertyOp26
 70
     1
102
RTVSPropertyOp27
 70
     1
102
RTVSPropertyOp28
 70
     1
102
RTVSPropertyOp29
 70
     1
102
RTVSPropertyOp30
 70
     1
102
RTVSPropertyOp31
 70
     1
102
RTVSPropertyOp32
 70
     1
102
RTVSPropertyOp33
 70
     1
102
RTVSPropertyOp34
 70
     1
102
RTVSPropertyOp35
 70
     1
102
RTVSPropertyOp36
 70
     1
102
RTVSPropertyOp37
 70
     1
102
RTVSPropertyOp38
 70
     1
102
RTVSPropertyOp39
 70
     1
102
RTVSPropertyOp40
 70
     1
102
RTVSPropertyOp41
 70
     1
102
RTVSPropertyOp42
 70
     1
102
RTVSPropertyOp43
 70
     1
102
RTVSPropertyOp44
 70
     1
102
RTVSPropertyOp45
 70
     1
102
RTVSPropertyOp46
 70
     1
102
RTVSPropertyOp47
 70
     1
102
RTVSPropertyOp48
 70
     1
102
RTVSPropertyOp49
 70
     1
102
RTVSPropertyOp50
 70
     1
102
RTVSPropertyOp51
 70
     0
102
RTVSPropertyOp52
 70
     0
102
RTVSPropertyOp53
 70
     1
102
RTVSPropertyOp54
 70
     1
102
RTVSPropertyOp55
 70
     1
102
RTVSPropertyOp56
 70
     1
102
RTVSPropertyOp57
 70
     1
102
RTVSPropertyOp58
 70
     1
102
RTVSPropertyOp59
 70
     1
102
RTVSPropertyOp60
 70
     1
102
RTVSPropertyOp61
 70
     1
102
RTVSPropertyOp62
 70
     1
  0
XRECORD
  5
3B07
102
{ACAD_REACTORS
330
3B06
102
}
330
3B06
100
AcDbXrecord
280
     1
102
RTVSPost2010Prop28
280
     0
102
RTVSPost2010PropOp28
 70
     1
102
RTVSPost2010Prop29
280
     1
102
RTVSPost2010PropOp29
 70
     1
102
RTVSPost2010Prop30
280
     1
102
RTVSPost2010PropOp30
 70
     1
102
RTVSPost2010Prop31
280
     0
102
RTVSPost2010PropOp31
 70
     1
102
RTVSPost2010Prop32
280
     0
102
RTVSPost2010PropOp32
 70
     1
102
RTVSPost2010Prop33
280
     0
102
RTVSPost2010PropOp33
 70
     1
102
RTVSPost2010Prop34
280
     0
102
RTVSPost2010PropOp34
 70
     1
102
RTVSPost2010Prop35
280
     0
102
RTVSPost2010PropOp35
 70
     1
102
RTVSPost2010Prop36
280
     0
102
RTVSPost2010PropOp36
 70
     1
102
RTVSPost2010Prop37
 90
       50
102
RTVSPost2010PropOp37
 70
     1
102
RTVSPost2010Prop38
140
0.0
102
RTVSPost2010PropOp38
 70
     1
102
RTVSPost2010Prop39
140
1.0
102
RTVSPost2010PropOp39
 70
     1
102
RTVSPost2010Prop40
 90
        0
102
RTVSPost2010PropOp40
 70
     1
102
RTVSPost2010Prop41ColorIndex
 90
       18
102
RTVSPost2010Prop41ColorRGB
 90
        0
102
RTVSPost2010PropOp41
 70
     1
102
RTVSPost2010Prop42
 90
       50
102
RTVSPost2010PropOp42
 70
     1
102
RTVSPost2010Prop43
 90
        3
102
RTVSPost2010PropOp43
 70
     1
102
RTVSPost2010Prop44ColorIndex
 90
        5
102
RTVSPost2010Prop44ColorRGB
 90
      255
102
RTVSPost2010PropOp44
 70
     1
102
RTVSPost2010Prop45
280
     0
102
RTVSPost2010PropOp45
 70
     1
102
RTVSPost2010Prop46
 90
       50
102
RTVSPost2010PropOp46
 70
     1
102
RTVSPost2010Prop47
 90
       50
102
RTVSPost2010PropOp47
 70
     1
102
RTVSPost2010Prop48
 90
       50
102
RTVSPost2010PropOp48
 70
     1
102
RTVSPost2010Prop49
280
     0
102
RTVSPost2010PropOp49
 70
     1
102
RTVSPost2010Prop50
 90
       50
102
RTVSPost2010PropOp50
 70
     1
102
RTVSPost2010Prop51ColorIndex
 90
      256
102
RTVSPost2010Prop51ColorRGB
 90
-16777216
102
RTVSPost2010PropOp51
 70
     0
102
RTVSPost2010Prop52
140
1.0
102
RTVSPost2010PropOp52
 70
     0
102
RTVSPost2010Prop53
 90
        2
102
RTVSPost2010PropOp53
 70
     1
102
RTVSPost2010Prop54
  1
strokes_ogs.tif
102
RTVSPost2010PropOp54
 70
     1
102
RTVSPost2010Prop55
280
     0
102
RTVSPost2010PropOp55
 70
     1
102
RTVSPost2010Prop56
140
1.0
102
RTVSPost2010PropOp56
 70
     1
102
RTVSPost2010Prop57
140
1.0
102
RTVSPost2010PropOp57
 70
     1
102
RTVSPropertyOp0
 70
     0
102
RTVSPropertyOp1
 70
     0
102
RTVSPropertyOp2
 70
     0
102
RTVSPropertyOp3
 70
     0
102
RTVSPropertyOp4
 70
     0
102
RTVSPropertyOp5
 70
     0
102
RTVSPropertyOp6
 70
     0
102
RTVSPropertyOp7
 70
     0
102
RTVSPropertyOp8
 70
     0
102
RTVSPropertyOp9
 70
     0
102
RTVSPropertyOp10
 70
     0
102
RTVSPropertyOp11
 70
     0
102
RTVSPropertyOp12
 70
     0
102
RTVSPropertyOp13
 70
     0
102
RTVSPropertyOp14
 70
     2
102
RTVSPropertyOp15
 70
     0
102
RTVSPropertyOp16
 70
     0
102
RTVSPropertyOp17
 70
     0
102
RTVSPropertyOp18
 70
     0
102
RTVSPropertyOp19
 70
     0
102
RTVSPropertyOp20
 70
     0
102
RTVSPropertyOp21
 70
     0
102
RTVSPropertyOp22
 70
     0
102
RTVSPropertyOp23
 70
     0
102
RTVSPropertyOp24
 70
     0
102
RTVSPropertyOp25
 70
     0
102
RTVSPropertyOp26
 70
     0
102
RTVSPropertyOp27
 70
     0
102
RTVSPropertyOp28
 70
     1
102
RTVSPropertyOp29
 70
     1
102
RTVSPropertyOp30
 70
     1
102
RTVSPropertyOp31
 70
     1
102
RTVSPropertyOp32
 70
     1
102
RTVSPropertyOp33
 70
     1
102
RTVSPropertyOp34
 70
     1
102
RTVSPropertyOp35
 70
     1
102
RTVSPropertyOp36
 70
     1
102
RTVSPropertyOp37
 70
     1
102
RTVSPropertyOp38
 70
     1
102
RTVSPropertyOp39
 70
     1
102
RTVSPropertyOp40
 70
     1
102
RTVSPropertyOp41
 70
     1
102
RTVSPropertyOp42
 70
     1
102
RTVSPropertyOp43
 70
     1
102
RTVSPropertyOp44
 70
     1
102
RTVSPropertyOp45
 70
     1
102
RTVSPropertyOp46
 70
     1
102
RTVSPropertyOp47
 70
     1
102
RTVSPropertyOp48
 70
     1
102
RTVSPropertyOp49
 70
     1
102
RTVSPropertyOp50
 70
     1
102
RTVSPropertyOp51
 70
     0
102
RTVSPropertyOp52
 70
     0
102
RTVSPropertyOp53
 70
     1
102
RTVSPropertyOp54
 70
     1
102
RTVSPropertyOp55
 70
     1
102
RTVSPropertyOp56
 70
     1
102
RTVSPropertyOp57
 70
     1
102
RTVSPropertyOp58
 70
     1
102
RTVSPropertyOp59
 70
     1
102
RTVSPropertyOp60
 70
     1
102
RTVSPropertyOp61
 70
     1
102
RTVSPropertyOp62
 70
     1
  0
XRECORD
  5
3B01
102
{ACAD_REACTORS
330
3B00
102
}
330
3B00
100
AcDbXrecord
280
     1
102
RTVSPost2010Prop28
280
     0
102
RTVSPost2010PropOp28
 70
     1
102
RTVSPost2010Prop29
280
     1
102
RTVSPost2010PropOp29
 70
     1
102
RTVSPost2010Prop30
280
     1
102
RTVSPost2010PropOp30
 70
     1
102
RTVSPost2010Prop31
280
     0
102
RTVSPost2010PropOp31
 70
     1
102
RTVSPost2010Prop32
280
     0
102
RTVSPost2010PropOp32
 70
     1
102
RTVSPost2010Prop33
280
     0
102
RTVSPost2010PropOp33
 70
     1
102
RTVSPost2010Prop34
280
     0
102
RTVSPost2010PropOp34
 70
     1
102
RTVSPost2010Prop35
280
     0
102
RTVSPost2010PropOp35
 70
     1
102
RTVSPost2010Prop36
280
     0
102
RTVSPost2010PropOp36
 70
     1
102
RTVSPost2010Prop37
 90
       50
102
RTVSPost2010PropOp37
 70
     1
102
RTVSPost2010Prop38
140
0.0
102
RTVSPost2010PropOp38
 70
     1
102
RTVSPost2010Prop39
140
1.0
102
RTVSPost2010PropOp39
 70
     1
102
RTVSPost2010Prop40
 90
        0
102
RTVSPost2010PropOp40
 70
     1
102
RTVSPost2010Prop41ColorIndex
 90
       18
102
RTVSPost2010Prop41ColorRGB
 90
        0
102
RTVSPost2010PropOp41
 70
     1
102
RTVSPost2010Prop42
 90
       50
102
RTVSPost2010PropOp42
 70
     1
102
RTVSPost2010Prop43
 90
        3
102
RTVSPost2010PropOp43
 70
     1
102
RTVSPost2010Prop44ColorIndex
 90
        5
102
RTVSPost2010Prop44ColorRGB
 90
      255
102
RTVSPost2010PropOp44
 70
     1
102
RTVSPost2010Prop45
280
     0
102
RTVSPost2010PropOp45
 70
     1
102
RTVSPost2010Prop46
 90
       50
102
RTVSPost2010PropOp46
 70
     1
102
RTVSPost2010Prop47
 90
       50
102
RTVSPost2010PropOp47
 70
     1
102
RTVSPost2010Prop48
 90
       50
102
RTVSPost2010PropOp48
 70
     1
102
RTVSPost2010Prop49
280
     0
102
RTVSPost2010PropOp49
 70
     1
102
RTVSPost2010Prop50
 90
       50
102
RTVSPost2010PropOp50
 70
     1
102
RTVSPost2010Prop51ColorIndex
 90
      256
102
RTVSPost2010Prop51ColorRGB
 90
-16777216
102
RTVSPost2010PropOp51
 70
     0
102
RTVSPost2010Prop52
140
1.0
102
RTVSPost2010PropOp52
 70
     0
102
RTVSPost2010Prop53
 90
        2
102
RTVSPost2010PropOp53
 70
     1
102
RTVSPost2010Prop54
  1
strokes_ogs.tif
102
RTVSPost2010PropOp54
 70
     1
102
RTVSPost2010Prop55
280
     0
102
RTVSPost2010PropOp55
 70
     1
102
RTVSPost2010Prop56
140
1.0
102
RTVSPost2010PropOp56
 70
     1
102
RTVSPost2010Prop57
140
1.0
102
RTVSPost2010PropOp57
 70
     1
102
RTVSPropertyOp0
 70
     1
102
RTVSPropertyOp1
 70
     1
102
RTVSPropertyOp2
 70
     1
102
RTVSPropertyOp3
 70
     1
102
RTVSPropertyOp4
 70
     1
102
RTVSPropertyOp5
 70
     1
102
RTVSPropertyOp6
 70
     1
102
RTVSPropertyOp7
 70
     1
102
RTVSPropertyOp8
 70
     1
102
RTVSPropertyOp9
 70
     1
102
RTVSPropertyOp10
 70
     1
102
RTVSPropertyOp11
 70
     1
102
RTVSPropertyOp12
 70
     1
102
RTVSPropertyOp13
 70
     1
102
RTVSPropertyOp14
 70
     1
102
RTVSPropertyOp15
 70
     1
102
RTVSPropertyOp16
 70
     1
102
RTVSPropertyOp17
 70
     1
102
RTVSPropertyOp18
 70
     1
102
RTVSPropertyOp19
 70
     1
102
RTVSPropertyOp20
 70
     1
102
RTVSPropertyOp21
 70
     1
102
RTVSPropertyOp22
 70
     1
102
RTVSPropertyOp23
 70
     1
102
RTVSPropertyOp24
 70
     1
102
RTVSPropertyOp25
 70
     1
102
RTVSPropertyOp26
 70
     1
102
RTVSPropertyOp27
 70
     1
102
RTVSPropertyOp28
 70
     1
102
RTVSPropertyOp29
 70
     1
102
RTVSPropertyOp30
 70
     1
102
RTVSPropertyOp31
 70
     1
102
RTVSPropertyOp32
 70
     1
102
RTVSPropertyOp33
 70
     1
102
RTVSPropertyOp34
 70
     1
102
RTVSPropertyOp35
 70
     1
102
RTVSPropertyOp36
 70
     1
102
RTVSPropertyOp37
 70
     1
102
RTVSPropertyOp38
 70
     1
102
RTVSPropertyOp39
 70
     1
102
RTVSPropertyOp40
 70
     1
102
RTVSPropertyOp41
 70
     1
102
RTVSPropertyOp42
 70
     1
102
RTVSPropertyOp43
 70
     1
102
RTVSPropertyOp44
 70
     1
102
RTVSPropertyOp45
 70
     1
102
RTVSPropertyOp46
 70
     1
102
RTVSPropertyOp47
 70
     1
102
RTVSPropertyOp48
 70
     1
102
RTVSPropertyOp49
 70
     1
102
RTVSPropertyOp50
 70
     1
102
RTVSPropertyOp51
 70
     0
102
RTVSPropertyOp52
 70
     0
102
RTVSPropertyOp53
 70
     1
102
RTVSPropertyOp54
 70
     1
102
RTVSPropertyOp55
 70
     1
102
RTVSPropertyOp56
 70
     1
102
RTVSPropertyOp57
 70
     1
102
RTVSPropertyOp58
 70
     1
102
RTVSPropertyOp59
 70
     1
102
RTVSPropertyOp60
 70
     1
102
RTVSPropertyOp61
 70
     1
102
RTVSPropertyOp62
 70
     1
  0
XRECORD
  5
3B09
102
{ACAD_REACTORS
330
3B08
102
}
330
3B08
100
AcDbXrecord
280
     1
102
RTVSPost2010Prop28
280
     0
102
RTVSPost2010PropOp28
 70
     1
102
RTVSPost2010Prop29
280
     1
102
RTVSPost2010PropOp29
 70
     1
102
RTVSPost2010Prop30
280
     1
102
RTVSPost2010PropOp30
 70
     1
102
RTVSPost2010Prop31
280
     0
102
RTVSPost2010PropOp31
 70
     1
102
RTVSPost2010Prop32
280
     0
102
RTVSPost2010PropOp32
 70
     1
102
RTVSPost2010Prop33
280
     0
102
RTVSPost2010PropOp33
 70
     1
102
RTVSPost2010Prop34
280
     0
102
RTVSPost2010PropOp34
 70
     1
102
RTVSPost2010Prop35
280
     0
102
RTVSPost2010PropOp35
 70
     1
102
RTVSPost2010Prop36
280
     0
102
RTVSPost2010PropOp36
 70
     1
102
RTVSPost2010Prop37
 90
       50
102
RTVSPost2010PropOp37
 70
     1
102
RTVSPost2010Prop38
140
0.0
102
RTVSPost2010PropOp38
 70
     1
102
RTVSPost2010Prop39
140
1.0
102
RTVSPost2010PropOp39
 70
     1
102
RTVSPost2010Prop40
 90
        0
102
RTVSPost2010PropOp40
 70
     1
102
RTVSPost2010Prop41ColorIndex
 90
       18
102
RTVSPost2010Prop41ColorRGB
 90
        0
102
RTVSPost2010PropOp41
 70
     1
102
RTVSPost2010Prop42
 90
       50
102
RTVSPost2010PropOp42
 70
     1
102
RTVSPost2010Prop43
 90
        3
102
RTVSPost2010PropOp43
 70
     1
102
RTVSPost2010Prop44ColorIndex
 90
        5
102
RTVSPost2010Prop44ColorRGB
 90
      255
102
RTVSPost2010PropOp44
 70
     1
102
RTVSPost2010Prop45
280
     0
102
RTVSPost2010PropOp45
 70
     1
102
RTVSPost2010Prop46
 90
       50
102
RTVSPost2010PropOp46
 70
     1
102
RTVSPost2010Prop47
 90
       50
102
RTVSPost2010PropOp47
 70
     1
102
RTVSPost2010Prop48
 90
       50
102
RTVSPost2010PropOp48
 70
     1
102
RTVSPost2010Prop49
280
     0
102
RTVSPost2010PropOp49
 70
     1
102
RTVSPost2010Prop50
 90
       50
102
RTVSPost2010PropOp50
 70
     1
102
RTVSPost2010Prop51ColorIndex
 90
      256
102
RTVSPost2010Prop51ColorRGB
 90
-16777216
102
RTVSPost2010PropOp51
 70
     0
102
RTVSPost2010Prop52
140
1.0
102
RTVSPost2010PropOp52
 70
     0
102
RTVSPost2010Prop53
 90
        2
102
RTVSPost2010PropOp53
 70
     1
102
RTVSPost2010Prop54
  1
strokes_ogs.tif
102
RTVSPost2010PropOp54
 70
     1
102
RTVSPost2010Prop55
280
     0
102
RTVSPost2010PropOp55
 70
     1
102
RTVSPost2010Prop56
140
1.0
102
RTVSPost2010PropOp56
 70
     1
102
RTVSPost2010Prop57
140
1.0
102
RTVSPost2010PropOp57
 70
     1
102
RTVSPropertyOp0
 70
     0
102
RTVSPropertyOp1
 70
     0
102
RTVSPropertyOp2
 70
     0
102
RTVSPropertyOp3
 70
     0
102
RTVSPropertyOp4
 70
     0
102
RTVSPropertyOp5
 70
     0
102
RTVSPropertyOp6
 70
     0
102
RTVSPropertyOp7
 70
     0
102
RTVSPropertyOp8
 70
     0
102
RTVSPropertyOp9
 70
     0
102
RTVSPropertyOp10
 70
     0
102
RTVSPropertyOp11
 70
     0
102
RTVSPropertyOp12
 70
     0
102
RTVSPropertyOp13
 70
     0
102
RTVSPropertyOp14
 70
     2
102
RTVSPropertyOp15
 70
     0
102
RTVSPropertyOp16
 70
     0
102
RTVSPropertyOp17
 70
     0
102
RTVSPropertyOp18
 70
     0
102
RTVSPropertyOp19
 70
     0
102
RTVSPropertyOp20
 70
     0
102
RTVSPropertyOp21
 70
     0
102
RTVSPropertyOp22
 70
     0
102
RTVSPropertyOp23
 70
     0
102
RTVSPropertyOp24
 70
     0
102
RTVSPropertyOp25
 70
     0
102
RTVSPropertyOp26
 70
     0
102
RTVSPropertyOp27
 70
     0
102
RTVSPropertyOp28
 70
     1
102
RTVSPropertyOp29
 70
     1
102
RTVSPropertyOp30
 70
     1
102
RTVSPropertyOp31
 70
     1
102
RTVSPropertyOp32
 70
     1
102
RTVSPropertyOp33
 70
     1
102
RTVSPropertyOp34
 70
     1
102
RTVSPropertyOp35
 70
     1
102
RTVSPropertyOp36
 70
     1
102
RTVSPropertyOp37
 70
     1
102
RTVSPropertyOp38
 70
     1
102
RTVSPropertyOp39
 70
     1
102
RTVSPropertyOp40
 70
     1
102
RTVSPropertyOp41
 70
     1
102
RTVSPropertyOp42
 70
     1
102
RTVSPropertyOp43
 70
     1
102
RTVSPropertyOp44
 70
     1
102
RTVSPropertyOp45
 70
     1
102
RTVSPropertyOp46
 70
     1
102
RTVSPropertyOp47
 70
     1
102
RTVSPropertyOp48
 70
     1
102
RTVSPropertyOp49
 70
     1
102
RTVSPropertyOp50
 70
     1
102
RTVSPropertyOp51
 70
     0
102
RTVSPropertyOp52
 70
     0
102
RTVSPropertyOp53
 70
     1
102
RTVSPropertyOp54
 70
     1
102
RTVSPropertyOp55
 70
     1
102
RTVSPropertyOp56
 70
     1
102
RTVSPropertyOp57
 70
     1
102
RTVSPropertyOp58
 70
     1
102
RTVSPropertyOp59
 70
     1
102
RTVSPropertyOp60
 70
     1
102
RTVSPropertyOp61
 70
     1
102
RTVSPropertyOp62
 70
     1
  0
XRECORD
  5
3AF9
102
{ACAD_REACTORS
330
3AF8
102
}
330
3AF8
100
AcDbXrecord
280
     1
102
RTVSPost2010Prop28
280
     0
102
RTVSPost2010PropOp28
 70
     1
102
RTVSPost2010Prop29
280
     1
102
RTVSPost2010PropOp29
 70
     1
102
RTVSPost2010Prop30
280
     1
102
RTVSPost2010PropOp30
 70
     1
102
RTVSPost2010Prop31
280
     0
102
RTVSPost2010PropOp31
 70
     1
102
RTVSPost2010Prop32
280
     0
102
RTVSPost2010PropOp32
 70
     1
102
RTVSPost2010Prop33
280
     0
102
RTVSPost2010PropOp33
 70
     1
102
RTVSPost2010Prop34
280
     0
102
RTVSPost2010PropOp34
 70
     1
102
RTVSPost2010Prop35
280
     0
102
RTVSPost2010PropOp35
 70
     1
102
RTVSPost2010Prop36
280
     0
102
RTVSPost2010PropOp36
 70
     1
102
RTVSPost2010Prop37
 90
       50
102
RTVSPost2010PropOp37
 70
     1
102
RTVSPost2010Prop38
140
0.0
102
RTVSPost2010PropOp38
 70
     1
102
RTVSPost2010Prop39
140
1.0
102
RTVSPost2010PropOp39
 70
     1
102
RTVSPost2010Prop40
 90
        0
102
RTVSPost2010PropOp40
 70
     1
102
RTVSPost2010Prop41ColorIndex
 90
       18
102
RTVSPost2010Prop41ColorRGB
 90
        0
102
RTVSPost2010PropOp41
 70
     1
102
RTVSPost2010Prop42
 90
       50
102
RTVSPost2010PropOp42
 70
     1
102
RTVSPost2010Prop43
 90
        3
102
RTVSPost2010PropOp43
 70
     1
102
RTVSPost2010Prop44ColorIndex
 90
        5
102
RTVSPost2010Prop44ColorRGB
 90
      255
102
RTVSPost2010PropOp44
 70
     1
102
RTVSPost2010Prop45
280
     0
102
RTVSPost2010PropOp45
 70
     1
102
RTVSPost2010Prop46
 90
       50
102
RTVSPost2010PropOp46
 70
     1
102
RTVSPost2010Prop47
 90
       50
102
RTVSPost2010PropOp47
 70
     1
102
RTVSPost2010Prop48
 90
       50
102
RTVSPost2010PropOp48
 70
     1
102
RTVSPost2010Prop49
280
     0
102
RTVSPost2010PropOp49
 70
     1
102
RTVSPost2010Prop50
 90
       50
102
RTVSPost2010PropOp50
 70
     1
102
RTVSPost2010Prop51ColorIndex
 90
      256
102
RTVSPost2010Prop51ColorRGB
 90
-16777216
102
RTVSPost2010PropOp51
 70
     0
102
RTVSPost2010Prop52
140
1.0
102
RTVSPost2010PropOp52
 70
     0
102
RTVSPost2010Prop53
 90
        2
102
RTVSPost2010PropOp53
 70
     1
102
RTVSPost2010Prop54
  1
strokes_ogs.tif
102
RTVSPost2010PropOp54
 70
     1
102
RTVSPost2010Prop55
280
     0
102
RTVSPost2010PropOp55
 70
     1
102
RTVSPost2010Prop56
140
1.0
102
RTVSPost2010PropOp56
 70
     1
102
RTVSPost2010Prop57
140
1.0
102
RTVSPost2010PropOp57
 70
     1
102
RTVSPropertyOp0
 70
     1
102
RTVSPropertyOp1
 70
     1
102
RTVSPropertyOp2
 70
     1
102
RTVSPropertyOp3
 70
     1
102
RTVSPropertyOp4
 70
     1
102
RTVSPropertyOp5
 70
     1
102
RTVSPropertyOp6
 70
     1
102
RTVSPropertyOp7
 70
     1
102
RTVSPropertyOp8
 70
     1
102
RTVSPropertyOp9
 70
     1
102
RTVSPropertyOp10
 70
     1
102
RTVSPropertyOp11
 70
     1
102
RTVSPropertyOp12
 70
     1
102
RTVSPropertyOp13
 70
     1
102
RTVSPropertyOp14
 70
     1
102
RTVSPropertyOp15
 70
     1
102
RTVSPropertyOp16
 70
     1
102
RTVSPropertyOp17
 70
     1
102
RTVSPropertyOp18
 70
     1
102
RTVSPropertyOp19
 70
     1
102
RTVSPropertyOp20
 70
     1
102
RTVSPropertyOp21
 70
     1
102
RTVSPropertyOp22
 70
     1
102
RTVSPropertyOp23
 70
     1
102
RTVSPropertyOp24
 70
     1
102
RTVSPropertyOp25
 70
     1
102
RTVSPropertyOp26
 70
     1
102
RTVSPropertyOp27
 70
     1
102
RTVSPropertyOp28
 70
     1
102
RTVSPropertyOp29
 70
     1
102
RTVSPropertyOp30
 70
     1
102
RTVSPropertyOp31
 70
     1
102
RTVSPropertyOp32
 70
     1
102
RTVSPropertyOp33
 70
     1
102
RTVSPropertyOp34
 70
     1
102
RTVSPropertyOp35
 70
     1
102
RTVSPropertyOp36
 70
     1
102
RTVSPropertyOp37
 70
     1
102
RTVSPropertyOp38
 70
     1
102
RTVSPropertyOp39
 70
     1
102
RTVSPropertyOp40
 70
     1
102
RTVSPropertyOp41
 70
     1
102
RTVSPropertyOp42
 70
     1
102
RTVSPropertyOp43
 70
     1
102
RTVSPropertyOp44
 70
     1
102
RTVSPropertyOp45
 70
     1
102
RTVSPropertyOp46
 70
     1
102
RTVSPropertyOp47
 70
     1
102
RTVSPropertyOp48
 70
     1
102
RTVSPropertyOp49
 70
     1
102
RTVSPropertyOp50
 70
     1
102
RTVSPropertyOp51
 70
     0
102
RTVSPropertyOp52
 70
     0
102
RTVSPropertyOp53
 70
     1
102
RTVSPropertyOp54
 70
     1
102
RTVSPropertyOp55
 70
     1
102
RTVSPropertyOp56
 70
     1
102
RTVSPropertyOp57
 70
     1
102
RTVSPropertyOp58
 70
     1
102
RTVSPropertyOp59
 70
     1
102
RTVSPropertyOp60
 70
     1
102
RTVSPropertyOp61
 70
     1
102
RTVSPropertyOp62
 70
     1
  0
XRECORD
  5
3B1A
102
{ACAD_REACTORS
330
3B19
102
}
330
3B19
100
AcDbXrecord
280
     1
102
RTVSPost2010Prop28
280
     0
102
RTVSPost2010PropOp28
 70
     1
102
RTVSPost2010Prop29
280
     1
102
RTVSPost2010PropOp29
 70
     1
102
RTVSPost2010Prop30
280
     1
102
RTVSPost2010PropOp30
 70
     1
102
RTVSPost2010Prop31
280
     0
102
RTVSPost2010PropOp31
 70
     1
102
RTVSPost2010Prop32
280
     0
102
RTVSPost2010PropOp32
 70
     1
102
RTVSPost2010Prop33
280
     0
102
RTVSPost2010PropOp33
 70
     1
102
RTVSPost2010Prop34
280
     0
102
RTVSPost2010PropOp34
 70
     1
102
RTVSPost2010Prop35
280
     0
102
RTVSPost2010PropOp35
 70
     1
102
RTVSPost2010Prop36
280
     0
102
RTVSPost2010PropOp36
 70
     1
102
RTVSPost2010Prop37
 90
       50
102
RTVSPost2010PropOp37
 70
     1
102
RTVSPost2010Prop38
140
0.0
102
RTVSPost2010PropOp38
 70
     1
102
RTVSPost2010Prop39
140
1.0
102
RTVSPost2010PropOp39
 70
     1
102
RTVSPost2010Prop40
 90
        0
102
RTVSPost2010PropOp40
 70
     1
102
RTVSPost2010Prop41ColorIndex
 90
       18
102
RTVSPost2010Prop41ColorRGB
 90
        0
102
RTVSPost2010PropOp41
 70
     1
102
RTVSPost2010Prop42
 90
       50
102
RTVSPost2010PropOp42
 70
     1
102
RTVSPost2010Prop43
 90
        3
102
RTVSPost2010PropOp43
 70
     1
102
RTVSPost2010Prop44ColorIndex
 90
        5
102
RTVSPost2010Prop44ColorRGB
 90
      255
102
RTVSPost2010PropOp44
 70
     1
102
RTVSPost2010Prop45
280
     0
102
RTVSPost2010PropOp45
 70
     1
102
RTVSPost2010Prop46
 90
       50
102
RTVSPost2010PropOp46
 70
     1
102
RTVSPost2010Prop47
 90
       50
102
RTVSPost2010PropOp47
 70
     1
102
RTVSPost2010Prop48
 90
       50
102
RTVSPost2010PropOp48
 70
     1
102
RTVSPost2010Prop49
280
     0
102
RTVSPost2010PropOp49
 70
     1
102
RTVSPost2010Prop50
 90
       50
102
RTVSPost2010PropOp50
 70
     1
102
RTVSPost2010Prop51ColorIndex
 90
      256
102
RTVSPost2010Prop51ColorRGB
 90
-16777216
102
RTVSPost2010PropOp51
 70
     0
102
RTVSPost2010Prop52
140
1.0
102
RTVSPost2010PropOp52
 70
     0
102
RTVSPost2010Prop53
 90
        2
102
RTVSPost2010PropOp53
 70
     1
102
RTVSPost2010Prop54
  1
strokes_ogs.tif
102
RTVSPost2010PropOp54
 70
     1
102
RTVSPost2010Prop55
280
     0
102
RTVSPost2010PropOp55
 70
     1
102
RTVSPost2010Prop56
140
1.0
102
RTVSPost2010PropOp56
 70
     1
102
RTVSPost2010Prop57
140
1.0
102
RTVSPost2010PropOp57
 70
     1
102
RTVSPropertyOp0
 70
     1
102
RTVSPropertyOp1
 70
     1
102
RTVSPropertyOp2
 70
     1
102
RTVSPropertyOp3
 70
     1
102
RTVSPropertyOp4
 70
     1
102
RTVSPropertyOp5
 70
     1
102
RTVSPropertyOp6
 70
     1
102
RTVSPropertyOp7
 70
     1
102
RTVSPropertyOp8
 70
     1
102
RTVSPropertyOp9
 70
     1
102
RTVSPropertyOp10
 70
     1
102
RTVSPropertyOp11
 70
     1
102
RTVSPropertyOp12
 70
     1
102
RTVSPropertyOp13
 70
     1
102
RTVSPropertyOp14
 70
     1
102
RTVSPropertyOp15
 70
     1
102
RTVSPropertyOp16
 70
     1
102
RTVSPropertyOp17
 70
     1
102
RTVSPropertyOp18
 70
     1
102
RTVSPropertyOp19
 70
     1
102
RTVSPropertyOp20
 70
     1
102
RTVSPropertyOp21
 70
     1
102
RTVSPropertyOp22
 70
     1
102
RTVSPropertyOp23
 70
     1
102
RTVSPropertyOp24
 70
     1
102
RTVSPropertyOp25
 70
     1
102
RTVSPropertyOp26
 70
     1
102
RTVSPropertyOp27
 70
     1
102
RTVSPropertyOp28
 70
     1
102
RTVSPropertyOp29
 70
     1
102
RTVSPropertyOp30
 70
     1
102
RTVSPropertyOp31
 70
     1
102
RTVSPropertyOp32
 70
     1
102
RTVSPropertyOp33
 70
     1
102
RTVSPropertyOp34
 70
     1
102
RTVSPropertyOp35
 70
     1
102
RTVSPropertyOp36
 70
     1
102
RTVSPropertyOp37
 70
     1
102
RTVSPropertyOp38
 70
     1
102
RTVSPropertyOp39
 70
     1
102
RTVSPropertyOp40
 70
     1
102
RTVSPropertyOp41
 70
     1
102
RTVSPropertyOp42
 70
     1
102
RTVSPropertyOp43
 70
     1
102
RTVSPropertyOp44
 70
     1
102
RTVSPropertyOp45
 70
     1
102
RTVSPropertyOp46
 70
     1
102
RTVSPropertyOp47
 70
     1
102
RTVSPropertyOp48
 70
     1
102
RTVSPropertyOp49
 70
     1
102
RTVSPropertyOp50
 70
     1
102
RTVSPropertyOp51
 70
     0
102
RTVSPropertyOp52
 70
     0
102
RTVSPropertyOp53
 70
     1
102
RTVSPropertyOp54
 70
     1
102
RTVSPropertyOp55
 70
     1
102
RTVSPropertyOp56
 70
     1
102
RTVSPropertyOp57
 70
     1
102
RTVSPropertyOp58
 70
     1
102
RTVSPropertyOp59
 70
     1
102
RTVSPropertyOp60
 70
     1
102
RTVSPropertyOp61
 70
     1
102
RTVSPropertyOp62
 70
     1
  0
XRECORD
  5
3B18
102
{ACAD_REACTORS
330
3B17
102
}
330
3B17
100
AcDbXrecord
280
     1
102
RTVSPost2010Prop28
280
     0
102
RTVSPost2010PropOp28
 70
     1
102
RTVSPost2010Prop29
280
     1
102
RTVSPost2010PropOp29
 70
     1
102
RTVSPost2010Prop30
280
     1
102
RTVSPost2010PropOp30
 70
     1
102
RTVSPost2010Prop31
280
     0
102
RTVSPost2010PropOp31
 70
     1
102
RTVSPost2010Prop32
280
     0
102
RTVSPost2010PropOp32
 70
     1
102
RTVSPost2010Prop33
280
     0
102
RTVSPost2010PropOp33
 70
     1
102
RTVSPost2010Prop34
280
     0
102
RTVSPost2010PropOp34
 70
     1
102
RTVSPost2010Prop35
280
     0
102
RTVSPost2010PropOp35
 70
     1
102
RTVSPost2010Prop36
280
     0
102
RTVSPost2010PropOp36
 70
     1
102
RTVSPost2010Prop37
 90
       50
102
RTVSPost2010PropOp37
 70
     1
102
RTVSPost2010Prop38
140
0.0
102
RTVSPost2010PropOp38
 70
     1
102
RTVSPost2010Prop39
140
1.0
102
RTVSPost2010PropOp39
 70
     1
102
RTVSPost2010Prop40
 90
        0
102
RTVSPost2010PropOp40
 70
     1
102
RTVSPost2010Prop41ColorIndex
 90
       18
102
RTVSPost2010Prop41ColorRGB
 90
        0
102
RTVSPost2010PropOp41
 70
     1
102
RTVSPost2010Prop42
 90
       50
102
RTVSPost2010PropOp42
 70
     1
102
RTVSPost2010Prop43
 90
        3
102
RTVSPost2010PropOp43
 70
     1
102
RTVSPost2010Prop44ColorIndex
 90
        5
102
RTVSPost2010Prop44ColorRGB
 90
      255
102
RTVSPost2010PropOp44
 70
     1
102
RTVSPost2010Prop45
280
     0
102
RTVSPost2010PropOp45
 70
     1
102
RTVSPost2010Prop46
 90
       50
102
RTVSPost2010PropOp46
 70
     1
102
RTVSPost2010Prop47
 90
       50
102
RTVSPost2010PropOp47
 70
     1
102
RTVSPost2010Prop48
 90
       50
102
RTVSPost2010PropOp48
 70
     1
102
RTVSPost2010Prop49
280
     0
102
RTVSPost2010PropOp49
 70
     1
102
RTVSPost2010Prop50
 90
       50
102
RTVSPost2010PropOp50
 70
     1
102
RTVSPost2010Prop51ColorIndex
 90
      256
102
RTVSPost2010Prop51ColorRGB
 90
-16777216
102
RTVSPost2010PropOp51
 70
     0
102
RTVSPost2010Prop52
140
1.0
102
RTVSPost2010PropOp52
 70
     0
102
RTVSPost2010Prop53
 90
        2
102
RTVSPost2010PropOp53
 70
     1
102
RTVSPost2010Prop54
  1
strokes_ogs.tif
102
RTVSPost2010PropOp54
 70
     1
102
RTVSPost2010Prop55
280
     0
102
RTVSPost2010PropOp55
 70
     1
102
RTVSPost2010Prop56
140
1.0
102
RTVSPost2010PropOp56
 70
     1
102
RTVSPost2010Prop57
140
1.0
102
RTVSPost2010PropOp57
 70
     1
102
RTVSPropertyOp0
 70
     1
102
RTVSPropertyOp1
 70
     1
102
RTVSPropertyOp2
 70
     1
102
RTVSPropertyOp3
 70
     1
102
RTVSPropertyOp4
 70
     1
102
RTVSPropertyOp5
 70
     1
102
RTVSPropertyOp6
 70
     1
102
RTVSPropertyOp7
 70
     1
102
RTVSPropertyOp8
 70
     1
102
RTVSPropertyOp9
 70
     1
102
RTVSPropertyOp10
 70
     1
102
RTVSPropertyOp11
 70
     1
102
RTVSPropertyOp12
 70
     1
102
RTVSPropertyOp13
 70
     1
102
RTVSPropertyOp14
 70
     1
102
RTVSPropertyOp15
 70
     1
102
RTVSPropertyOp16
 70
     1
102
RTVSPropertyOp17
 70
     1
102
RTVSPropertyOp18
 70
     1
102
RTVSPropertyOp19
 70
     1
102
RTVSPropertyOp20
 70
     1
102
RTVSPropertyOp21
 70
     1
102
RTVSPropertyOp22
 70
     1
102
RTVSPropertyOp23
 70
     1
102
RTVSPropertyOp24
 70
     1
102
RTVSPropertyOp25
 70
     1
102
RTVSPropertyOp26
 70
     1
102
RTVSPropertyOp27
 70
     1
102
RTVSPropertyOp28
 70
     1
102
RTVSPropertyOp29
 70
     1
102
RTVSPropertyOp30
 70
     1
102
RTVSPropertyOp31
 70
     1
102
RTVSPropertyOp32
 70
     1
102
RTVSPropertyOp33
 70
     1
102
RTVSPropertyOp34
 70
     1
102
RTVSPropertyOp35
 70
     1
102
RTVSPropertyOp36
 70
     1
102
RTVSPropertyOp37
 70
     1
102
RTVSPropertyOp38
 70
     1
102
RTVSPropertyOp39
 70
     1
102
RTVSPropertyOp40
 70
     1
102
RTVSPropertyOp41
 70
     1
102
RTVSPropertyOp42
 70
     1
102
RTVSPropertyOp43
 70
     1
102
RTVSPropertyOp44
 70
     1
102
RTVSPropertyOp45
 70
     1
102
RTVSPropertyOp46
 70
     1
102
RTVSPropertyOp47
 70
     1
102
RTVSPropertyOp48
 70
     1
102
RTVSPropertyOp49
 70
     1
102
RTVSPropertyOp50
 70
     1
102
RTVSPropertyOp51
 70
     0
102
RTVSPropertyOp52
 70
     0
102
RTVSPropertyOp53
 70
     1
102
RTVSPropertyOp54
 70
     1
102
RTVSPropertyOp55
 70
     1
102
RTVSPropertyOp56
 70
     1
102
RTVSPropertyOp57
 70
     1
102
RTVSPropertyOp58
 70
     1
102
RTVSPropertyOp59
 70
     1
102
RTVSPropertyOp60
 70
     1
102
RTVSPropertyOp61
 70
     1
102
RTVSPropertyOp62
 70
     1
  0
XRECORD
  5
3B12
102
{ACAD_REACTORS
330
3B11
102
}
330
3B11
100
AcDbXrecord
280
     1
102
RTVSPost2010Prop28
280
     0
102
RTVSPost2010PropOp28
 70
     1
102
RTVSPost2010Prop29
280
     1
102
RTVSPost2010PropOp29
 70
     1
102
RTVSPost2010Prop30
280
     1
102
RTVSPost2010PropOp30
 70
     1
102
RTVSPost2010Prop31
280
     0
102
RTVSPost2010PropOp31
 70
     1
102
RTVSPost2010Prop32
280
     0
102
RTVSPost2010PropOp32
 70
     1
102
RTVSPost2010Prop33
280
     0
102
RTVSPost2010PropOp33
 70
     1
102
RTVSPost2010Prop34
280
     0
102
RTVSPost2010PropOp34
 70
     1
102
RTVSPost2010Prop35
280
     0
102
RTVSPost2010PropOp35
 70
     1
102
RTVSPost2010Prop36
280
     0
102
RTVSPost2010PropOp36
 70
     1
102
RTVSPost2010Prop37
 90
       50
102
RTVSPost2010PropOp37
 70
     1
102
RTVSPost2010Prop38
140
0.0
102
RTVSPost2010PropOp38
 70
     1
102
RTVSPost2010Prop39
140
1.0
102
RTVSPost2010PropOp39
 70
     1
102
RTVSPost2010Prop40
 90
        0
102
RTVSPost2010PropOp40
 70
     1
102
RTVSPost2010Prop41ColorIndex
 90
       18
102
RTVSPost2010Prop41ColorRGB
 90
        0
102
RTVSPost2010PropOp41
 70
     1
102
RTVSPost2010Prop42
 90
       50
102
RTVSPost2010PropOp42
 70
     1
102
RTVSPost2010Prop43
 90
        3
102
RTVSPost2010PropOp43
 70
     1
102
RTVSPost2010Prop44ColorIndex
 90
        5
102
RTVSPost2010Prop44ColorRGB
 90
      255
102
RTVSPost2010PropOp44
 70
     1
102
RTVSPost2010Prop45
280
     0
102
RTVSPost2010PropOp45
 70
     1
102
RTVSPost2010Prop46
 90
       50
102
RTVSPost2010PropOp46
 70
     1
102
RTVSPost2010Prop47
 90
       50
102
RTVSPost2010PropOp47
 70
     1
102
RTVSPost2010Prop48
 90
       50
102
RTVSPost2010PropOp48
 70
     1
102
RTVSPost2010Prop49
280
     0
102
RTVSPost2010PropOp49
 70
     1
102
RTVSPost2010Prop50
 90
       50
102
RTVSPost2010PropOp50
 70
     1
102
RTVSPost2010Prop51ColorIndex
 90
      256
102
RTVSPost2010Prop51ColorRGB
 90
-16777216
102
RTVSPost2010PropOp51
 70
     0
102
RTVSPost2010Prop52
140
1.0
102
RTVSPost2010PropOp52
 70
     0
102
RTVSPost2010Prop53
 90
        2
102
RTVSPost2010PropOp53
 70
     1
102
RTVSPost2010Prop54
  1
strokes_ogs.tif
102
RTVSPost2010PropOp54
 70
     1
102
RTVSPost2010Prop55
280
     0
102
RTVSPost2010PropOp55
 70
     1
102
RTVSPost2010Prop56
140
1.0
102
RTVSPost2010PropOp56
 70
     1
102
RTVSPost2010Prop57
140
1.0
102
RTVSPost2010PropOp57
 70
     1
102
RTVSPropertyOp0
 70
     1
102
RTVSPropertyOp1
 70
     1
102
RTVSPropertyOp2
 70
     1
102
RTVSPropertyOp3
 70
     1
102
RTVSPropertyOp4
 70
     1
102
RTVSPropertyOp5
 70
     1
102
RTVSPropertyOp6
 70
     1
102
RTVSPropertyOp7
 70
     1
102
RTVSPropertyOp8
 70
     1
102
RTVSPropertyOp9
 70
     1
102
RTVSPropertyOp10
 70
     1
102
RTVSPropertyOp11
 70
     1
102
RTVSPropertyOp12
 70
     1
102
RTVSPropertyOp13
 70
     1
102
RTVSPropertyOp14
 70
     1
102
RTVSPropertyOp15
 70
     1
102
RTVSPropertyOp16
 70
     1
102
RTVSPropertyOp17
 70
     1
102
RTVSPropertyOp18
 70
     1
102
RTVSPropertyOp19
 70
     1
102
RTVSPropertyOp20
 70
     1
102
RTVSPropertyOp21
 70
     1
102
RTVSPropertyOp22
 70
     1
102
RTVSPropertyOp23
 70
     1
102
RTVSPropertyOp24
 70
     1
102
RTVSPropertyOp25
 70
     1
102
RTVSPropertyOp26
 70
     1
102
RTVSPropertyOp27
 70
     1
102
RTVSPropertyOp28
 70
     1
102
RTVSPropertyOp29
 70
     1
102
RTVSPropertyOp30
 70
     1
102
RTVSPropertyOp31
 70
     1
102
RTVSPropertyOp32
 70
     1
102
RTVSPropertyOp33
 70
     1
102
RTVSPropertyOp34
 70
     1
102
RTVSPropertyOp35
 70
     1
102
RTVSPropertyOp36
 70
     1
102
RTVSPropertyOp37
 70
     1
102
RTVSPropertyOp38
 70
     1
102
RTVSPropertyOp39
 70
     1
102
RTVSPropertyOp40
 70
     1
102
RTVSPropertyOp41
 70
     1
102
RTVSPropertyOp42
 70
     1
102
RTVSPropertyOp43
 70
     1
102
RTVSPropertyOp44
 70
     1
102
RTVSPropertyOp45
 70
     1
102
RTVSPropertyOp46
 70
     1
102
RTVSPropertyOp47
 70
     1
102
RTVSPropertyOp48
 70
     1
102
RTVSPropertyOp49
 70
     1
102
RTVSPropertyOp50
 70
     1
102
RTVSPropertyOp51
 70
     0
102
RTVSPropertyOp52
 70
     0
102
RTVSPropertyOp53
 70
     1
102
RTVSPropertyOp54
 70
     1
102
RTVSPropertyOp55
 70
     1
102
RTVSPropertyOp56
 70
     1
102
RTVSPropertyOp57
 70
     1
102
RTVSPropertyOp58
 70
     1
102
RTVSPropertyOp59
 70
     1
102
RTVSPropertyOp60
 70
     1
102
RTVSPropertyOp61
 70
     1
102
RTVSPropertyOp62
 70
     1
  0
XRECORD
  5
3B14
102
{ACAD_REACTORS
330
3B13
102
}
330
3B13
100
AcDbXrecord
280
     1
102
RTVSPost2010Prop28
280
     0
102
RTVSPost2010PropOp28
 70
     1
102
RTVSPost2010Prop29
280
     1
102
RTVSPost2010PropOp29
 70
     1
102
RTVSPost2010Prop30
280
     1
102
RTVSPost2010PropOp30
 70
     1
102
RTVSPost2010Prop31
280
     0
102
RTVSPost2010PropOp31
 70
     1
102
RTVSPost2010Prop32
280
     0
102
RTVSPost2010PropOp32
 70
     1
102
RTVSPost2010Prop33
280
     0
102
RTVSPost2010PropOp33
 70
     1
102
RTVSPost2010Prop34
280
     0
102
RTVSPost2010PropOp34
 70
     1
102
RTVSPost2010Prop35
280
     0
102
RTVSPost2010PropOp35
 70
     1
102
RTVSPost2010Prop36
280
     0
102
RTVSPost2010PropOp36
 70
     1
102
RTVSPost2010Prop37
 90
       50
102
RTVSPost2010PropOp37
 70
     1
102
RTVSPost2010Prop38
140
0.0
102
RTVSPost2010PropOp38
 70
     1
102
RTVSPost2010Prop39
140
1.0
102
RTVSPost2010PropOp39
 70
     1
102
RTVSPost2010Prop40
 90
        0
102
RTVSPost2010PropOp40
 70
     1
102
RTVSPost2010Prop41ColorIndex
 90
       18
102
RTVSPost2010Prop41ColorRGB
 90
        0
102
RTVSPost2010PropOp41
 70
     1
102
RTVSPost2010Prop42
 90
       50
102
RTVSPost2010PropOp42
 70
     1
102
RTVSPost2010Prop43
 90
        3
102
RTVSPost2010PropOp43
 70
     1
102
RTVSPost2010Prop44ColorIndex
 90
        5
102
RTVSPost2010Prop44ColorRGB
 90
      255
102
RTVSPost2010PropOp44
 70
     1
102
RTVSPost2010Prop45
280
     0
102
RTVSPost2010PropOp45
 70
     1
102
RTVSPost2010Prop46
 90
       50
102
RTVSPost2010PropOp46
 70
     1
102
RTVSPost2010Prop47
 90
       50
102
RTVSPost2010PropOp47
 70
     1
102
RTVSPost2010Prop48
 90
       50
102
RTVSPost2010PropOp48
 70
     1
102
RTVSPost2010Prop49
280
     0
102
RTVSPost2010PropOp49
 70
     1
102
RTVSPost2010Prop50
 90
       50
102
RTVSPost2010PropOp50
 70
     1
102
RTVSPost2010Prop51ColorIndex
 90
      256
102
RTVSPost2010Prop51ColorRGB
 90
-16777216
102
RTVSPost2010PropOp51
 70
     0
102
RTVSPost2010Prop52
140
1.0
102
RTVSPost2010PropOp52
 70
     0
102
RTVSPost2010Prop53
 90
        2
102
RTVSPost2010PropOp53
 70
     1
102
RTVSPost2010Prop54
  1
strokes_ogs.tif
102
RTVSPost2010PropOp54
 70
     1
102
RTVSPost2010Prop55
280
     0
102
RTVSPost2010PropOp55
 70
     1
102
RTVSPost2010Prop56
140
1.0
102
RTVSPost2010PropOp56
 70
     1
102
RTVSPost2010Prop57
140
1.0
102
RTVSPost2010PropOp57
 70
     1
102
RTVSPropertyOp0
 70
     1
102
RTVSPropertyOp1
 70
     1
102
RTVSPropertyOp2
 70
     1
102
RTVSPropertyOp3
 70
     1
102
RTVSPropertyOp4
 70
     1
102
RTVSPropertyOp5
 70
     1
102
RTVSPropertyOp6
 70
     1
102
RTVSPropertyOp7
 70
     1
102
RTVSPropertyOp8
 70
     1
102
RTVSPropertyOp9
 70
     1
102
RTVSPropertyOp10
 70
     1
102
RTVSPropertyOp11
 70
     1
102
RTVSPropertyOp12
 70
     1
102
RTVSPropertyOp13
 70
     1
102
RTVSPropertyOp14
 70
     1
102
RTVSPropertyOp15
 70
     1
102
RTVSPropertyOp16
 70
     1
102
RTVSPropertyOp17
 70
     1
102
RTVSPropertyOp18
 70
     1
102
RTVSPropertyOp19
 70
     1
102
RTVSPropertyOp20
 70
     1
102
RTVSPropertyOp21
 70
     1
102
RTVSPropertyOp22
 70
     1
102
RTVSPropertyOp23
 70
     1
102
RTVSPropertyOp24
 70
     1
102
RTVSPropertyOp25
 70
     1
102
RTVSPropertyOp26
 70
     1
102
RTVSPropertyOp27
 70
     1
102
RTVSPropertyOp28
 70
     1
102
RTVSPropertyOp29
 70
     1
102
RTVSPropertyOp30
 70
     1
102
RTVSPropertyOp31
 70
     1
102
RTVSPropertyOp32
 70
     1
102
RTVSPropertyOp33
 70
     1
102
RTVSPropertyOp34
 70
     1
102
RTVSPropertyOp35
 70
     1
102
RTVSPropertyOp36
 70
     1
102
RTVSPropertyOp37
 70
     1
102
RTVSPropertyOp38
 70
     1
102
RTVSPropertyOp39
 70
     1
102
RTVSPropertyOp40
 70
     1
102
RTVSPropertyOp41
 70
     1
102
RTVSPropertyOp42
 70
     1
102
RTVSPropertyOp43
 70
     1
102
RTVSPropertyOp44
 70
     1
102
RTVSPropertyOp45
 70
     1
102
RTVSPropertyOp46
 70
     1
102
RTVSPropertyOp47
 70
     1
102
RTVSPropertyOp48
 70
     1
102
RTVSPropertyOp49
 70
     1
102
RTVSPropertyOp50
 70
     1
102
RTVSPropertyOp51
 70
     0
102
RTVSPropertyOp52
 70
     0
102
RTVSPropertyOp53
 70
     1
102
RTVSPropertyOp54
 70
     1
102
RTVSPropertyOp55
 70
     1
102
RTVSPropertyOp56
 70
     1
102
RTVSPropertyOp57
 70
     1
102
RTVSPropertyOp58
 70
     1
102
RTVSPropertyOp59
 70
     1
102
RTVSPropertyOp60
 70
     1
102
RTVSPropertyOp61
 70
     1
102
RTVSPropertyOp62
 70
     1
  0
XRECORD
  5
3AFF
102
{ACAD_REACTORS
330
3AFE
102
}
330
3AFE
100
AcDbXrecord
280
     1
102
RTVSPost2010Prop28
280
     0
102
RTVSPost2010PropOp28
 70
     1
102
RTVSPost2010Prop29
280
     1
102
RTVSPost2010PropOp29
 70
     1
102
RTVSPost2010Prop30
280
     1
102
RTVSPost2010PropOp30
 70
     1
102
RTVSPost2010Prop31
280
     0
102
RTVSPost2010PropOp31
 70
     1
102
RTVSPost2010Prop32
280
     0
102
RTVSPost2010PropOp32
 70
     1
102
RTVSPost2010Prop33
280
     0
102
RTVSPost2010PropOp33
 70
     1
102
RTVSPost2010Prop34
280
     0
102
RTVSPost2010PropOp34
 70
     1
102
RTVSPost2010Prop35
280
     0
102
RTVSPost2010PropOp35
 70
     1
102
RTVSPost2010Prop36
280
     0
102
RTVSPost2010PropOp36
 70
     1
102
RTVSPost2010Prop37
 90
       50
102
RTVSPost2010PropOp37
 70
     1
102
RTVSPost2010Prop38
140
0.0
102
RTVSPost2010PropOp38
 70
     1
102
RTVSPost2010Prop39
140
1.0
102
RTVSPost2010PropOp39
 70
     1
102
RTVSPost2010Prop40
 90
        0
102
RTVSPost2010PropOp40
 70
     1
102
RTVSPost2010Prop41ColorIndex
 90
       18
102
RTVSPost2010Prop41ColorRGB
 90
        0
102
RTVSPost2010PropOp41
 70
     1
102
RTVSPost2010Prop42
 90
       50
102
RTVSPost2010PropOp42
 70
     1
102
RTVSPost2010Prop43
 90
        3
102
RTVSPost2010PropOp43
 70
     1
102
RTVSPost2010Prop44ColorIndex
 90
        5
102
RTVSPost2010Prop44ColorRGB
 90
      255
102
RTVSPost2010PropOp44
 70
     1
102
RTVSPost2010Prop45
280
     0
102
RTVSPost2010PropOp45
 70
     1
102
RTVSPost2010Prop46
 90
       50
102
RTVSPost2010PropOp46
 70
     1
102
RTVSPost2010Prop47
 90
       50
102
RTVSPost2010PropOp47
 70
     1
102
RTVSPost2010Prop48
 90
       50
102
RTVSPost2010PropOp48
 70
     1
102
RTVSPost2010Prop49
280
     0
102
RTVSPost2010PropOp49
 70
     1
102
RTVSPost2010Prop50
 90
       50
102
RTVSPost2010PropOp50
 70
     1
102
RTVSPost2010Prop51ColorIndex
 90
      256
102
RTVSPost2010Prop51ColorRGB
 90
-16777216
102
RTVSPost2010PropOp51
 70
     0
102
RTVSPost2010Prop52
140
1.0
102
RTVSPost2010PropOp52
 70
     0
102
RTVSPost2010Prop53
 90
        2
102
RTVSPost2010PropOp53
 70
     1
102
RTVSPost2010Prop54
  1
strokes_ogs.tif
102
RTVSPost2010PropOp54
 70
     1
102
RTVSPost2010Prop55
280
     0
102
RTVSPost2010PropOp55
 70
     1
102
RTVSPost2010Prop56
140
1.0
102
RTVSPost2010PropOp56
 70
     1
102
RTVSPost2010Prop57
140
1.0
102
RTVSPost2010PropOp57
 70
     1
102
RTVSPropertyOp0
 70
     1
102
RTVSPropertyOp1
 70
     1
102
RTVSPropertyOp2
 70
     1
102
RTVSPropertyOp3
 70
     1
102
RTVSPropertyOp4
 70
     1
102
RTVSPropertyOp5
 70
     1
102
RTVSPropertyOp6
 70
     1
102
RTVSPropertyOp7
 70
     1
102
RTVSPropertyOp8
 70
     1
102
RTVSPropertyOp9
 70
     1
102
RTVSPropertyOp10
 70
     1
102
RTVSPropertyOp11
 70
     1
102
RTVSPropertyOp12
 70
     1
102
RTVSPropertyOp13
 70
     1
102
RTVSPropertyOp14
 70
     1
102
RTVSPropertyOp15
 70
     1
102
RTVSPropertyOp16
 70
     1
102
RTVSPropertyOp17
 70
     1
102
RTVSPropertyOp18
 70
     1
102
RTVSPropertyOp19
 70
     1
102
RTVSPropertyOp20
 70
     1
102
RTVSPropertyOp21
 70
     1
102
RTVSPropertyOp22
 70
     1
102
RTVSPropertyOp23
 70
     1
102
RTVSPropertyOp24
 70
     1
102
RTVSPropertyOp25
 70
     1
102
RTVSPropertyOp26
 70
     1
102
RTVSPropertyOp27
 70
     1
102
RTVSPropertyOp28
 70
     1
102
RTVSPropertyOp29
 70
     1
102
RTVSPropertyOp30
 70
     1
102
RTVSPropertyOp31
 70
     1
102
RTVSPropertyOp32
 70
     1
102
RTVSPropertyOp33
 70
     1
102
RTVSPropertyOp34
 70
     1
102
RTVSPropertyOp35
 70
     1
102
RTVSPropertyOp36
 70
     1
102
RTVSPropertyOp37
 70
     1
102
RTVSPropertyOp38
 70
     1
102
RTVSPropertyOp39
 70
     1
102
RTVSPropertyOp40
 70
     1
102
RTVSPropertyOp41
 70
     1
102
RTVSPropertyOp42
 70
     1
102
RTVSPropertyOp43
 70
     1
102
RTVSPropertyOp44
 70
     1
102
RTVSPropertyOp45
 70
     1
102
RTVSPropertyOp46
 70
     1
102
RTVSPropertyOp47
 70
     1
102
RTVSPropertyOp48
 70
     1
102
RTVSPropertyOp49
 70
     1
102
RTVSPropertyOp50
 70
     1
102
RTVSPropertyOp51
 70
     0
102
RTVSPropertyOp52
 70
     0
102
RTVSPropertyOp53
 70
     1
102
RTVSPropertyOp54
 70
     1
102
RTVSPropertyOp55
 70
     1
102
RTVSPropertyOp56
 70
     1
102
RTVSPropertyOp57
 70
     1
102
RTVSPropertyOp58
 70
     1
102
RTVSPropertyOp59
 70
     1
102
RTVSPropertyOp60
 70
     1
102
RTVSPropertyOp61
 70
     1
102
RTVSPropertyOp62
 70
     1
  0
XRECORD
  5
3B0E
102
{ACAD_REACTORS
330
3B0D
102
}
330
3B0D
100
AcDbXrecord
280
     1
102
RTVSPost2010Prop28
280
     0
102
RTVSPost2010PropOp28
 70
     1
102
RTVSPost2010Prop29
280
     1
102
RTVSPost2010PropOp29
 70
     1
102
RTVSPost2010Prop30
280
     1
102
RTVSPost2010PropOp30
 70
     1
102
RTVSPost2010Prop31
280
     0
102
RTVSPost2010PropOp31
 70
     1
102
RTVSPost2010Prop32
280
     0
102
RTVSPost2010PropOp32
 70
     1
102
RTVSPost2010Prop33
280
     0
102
RTVSPost2010PropOp33
 70
     1
102
RTVSPost2010Prop34
280
     0
102
RTVSPost2010PropOp34
 70
     1
102
RTVSPost2010Prop35
280
     0
102
RTVSPost2010PropOp35
 70
     1
102
RTVSPost2010Prop36
280
     0
102
RTVSPost2010PropOp36
 70
     1
102
RTVSPost2010Prop37
 90
       50
102
RTVSPost2010PropOp37
 70
     1
102
RTVSPost2010Prop38
140
0.0
102
RTVSPost2010PropOp38
 70
     1
102
RTVSPost2010Prop39
140
1.0
102
RTVSPost2010PropOp39
 70
     1
102
RTVSPost2010Prop40
 90
        0
102
RTVSPost2010PropOp40
 70
     1
102
RTVSPost2010Prop41ColorIndex
 90
       18
102
RTVSPost2010Prop41ColorRGB
 90
        0
102
RTVSPost2010PropOp41
 70
     1
102
RTVSPost2010Prop42
 90
       50
102
RTVSPost2010PropOp42
 70
     1
102
RTVSPost2010Prop43
 90
        3
102
RTVSPost2010PropOp43
 70
     1
102
RTVSPost2010Prop44ColorIndex
 90
        5
102
RTVSPost2010Prop44ColorRGB
 90
      255
102
RTVSPost2010PropOp44
 70
     1
102
RTVSPost2010Prop45
280
     0
102
RTVSPost2010PropOp45
 70
     1
102
RTVSPost2010Prop46
 90
       50
102
RTVSPost2010PropOp46
 70
     1
102
RTVSPost2010Prop47
 90
       50
102
RTVSPost2010PropOp47
 70
     1
102
RTVSPost2010Prop48
 90
       50
102
RTVSPost2010PropOp48
 70
     1
102
RTVSPost2010Prop49
280
     0
102
RTVSPost2010PropOp49
 70
     1
102
RTVSPost2010Prop50
 90
       50
102
RTVSPost2010PropOp50
 70
     1
102
RTVSPost2010Prop51ColorIndex
 90
      256
102
RTVSPost2010Prop51ColorRGB
 90
-16777216
102
RTVSPost2010PropOp51
 70
     0
102
RTVSPost2010Prop52
140
1.0
102
RTVSPost2010PropOp52
 70
     0
102
RTVSPost2010Prop53
 90
        2
102
RTVSPost2010PropOp53
 70
     1
102
RTVSPost2010Prop54
  1
strokes_ogs.tif
102
RTVSPost2010PropOp54
 70
     1
102
RTVSPost2010Prop55
280
     0
102
RTVSPost2010PropOp55
 70
     1
102
RTVSPost2010Prop56
140
1.0
102
RTVSPost2010PropOp56
 70
     1
102
RTVSPost2010Prop57
140
1.0
102
RTVSPost2010PropOp57
 70
     1
102
RTVSPropertyOp0
 70
     1
102
RTVSPropertyOp1
 70
     1
102
RTVSPropertyOp2
 70
     1
102
RTVSPropertyOp3
 70
     1
102
RTVSPropertyOp4
 70
     1
102
RTVSPropertyOp5
 70
     1
102
RTVSPropertyOp6
 70
     1
102
RTVSPropertyOp7
 70
     1
102
RTVSPropertyOp8
 70
     1
102
RTVSPropertyOp9
 70
     1
102
RTVSPropertyOp10
 70
     1
102
RTVSPropertyOp11
 70
     1
102
RTVSPropertyOp12
 70
     1
102
RTVSPropertyOp13
 70
     1
102
RTVSPropertyOp14
 70
     1
102
RTVSPropertyOp15
 70
     1
102
RTVSPropertyOp16
 70
     1
102
RTVSPropertyOp17
 70
     1
102
RTVSPropertyOp18
 70
     1
102
RTVSPropertyOp19
 70
     1
102
RTVSPropertyOp20
 70
     1
102
RTVSPropertyOp21
 70
     1
102
RTVSPropertyOp22
 70
     1
102
RTVSPropertyOp23
 70
     1
102
RTVSPropertyOp24
 70
     1
102
RTVSPropertyOp25
 70
     1
102
RTVSPropertyOp26
 70
     1
102
RTVSPropertyOp27
 70
     1
102
RTVSPropertyOp28
 70
     1
102
RTVSPropertyOp29
 70
     1
102
RTVSPropertyOp30
 70
     1
102
RTVSPropertyOp31
 70
     1
102
RTVSPropertyOp32
 70
     1
102
RTVSPropertyOp33
 70
     1
102
RTVSPropertyOp34
 70
     1
102
RTVSPropertyOp35
 70
     1
102
RTVSPropertyOp36
 70
     1
102
RTVSPropertyOp37
 70
     1
102
RTVSPropertyOp38
 70
     1
102
RTVSPropertyOp39
 70
     1
102
RTVSPropertyOp40
 70
     1
102
RTVSPropertyOp41
 70
     1
102
RTVSPropertyOp42
 70
     1
102
RTVSPropertyOp43
 70
     1
102
RTVSPropertyOp44
 70
     1
102
RTVSPropertyOp45
 70
     1
102
RTVSPropertyOp46
 70
     1
102
RTVSPropertyOp47
 70
     1
102
RTVSPropertyOp48
 70
     1
102
RTVSPropertyOp49
 70
     1
102
RTVSPropertyOp50
 70
     1
102
RTVSPropertyOp51
 70
     0
102
RTVSPropertyOp52
 70
     0
102
RTVSPropertyOp53
 70
     1
102
RTVSPropertyOp54
 70
     1
102
RTVSPropertyOp55
 70
     1
102
RTVSPropertyOp56
 70
     1
102
RTVSPropertyOp57
 70
     1
102
RTVSPropertyOp58
 70
     1
102
RTVSPropertyOp59
 70
     1
102
RTVSPropertyOp60
 70
     1
102
RTVSPropertyOp61
 70
     1
102
RTVSPropertyOp62
 70
     1
  0
XRECORD
  5
3B16
102
{ACAD_REACTORS
330
3B15
102
}
330
3B15
100
AcDbXrecord
280
     1
102
RTVSPost2010Prop28
280
     0
102
RTVSPost2010PropOp28
 70
     1
102
RTVSPost2010Prop29
280
     1
102
RTVSPost2010PropOp29
 70
     1
102
RTVSPost2010Prop30
280
     1
102
RTVSPost2010PropOp30
 70
     1
102
RTVSPost2010Prop31
280
     0
102
RTVSPost2010PropOp31
 70
     1
102
RTVSPost2010Prop32
280
     0
102
RTVSPost2010PropOp32
 70
     1
102
RTVSPost2010Prop33
280
     0
102
RTVSPost2010PropOp33
 70
     1
102
RTVSPost2010Prop34
280
     0
102
RTVSPost2010PropOp34
 70
     1
102
RTVSPost2010Prop35
280
     0
102
RTVSPost2010PropOp35
 70
     1
102
RTVSPost2010Prop36
280
     0
102
RTVSPost2010PropOp36
 70
     1
102
RTVSPost2010Prop37
 90
       50
102
RTVSPost2010PropOp37
 70
     1
102
RTVSPost2010Prop38
140
0.0
102
RTVSPost2010PropOp38
 70
     1
102
RTVSPost2010Prop39
140
1.0
102
RTVSPost2010PropOp39
 70
     1
102
RTVSPost2010Prop40
 90
        0
102
RTVSPost2010PropOp40
 70
     1
102
RTVSPost2010Prop41ColorIndex
 90
       18
102
RTVSPost2010Prop41ColorRGB
 90
        0
102
RTVSPost2010PropOp41
 70
     1
102
RTVSPost2010Prop42
 90
       50
102
RTVSPost2010PropOp42
 70
     1
102
RTVSPost2010Prop43
 90
        3
102
RTVSPost2010PropOp43
 70
     1
102
RTVSPost2010Prop44ColorIndex
 90
        5
102
RTVSPost2010Prop44ColorRGB
 90
      255
102
RTVSPost2010PropOp44
 70
     1
102
RTVSPost2010Prop45
280
     0
102
RTVSPost2010PropOp45
 70
     1
102
RTVSPost2010Prop46
 90
       50
102
RTVSPost2010PropOp46
 70
     1
102
RTVSPost2010Prop47
 90
       50
102
RTVSPost2010PropOp47
 70
     1
102
RTVSPost2010Prop48
 90
       50
102
RTVSPost2010PropOp48
 70
     1
102
RTVSPost2010Prop49
280
     0
102
RTVSPost2010PropOp49
 70
     1
102
RTVSPost2010Prop50
 90
       50
102
RTVSPost2010PropOp50
 70
     1
102
RTVSPost2010Prop51ColorIndex
 90
      256
102
RTVSPost2010Prop51ColorRGB
 90
-16777216
102
RTVSPost2010PropOp51
 70
     0
102
RTVSPost2010Prop52
140
1.0
102
RTVSPost2010PropOp52
 70
     0
102
RTVSPost2010Prop53
 90
        2
102
RTVSPost2010PropOp53
 70
     1
102
RTVSPost2010Prop54
  1
strokes_ogs.tif
102
RTVSPost2010PropOp54
 70
     1
102
RTVSPost2010Prop55
280
     0
102
RTVSPost2010PropOp55
 70
     1
102
RTVSPost2010Prop56
140
1.0
102
RTVSPost2010PropOp56
 70
     1
102
RTVSPost2010Prop57
140
1.0
102
RTVSPost2010PropOp57
 70
     1
102
RTVSPropertyOp0
 70
     1
102
RTVSPropertyOp1
 70
     1
102
RTVSPropertyOp2
 70
     1
102
RTVSPropertyOp3
 70
     1
102
RTVSPropertyOp4
 70
     1
102
RTVSPropertyOp5
 70
     1
102
RTVSPropertyOp6
 70
     1
102
RTVSPropertyOp7
 70
     1
102
RTVSPropertyOp8
 70
     1
102
RTVSPropertyOp9
 70
     1
102
RTVSPropertyOp10
 70
     1
102
RTVSPropertyOp11
 70
     1
102
RTVSPropertyOp12
 70
     1
102
RTVSPropertyOp13
 70
     1
102
RTVSPropertyOp14
 70
     1
102
RTVSPropertyOp15
 70
     1
102
RTVSPropertyOp16
 70
     1
102
RTVSPropertyOp17
 70
     1
102
RTVSPropertyOp18
 70
     1
102
RTVSPropertyOp19
 70
     1
102
RTVSPropertyOp20
 70
     1
102
RTVSPropertyOp21
 70
     1
102
RTVSPropertyOp22
 70
     1
102
RTVSPropertyOp23
 70
     1
102
RTVSPropertyOp24
 70
     1
102
RTVSPropertyOp25
 70
     1
102
RTVSPropertyOp26
 70
     1
102
RTVSPropertyOp27
 70
     1
102
RTVSPropertyOp28
 70
     1
102
RTVSPropertyOp29
 70
     1
102
RTVSPropertyOp30
 70
     1
102
RTVSPropertyOp31
 70
     1
102
RTVSPropertyOp32
 70
     1
102
RTVSPropertyOp33
 70
     1
102
RTVSPropertyOp34
 70
     1
102
RTVSPropertyOp35
 70
     1
102
RTVSPropertyOp36
 70
     1
102
RTVSPropertyOp37
 70
     1
102
RTVSPropertyOp38
 70
     1
102
RTVSPropertyOp39
 70
     1
102
RTVSPropertyOp40
 70
     1
102
RTVSPropertyOp41
 70
     1
102
RTVSPropertyOp42
 70
     1
102
RTVSPropertyOp43
 70
     1
102
RTVSPropertyOp44
 70
     1
102
RTVSPropertyOp45
 70
     1
102
RTVSPropertyOp46
 70
     1
102
RTVSPropertyOp47
 70
     1
102
RTVSPropertyOp48
 70
     1
102
RTVSPropertyOp49
 70
     1
102
RTVSPropertyOp50
 70
     1
102
RTVSPropertyOp51
 70
     0
102
RTVSPropertyOp52
 70
     0
102
RTVSPropertyOp53
 70
     1
102
RTVSPropertyOp54
 70
     1
102
RTVSPropertyOp55
 70
     1
102
RTVSPropertyOp56
 70
     1
102
RTVSPropertyOp57
 70
     1
102
RTVSPropertyOp58
 70
     1
102
RTVSPropertyOp59
 70
     1
102
RTVSPropertyOp60
 70
     1
102
RTVSPropertyOp61
 70
     1
102
RTVSPropertyOp62
 70
     1
  0
ENDSEC
  0
EOF
