  0
SECTION
  2
HEADER
  9
$ACADVER
  1
AC1015
  9
$ACADMAINTVER
 70
    20
  9
$DWGCODEPAGE
  3
ANSI_932
  9
$INSBASE
 10
0.0
 20
0.0
 30
0.0
  9
$EXTMIN
 10
-0.0866203276364104
 20
-0.0600852272691555
 30
-0.0015258207003583
  9
$EXTMAX
 10
2760.127581124284
 20
1910.086224299761
 30
0.0000000349246037
  9
$LIMMIN
 10
0.0
 20
0.0
  9
$LIMMAX
 10
2840.0
 20
1970.0
  9
$ORTHOMODE
 70
     0
  9
$REGENMODE
 70
     1
  9
$FILLMODE
 70
     1
  9
$QTEXTMODE
 70
     0
  9
$MIRRTEXT
 70
     1
  9
$LTSCALE
 40
1.0
  9
$ATTMODE
 70
     1
  9
$TEXTSIZE
 40
2.5
  9
$TRACEWID
 40
1.0
  9
$TEXTSTYLE
  7
MSゴシック
  9
$CLAYER
  8
sunpo
  9
$CELTYPE
  6
ByLayer
  9
$CECOLOR
 62
   256
  9
$CELTSCALE
 40
1.0
  9
$DISPSILH
 70
     0
  9
$DIMSCALE
 40
10.0
  9
$DIMASZ
 40
0.8
  9
$DIMEXO
 40
1.0
  9
$DIMDLI
 40
0.0
  9
$DIMRND
 40
0.0
  9
$DIMDLE
 40
0.0
  9
$DIMEXE
 40
0.0
  9
$DIMTP
 40
0.0
  9
$DIMTM
 40
0.0
  9
$DIMTXT
 40
2.0
  9
$DIMCEN
 40
2.5
  9
$DIMTSZ
 40
0.0
  9
$DIMTOL
 70
     0
  9
$DIMLIM
 70
     0
  9
$DIMTIH
 70
     0
  9
$DIMTOH
 70
     0
  9
$DIMSE1
 70
     0
  9
$DIMSE2
 70
     0
  9
$DIMTAD
 70
     2
  9
$DIMZIN
 70
     8
  9
$DIMBLK
  1

  9
$DIMASO
 70
     1
  9
$DIMSHO
 70
     1
  9
$DIMPOST
  1

  9
$DIMAPOST
  1

  9
$DIMALT
 70
     0
  9
$DIMALTD
 70
     4
  9
$DIMALTF
 40
0.0394
  9
$DIMLFAC
 40
1.0
  9
$DIMTOFL
 70
     1
  9
$DIMTVP
 40
0.0
  9
$DIMTIX
 70
     0
  9
$DIMSOXD
 70
     0
  9
$DIMSAH
 70
     1
  9
$DIMBLK1
  1
DOT
  9
$DIMBLK2
  1
DOT
  9
$DIMSTYLE
  2
STANDARD
  9
$DIMCLRD
 70
     0
  9
$DIMCLRE
 70
     0
  9
$DIMCLRT
 70
     0
  9
$DIMTFAC
 40
1.0
  9
$DIMGAP
 40
0.1
  9
$DIMJUST
 70
     0
  9
$DIMSD1
 70
     0
  9
$DIMSD2
 70
     0
  9
$DIMTOLJ
 70
     1
  9
$DIMTZIN
 70
     0
  9
$DIMALTZ
 70
     0
  9
$DIMALTTZ
 70
     0
  9
$DIMUPT
 70
     0
  9
$DIMDEC
 70
     8
  9
$DIMTDEC
 70
     8
  9
$DIMALTU
 70
     8
  9
$DIMALTTD
 70
     4
  9
$DIMTXSTY
  7
Standard
  9
$DIMAUNIT
 70
     0
  9
$DIMADEC
 70
     0
  9
$DIMALTRND
 40
0.0
  9
$DIMAZIN
 70
     0
  9
$DIMDSEP
 70
    46
  9
$DIMATFIT
 70
     3
  9
$DIMFRAC
 70
     0
  9
$DIMLDRBLK
  1
DOT
  9
$DIMLUNIT
 70
     2
  9
$DIMLWD
 70
    -2
  9
$DIMLWE
 70
    -2
  9
$DIMTMOVE
 70
     1
  9
$LUNITS
 70
     2
  9
$LUPREC
 70
     8
  9
$SKETCHINC
 40
1.0
  9
$FILLETRAD
 40
10.0
  9
$AUNITS
 70
     0
  9
$AUPREC
 70
     8
  9
$MENU
  1
.
  9
$ELEVATION
 40
0.0
  9
$PELEVATION
 40
0.0
  9
$THICKNESS
 40
0.0
  9
$LIMCHECK
 70
     0
  9
$CHAMFERA
 40
20.0
  9
$CHAMFERB
 40
20.0
  9
$CHAMFERC
 40
20.0
  9
$CHAMFERD
 40
0.0
  9
$SKPOLY
 70
     0
  9
$TDCREATE
 40
2453276.413761574
  9
$TDUCREATE
 40
2453276.038766620
  9
$TDUPDATE
 40
2459970.704340278
  9
$TDUUPDATE
 40
2459970.329340278
  9
$TDINDWG
 40
0.3509233218
  9
$TDUSRTIMER
 40
0.3509233218
  9
$USRTIMER
 70
     1
  9
$ANGBASE
 50
0.0
  9
$ANGDIR
 70
     0
  9
$PDMODE
 70
     0
  9
$PDSIZE
 40
0.0
  9
$PLINEWID
 40
0.0
  9
$SPLFRAME
 70
     0
  9
$SPLINETYPE
 70
     6
  9
$SPLINESEGS
 70
     8
  9
$HANDSEED
  5
3980
  9
$SURFTAB1
 70
     6
  9
$SURFTAB2
 70
     6
  9
$SURFTYPE
 70
     6
  9
$SURFU
 70
     6
  9
$SURFV
 70
     6
  9
$UCSBASE
  2

  9
$UCSNAME
  2

  9
$UCSORG
 10
0.0
 20
0.0
 30
0.0
  9
$UCSXDIR
 10
1.0
 20
0.0
 30
0.0
  9
$UCSYDIR
 10
0.0
 20
1.0
 30
0.0
  9
$UCSORTHOREF
  2

  9
$UCSORTHOVIEW
 70
     0
  9
$UCSORGTOP
 10
0.0
 20
0.0
 30
0.0
  9
$UCSORGBOTTOM
 10
0.0
 20
0.0
 30
0.0
  9
$UCSORGLEFT
 10
0.0
 20
0.0
 30
0.0
  9
$UCSORGRIGHT
 10
0.0
 20
0.0
 30
0.0
  9
$UCSORGFRONT
 10
0.0
 20
0.0
 30
0.0
  9
$UCSORGBACK
 10
0.0
 20
0.0
 30
0.0
  9
$PUCSBASE
  2

  9
$PUCSNAME
  2

  9
$PUCSORG
 10
0.0
 20
0.0
 30
0.0
  9
$PUCSXDIR
 10
1.0
 20
0.0
 30
0.0
  9
$PUCSYDIR
 10
0.0
 20
1.0
 30
0.0
  9
$PUCSORTHOREF
  2

  9
$PUCSORTHOVIEW
 70
     0
  9
$PUCSORGTOP
 10
0.0
 20
0.0
 30
0.0
  9
$PUCSORGBOTTOM
 10
0.0
 20
0.0
 30
0.0
  9
$PUCSORGLEFT
 10
0.0
 20
0.0
 30
0.0
  9
$PUCSORGRIGHT
 10
0.0
 20
0.0
 30
0.0
  9
$PUCSORGFRONT
 10
0.0
 20
0.0
 30
0.0
  9
$PUCSORGBACK
 10
0.0
 20
0.0
 30
0.0
  9
$USERI1
 70
     0
  9
$USERI2
 70
     0
  9
$USERI3
 70
     0
  9
$USERI4
 70
     0
  9
$USERI5
 70
     0
  9
$USERR1
 40
0.0
  9
$USERR2
 40
0.0
  9
$USERR3
 40
0.0
  9
$USERR4
 40
0.0
  9
$USERR5
 40
0.0
  9
$WORLDVIEW
 70
     1
  9
$SHADEDGE
 70
     2
  9
$SHADEDIF
 70
    70
  9
$TILEMODE
 70
     1
  9
$MAXACTVP
 70
    64
  9
$PINSBASE
 10
0.0
 20
0.0
 30
0.0
  9
$PLIMCHECK
 70
     0
  9
$PEXTMIN
 10
0.0
 20
0.0
 30
0.0
  9
$PEXTMAX
 10
0.0
 20
0.0
 30
0.0
  9
$PLIMMIN
 10
0.0
 20
0.0
  9
$PLIMMAX
 10
12.0
 20
9.0
  9
$UNITMODE
 70
     0
  9
$VISRETAIN
 70
     1
  9
$PLINEGEN
 70
     0
  9
$PSLTSCALE
 70
     1
  9
$TREEDEPTH
 70
  3020
  9
$CMLSTYLE
  2
Standard
  9
$CMLJUST
 70
     0
  9
$CMLSCALE
 40
20.0
  9
$PROXYGRAPHICS
 70
     1
  9
$MEASUREMENT
 70
     1
  9
$CELWEIGHT
370
    -1
  9
$ENDCAPS
280
     0
  9
$JOINSTYLE
280
     0
  9
$LWDISPLAY
290
     0
  9
$INSUNITS
 70
     4
  9
$HYPERLINKBASE
  1

  9
$STYLESHEET
  1
monochrome.stb
  9
$XEDIT
290
     1
  9
$CEPSNTYPE
380
     0
  9
$PSTYLEMODE
290
     1
  9
$FINGERPRINTGUID
  2
{B4E61C12-08AD-407D-A83C-7C7812CA1D8B}
  9
$VERSIONGUID
  2
{DC246BE3-6B21-6A41-B71D-AF8C2A59129D}
  9
$EXTNAMES
290
     1
  9
$PSVPSCALE
 40
0.0
  9
$OLESTARTUP
290
     0
  0
ENDSEC
  0
SECTION
  2
CLASSES
  0
CLASS
  1
ACDBDICTIONARYWDFLT
  2
AcDbDictionaryWithDefault
  3
ObjectDBX Classes
 90
        0
280
     0
281
     0
  0
CLASS
  1
ACDBPLACEHOLDER
  2
AcDbPlaceHolder
  3
ObjectDBX Classes
 90
        0
280
     0
281
     0
  0
CLASS
  1
LAYOUT
  2
AcDbLayout
  3
ObjectDBX Classes
 90
        0
280
     0
281
     0
  0
CLASS
  1
DICTIONARYVAR
  2
AcDbDictionaryVar
  3
ObjectDBX Classes
 90
        0
280
     0
281
     0
  0
CLASS
  1
SORTENTSTABLE
  2
AcDbSortentsTable
  3
ObjectDBX Classes
 90
        0
280
     0
281
     0
  0
CLASS
  1
MATERIAL
  2
AcDbMaterial
  3
ObjectDBX Classes
 90
     1153
280
     0
281
     0
  0
CLASS
  1
VISUALSTYLE
  2
AcDbVisualStyle
  3
ObjectDBX Classes
 90
     4095
280
     0
281
     0
  0
CLASS
  1
TABLESTYLE
  2
AcDbTableStyle
  3
ObjectDBX Classes
 90
     4095
280
     0
281
     0
  0
CLASS
  1
SCALE
  2
AcDbScale
  3
ObjectDBX Classes
 90
     1153
280
     0
281
     0
  0
CLASS
  1
MLEADERSTYLE
  2
AcDbMLeaderStyle
  3
ACDB_MLEADERSTYLE_CLASS
 90
     4095
280
     0
281
     0
  0
CLASS
  1
CELLSTYLEMAP
  2
AcDbCellStyleMap
  3
ObjectDBX Classes
 90
     1152
280
     0
281
     0
  0
CLASS
  1
ACDBSECTIONVIEWSTYLE
  2
AcDbSectionViewStyle
  3
ObjectDBX Classes
 90
     1025
280
     0
281
     0
  0
CLASS
  1
ACDBDETAILVIEWSTYLE
  2
AcDbDetailViewStyle
  3
ObjectDBX Classes
 90
     1025
280
     0
281
     0
  0
ENDSEC
  0
SECTION
  2
TABLES
  0
TABLE
  2
VPORT
  5
8
102
{ACAD_XDICTIONARY
360
2EB4
102
}
330
0
100
AcDbSymbolTable
 70
     1
  0
VPORT
  5
2E53
330
8
100
AcDbSymbolTableRecord
100
AcDbViewportTableRecord
  2
*Active
 70
     0
 10
0.0
 20
0.0
 11
1.0
 21
1.0
 12
1380.020480398324
 22
955.0130695362458
 13
0.0
 23
0.0
 14
10.0
 24
10.0
 15
10.0
 25
10.0
 16
0.0
 26
0.0
 36
1.0
 17
0.0
 27
0.0
 37
0.0
 40
1933.583687558036
 41
2.407786885245901
 42
50.0
 43
0.0
 44
0.0
 50
0.0
 51
0.0
 71
     0
 72
   100
 73
     1
 74
     3
 75
     0
 76
     0
 77
     0
 78
     0
281
     0
 65
     1
110
0.0
120
0.0
130
0.0
111
1.0
121
0.0
131
0.0
112
0.0
122
1.0
132
0.0
 79
     0
146
0.0
1001
ACAD_NAV_VCDISPLAY
1070
     3
  0
ENDTAB
  0
TABLE
  2
LTYPE
  5
5
330
0
100
AcDbSymbolTable
 70
     2
  0
LTYPE
  5
14
330
5
100
AcDbSymbolTableRecord
100
AcDbLinetypeTableRecord
  2
ByBlock
 70
     0
  3

 72
    65
 73
     0
 40
0.0
  0
LTYPE
  5
15
330
5
100
AcDbSymbolTableRecord
100
AcDbLinetypeTableRecord
  2
ByLayer
 70
     0
  3

 72
    65
 73
     0
 40
0.0
  0
LTYPE
  5
16
330
5
100
AcDbSymbolTableRecord
100
AcDbLinetypeTableRecord
  2
Continuous
 70
     0
  3
Solid line
 72
    65
 73
     0
 40
0.0
  0
LTYPE
  5
255D
330
5
100
AcDbSymbolTableRecord
100
AcDbLinetypeTableRecord
  2
DASHED
 70
     0
  3
Dashed __ __ __ __ __ __ __ __ __ __ __ __ __ _
 72
    65
 73
     2
 40
19.05
 49
12.7
 74
     0
 49
-6.349999999999999
 74
     0
  0
ENDTAB
  0
TABLE
  2
LAYER
  5
2
102
{ACAD_XDICTIONARY
360
2D
102
}
330
0
100
AcDbSymbolTable
 70
    11
  0
LAYER
  5
10
102
{ACAD_XDICTIONARY
360
2E9E
102
}
330
2
100
AcDbSymbolTableRecord
100
AcDbLayerTableRecord
  2
0
 70
     0
 62
     7
  6
Continuous
290
     0
370
    -3
390
29
  0
LAYER
  5
2294
102
{ACAD_XDICTIONARY
360
2EA0
102
}
330
2
100
AcDbSymbolTableRecord
100
AcDbLayerTableRecord
  2
HATCH
 70
     0
 62
     9
  6
Continuous
370
    -3
390
29
  0
LAYER
  5
2301
330
2
100
AcDbSymbolTableRecord
100
AcDbLayerTableRecord
  2
Defpoints
 70
     0
 62
     7
  6
Continuous
290
     0
370
    -3
390
F
  0
LAYER
  5
235F
102
{ACAD_XDICTIONARY
360
2EA2
102
}
330
2
100
AcDbSymbolTableRecord
100
AcDbLayerTableRecord
  2
KUTAI
 70
     0
 62
     3
  6
Continuous
370
    -3
390
29
  0
LAYER
  5
2360
102
{ACAD_XDICTIONARY
360
2EA4
102
}
330
2
100
AcDbSymbolTableRecord
100
AcDbLayerTableRecord
  2
BOUSUI
 70
     0
 62
     1
  6
Continuous
370
    -3
390
29
  0
LAYER
  5
2361
102
{ACAD_XDICTIONARY
360
2EA6
102
}
330
2
100
AcDbSymbolTableRecord
100
AcDbLayerTableRecord
  2
MOJI
 70
     0
 62
     7
  6
Continuous
370
    -3
390
29
  0
LAYER
  5
2363
102
{ACAD_XDICTIONARY
360
2EA8
102
}
330
2
100
AcDbSymbolTableRecord
100
AcDbLayerTableRecord
  2
sunpo
 70
     0
 62
     7
  6
Continuous
370
    -3
390
29
  0
LAYER
  5
2364
102
{ACAD_XDICTIONARY
360
2EAA
102
}
330
2
100
AcDbSymbolTableRecord
100
AcDbLayerTableRecord
  2
KANAMONO_SCREW
 70
     0
 62
     4
  6
Continuous
370
    -3
390
29
  0
LAYER
  5
2501
102
{ACAD_XDICTIONARY
360
2EAC
102
}
330
2
100
AcDbSymbolTableRecord
100
AcDbLayerTableRecord
  2
dannnetu
 70
     0
 62
     6
  6
Continuous
370
    -3
390
F
  0
LAYER
  5
27C0
102
{ACAD_XDICTIONARY
360
2EAE
102
}
330
2
100
AcDbSymbolTableRecord
100
AcDbLayerTableRecord
  2
KANAMONO
 70
     0
 62
     4
  6
Continuous
370
    -3
390
29
  0
LAYER
  5
3024
102
{ACAD_XDICTIONARY
360
3025
102
}
330
2
100
AcDbSymbolTableRecord
100
AcDbLayerTableRecord
  2
WAKU
 70
     0
 62
     7
  6
Continuous
370
    -3
390
29
  0
ENDTAB
  0
TABLE
  2
STYLE
  5
3
330
0
100
AcDbSymbolTable
 70
     2
  0
STYLE
  5
11
330
3
100
AcDbSymbolTableRecord
100
AcDbTextStyleTableRecord
  2
Standard
 70
     0
 40
0.0
 41
1.0
 50
0.0
 71
     0
 42
2.5
  3

  4

1001
ACAD
1000
MS Gothic
1071
    32817
  0
STYLE
  5
3026
330
3
100
AcDbSymbolTableRecord
100
AcDbTextStyleTableRecord
  2
MSゴシック
 70
     0
 40
0.0
 41
1.0
 50
0.0
 71
     0
 42
2.5
  3

  4

1001
ACAD
1000
MS Gothic
1071
    32817
  0
ENDTAB
  0
TABLE
  2
VIEW
  5
6
330
0
100
AcDbSymbolTable
 70
     0
  0
ENDTAB
  0
TABLE
  2
UCS
  5
7
330
0
100
AcDbSymbolTable
 70
     0
  0
ENDTAB
  0
TABLE
  2
APPID
  5
9
330
0
100
AcDbSymbolTable
 70
     7
  0
APPID
  5
12
330
9
100
AcDbSymbolTableRecord
100
AcDbRegAppTableRecord
  2
ACAD
 70
     0
  0
APPID
  5
2E9C
330
9
100
AcDbSymbolTableRecord
100
AcDbRegAppTableRecord
  2
ACAD_EXEMPT_FROM_CAD_STANDARDS
 70
     0
  0
APPID
  5
2EE4
330
9
100
AcDbSymbolTableRecord
100
AcDbRegAppTableRecord
  2
ACAD_MLEADERVER
 70
     0
  0
APPID
  5
2FDA
330
9
100
AcDbSymbolTableRecord
100
AcDbRegAppTableRecord
  2
ACAD_NAV_VCDISPLAY
 70
     0
  0
APPID
  5
3027
330
9
100
AcDbSymbolTableRecord
100
AcDbRegAppTableRecord
  2
ACAD_PSEXT
 70
     0
  0
APPID
  5
3657
330
9
100
AcDbSymbolTableRecord
100
AcDbRegAppTableRecord
  2
AcadAnnoPO
 70
     0
  0
APPID
  5
36A2
330
9
100
AcDbSymbolTableRecord
100
AcDbRegAppTableRecord
  2
Acad_TC
 70
     0
  0
ENDTAB
  0
TABLE
  2
DIMSTYLE
  5
A
330
0
100
AcDbSymbolTable
 70
     1
100
AcDbDimStyleTable
 71
     1
340
22E4
  0
DIMSTYLE
105
22E4
330
A
100
AcDbSymbolTableRecord
100
AcDbDimStyleTableRecord
  2
STANDARD
 70
     0
 40
10.0
 41
0.8
 42
1.0
 43
0.0
 44
0.0
 73
     0
 74
     0
 77
     2
 78
     8
140
2.0
141
2.5
143
0.0394
147
0.1
171
     4
172
     1
173
     1
271
     8
272
     8
273
     8
274
     4
279
     1
340
11
341
903
343
903
344
903
  0
ENDTAB
  0
TABLE
  2
BLOCK_RECORD
  5
1
330
0
100
AcDbSymbolTable
 70
     8
  0
BLOCK_RECORD
  5
1F
102
{ACAD_XDICTIONARY
360
1C62
102
}
330
1
100
AcDbSymbolTableRecord
100
AcDbBlockTableRecord
  2
*Model_Space
340
22
  0
BLOCK_RECORD
  5
1CD0
330
1
100
AcDbSymbolTableRecord
100
AcDbBlockTableRecord
  2
*Paper_Space
340
1CD1
  0
BLOCK_RECORD
  5
903
330
1
100
AcDbSymbolTableRecord
100
AcDbBlockTableRecord
  2
_DOT
340
0
102
{BLKREFS
331
378F
331
3790
331
3797
331
3798
331
379C
331
379D
331
37B0
331
37B1
331
36CD
331
36CE
331
36D8
331
36D9
331
36E0
331
36E1
331
36E9
331
36EA
102
}
  0
BLOCK_RECORD
  5
25B1
330
1
100
AcDbSymbolTableRecord
100
AcDbBlockTableRecord
  2
*D1
340
0
  0
BLOCK_RECORD
  5
25BE
330
1
100
AcDbSymbolTableRecord
100
AcDbBlockTableRecord
  2
*D2
340
0
  0
BLOCK_RECORD
  5
26D4
330
1
100
AcDbSymbolTableRecord
100
AcDbBlockTableRecord
  2
*D3
340
0
  0
BLOCK_RECORD
  5
2997
330
1
100
AcDbSymbolTableRecord
100
AcDbBlockTableRecord
  2
*D4
340
0
  0
BLOCK_RECORD
  5
2A1C
330
1
100
AcDbSymbolTableRecord
100
AcDbBlockTableRecord
  2
hps-5-10-30
340
0
310
2800000020000000200000000100080000000000000400000000000000000000000000000000000000000000000080000080000000808000800000008000800080800000C0C0C000C0DCC000F0CAA6000020400000206000002080000020A0000020C0000020E00000400000004020000040400000406000004080000040A0
310
000040C0000040E00000600000006020000060400000606000006080000060A0000060C0000060E00000800000008020000080400000806000008080000080A0000080C0000080E00000A0000000A0200000A0400000A0600000A0800000A0A00000A0C00000A0E00000C0000000C0200000C0400000C0600000C0800000C0
310
A00000C0C00000C0E00000E0000000E0200000E0400000E0600000E0800000E0A00000E0C00000E0E00040000000400020004000400040006000400080004000A0004000C0004000E00040200000402020004020400040206000402080004020A0004020C0004020E000404000004040200040404000404060004040800040
310
40A0004040C0004040E00040600000406020004060400040606000406080004060A0004060C0004060E00040800000408020004080400040806000408080004080A0004080C0004080E00040A0000040A0200040A0400040A0600040A0800040A0A00040A0C00040A0E00040C0000040C0200040C0400040C0600040C08000
310
40C0A00040C0C00040C0E00040E0000040E0200040E0400040E0600040E0800040E0A00040E0C00040E0E00080000000800020008000400080006000800080008000A0008000C0008000E00080200000802020008020400080206000802080008020A0008020C0008020E00080400000804020008040400080406000804080
310
008040A0008040C0008040E00080600000806020008060400080606000806080008060A0008060C0008060E00080800000808020008080400080806000808080008080A0008080C0008080E00080A0000080A0200080A0400080A0600080A0800080A0A00080A0C00080A0E00080C0000080C0200080C0400080C0600080C0
310
800080C0A00080C0C00080C0E00080E0000080E0200080E0400080E0600080E0800080E0A00080E0C00080E0E000C0000000C0002000C0004000C0006000C0008000C000A000C000C000C000E000C0200000C0202000C0204000C0206000C0208000C020A000C020C000C020E000C0400000C0402000C0404000C0406000C0
310
408000C040A000C040C000C040E000C0600000C0602000C0604000C0606000C0608000C060A000C060C000C060E000C0800000C0802000C0804000C0806000C0808000C080A000C080C000C080E000C0A00000C0A02000C0A04000C0A06000C0A08000C0A0A000C0A0C000C0A0E000C0C00000C0C02000C0C04000C0C06000
310
C0C08000C0C0A000F0FBFF00A4A0A000808080000000FF0000FF000000FFFF00FF000000FF00FF00FFFF0000FFFFFF00FFFFFFFFFFFFFFFFFFFFFFFFFFFFFFFFFFFFFFFFFFFFFFFFFFFFFFFFFFFFFFFFFFFFFFFFFFFFFFFFFFFFFFFFFFFFFFFFFFFFFFFFFFFFFFFFFFFFFFFFFFFFFFFFFFFFFFFFFFFFFFFFFFFFFFFFFFFFFF
310
FEFEFFFFFFFFFFFFFFFFFFFFFFFFFFFFFFFFFFFFFFFFFFFFFFFFFFFFFFFFFFFFFEFFFEFFFFFFFFFFFFFFFFFFFFFFFFFFFFFFFFFFFFFFFFFFFFFFFFFFFFFFFEFEFEFEFEFEFFFFFFFFFFFFFFFFFFFFFFFFFFFFFFFFFFFFFFFFFFFFFFFFFFFFFEFFFEFEFFFEFFFFFFFFFFFFFFFFFFFFFFFFFFFFFFFFFFFFFFFFFFFFFFFFFFFFFE
310
FFFEFEFFFEFFFFFFFFFFFFFFFFFFFFFFFFFFFFFFFFFFFFFFFFFFFFFFFFFFFFFEFFFEFEFFFEFFFFFFFFFFFFFFFFFFFFFFFFFFFFFFFFFFFFFFFFFFFFFFFFFFFFFEFFFEFEFFFEFFFFFFFFFFFFFFFFFFFFFFFFFFFFFFFFFFFFFFFFFFFFFFFFFFFFFEFFFEFEFFFEFFFFFFFFFFFFFFFFFFFFFFFFFFFFFFFFFFFFFFFFFFFFFFFFFFFF
310
FEFFFEFEFFFEFFFFFFFFFFFFFFFFFFFFFFFFFFFFFFFFFFFFFFFFFFFFFFFFFFFFFEFFFEFEFFFEFFFFFFFFFFFFFFFFFFFFFFFFFFFFFFFFFFFFFFFFFFFFFFFFFFFFFEFFFEFEFFFEFFFFFFFFFFFFFFFFFFFFFFFFFFFFFFFFFFFFFFFFFFFFFFFFFFFFFEFFFEFEFFFEFFFFFFFFFFFFFFFFFFFFFFFFFFFFFFFFFFFFFFFFFFFFFFFFFF
310
FFFEFFFEFEFFFEFFFFFFFFFFFFFFFFFFFFFFFFFFFFFFFFFFFFFFFFFFFFFFFFFFFFFEFFFEFEFFFEFFFFFFFFFFFFFFFFFFFFFFFFFFFFFFFFFFFFFFFFFFFFFFFFFFFFFEFFFEFEFFFEFFFFFFFFFFFFFFFFFFFFFFFFFFFFFFFFFFFFFFFFFFFFFFFFFFFFFEFFFEFEFFFEFFFFFFFFFFFFFFFFFFFFFFFFFFFFFFFFFFFFFFFFFFFFFFFF
310
FFFFFEFEFEFEFEFEFFFFFFFFFFFFFFFFFFFFFFFFFFFFFFFFFFFFFFFFFFFFFFFFFFFFFEFFFFFFFFFEFFFFFFFFFFFFFFFFFFFFFFFFFFFFFFFFFFFFFFFFFFFFFFFFFFFFFEFEFEFEFEFEFFFFFFFFFFFFFFFFFFFFFFFFFFFFFFFFFFFFFFFFFFFFFFFFFFFFFEFFFFFFFFFEFFFFFFFFFFFFFFFFFFFFFFFFFFFFFFFFFFFFFFFFFFFFFF
310
FFFFFFFEFFFFFFFFFEFFFFFFFFFFFFFFFFFFFFFFFFFFFFFFFFFFFFFFFFFFFFFFFFFFFFFEFFFFFFFFFEFFFFFFFFFFFFFFFFFFFFFFFFFFFFFFFFFFFFFFFFFFFFFFFFFFFFFEFFFFFFFFFEFFFFFFFFFFFFFFFFFFFFFFFFFFFFFFFFFFFFFFFFFFFFFFFFFFFFFEFFFFFFFFFEFFFFFFFFFFFFFFFFFFFFFFFFFFFFFFFFFFFFFFFFFFFF
310
FFFFFFFFFEFFFFFFFFFEFFFFFFFFFFFFFFFFFFFFFFFFFFFFFFFFFFFFFFFFFFFFFFFFFFFFFEFFFFFFFFFEFFFFFFFFFFFFFFFFFFFFFFFFFFFFFFFFFFFFFFFFFFFFFFFFFEFEFEFEFEFEFEFEFEFEFFFFFFFFFFFFFFFFFFFFFFFFFFFFFFFFFFFFFFFFFFFFFEFEFEFEFEFEFEFEFEFEFFFFFFFFFFFFFFFFFFFFFFFFFFFFFFFFFFFFFF
310
FFFFFFFFFFFEFEFEFEFEFEFFFFFFFFFFFFFFFFFFFFFFFFFFFFFFFFFFFFFFFFFFFFFFFFFFFFFFFFFFFFFFFFFFFFFFFFFFFFFFFFFFFFFFFFFF
1001
ACAD
1000
DesignCenter Data
1002
{
1070
     1
1070
     4
1002
}
  0
BLOCK_RECORD
  5
2E25
330
1
100
AcDbSymbolTableRecord
100
AcDbBlockTableRecord
  2
S\U+FF8D\U+FF9E\U+FF70\U+FF8A\U+FF9F\U+FF7D（\U+FF71\U+FF9D\U+FF80\U+FF9E\U+FF70）
340
0
310
2800000020000000200000000100080000000000000400000000000000000000000000000000000000000000000080000080000000808000800000008000800080800000C0C0C000C0DCC000F0CAA6000020400000206000002080000020A0000020C0000020E00000400000004020000040400000406000004080000040A0
310
000040C0000040E00000600000006020000060400000606000006080000060A0000060C0000060E00000800000008020000080400000806000008080000080A0000080C0000080E00000A0000000A0200000A0400000A0600000A0800000A0A00000A0C00000A0E00000C0000000C0200000C0400000C0600000C0800000C0
310
A00000C0C00000C0E00000E0000000E0200000E0400000E0600000E0800000E0A00000E0C00000E0E00040000000400020004000400040006000400080004000A0004000C0004000E00040200000402020004020400040206000402080004020A0004020C0004020E000404000004040200040404000404060004040800040
310
40A0004040C0004040E00040600000406020004060400040606000406080004060A0004060C0004060E00040800000408020004080400040806000408080004080A0004080C0004080E00040A0000040A0200040A0400040A0600040A0800040A0A00040A0C00040A0E00040C0000040C0200040C0400040C0600040C08000
310
40C0A00040C0C00040C0E00040E0000040E0200040E0400040E0600040E0800040E0A00040E0C00040E0E00080000000800020008000400080006000800080008000A0008000C0008000E00080200000802020008020400080206000802080008020A0008020C0008020E00080400000804020008040400080406000804080
310
008040A0008040C0008040E00080600000806020008060400080606000806080008060A0008060C0008060E00080800000808020008080400080806000808080008080A0008080C0008080E00080A0000080A0200080A0400080A0600080A0800080A0A00080A0C00080A0E00080C0000080C0200080C0400080C0600080C0
310
800080C0A00080C0C00080C0E00080E0000080E0200080E0400080E0600080E0800080E0A00080E0C00080E0E000C0000000C0002000C0004000C0006000C0008000C000A000C000C000C000E000C0200000C0202000C0204000C0206000C0208000C020A000C020C000C020E000C0400000C0402000C0404000C0406000C0
310
408000C040A000C040C000C040E000C0600000C0602000C0604000C0606000C0608000C060A000C060C000C060E000C0800000C0802000C0804000C0806000C0808000C080A000C080C000C080E000C0A00000C0A02000C0A04000C0A06000C0A08000C0A0A000C0A0C000C0A0E000C0C00000C0C02000C0C04000C0C06000
310
C0C08000C0C0A000F0FBFF00A4A0A000808080000000FF0000FF000000FFFF00FF000000FF00FF00FFFF0000FFFFFF0000000000000000000000000000000000000000000000000000000000000000000000FCFCFCFCFCFCFCFCFCFCFCFCFCFCFCFCFCFCFCFCFCFCFCFCFCFCFCFC00000000FCFCFCFCFCFCFCFCFCFCFCFCFC
310
FCFCFCFCFCFCFCFCFCFCFCFCFCFCFC00000000000000000000000000000000FC0000FC00000000000000000000000000000000000000000000000000000000FC0000FC00000000000000000000000000000000000000000000000000000000FC0000FC00000000000000000000000000000000000000000000000000000000
310
FC0000FC00000000000000000000000000000000000000000000000000000000FC0000FC00000000000000000000000000000000000000000000000000000000FC0000FC00000000000000000000000000000000000000000000000000000000FC0000FC000000000000000000000000000000000000000000000000000000
310
00FC0000FC00000000000000000000000000000000000000000000000000000000FC0000FC00000000000000000000000000000000000000000000000000000000FC0000FC00000000000000000000000000000000000000000000000000000000FC0000FC0000000000000000000000000000000000000000000000000000
310
0000FC0000FC00000000000000000000000000000000000000000000000000000000FC0000FC00000000000000000000000000000000000000000000000000000000FC0000FC000000000000000000000000000000000000000000000000000000FCFC0000FCFC000000000000000000000000000000000000000000000000
310
000000FC0000FC00000000000000000000000000000000000000000000000000000000FC0000FC00000000000000000000000000000000000000000000000000000000FC0000FC00000000000000000000000000000000000000000000000000000000FC0000FC000000000000000000000000000000000000000000000000
310
00000000FC0000FC00000000000000000000000000000000000000000000000000000000FC0000FC00000000000000000000000000000000000000000000000000000000FC0000FC00000000000000000000000000000000000000000000000000000000FC0000FC0000000000000000000000000000000000000000000000
310
0000000000FC0000FC00000000000000000000000000000000000000000000000000000000FC0000FC000000000000000000000000000000000000000000000000000000FCFC0000FCFC000000000000000000000000000000000000000000000000000000FC0000FC00000000000000000000000000000000000000000000
310
000000000000FCFCFCFC00000000000000000000000000000000000000000000000000000000000000000000000000000000000000000000
  0
BLOCK_RECORD
  5
2E33
330
1
100
AcDbSymbolTableRecord
100
AcDbBlockTableRecord
  2
S\U+FF8D\U+FF9E\U+FF70\U+FF8A\U+FF9F\U+FF7D
340
0
310
2800000020000000200000000100080000000000000400000000000000000000000000000000000000000000000080000080000000808000800000008000800080800000C0C0C000C0DCC000F0CAA6000020400000206000002080000020A0000020C0000020E00000400000004020000040400000406000004080000040A0
310
000040C0000040E00000600000006020000060400000606000006080000060A0000060C0000060E00000800000008020000080400000806000008080000080A0000080C0000080E00000A0000000A0200000A0400000A0600000A0800000A0A00000A0C00000A0E00000C0000000C0200000C0400000C0600000C0800000C0
310
A00000C0C00000C0E00000E0000000E0200000E0400000E0600000E0800000E0A00000E0C00000E0E00040000000400020004000400040006000400080004000A0004000C0004000E00040200000402020004020400040206000402080004020A0004020C0004020E000404000004040200040404000404060004040800040
310
40A0004040C0004040E00040600000406020004060400040606000406080004060A0004060C0004060E00040800000408020004080400040806000408080004080A0004080C0004080E00040A0000040A0200040A0400040A0600040A0800040A0A00040A0C00040A0E00040C0000040C0200040C0400040C0600040C08000
310
40C0A00040C0C00040C0E00040E0000040E0200040E0400040E0600040E0800040E0A00040E0C00040E0E00080000000800020008000400080006000800080008000A0008000C0008000E00080200000802020008020400080206000802080008020A0008020C0008020E00080400000804020008040400080406000804080
310
008040A0008040C0008040E00080600000806020008060400080606000806080008060A0008060C0008060E00080800000808020008080400080806000808080008080A0008080C0008080E00080A0000080A0200080A0400080A0600080A0800080A0A00080A0C00080A0E00080C0000080C0200080C0400080C0600080C0
310
800080C0A00080C0C00080C0E00080E0000080E0200080E0400080E0600080E0800080E0A00080E0C00080E0E000C0000000C0002000C0004000C0006000C0008000C000A000C000C000C000E000C0200000C0202000C0204000C0206000C0208000C020A000C020C000C020E000C0400000C0402000C0404000C0406000C0
310
408000C040A000C040C000C040E000C0600000C0602000C0604000C0606000C0608000C060A000C060C000C060E000C0800000C0802000C0804000C0806000C0808000C080A000C080C000C080E000C0A00000C0A02000C0A04000C0A06000C0A08000C0A0A000C0A0C000C0A0E000C0C00000C0C02000C0C04000C0C06000
310
C0C08000C0C0A000F0FBFF00A4A0A000808080000000FF0000FF000000FFFF00FF000000FF00FF00FFFF0000FFFFFF0000000000000000000000000000000000000000000000000000000000000000000000000000000000000000000000000000000000000000000000000000000000000000000000000000000000000000
310
000000000000000000000000000000000000000000000000000000000000000000000000000000000000000000000000000000000000000000000000000000000000000000000000000000000000000000000000000000000000000000000000000000000000000000000000000000000000FCFCFCFCFCFCFCFCFCFCFCFCFC
310
FCFCFCFCFCFCFCFCFCFCFCFCFCFCFCFCFC0000000000000000000000000000FCFC0000FCFC0000000000000000000000000000000000000000000000000000FCFC0000FCFC0000000000000000000000000000000000000000000000000000FCFC0000FCFC0000000000000000000000000000000000000000000000000000
310
FCFC0000FCFC00000000000000000000000000000000000000000000000000FCFCFC0000FCFCFC000000000000000000000000000000000000000000000000FCFCFC0000FCFCFC000000000000000000000000000000000000000000000000FCFCFC0000FCFCFC000000000000000000000000000000000000000000000000
310
FCFCFC0000FCFCFC000000000000000000000000000000000000000000000000FCFCFC0000FCFCFC000000000000000000000000000000000000000000000000FCFCFC0000FCFCFC000000000000000000000000000000000000000000000000FCFCFC0000FCFCFC0000000000000000000000000000000000000000000000
310
00FCFCFC0000FCFCFC000000000000000000000000000000000000000000000000FCFCFC0000FCFCFC000000000000000000000000000000000000000000000000FCFCFC0000FCFCFC000000000000000000000000000000000000000000000000FCFCFC0000FCFCFC00000000000000000000000000000000000000000000
310
0000FCFCFC0000FCFCFC000000000000000000000000000000000000000000000000FCFCFCFCFCFCFCFC000000000000000000000000000000000000000000000000FC00FCFCFCFC00FC000000000000000000000000000000000000000000000000FCFCFCFCFCFCFCFC000000000000000000000000000000000000000000
310
00000000000000000000000000000000000000000000000000000000000000000000000000000000000000000000000000000000000000000000000000000000000000000000000000000000000000000000000000000000000000000000000000000000000000000000000000000000000000000000000000000000000000
310
0000000000000000000000000000000000000000000000000000000000000000000000000000000000000000000000000000000000000000
  0
ENDTAB
  0
ENDSEC
  0
SECTION
  2
BLOCKS
  0
BLOCK
  5
20
330
1F
100
AcDbEntity
  8
0
100
AcDbBlockBegin
  2
*Model_Space
 70
     0
 10
0.0
 20
0.0
 30
0.0
  3
*Model_Space
  1

  0
ENDBLK
  5
21
330
1F
100
AcDbEntity
  8
0
100
AcDbBlockEnd
  0
BLOCK
  5
1CD2
330
1CD0
100
AcDbEntity
 67
     1
  8
0
100
AcDbBlockBegin
  2
*Paper_Space
 70
     0
 10
0.0
 20
0.0
 30
0.0
  3
*Paper_Space
  1

  0
ENDBLK
  5
1CD3
330
1CD0
100
AcDbEntity
 67
     1
  8
0
100
AcDbBlockEnd
  0
BLOCK
  5
906
330
903
100
AcDbEntity
  8
0
100
AcDbBlockBegin
  2
_DOT
 70
     0
 10
0.0
 20
0.0
 30
0.0
  3
_DOT
  1

  0
LWPOLYLINE
  5
904
330
903
100
AcDbEntity
  8
0
  6
ByBlock
 62
     0
100
AcDbPolyline
 90
        2
 70
     1
 43
0.5
 10
-0.25
 20
0.0
 42
1.0
 10
0.25
 20
0.0
 42
1.0
  0
LINE
  5
905
330
903
100
AcDbEntity
  8
0
  6
ByBlock
 62
     0
100
AcDbLine
 10
-0.5
 20
0.0
 30
0.0
 11
-1.0
 21
0.0
 31
0.0
  0
ENDBLK
  5
907
330
903
100
AcDbEntity
  8
0
100
AcDbBlockEnd
  0
BLOCK
  5
25BB
330
25B1
100
AcDbEntity
  8
0
100
AcDbBlockBegin
  2
*D1
 70
     1
 10
0.0
 20
0.0
 30
0.0
  3
*D1
  1

  0
LINE
  5
36C9
330
25B1
100
AcDbEntity
  8
sunpo
 62
     0
370
    -2
100
AcDbLine
 10
800.0000000000005
 20
779.6809383784814
 30
0.0
 11
800.0000000000005
 21
757.4024026202141
 31
0.0
  0
LINE
  5
36CA
330
25B1
100
AcDbEntity
  8
sunpo
 62
     0
370
    -2
100
AcDbLine
 10
980.0000000000004
 20
779.6809383784814
 30
0.0
 11
980.0000000000004
 21
757.4024026202141
 31
0.0
  0
LINE
  5
36CB
330
25B1
100
AcDbEntity
  8
sunpo
 62
     0
370
    -2
100
AcDbLine
 10
808.0000000000005
 20
757.4024026202141
 30
0.0
 11
972.0000000000004
 21
757.4024026202141
 31
0.0
  0
MTEXT
  5
36CC
330
25B1
100
AcDbEntity
  8
sunpo
 62
     0
100
AcDbMText
 10
889.4812711233049
 20
773.2818169543215
 30
0.0
 40
20.0
 41
0.0
 71
     5
 72
     1
  1
\A1;≧180
  7
MSゴシック
 73
     1
 44
1.0
1001
ACAD
1000
MTEXTBEGIN
1070
    73
1070
     1
1070
    44
1040
1.0
1070
    74
1070
     0
1000
MTEXTEND
  0
INSERT
  5
36CD
330
25B1
100
AcDbEntity
  8
sunpo
 62
     0
370
    -2
100
AcDbBlockReference
  2
_DOT
 10
800.0000000000005
 20
757.4024026202141
 30
0.0
 41
8.0
 42
8.0
 43
8.0
 50
180.0
  0
INSERT
  5
36CE
330
25B1
100
AcDbEntity
  8
sunpo
 62
     0
370
    -2
100
AcDbBlockReference
  2
_DOT
 10
980.0000000000004
 20
757.4024026202141
 30
0.0
 41
8.0
 42
8.0
 43
8.0
  0
POINT
  5
36CF
330
25B1
100
AcDbEntity
  8
Defpoints
 62
     0
100
AcDbPoint
 10
800.0000000000005
 20
784.6809383784814
 30
0.0
  0
POINT
  5
36D0
330
25B1
100
AcDbEntity
  8
Defpoints
 62
     0
100
AcDbPoint
 10
980.0000000000004
 20
784.6809383784814
 30
0.0
  0
POINT
  5
36D1
330
25B1
100
AcDbEntity
  8
Defpoints
 62
     0
100
AcDbPoint
 10
980.0000000000004
 20
757.4024026202141
 30
0.0
  0
ENDBLK
  5
25BC
330
25B1
100
AcDbEntity
  8
0
100
AcDbBlockEnd
  0
BLOCK
  5
25CD
330
25BE
100
AcDbEntity
  8
0
100
AcDbBlockBegin
  2
*D2
 70
     1
 10
0.0
 20
0.0
 30
0.0
  3
*D2
  1

  0
LINE
  5
36D2
330
25BE
100
AcDbEntity
  8
sunpo
 62
     0
370
    -2
100
AcDbLine
 10
980.0000000000004
 20
779.6809383784814
 30
0.0
 11
980.0000000000004
 21
757.4024026202141
 31
0.0
  0
LINE
  5
36D3
330
25BE
100
AcDbEntity
  8
sunpo
 62
     0
370
    -2
100
AcDbLine
 10
990.0000000000003
 20
779.6809383784814
 30
0.0
 11
990.0000000000003
 21
757.4024026202141
 31
0.0
  0
LINE
  5
36D4
330
25BE
100
AcDbEntity
  8
sunpo
 62
     0
370
    -2
100
AcDbLine
 10
972.0000000000004
 20
757.4024026202141
 30
0.0
 11
964.0000000000004
 21
757.4024026202141
 31
0.0
  0
LINE
  5
36D5
330
25BE
100
AcDbEntity
  8
sunpo
 62
     0
370
    -2
100
AcDbLine
 10
998.0000000000003
 20
757.4024026202141
 30
0.0
 11
1006.0
 21
757.4024026202141
 31
0.0
  0
MTEXT
  5
36D6
330
25BE
100
AcDbEntity
  8
sunpo
 62
     0
100
AcDbMText
 10
958.5813232888881
 20
773.2818169543215
 30
0.0
 40
20.0
 41
0.0
 71
     5
 72
     1
  1
\A1;10
  7
MSゴシック
 73
     1
 44
1.0
1001
ACAD
1000
MTEXTBEGIN
1070
    73
1070
     1
1070
    44
1040
1.0
1070
    74
1070
     0
1000
MTEXTEND
  0
LINE
  5
36D7
330
25BE
100
AcDbEntity
  8
sunpo
 62
     0
370
    -2
100
AcDbLine
 10
980.0000000000004
 20
757.4024026202141
 30
0.0
 11
990.0000000000003
 21
757.4024026202141
 31
0.0
  0
INSERT
  5
36D8
330
25BE
100
AcDbEntity
  8
sunpo
 62
     0
370
    -2
100
AcDbBlockReference
  2
_DOT
 10
980.0000000000004
 20
757.4024026202141
 30
0.0
 41
8.0
 42
8.0
 43
8.0
  0
INSERT
  5
36D9
330
25BE
100
AcDbEntity
  8
sunpo
 62
     0
370
    -2
100
AcDbBlockReference
  2
_DOT
 10
990.0000000000003
 20
757.4024026202141
 30
0.0
 41
8.0
 42
8.0
 43
8.0
 50
180.0
  0
POINT
  5
36DA
330
25BE
100
AcDbEntity
  8
Defpoints
 62
     0
100
AcDbPoint
 10
980.0000000000004
 20
784.6809383784814
 30
0.0
  0
POINT
  5
36DB
330
25BE
100
AcDbEntity
  8
Defpoints
 62
     0
100
AcDbPoint
 10
990.0000000000003
 20
784.6809383784814
 30
0.0
  0
POINT
  5
36DC
330
25BE
100
AcDbEntity
  8
Defpoints
 62
     0
100
AcDbPoint
 10
990.0000000000003
 20
757.4024026202141
 30
0.0
  0
ENDBLK
  5
25CE
330
25BE
100
AcDbEntity
  8
0
100
AcDbBlockEnd
  0
BLOCK
  5
26DE
330
26D4
100
AcDbEntity
  8
0
100
AcDbBlockBegin
  2
*D3
 70
     1
 10
0.0
 20
0.0
 30
0.0
  3
*D3
  1

  0
LINE
  5
36DD
330
26D4
100
AcDbEntity
  8
sunpo
 62
     0
 48
0.5
370
    -2
100
AcDbLine
 10
795.000000000001
 20
592.0000000000002
 30
0.0
 11
686.645540522207
 21
592.0
 31
0.0
  0
LINE
  5
36DE
330
26D4
100
AcDbEntity
  8
sunpo
 62
     0
 48
0.5
370
    -2
100
AcDbLine
 10
795.000000000001
 20
945.0000000000004
 30
0.0
 11
686.6455405222069
 21
945.0000000000002
 31
0.0
  0
LINE
  5
36DF
330
26D4
100
AcDbEntity
  8
sunpo
 62
     0
 48
0.5
370
    -2
100
AcDbLine
 10
686.645540522207
 20
600.0
 30
0.0
 11
686.6455405222069
 21
937.0000000000002
 31
0.0
  0
INSERT
  5
36E0
330
26D4
100
AcDbEntity
  8
sunpo
 62
     0
 48
0.5
370
    -2
100
AcDbBlockReference
  2
_DOT
 10
686.645540522207
 20
592.0
 30
0.0
 41
8.0
 42
8.0
 43
8.0
 50
270.0
  0
INSERT
  5
36E1
330
26D4
100
AcDbEntity
  8
sunpo
 62
     0
 48
0.5
370
    -2
100
AcDbBlockReference
  2
_DOT
 10
686.6455405222069
 20
945.0000000000002
 30
0.0
 41
8.0
 42
8.0
 43
8.0
 50
90.0
  0
MTEXT
  5
36E2
330
26D4
100
AcDbEntity
  8
sunpo
 62
     0
 48
0.5
100
AcDbMText
 10
674.1734593039329
 20
768.5
 30
0.0
 40
20.0
 41
0.0
 71
     5
 72
     1
  1
\A1;150以上（水上）
  7
MSゴシック
 11
0.0000000000000001
 21
1.0
 31
0.0
 73
     1
 44
1.0
1001
ACAD
1000
MTEXTBEGIN
1070
    73
1070
     1
1070
    44
1040
1.0
1070
    74
1070
     0
1000
MTEXTEND
  0
POINT
  5
36E3
330
26D4
100
AcDbEntity
  8
Defpoints
 62
     0
 48
0.5
100
AcDbPoint
 10
800.000000000001
 20
592.0000000000002
 30
0.0
  0
POINT
  5
36E4
330
26D4
100
AcDbEntity
  8
Defpoints
 62
     0
 48
0.5
100
AcDbPoint
 10
800.000000000001
 20
945.0000000000004
 30
0.0
  0
POINT
  5
36E5
330
26D4
100
AcDbEntity
  8
Defpoints
 62
     0
 48
0.5
100
AcDbPoint
 10
686.6455405222069
 20
945.0000000000002
 30
0.0
  0
ENDBLK
  5
26DF
330
26D4
100
AcDbEntity
  8
0
100
AcDbBlockEnd
  0
BLOCK
  5
29A1
330
2997
100
AcDbEntity
  8
0
100
AcDbBlockBegin
  2
*D4
 70
     1
 10
0.0
 20
0.0
 30
0.0
  3
*D4
  1

  0
LINE
  5
36E6
330
2997
100
AcDbEntity
  8
sunpo
 62
     0
370
    -2
100
AcDbLine
 10
2018.500000000002
 20
789.0000000000005
 30
0.0
 11
2212.505247813659
 21
789.0000000000005
 31
0.0
  0
LINE
  5
36E7
330
2997
100
AcDbEntity
  8
sunpo
 62
     0
370
    -2
100
AcDbLine
 10
2140.000000000002
 20
584.0000000000002
 30
0.0
 11
2212.505247813659
 21
584.0000000000002
 31
0.0
  0
LINE
  5
36E8
330
2997
100
AcDbEntity
  8
sunpo
 62
     0
370
    -2
100
AcDbLine
 10
2212.505247813659
 20
781.0000000000004
 30
0.0
 11
2212.505247813659
 21
592.0000000000002
 31
0.0
  0
INSERT
  5
36E9
330
2997
100
AcDbEntity
  8
sunpo
 62
     0
370
    -2
100
AcDbBlockReference
  2
_DOT
 10
2212.505247813659
 20
789.0000000000005
 30
0.0
 41
8.0
 42
8.0
 43
8.0
 50
90.0
  0
INSERT
  5
36EA
330
2997
100
AcDbEntity
  8
sunpo
 62
     0
370
    -2
100
AcDbBlockReference
  2
_DOT
 10
2212.505247813659
 20
584.0000000000002
 30
0.0
 41
8.0
 42
8.0
 43
8.0
 50
270.0
  0
MTEXT
  5
36EB
330
2997
100
AcDbEntity
  8
sunpo
 62
     0
100
AcDbMText
 10
2223.505247813659
 20
686.4999999999996
 30
0.0
 40
20.0
 41
0.0
 71
     5
 72
     1
  1
\A1;205
  7
MSゴシック
 11
0.0000000000000001
 21
1.0
 31
0.0
 73
     1
 44
1.0
1001
ACAD
1000
MTEXTBEGIN
1070
    73
1070
     1
1070
    44
1040
1.0
1070
    74
1070
     0
1000
MTEXTEND
  0
POINT
  5
36EC
330
2997
100
AcDbEntity
  8
Defpoints
 62
     0
100
AcDbPoint
 10
2008.500000000002
 20
789.0000000000005
 30
0.0
  0
POINT
  5
36ED
330
2997
100
AcDbEntity
  8
Defpoints
 62
     0
100
AcDbPoint
 10
2130.000000000002
 20
584.0000000000002
 30
0.0
  0
POINT
  5
36EE
330
2997
100
AcDbEntity
  8
Defpoints
 62
     0
100
AcDbPoint
 10
2212.505247813659
 20
584.0000000000002
 30
0.0
  0
ENDBLK
  5
29A2
330
2997
100
AcDbEntity
  8
0
100
AcDbBlockEnd
  0
BLOCK
  5
2A53
330
2A1C
100
AcDbEntity
  8
0
 48
20.0
100
AcDbBlockBegin
  2
hps-5-10-30
 70
     0
 10
0.0
 20
0.0
 30
0.0
  3
hps-5-10-30
  1

  0
LINE
  5
2A1D
330
2A1C
100
AcDbEntity
  8
KANAMONO_SCREW
 48
20.0
100
AcDbLine
 10
-2.628551427289778
 20
-15.56980343716732
 30
0.0
 11
-3.074324324324322
 21
-25.67398910328466
 31
0.0
  0
LINE
  5
2A1E
330
2A1C
100
AcDbEntity
  8
KANAMONO_SCREW
 48
20.0
100
AcDbLine
 10
2.628551427297225
 20
-15.56980343716701
 30
0.0
 11
3.074324324324322
 21
-25.67398910328466
 31
0.0
  0
LINE
  5
2A1F
330
2A1C
100
AcDbEntity
  8
KANAMONO_SCREW
 48
20.0
100
AcDbLine
 10
0.2083333333333144
 20
-12.65597108526664
 30
0.0
 11
0.8333333333333143
 21
-26.8226377519333
 31
0.0
  0
LINE
  5
2A20
330
2A1C
100
AcDbEntity
  8
KANAMONO_SCREW
 48
20.0
100
AcDbLine
 10
-0.2083333333333144
 20
-12.65597108526664
 30
0.0
 11
-0.8333333333333143
 21
-26.8226377519333
 31
0.0
  0
LINE
  5
2A21
330
2A1C
100
AcDbEntity
  8
KANAMONO_SCREW
 48
20.0
100
AcDbLine
 10
-1.594514301521201
 20
-26.8226377519333
 30
0.0
 11
-0.3849498143908931
 21
-29.74278476348546
 31
0.0
  0
LINE
  5
2A22
330
2A1C
100
AcDbEntity
  8
KANAMONO_SCREW
 48
20.0
100
AcDbLine
 10
1.594514301521201
 20
-26.8226377519333
 30
0.0
 11
0.38494979603513
 21
-29.74278476348546
 31
0.0
  0
ARC
  5
2A23
330
2A1C
100
AcDbEntity
  8
KANAMONO_SCREW
 48
20.0
100
AcDbCircle
 10
-0.0000000091778816
 20
-29.58333333333333
 30
0.0
 40
0.4166666666666667
100
AcDbArc
 50
202.5000000000006
 51
337.4999999999994
  0
LINE
  5
2A24
330
2A1C
100
AcDbEntity
  8
KANAMONO_SCREW
 48
20.0
100
AcDbLine
 10
0.8333333333333143
 20
-26.8226377519333
 30
0.0
 11
2.5
 21
-26.8226377519333
 31
0.0
  0
LINE
  5
2A25
330
2A1C
100
AcDbEntity
  8
KANAMONO_SCREW
 48
20.0
100
AcDbLine
 10
-0.8333333333333143
 20
-26.8226377519333
 30
0.0
 11
-2.5
 21
-26.8226377519333
 31
0.0
  0
LINE
  5
2A26
330
2A1C
100
AcDbEntity
  8
KANAMONO_SCREW
 48
20.0
100
AcDbLine
 10
-2.5
 20
-26.8226377519333
 30
0.0
 11
-3.074324324324322
 21
-25.67398910328466
 31
0.0
  0
LINE
  5
2A27
330
2A1C
100
AcDbEntity
  8
KANAMONO_SCREW
 48
20.0
100
AcDbLine
 10
-0.7984944745110738
 20
-26.03295695196111
 30
0.0
 11
0.7810727768853099
 21
-25.63806513911202
 31
0.0
  0
LINE
  5
2A28
330
2A1C
100
AcDbEntity
  8
KANAMONO_SCREW
 48
20.0
100
AcDbLine
 10
-0.7427323927266798
 20
-24.76901643151503
 30
0.0
 11
0.7265273223398481
 21
-24.40170150274837
 31
0.0
  0
LINE
  5
2A29
330
2A1C
100
AcDbEntity
  8
KANAMONO_SCREW
 48
20.0
100
AcDbLine
 10
-1.347040089409006
 20
-27.42009335568558
 30
0.0
 11
1.042782325600171
 21
-26.8226377519333
 31
0.0
  0
LINE
  5
2A2A
330
2A1C
100
AcDbEntity
  8
KANAMONO_SCREW
 48
20.0
100
AcDbLine
 10
-0.6869703109422858
 20
-23.50507591106889
 30
0.0
 11
0.6719818677943863
 21
-23.16533786638472
 31
0.0
  0
LINE
  5
2A2B
330
2A1C
100
AcDbEntity
  8
KANAMONO_SCREW
 48
20.0
100
AcDbLine
 10
-0.4639219838047098
 20
-18.44931382928449
 30
0.0
 11
0.4538000496125961
 21
-18.21988332093018
 31
0.0
  0
LINE
  5
2A2C
330
2A1C
100
AcDbEntity
  8
KANAMONO_SCREW
 48
20.0
100
AcDbLine
 10
-0.6312082291578918
 20
-22.2411353906228
 30
0.0
 11
0.6174364132489245
 21
-21.92897423002107
 31
0.0
  0
LINE
  5
2A2D
330
2A1C
100
AcDbEntity
  8
KANAMONO_SCREW
 48
20.0
100
AcDbLine
 10
-0.5754461473734978
 20
-20.97719487017669
 30
0.0
 11
0.5628909587035196
 21
-20.69261059365742
 31
0.0
  0
LINE
  5
2A2E
330
2A1C
100
AcDbEntity
  8
KANAMONO_SCREW
 48
20.0
100
AcDbLine
 10
-0.5196840655891038
 20
-19.71325434973063
 30
0.0
 11
0.5083455041580578
 21
-19.45624695729383
 31
0.0
  0
LINE
  5
2A2F
330
2A1C
100
AcDbEntity
  8
KANAMONO_SCREW
 48
20.0
100
AcDbLine
 10
2.5
 20
-26.8226377519333
 30
0.0
 11
3.074324324324322
 21
-25.67398910328466
 31
0.0
  0
LINE
  5
2A30
330
2A1C
100
AcDbEntity
  8
KANAMONO_SCREW
 48
20.0
100
AcDbLine
 10
-2.5
 20
-0.8333333333333285
 30
0.0
 11
-2.5
 21
-12.6559710852661
 31
0.0
  0
LINE
  5
2A31
330
2A1C
100
AcDbEntity
  8
KANAMONO_SCREW
 48
20.0
100
AcDbLine
 10
2.5
 20
-0.833333333333357
 30
0.0
 11
2.5
 21
-12.6559710852661
 31
0.0
  0
LINE
  5
2A32
330
2A1C
100
AcDbEntity
  8
KANAMONO_SCREW
 48
20.0
100
AcDbLine
 10
-2.5
 20
-10.98930441859944
 30
0.0
 11
2.5
 21
-10.98930441859944
 31
0.0
  0
LINE
  5
2A33
330
2A1C
100
AcDbEntity
  8
KANAMONO_SCREW
 48
20.0
100
AcDbLine
 10
-2.5
 20
-8.489304418599445
 30
0.0
 11
2.5
 21
-8.489304418599445
 31
0.0
  0
LINE
  5
2A34
330
2A1C
100
AcDbEntity
  8
KANAMONO_SCREW
 48
20.0
100
AcDbLine
 10
-2.291869117721319
 20
-12.66515333007304
 30
0.0
 11
-2.5
 21
-12.6559710852661
 31
0.0
  0
LINE
  5
2A35
330
2A1C
100
AcDbEntity
  8
KANAMONO_SCREW
 48
20.0
100
AcDbLine
 10
-2.301051362528312
 20
-12.87328421235169
 30
0.0
 11
-2.509182244806879
 21
-12.86410196754472
 31
0.0
  0
LINE
  5
2A36
330
2A1C
100
AcDbEntity
  8
KANAMONO_SCREW
 48
20.0
100
AcDbLine
 10
-2.411238300211664
 20
-15.37085479969532
 30
0.0
 11
-2.619369182490231
 21
-15.36167255488836
 31
0.0
  0
LINE
  5
2A37
330
2A1C
100
AcDbEntity
  8
KANAMONO_SCREW
 48
20.0
100
AcDbLine
 10
-2.420420545018544
 20
-15.57898568197394
 30
0.0
 11
-2.628551427297225
 21
-15.56980343716701
 31
0.0
  0
LINE
  5
2A38
330
2A1C
100
AcDbEntity
  8
KANAMONO_SCREW
 48
20.0
100
AcDbLine
 10
-2.509182244806424
 20
-12.86410196754475
 30
0.0
 11
-2.619369182483353
 21
-15.3616725548887
 31
0.0
  0
LINE
  5
2A39
330
2A1C
100
AcDbEntity
  8
KANAMONO_SCREW
 48
20.0
100
AcDbLine
 10
-2.291869117721319
 20
-12.66515333007304
 30
0.0
 11
-2.420420545011097
 21
-15.57898568197429
 31
0.0
  0
LINE
  5
2A3A
330
2A1C
100
AcDbEntity
  8
KANAMONO_SCREW
 48
20.0
100
AcDbLine
 10
-0.2083333333333144
 20
-12.65597108526664
 30
0.0
 11
0.2083333333333144
 21
-12.65597108526664
 31
0.0
  0
LINE
  5
2A3B
330
2A1C
100
AcDbEntity
  8
KANAMONO_SCREW
 48
20.0
100
AcDbLine
 10
-0.2408736566671905
 20
-13.39355174750015
 30
0.0
 11
0.2356182314308057
 21
-13.27442877547567
 31
0.0
  0
LINE
  5
2A3C
330
2A1C
100
AcDbEntity
  8
KANAMONO_SCREW
 48
20.0
100
AcDbLine
 10
-0.4081599020203158
 20
-17.18537330883843
 30
0.0
 11
0.3992545950671342
 21
-16.98351968456656
 31
0.0
  0
LINE
  5
2A3D
330
2A1C
100
AcDbEntity
  8
KANAMONO_SCREW
 48
20.0
100
AcDbLine
 10
-0.3523978202359785
 20
-15.92143278839232
 30
0.0
 11
0.3447091405216724
 21
-15.74715604820291
 31
0.0
  0
LINE
  5
2A3E
330
2A1C
100
AcDbEntity
  8
KANAMONO_SCREW
 48
20.0
100
AcDbLine
 10
-0.2966357384515845
 20
-14.65749226794621
 30
0.0
 11
0.2901636859762107
 21
-14.51079241183926
 31
0.0
  0
LINE
  5
2A3F
330
2A1C
100
AcDbEntity
  8
KANAMONO_SCREW
 48
20.0
100
AcDbLine
 10
2.301051362528312
 20
-12.87328421235169
 30
0.0
 11
2.509182244806879
 21
-12.86410196754472
 31
0.0
  0
LINE
  5
2A40
330
2A1C
100
AcDbEntity
  8
KANAMONO_SCREW
 48
20.0
100
AcDbLine
 10
2.291869117721319
 20
-12.66515333007304
 30
0.0
 11
2.5
 21
-12.6559710852661
 31
0.0
  0
LINE
  5
2A41
330
2A1C
100
AcDbEntity
  8
KANAMONO_SCREW
 48
20.0
100
AcDbLine
 10
2.420420545018544
 20
-15.57898568197394
 30
0.0
 11
2.628551427297225
 21
-15.56980343716701
 31
0.0
  0
LINE
  5
2A42
330
2A1C
100
AcDbEntity
  8
KANAMONO_SCREW
 48
20.0
100
AcDbLine
 10
2.411238300211664
 20
-15.37085479969532
 30
0.0
 11
2.619369182490231
 21
-15.36167255488836
 31
0.0
  0
LINE
  5
2A43
330
2A1C
100
AcDbEntity
  8
KANAMONO_SCREW
 48
20.0
100
AcDbLine
 10
2.291869117721319
 20
-12.66515333007304
 30
0.0
 11
2.420420545011097
 21
-15.57898568197429
 31
0.0
  0
LINE
  5
2A44
330
2A1C
100
AcDbEntity
  8
KANAMONO_SCREW
 48
20.0
100
AcDbLine
 10
2.509182244806424
 20
-12.86410196754475
 30
0.0
 11
2.619369182483353
 21
-15.3616725548887
 31
0.0
  0
LINE
  5
2A45
330
2A1C
100
AcDbEntity
  8
KANAMONO_SCREW
 48
20.0
100
AcDbLine
 10
-3.333333333333314
 20
0.0000000000000142
 30
0.0
 11
3.333333333333314
 21
-0.0000000000000142
 31
0.0
  0
LINE
  5
2A46
330
2A1C
100
AcDbEntity
  8
KANAMONO_SCREW
 48
20.0
100
AcDbLine
 10
3.541666666666685
 20
2.083333333333328
 30
0.0
 11
-3.541666666666685
 21
2.083333333333328
 31
0.0
  0
LINE
  5
2A47
330
2A1C
100
AcDbEntity
  8
KANAMONO_SCREW
 48
20.0
100
AcDbLine
 10
2.5
 20
2.291666666666642
 30
0.0
 11
-2.5
 21
2.291666666666642
 31
0.0
  0
LINE
  5
2A48
330
2A1C
100
AcDbEntity
  8
KANAMONO_SCREW
 48
20.0
100
AcDbLine
 10
-4.583333333333314
 20
1.666666666666642
 30
0.0
 11
4.583333333333314
 21
1.666666666666642
 31
0.0
  0
LINE
  5
2A49
330
2A1C
100
AcDbEntity
  8
KANAMONO_SCREW
 48
20.0
100
AcDbLine
 10
-3.541666666666685
 20
2.083333333333328
 30
0.0
 11
-3.541666666666685
 21
1.666666666666642
 31
0.0
  0
LINE
  5
2A4A
330
2A1C
100
AcDbEntity
  8
KANAMONO_SCREW
 48
20.0
100
AcDbLine
 10
-3.541666666666685
 20
2.083333333333328
 30
0.0
 11
-2.5
 21
2.291666666666642
 31
0.0
  0
ARC
  5
2A4B
330
2A1C
100
AcDbEntity
  8
KANAMONO_SCREW
 48
20.0
100
AcDbCircle
 10
-3.333333333333314
 20
-0.8333333333333285
 30
0.0
 40
0.8333333333333333
100
AcDbArc
 50
0.0
 51
90.0
  0
LINE
  5
2A4C
330
2A1C
100
AcDbEntity
  8
KANAMONO_SCREW
 48
20.0
100
AcDbLine
 10
-4.583333333333314
 20
-0.0000000000000142
 30
0.0
 11
-3.333333333333314
 21
0.0000000000000142
 31
0.0
  0
LINE
  5
2A4D
330
2A1C
100
AcDbEntity
  8
KANAMONO_SCREW
 48
20.0
100
AcDbLine
 10
-4.583333333333314
 20
-0.0000000000000142
 30
0.0
 11
-4.583333333333314
 21
1.666666666666642
 31
0.0
  0
LINE
  5
2A4E
330
2A1C
100
AcDbEntity
  8
KANAMONO_SCREW
 48
20.0
100
AcDbLine
 10
4.583333333333314
 20
1.666666666666642
 30
0.0
 11
4.583333333333314
 21
-0.0000000000000142
 31
0.0
  0
LINE
  5
2A4F
330
2A1C
100
AcDbEntity
  8
KANAMONO_SCREW
 48
20.0
100
AcDbLine
 10
3.541666666666685
 20
1.666666666666642
 30
0.0
 11
3.541666666666685
 21
2.083333333333328
 31
0.0
  0
LINE
  5
2A50
330
2A1C
100
AcDbEntity
  8
KANAMONO_SCREW
 48
20.0
100
AcDbLine
 10
2.5
 20
2.291666666666642
 30
0.0
 11
3.541666666666685
 21
2.083333333333328
 31
0.0
  0
ARC
  5
2A51
330
2A1C
100
AcDbEntity
  8
KANAMONO_SCREW
 48
20.0
100
AcDbCircle
 10
3.333333333333314
 20
-0.833333333333357
 30
0.0
 40
0.8333333333333333
100
AcDbArc
 50
90.0
 51
180.0
  0
LINE
  5
2A52
330
2A1C
100
AcDbEntity
  8
KANAMONO_SCREW
 48
20.0
100
AcDbLine
 10
3.333333333333314
 20
-0.0000000000000142
 30
0.0
 11
4.583333333333314
 21
-0.0000000000000142
 31
0.0
  0
ENDBLK
  5
2A54
330
2A1C
100
AcDbEntity
  8
0
 48
20.0
100
AcDbBlockEnd
  0
BLOCK
  5
2E31
330
2E25
100
AcDbEntity
  8
0
100
AcDbBlockBegin
  2
S\U+FF8D\U+FF9E\U+FF70\U+FF8A\U+FF9F\U+FF7D（\U+FF71\U+FF9D\U+FF80\U+FF9E\U+FF70）
 70
     0
 10
0.0
 20
0.0
 30
0.0
  3
S\U+FF8D\U+FF9E\U+FF70\U+FF8A\U+FF9F\U+FF7D（\U+FF71\U+FF9D\U+FF80\U+FF9E\U+FF70）
  1

  0
LWPOLYLINE
  5
2E26
330
2E25
100
AcDbEntity
  8
KANAMONO
100
AcDbPolyline
 90
        4
 70
     0
 43
0.0
 10
-13.59999999999991
 20
1.5
 10
-100.0000000000004
 20
1.5
 10
-100.0000000000004
 20
0.0
 10
-13.59999999999991
 20
0.0
  0
LWPOLYLINE
  5
2E27
330
2E25
100
AcDbEntity
  8
KANAMONO
100
AcDbPolyline
 90
        4
 70
     1
 43
0.0
 10
-13.59999999999991
 20
0.0
 10
-12.09999999999991
 20
0.0
 10
-12.09999999999991
 20
206.5
 10
-13.59999999999991
 20
206.5
  0
LWPOLYLINE
  5
2E28
330
2E25
100
AcDbEntity
  8
KANAMONO
100
AcDbPolyline
 90
        4
 70
     1
 43
0.0
 10
12.09999999999991
 20
0.0
 10
13.59999999999991
 20
0.0
 10
13.59999999999991
 20
206.5
 10
12.09999999999991
 20
206.5
  0
LWPOLYLINE
  5
2E29
330
2E25
100
AcDbEntity
  8
KANAMONO
100
AcDbPolyline
 90
        4
 70
     0
 43
0.0
 10
13.59999999999991
 20
0.0
 10
99.99999999999955
 20
0.0
 10
99.99999999999955
 20
1.5
 10
13.59999999999991
 20
1.5
  0
LINE
  5
2E2A
330
2E25
100
AcDbEntity
  8
KANAMONO
370
     5
100
AcDbLine
 10
-12.09999999999991
 20
0.0
 30
0.0
 11
12.09999999999991
 21
0.0
 31
0.0
  0
LINE
  5
2E2B
330
2E25
100
AcDbEntity
  8
KANAMONO
370
     5
100
AcDbLine
 10
-12.09999999999991
 20
1.5
 30
0.0
 11
12.09999999999991
 21
1.5
 31
0.0
  0
LWPOLYLINE
  5
2E2C
330
2E25
100
AcDbEntity
  8
KANAMONO
100
AcDbPolyline
 90
        6
 70
     1
 43
0.0
 10
13.70000000000027
 20
116.5
 10
18.84999999999991
 20
116.5
 10
18.84999999999991
 20
113.5
 10
18.15000000000009
 20
113.5
 10
18.15000000000009
 20
115.8000000000002
 10
13.70000000000027
 20
115.8000000000002
  0
LWPOLYLINE
  5
2E2D
330
2E25
100
AcDbEntity
  8
KANAMONO
100
AcDbPolyline
 90
        6
 70
     1
 43
0.0
 10
-13.70000000000027
 20
116.5
 10
-18.84999999999991
 20
116.5
 10
-18.84999999999991
 20
113.5
 10
-18.15000000000009
 20
113.5
 10
-18.15000000000009
 20
115.8000000000002
 10
-13.70000000000027
 20
115.8000000000002
  0
LWPOLYLINE
  5
2E2E
330
2E25
100
AcDbEntity
  8
KANAMONO
100
AcDbPolyline
 90
        6
 70
     1
 43
0.0
 10
13.70000000000027
 20
196.5
 10
18.84999999999991
 20
196.5
 10
18.84999999999991
 20
193.5
 10
18.15000000000009
 20
193.5
 10
18.15000000000009
 20
195.8000000000002
 10
13.70000000000027
 20
195.8000000000002
  0
LWPOLYLINE
  5
2E2F
330
2E25
100
AcDbEntity
  8
KANAMONO
100
AcDbPolyline
 90
        6
 70
     1
 43
0.0
 10
-13.70000000000027
 20
196.5
 10
-18.84999999999991
 20
196.5
 10
-18.84999999999991
 20
193.5
 10
-18.15000000000009
 20
193.5
 10
-18.15000000000009
 20
195.8000000000002
 10
-13.70000000000027
 20
195.8000000000002
  0
LINE
  5
2E30
330
2E25
100
AcDbEntity
  8
KANAMONO
370
     5
100
AcDbLine
 10
-12.09999999999991
 20
206.5
 30
0.0
 11
12.09999999999991
 21
206.5
 31
0.0
  0
ENDBLK
  5
2E32
330
2E25
100
AcDbEntity
  8
0
100
AcDbBlockEnd
  0
BLOCK
  5
2E48
330
2E33
100
AcDbEntity
  8
0
100
AcDbBlockBegin
  2
S\U+FF8D\U+FF9E\U+FF70\U+FF8A\U+FF9F\U+FF7D
 70
     0
 10
0.0
 20
0.0
 30
0.0
  3
S\U+FF8D\U+FF9E\U+FF70\U+FF8A\U+FF9F\U+FF7D
  1

  0
LWPOLYLINE
  5
2E34
330
2E33
100
AcDbEntity
  8
KANAMONO
100
AcDbPolyline
 90
       16
 70
     1
 43
0.0
 10
40.0
 20
56.5
 10
40.0
 20
196.3707503932705
 42
0.3348602696008476
 10
35.0681036697024
 20
202.9091132372282
 10
22.5
 20
206.5
 10
-22.5
 20
206.5
 10
-35.0681036697024
 20
202.9091132372282
 42
0.3348602696008476
 10
-40.0
 20
196.3707503932705
 10
-40.0
 20
56.5
 10
-39.19999999999982
 20
56.5
 10
-39.19999999999982
 20
196.3707503932705
 42
-0.3348602696008326
 10
-34.8483267673837
 20
202.1398940791155
 10
-22.38795604428833
 20
205.6999999999998
 10
22.38795604428833
 20
205.6999999999998
 10
34.84832676738461
 20
202.139894079116
 42
-0.3348602696008298
 10
39.19999999999982
 20
196.3707503932705
 10
39.19999999999982
 20
56.5
  0
LWPOLYLINE
  5
2E35
330
2E33
100
AcDbEntity
  8
KANAMONO
100
AcDbPolyline
 90
       16
 70
     1
 43
0.0
 10
-20.0
 20
191.6999999999998
 10
-20.0
 20
201.1999999999998
 42
-0.4142135623730951
 10
-15.5
 20
205.6999999999998
 10
15.5
 20
205.6999999999998
 42
-0.4142135623730951
 10
20.0
 20
201.1999999999998
 10
20.0
 20
191.6999999999998
 10
19.1880000000001
 20
191.6999999999998
 10
19.1880000000001
 20
178.6999999999998
 10
18.5
 20
178.6999999999998
 10
18.5
 20
201.1999999999998
 42
0.4142135623731117
 10
15.5
 20
204.1999999999998
 10
-15.5
 20
204.1999999999998
 42
0.4142135623731784
 10
-18.50000000000091
 20
201.1999999999998
 10
-18.5
 20
178.6999999999998
 10
-19.18799999999919
 20
178.6999999999998
 10
-19.18799999999919
 20
191.6999999999998
  0
LWPOLYLINE
  5
2E36
330
2E33
100
AcDbEntity
  8
KANAMONO
100
AcDbPolyline
 90
        4
 70
     0
 43
0.0
 10
19.1880000000001
 20
191.6999999999998
 10
20.00000000000091
 20
191.4824252557464
 10
20.0
 20
178.9175747442536
 10
19.1880000000001
 20
178.6999999999998
  0
LINE
  5
2E37
330
2E33
100
AcDbEntity
  8
KANAMONO
370
     5
100
AcDbLine
 10
20.0
 20
194.4999999999995
 30
0.0
 11
18.5
 21
194.4999999999995
 31
0.0
  0
LWPOLYLINE
  5
2E38
330
2E33
100
AcDbEntity
  8
KANAMONO
100
AcDbPolyline
 90
        4
 70
     0
 43
0.0
 10
-19.1880000000001
 20
191.6999999999998
 10
-20.0
 20
191.4824252557464
 10
-20.0
 20
178.9175747442536
 10
-19.1880000000001
 20
178.6999999999998
  0
LINE
  5
2E39
330
2E33
100
AcDbEntity
  8
KANAMONO
370
     5
100
AcDbLine
 10
-18.5
 20
194.4999999999995
 30
0.0
 11
-20.0
 21
194.4999999999995
 31
0.0
  0
LINE
  5
2E3A
330
2E33
100
AcDbEntity
  8
KANAMONO
370
     5
100
AcDbLine
 10
19.80813184570797
 20
202.4999999999995
 30
0.0
 11
18.20370116691993
 21
202.4999999999995
 31
0.0
  0
LINE
  5
2E3B
330
2E33
100
AcDbEntity
  8
KANAMONO
370
     5
100
AcDbLine
 10
-18.20370116691993
 20
202.4999999999995
 30
0.0
 11
-19.80813184570797
 21
202.4999999999995
 31
0.0
  0
LWPOLYLINE
  5
2E3C
330
2E33
100
AcDbEntity
  8
KANAMONO
100
AcDbPolyline
 90
       12
 70
     1
 43
0.0
 10
39.0
 20
56.5
 10
39.0
 20
64.80000000000018
 42
0.4142135623730951
 10
37.30000000000018
 20
66.5
 10
32.35000000000037
 20
66.5
 42
-0.4142135623730951
 10
32.05000000000018
 20
66.80000000000018
 10
32.05000000000018
 20
69.5
 10
31.35000000000037
 20
69.5
 10
31.35000000000037
 20
66.79999999999882
 42
0.4142135623721311
 10
32.34999999999946
 20
65.80000000000018
 10
37.30000000000018
 20
65.79999999999973
 42
-0.4142135623733347
 10
38.30000000000018
 20
64.80000000000018
 10
38.30000000000018
 20
56.5
  0
LWPOLYLINE
  5
2E3D
330
2E33
100
AcDbEntity
  8
KANAMONO
100
AcDbPolyline
 90
        4
 70
     1
 43
0.0
 10
150.0
 20
0.0
 10
150.0
 20
1.5
 10
-150.0
 20
1.5
 10
-150.0
 20
0.0
  0
LINE
  5
2E3E
330
2E33
100
AcDbEntity
  8
KANAMONO
  6
DASHED
100
AcDbLine
 10
-19.85000000000036
 20
145.6415388154046
 30
0.0
 11
-19.85000000000036
 21
1.5
 31
0.0
  0
LINE
  5
2E3F
330
2E33
100
AcDbEntity
  8
KANAMONO
  6
DASHED
100
AcDbLine
 10
19.85000000000036
 20
147.3584611845945
 30
0.0
 11
19.85000000000036
 21
1.5
 31
0.0
  0
LWPOLYLINE
  5
2E40
330
2E33
100
AcDbEntity
  8
KANAMONO
100
AcDbPolyline
 90
        9
 70
     0
 43
0.0
 10
19.85000000000036
 20
147.3584611845945
 10
19.85000000000036
 20
179.0980762113536
 10
19.1880000000001
 20
180.2446938459647
 10
20.0
 20
180.2446938459652
 10
20.0
 20
191.5
 10
20.6880000000001
 20
191.5
 10
20.6880000000001
 20
180.6466176346112
 10
21.35000000000037
 20
179.5
 10
21.35000000000037
 20
1.5
  0
LWPOLYLINE
  5
2E41
330
2E33
100
AcDbEntity
  8
KANAMONO
100
AcDbPolyline
 90
        9
 70
     0
 43
0.0
 10
-19.85000000000036
 20
145.6415388154046
 10
-19.85000000000036
 20
179.0980762113536
 10
-19.18799999999919
 20
180.2446938459647
 10
-20.0
 20
180.2446938459652
 10
-20.0
 20
191.5
 10
-20.6880000000001
 20
191.5
 10
-20.6880000000001
 20
180.6466176346112
 10
-21.35000000000037
 20
179.5
 10
-21.35000000000037
 20
1.5
  0
LWPOLYLINE
  5
2E42
330
2E33
100
AcDbEntity
  8
KANAMONO
100
AcDbPolyline
 90
        4
 70
     0
 43
0.0
 10
20.0
 20
191.5
 10
19.1880000000001
 20
191.2824252557461
 10
19.1880000000001
 20
180.4622685902186
 10
20.0
 20
180.2446938459652
  0
LWPOLYLINE
  5
2E43
330
2E33
100
AcDbEntity
  8
KANAMONO
100
AcDbPolyline
 90
        4
 70
     0
 43
0.0
 10
-20.0
 20
191.5
 10
-19.1880000000001
 20
191.2824252557461
 10
-19.1880000000001
 20
180.4622685902186
 10
-20.0
 20
180.2446938459652
  0
LWPOLYLINE
  5
2E44
330
2E33
100
AcDbEntity
  8
KANAMONO
100
AcDbPolyline
 90
       12
 70
     1
 43
0.0
 10
-39.0
 20
56.5
 10
-39.0
 20
64.80000000000018
 42
-0.4142135623730951
 10
-37.30000000000018
 20
66.5
 10
-32.35000000000037
 20
66.5
 42
0.4142135623730951
 10
-32.05000000000018
 20
66.80000000000018
 10
-32.05000000000018
 20
69.5
 10
-31.35000000000037
 20
69.5
 10
-31.35000000000037
 20
66.79999999999882
 42
-0.4142135623721311
 10
-32.34999999999946
 20
65.80000000000018
 10
-37.30000000000018
 20
65.79999999999973
 42
0.4142135623733347
 10
-38.30000000000018
 20
64.80000000000018
 10
-38.30000000000018
 20
56.5
  0
ELLIPSE
  5
2E45
330
2E33
100
AcDbEntity
  8
KANAMONO
370
     5
100
AcDbEllipse
 10
9.797958971132629
 20
198.5
 30
0.0
 11
-0.000000000000001
 21
-4.0
 31
0.0
210
0.0
220
0.0
230
-1.0
 40
0.8660254037844197
 41
0.0
 42
6.283185307179586
  0
ELLIPSE
  5
2E46
330
2E33
100
AcDbEntity
  8
KANAMONO
370
     5
100
AcDbEllipse
 10
-9.797958971132629
 20
198.5
 30
0.0
 11
-0.000000000000001
 21
-4.0
 31
0.0
210
0.0
220
0.0
230
1.0
 40
0.8660254037844197
 41
0.0
 42
6.283185307179586
  0
LINE
  5
2E47
330
2E33
100
AcDbEntity
  8
KANAMONO
370
     5
100
AcDbLine
 10
-18.5
 20
178.6999999999998
 30
0.0
 11
18.5
 21
178.6999999999998
 31
0.0
  0
ENDBLK
  5
2E49
330
2E33
100
AcDbEntity
  8
0
100
AcDbBlockEnd
  0
ENDSEC
  0
SECTION
  2
ENTITIES
  0
LINE
  5
24F1
330
1F
100
AcDbEntity
  8
KUTAI
100
AcDbLine
 10
2280.000000000001
 20
545.0
 30
0.0
 11
980.0000000000004
 21
545.0
 31
0.0
  0
LINE
  5
24F2
330
1F
100
AcDbEntity
  8
KUTAI
100
AcDbLine
 10
980.0000000000004
 20
545.0
 30
0.0
 11
980.0000000000004
 21
995.0
 31
0.0
  0
LINE
  5
24F4
330
1F
100
AcDbEntity
  8
KUTAI
100
AcDbLine
 10
800.0000000000005
 20
1495.0
 30
0.0
 11
800.0000000000005
 21
695.0000000000002
 31
0.0
  0
LINE
  5
24F5
330
1F
100
AcDbEntity
  8
KUTAI
100
AcDbLine
 10
2280.000000000001
 20
395.0
 30
0.0
 11
980.0000000000004
 21
394.9999999999999
 31
0.0
  0
LINE
  5
2502
330
1F
100
AcDbEntity
  8
BOUSUI
100
AcDbLine
 10
2280.000000000001
 20
547.0
 30
0.0
 11
980.0000000000004
 21
547.0
 31
0.0
  0
LINE
  5
2511
330
1F
100
AcDbEntity
  8
dannnetu
100
AcDbLine
 10
2280.000000000001
 20
582.0
 30
0.0
 11
980.0000000000004
 21
582.0
 31
0.0
  0
TEXT
  5
289F
330
1F
100
AcDbEntity
  8
MOJI
100
AcDbText
 10
1519.257043511062
 20
727.9284873471997
 30
0.0
 40
20.0
  1
防湿層
  7
MSゴシック
 11
1519.257043511062
 21
737.9284873471997
 31
0.0
100
AcDbText
 73
     2
  0
TEXT
  5
28A1
330
1F
100
AcDbEntity
  8
MOJI
100
AcDbText
 10
1542.351054278647
 20
767.9284873471997
 30
0.0
 40
20.0
  1
断熱材：ギルフォーム
  7
MSゴシック
 11
1542.351054278647
 21
777.9284873471997
 31
0.0
100
AcDbText
 73
     2
  0
CIRCLE
  5
28B4
102
{ACAD_REACTORS
330
28B5
102
}
330
1F
100
AcDbEntity
  8
MOJI
100
AcDbCircle
 10
995.6442183584799
 20
600.4646303020172
 30
0.0
 40
4.0
  0
HATCH
  5
28B5
330
1F
100
AcDbEntity
  8
MOJI
100
AcDbHatch
 10
0.0
 20
0.0
 30
0.0
210
0.0
220
0.0
230
1.0
  2
SOLID
 70
     1
 71
     1
 91
        1
 92
        1
 93
        1
 72
     2
 10
995.6442183584799
 20
600.4646303020172
 40
4.0
 50
0.0
 51
360.0
 73
     1
 97
        1
330
28B4
 75
     0
 76
     1
 98
        1
 10
-714.5860671013356
 20
-326.7117434243699
  0
CIRCLE
  5
28B8
102
{ACAD_REACTORS
330
28B9
102
}
330
1F
100
AcDbEntity
  8
MOJI
100
AcDbCircle
 10
1355.555420810982
 20
546.1876523503424
 30
0.0
 40
4.0
  0
HATCH
  5
28B9
330
1F
100
AcDbEntity
  8
MOJI
100
AcDbHatch
 10
0.0
 20
0.0
 30
0.0
210
0.0
220
0.0
230
1.0
  2
SOLID
 70
     1
 71
     1
 91
        1
 92
        1
 93
        1
 72
     2
 10
1355.555420810982
 20
546.1876523503424
 40
4.0
 50
0.0
 51
360.0
 73
     1
 97
        1
330
28B8
 75
     0
 76
     1
 98
        1
 10
-354.6748646488333
 20
-380.9887213760447
  0
CIRCLE
  5
28BA
102
{ACAD_REACTORS
330
28BB
102
}
330
1F
100
AcDbEntity
  8
MOJI
100
AcDbCircle
 10
1365.052693954473
 20
562.6374119682286
 30
0.0
 40
4.0
  0
HATCH
  5
28BB
330
1F
100
AcDbEntity
  8
MOJI
100
AcDbHatch
 10
0.0
 20
0.0
 30
0.0
210
0.0
220
0.0
230
1.0
  2
SOLID
 70
     1
 71
     1
 91
        1
 92
        1
 93
        1
 72
     2
 10
1365.052693954473
 20
562.6374119682286
 40
4.0
 50
0.0
 51
360.0
 73
     1
 97
        1
330
28BA
 75
     0
 76
     1
 98
        1
 10
-345.1775915053415
 20
-364.5389617581586
  0
HATCH
  5
28BD
330
1F
100
AcDbEntity
  8
MOJI
100
AcDbHatch
 10
0.0
 20
0.0
 30
0.0
210
0.0
220
0.0
230
1.0
  2
SOLID
 70
     1
 71
     1
 91
        1
 92
        1
 93
        1
 72
     2
 10
1380.082615662319
 20
588.6700000000001
 40
4.0
 50
0.0
 51
360.0
 73
     1
 97
        1
330
28BE
 75
     0
 76
     1
 98
        1
 10
-330.1476697974961
 20
-338.5063737263872
  0
CIRCLE
  5
28BE
102
{ACAD_REACTORS
330
28BD
102
}
330
1F
100
AcDbEntity
  8
MOJI
100
AcDbCircle
 10
1380.082615662319
 20
588.6700000000001
 30
0.0
 40
4.0
  0
LINE
  5
28BF
330
1F
100
AcDbEntity
  8
MOJI
  6
Continuous
100
AcDbLine
 10
1466.257043511062
 20
737.9284873471997
 30
0.0
 11
1516.257043511062
 21
737.9284873471997
 31
0.0
  0
LINE
  5
28C0
330
1F
100
AcDbEntity
  8
MOJI
  6
Continuous
100
AcDbLine
 10
1489.351054278647
 20
777.9284873471997
 30
0.0
 11
1539.351054278647
 21
777.9284873471997
 31
0.0
  0
CIRCLE
  5
28C1
102
{ACAD_REACTORS
330
28C2
102
}
330
1F
100
AcDbEntity
  8
MOJI
100
AcDbCircle
 10
991.1599031707023
 20
1165.913425512951
 30
0.0
 40
4.0
  0
HATCH
  5
28C2
330
1F
100
AcDbEntity
  8
MOJI
100
AcDbHatch
 10
0.0
 20
0.0
 30
0.0
210
0.0
220
0.0
230
1.0
  2
SOLID
 70
     1
 71
     1
 91
        1
 92
        1
 93
        1
 72
     2
 10
991.1599031707023
 20
1165.913425512951
 40
4.0
 50
0.0
 51
360.0
 73
     1
 97
        1
330
28C1
 75
     0
 76
     1
 98
        1
 10
-719.0703822891132
 20
238.7370517865643
  0
TEXT
  5
28CA
330
1F
100
AcDbEntity
  8
MOJI
100
AcDbText
 10
586.0081213952371
 20
987.2513428483712
 30
0.0
 40
20.0
  1
（室内）
  7
MSゴシック
100
AcDbText
  0
CIRCLE
  5
28CB
102
{ACAD_REACTORS
330
28CC
102
}
330
1F
100
AcDbEntity
  8
MOJI
100
AcDbCircle
 10
983.6266799606605
 20
950.4903775458515
 30
0.0
 40
4.0
  0
HATCH
  5
28CC
330
1F
100
AcDbEntity
  8
MOJI
100
AcDbHatch
 10
0.0
 20
0.0
 30
0.0
210
0.0
220
0.0
230
1.0
  2
SOLID
 70
     1
 71
     1
 91
        1
 92
        1
 93
        1
 72
     2
 10
983.6266799606605
 20
950.4903775458515
 40
4.0
 50
0.0
 51
360.0
 73
     1
 97
        1
330
28CB
 75
     0
 76
     1
 98
        1
 10
-726.6036054991546
 20
23.31400381946469
  0
TEXT
  5
28D0
330
1F
100
AcDbEntity
  8
MOJI
100
AcDbText
 10
1140.022096827772
 20
1119.576492829452
 30
0.0
 40
20.0
  1
強力ガムシール
  7
MSゴシック
 11
1140.022096827772
 21
1129.576492829452
 31
0.0
100
AcDbText
 73
     2
  0
TEXT
  5
28D1
330
1F
100
AcDbEntity
  8
MOJI
100
AcDbText
 10
1167.904475608492
 20
1091.11219224883
 30
0.0
 40
20.0
  1
フラッシュトップ６０
  7
MSゴシック
 11
1167.904475608492
 21
1101.11219224883
 31
0.0
100
AcDbText
 73
     2
  0
CIRCLE
  5
28D3
102
{ACAD_REACTORS
330
28D4
102
}
330
1F
100
AcDbEntity
  8
MOJI
100
AcDbCircle
 10
1011.50905874138
 20
922.0260769652295
 30
0.0
 40
4.0
  0
HATCH
  5
28D4
330
1F
100
AcDbEntity
  8
MOJI
100
AcDbHatch
 10
0.0
 20
0.0
 30
0.0
210
0.0
220
0.0
230
1.0
  2
SOLID
 70
     1
 71
     1
 91
        1
 92
        1
 93
        1
 72
     2
 10
1011.50905874138
 20
922.0260769652295
 40
4.0
 50
0.0
 51
360.0
 73
     1
 97
        1
330
28D3
 75
     0
 76
     1
 98
        1
 10
-698.7212267184349
 20
-5.150296761157278
  0
TEXT
  5
28D5
330
1F
100
AcDbEntity
  8
MOJI
100
AcDbText
 10
1114.23408101152
 20
1253.548393563798
 30
0.0
 40
20.0
  1
打増し
  7
MSゴシック
 11
1114.23408101152
 21
1263.548393563798
 31
0.0
100
AcDbText
 73
     2
  0
TEXT
  5
28D6
330
1F
100
AcDbEntity
  8
MOJI
100
AcDbText
 10
1114.23408101152
 20
1277.285461831864
 30
0.0
 40
20.0
  1
コンクリート
  7
MSゴシック
 11
1114.23408101152
 21
1287.285461831865
 31
0.0
100
AcDbText
 73
     2
  0
TEXT
  5
28E4
330
1F
100
AcDbEntity
  8
MOJI
100
AcDbText
 10
1967.856356867981
 20
836.3458897125569
 30
0.0
 40
20.0
  1
ステンレスベーパスW
  7
MSゴシック
 11
1967.856356867981
 21
846.3458897125569
 31
0.0
100
AcDbText
 73
     2
  0
HATCH
  5
28E8
330
1F
100
AcDbEntity
  8
MOJI
100
AcDbHatch
 10
0.0
 20
0.0
 30
0.0
210
0.0
220
0.0
230
1.0
  2
SOLID
 70
     1
 71
     1
 91
        1
 92
        1
 93
        1
 72
     2
 10
1947.965021730445
 20
789.0
 40
4.0
 50
0.0
 51
360.0
 73
     1
 97
        1
330
28E9
 75
     0
 76
     1
 98
        1
 10
237.7347362706296
 20
-138.1763737263868
  0
CIRCLE
  5
28E9
102
{ACAD_REACTORS
330
28E8
102
}
330
1F
100
AcDbEntity
  8
MOJI
100
AcDbCircle
 10
1947.965021730445
 20
789.0
 30
0.0
 40
4.0
  0
LINE
  5
28EA
330
1F
100
AcDbEntity
  8
MOJI
100
AcDbLine
 10
2044.638020414542
 20
993.6268308030003
 30
0.0
 11
1916.259188110158
 21
1022.132926867729
 31
0.0
  0
LINE
  5
28EB
330
1F
100
AcDbEntity
  8
MOJI
100
AcDbLine
 10
1916.259188110158
 20
993.6268308030003
 30
0.0
 11
2044.638020414542
 21
993.6268308030003
 31
0.0
  0
LINE
  5
28EC
330
1F
100
AcDbEntity
  8
MOJI
100
AcDbLine
 10
1916.259188110158
 20
1022.132926867729
 30
0.0
 11
1916.259188110158
 21
993.6268308030003
 31
0.0
  0
TEXT
  5
28ED
330
1F
100
AcDbEntity
  8
MOJI
100
AcDbText
 10
1937.644626827719
 20
963.3592397906186
 30
0.0
 40
20.0
  1
水勾配
  7
MSゴシック
100
AcDbText
  0
TEXT
  5
28EE
330
1F
100
AcDbEntity
  8
MOJI
100
AcDbText
 10
1976.977535232876
 20
1024.677951508643
 30
0.0
 40
20.0
  1
1/50～1/20
  7
MSゴシック
100
AcDbText
  0
LINE
  5
2960
330
1F
100
AcDbEntity
  8
BOUSUI
100
AcDbLine
 10
990.0023456262903
 20
944.9999999999986
 30
0.0
 11
979.9983456262905
 21
944.9999999999986
 31
0.0
  0
LINE
  5
2A0D
330
1F
100
AcDbEntity
  8
KUTAI
100
AcDbLine
 10
580.0000000000004
 20
545.0000000000001
 30
0.0
 11
580.0000000000003
 21
295.0
 31
0.0
  0
LINE
  5
2A0E
330
1F
100
AcDbEntity
  8
KUTAI
100
AcDbLine
 10
980.0000000000004
 20
394.9999999999999
 30
0.0
 11
980.0000000000004
 21
294.9999999999999
 31
0.0
  0
LINE
  5
2A0F
330
1F
100
AcDbEntity
  8
KUTAI
100
AcDbLine
 10
580.0000000000004
 20
545.0000000000001
 30
0.0
 11
480.0000000000002
 21
545.0000000000001
 31
0.0
  0
LINE
  5
2A10
330
1F
100
AcDbEntity
  8
KUTAI
100
AcDbLine
 10
800.0000000000005
 20
695.0000000000002
 30
0.0
 11
480.0000000000002
 21
695.0000000000002
 31
0.0
  0
LINE
  5
2A14
330
1F
100
AcDbEntity
  8
KUTAI
100
AcDbLine
 10
980.0000000000004
 20
995.0
 30
0.0
 11
1000.0
 21
995.0
 31
0.0
  0
LINE
  5
2A15
330
1F
100
AcDbEntity
  8
KUTAI
100
AcDbLine
 10
1000.0
 20
995.0
 30
0.0
 11
1000.0
 21
1495.0
 31
0.0
  0
ARC
  5
2B4B
330
1F
100
AcDbEntity
  8
BOUSUI
100
AcDbCircle
 10
978.3110113383965
 20
919.7775283459897
 30
0.0
 40
33.26537697818158
100
AcDbArc
 50
49.30752076648823
 51
87.08966026080913
  0
LINE
  5
2BD1
330
1F
100
AcDbEntity
  8
BOUSUI
100
AcDbLine
 10
2280.000000000001
 20
592.0
 30
0.0
 11
2001.350000000001
 21
592.0
 31
0.0
  0
LINE
  5
2CAE
330
1F
100
AcDbEntity
  8
KUTAI
  6
DASHED
100
AcDbLine
 10
980.0000000000004
 20
995.0
 30
0.0
 11
980.0000000000002
 21
1495.0
 31
0.0
  0
LINE
  5
2DF0
330
1F
100
AcDbEntity
  8
HATCH
100
AcDbLine
 10
800.0000000000005
 20
1249.999999088009
 30
0.0
 11
1000.0
 21
1449.999999088008
 31
0.0
  0
LINE
  5
2DF1
330
1F
100
AcDbEntity
  8
HATCH
100
AcDbLine
 10
800.0000000000005
 20
1239.999999088009
 30
0.0
 11
1000.0
 21
1439.999999088009
 31
0.0
  0
LINE
  5
2DF2
330
1F
100
AcDbEntity
  8
HATCH
100
AcDbLine
 10
800.0000000000005
 20
1229.999999088009
 30
0.0
 11
1000.0
 21
1429.999999088009
 31
0.0
  0
LINE
  5
2DF6
330
1F
100
AcDbEntity
  8
HATCH
100
AcDbLine
 10
845.0000009119916
 20
295.0
 30
0.0
 11
1095.000000911992
 21
545.0
 31
0.0
  0
LINE
  5
2DF7
330
1F
100
AcDbEntity
  8
HATCH
100
AcDbLine
 10
855.0000009119917
 20
295.0
 30
0.0
 11
1105.000000911992
 21
545.0
 31
0.0
  0
LINE
  5
2DF8
330
1F
100
AcDbEntity
  8
HATCH
100
AcDbLine
 10
865.0000009119917
 20
295.0
 30
0.0
 11
1115.000000911992
 21
545.0
 31
0.0
  0
LINE
  5
2E02
330
1F
100
AcDbEntity
  8
HATCH
100
AcDbLine
 10
800.0000000000005
 20
749.9999990880086
 30
0.0
 11
980.0000000000004
 21
929.9999990880085
 31
0.0
  0
LINE
  5
2E03
330
1F
100
AcDbEntity
  8
HATCH
100
AcDbLine
 10
800.0000000000005
 20
729.9999990880086
 30
0.0
 11
980.0000000000004
 21
909.9999990880085
 31
0.0
  0
LINE
  5
2E04
330
1F
100
AcDbEntity
  8
HATCH
100
AcDbLine
 10
800.0000000000005
 20
739.9999990880086
 30
0.0
 11
980.0000000000004
 21
919.9999990880085
 31
0.0
  0
LINE
  5
2E05
330
1F
100
AcDbEntity
  8
HATCH
100
AcDbLine
 10
580.0000000000004
 20
519.9999990880087
 30
0.0
 11
755.000000911992
 21
695.0000000000002
 31
0.0
  0
LINE
  5
2E06
330
1F
100
AcDbEntity
  8
HATCH
100
AcDbLine
 10
580.0000000000004
 20
529.9999990880087
 30
0.0
 11
745.000000911992
 21
695.0000000000002
 31
0.0
  0
LINE
  5
2E07
330
1F
100
AcDbEntity
  8
HATCH
100
AcDbLine
 10
580.0000000000004
 20
509.9999990880087
 30
0.0
 11
765.0000009119921
 21
695.0000000000002
 31
0.0
  0
LINE
  5
2E08
330
1F
100
AcDbEntity
  8
HATCH
100
AcDbLine
 10
1465.000000911991
 20
394.9999999999998
 30
0.0
 11
1615.000000911991
 21
545.0
 31
0.0
  0
LINE
  5
2E09
330
1F
100
AcDbEntity
  8
HATCH
100
AcDbLine
 10
1445.000000911991
 20
394.9999999999998
 30
0.0
 11
1595.000000911991
 21
545.0
 31
0.0
  0
LINE
  5
2E0A
330
1F
100
AcDbEntity
  8
HATCH
100
AcDbLine
 10
1455.000000911991
 20
394.9999999999998
 30
0.0
 11
1605.000000911991
 21
545.0
 31
0.0
  0
LINE
  5
2E0B
330
1F
100
AcDbEntity
  8
HATCH
100
AcDbLine
 10
1965.000000911992
 20
394.9999999999999
 30
0.0
 11
2115.000000911992
 21
545.0
 31
0.0
  0
LINE
  5
2E0C
330
1F
100
AcDbEntity
  8
HATCH
100
AcDbLine
 10
1955.000000911992
 20
394.9999999999999
 30
0.0
 11
2105.000000911992
 21
545.0
 31
0.0
  0
LINE
  5
2E0D
330
1F
100
AcDbEntity
  8
HATCH
100
AcDbLine
 10
1945.000000911992
 20
394.9999999999999
 30
0.0
 11
2095.000000911992
 21
545.0
 31
0.0
  0
LINE
  5
303B
330
1F
100
AcDbEntity
  8
0
100
AcDbLine
 10
0.0
 20
1849.999999999998
 30
0.0
 11
2760.000000000001
 21
1849.999999999995
 31
0.0
  0
TEXT
  5
303C
330
1F
100
AcDbEntity
  8
WAKU
100
AcDbText
 10
2608.553299492387
 20
1860.0
 30
0.0
 40
30.0
  1
asr-1-5
  7
MSゴシック
 72
     2
 11
2745.000000000001
 21
1860.0
 31
0.0
100
AcDbText
  0
TEXT
  5
303E
330
1F
100
AcDbEntity
  8
WAKU
100
AcDbText
 10
15.0
 20
1860.0
 30
0.0
 40
40.0
  1
アスファルト防水／露出仕上げ
  7
MSゴシック
100
AcDbText
  0
TEXT
  5
303F
330
1F
100
AcDbEntity
  8
WAKU
100
AcDbText
 10
15.0
 20
1800.000000000004
 30
0.0
 40
30.0
  1
一般部／壁立上り／アルミ水切／断熱
  7
MSゴシック
100
AcDbText
  0
TEXT
  5
3040
330
1F
100
AcDbEntity
  8
WAKU
100
AcDbText
 10
2589.060913705585
 20
1800.000000000005
 30
0.0
 40
30.0
  1
1/10(A4)
  7
MSゴシック
 72
     2
 11
2745.000000000001
 21
1800.000000000005
 31
0.0
100
AcDbText
  0
TEXT
  5
325D
330
1F
100
AcDbEntity
  8
MOJI
100
AcDbText
 10
480.0
 20
265.0
 30
0.0
 40
20.0
  1
※こちらの図は熱工法とストライプ工法の場合の形状です。その他の工法については出入隅の形状等一部が異なります。
  7
MSゴシック
 11
480.0
 21
275.0
 31
0.0
100
AcDbText
 73
     2
  0
TEXT
  5
32E1
330
1F
100
AcDbEntity
  8
MOJI
100
AcDbText
 10
1151.963924743991
 20
769.4196111848209
 30
0.0
 40
20.0
  1
ギルキャント
  7
MSゴシック
 11
1151.963924743991
 21
779.4196111848209
 31
0.0
100
AcDbText
 73
     2
  0
TEXT
  5
32E3
330
1F
100
AcDbEntity
  8
MOJI
100
AcDbText
 10
1565.445065046232
 20
807.9284873471998
 30
0.0
 40
20.0
  1
アスファルト防水層
  7
MSゴシック
 11
1565.445065046232
 21
817.9284873471997
 31
0.0
100
AcDbText
 73
     2
  0
LINE
  5
3779
330
1F
100
AcDbEntity
  8
0
100
AcDbLine
 10
480.0000000000002
 20
295.0
 30
0.0
 11
2280.000000000001
 21
295.0
 31
0.0
  0
LINE
  5
377A
330
1F
100
AcDbEntity
  8
0
100
AcDbLine
 10
2280.000000000001
 20
295.0
 30
0.0
 11
2280.000000000001
 21
1495.0
 31
0.0
  0
LINE
  5
377B
330
1F
100
AcDbEntity
  8
0
100
AcDbLine
 10
2280.000000000001
 20
1495.0
 30
0.0
 11
480.0000000000002
 21
1495.0
 31
0.0
  0
LINE
  5
377C
330
1F
100
AcDbEntity
  8
0
100
AcDbLine
 10
480.0000000000002
 20
1495.0
 30
0.0
 11
480.0000000000002
 21
295.0
 31
0.0
  0
LINE
  5
377D
330
1F
100
AcDbEntity
  8
dannnetu
100
AcDbLine
 10
980.0000000000004
 20
631.4974746830582
 30
0.0
 11
1029.497474683059
 21
582.0
 31
0.0
  0
LINE
  5
377E
330
1F
100
AcDbEntity
  8
dannnetu
100
AcDbLine
 10
1029.497474683059
 20
582.0
 30
0.0
 11
994.1421356237315
 21
582.0
 31
0.0
  0
LINE
  5
377F
330
1F
100
AcDbEntity
  8
dannnetu
100
AcDbLine
 10
994.1421356237315
 20
582.0
 30
0.0
 11
980.0000000000004
 21
596.142135623731
 31
0.0
  0
LINE
  5
3780
330
1F
100
AcDbEntity
  8
dannnetu
100
AcDbLine
 10
980.0000000000004
 20
596.142135623731
 30
0.0
 11
980.0000000000004
 21
631.4974746830582
 31
0.0
  0
LINE
  5
3781
330
1F
100
AcDbEntity
  8
HATCH
  6
Continuous
100
AcDbLine
 10
980.0000000000007
 20
622.4738530943406
 30
0.0
 11
984.5118107943596
 21
626.9856638886993
 31
0.0
  0
LINE
  5
3782
330
1F
100
AcDbEntity
  8
HATCH
  6
Continuous
100
AcDbLine
 10
980.0000000000006
 20
609.0034689127366
 30
0.0
 11
991.2470028851613
 21
620.2504717978975
 31
0.0
  0
LINE
  5
3783
330
1F
100
AcDbEntity
  8
HATCH
  6
Continuous
100
AcDbLine
 10
980.3045254462997
 20
595.837610177432
 30
0.0
 11
997.9821949759632
 21
613.5152797070956
 31
0.0
  0
LINE
  5
3784
330
1F
100
AcDbEntity
  8
HATCH
  6
Continuous
100
AcDbLine
 10
987.0397175371016
 20
589.1024180866302
 30
0.0
 11
1004.717387066765
 21
606.7800876162936
 31
0.0
  0
LINE
  5
3785
330
1F
100
AcDbEntity
  8
HATCH
  6
Continuous
100
AcDbLine
 10
993.7749096279034
 20
582.3672259958284
 30
0.0
 11
1011.452579157567
 21
600.0448955254921
 31
0.0
  0
LINE
  5
3786
330
1F
100
AcDbEntity
  8
HATCH
  6
Continuous
100
AcDbLine
 10
1006.878067813679
 20
582.0000000000002
 30
0.0
 11
1018.187771248369
 21
593.30970343469
 31
0.0
  0
LINE
  5
3787
330
1F
100
AcDbEntity
  8
HATCH
  6
Continuous
100
AcDbLine
 10
1020.348451995283
 20
582.0000000000002
 30
0.0
 11
1024.922963339171
 21
586.5745113438881
 31
0.0
  0
LINE
  5
3788
330
1F
100
AcDbEntity
  8
HATCH
  6
Continuous
100
AcDbLine
 10
998.5018645165038
 20
581.9999999999997
 30
0.0
 11
980.0000000000004
 21
600.5018645165031
 31
0.0
  0
LINE
  5
3789
330
1F
100
AcDbEntity
  8
HATCH
  6
Continuous
100
AcDbLine
 10
1011.972248698107
 20
581.9999999999999
 30
0.0
 11
980.0000000000004
 21
613.9722486981069
 31
0.0
  0
LINE
  5
378A
330
1F
100
AcDbEntity
  8
HATCH
  6
Continuous
100
AcDbLine
 10
1025.442632879711
 20
581.9999999999999
 30
0.0
 11
980.0000000000004
 21
627.4426328797106
 31
0.0
  0
LINE
  5
378B
330
1F
100
AcDbEntity
  8
sunpo
100
AcDbLine
 10
800.0000000000005
 20
779.6809383784814
 30
0.0
 11
800.0000000000005
 21
757.4024026202141
 31
0.0
  0
LINE
  5
378C
330
1F
100
AcDbEntity
  8
sunpo
100
AcDbLine
 10
980.0000000000004
 20
779.6809383784814
 30
0.0
 11
980.0000000000004
 21
757.4024026202141
 31
0.0
  0
LINE
  5
378D
330
1F
100
AcDbEntity
  8
sunpo
100
AcDbLine
 10
808.0000000000005
 20
757.4024026202141
 30
0.0
 11
972.0000000000004
 21
757.4024026202141
 31
0.0
  0
MTEXT
  5
378E
330
1F
100
AcDbEntity
  8
sunpo
100
AcDbMText
 10
889.4812711233049
 20
773.2818169543215
 30
0.0
 40
20.0
 41
0.0
 71
     5
 72
     1
  1
\A1;≧180
  7
MSゴシック
 73
     1
 44
1.0
1001
ACAD
1000
MTEXTBEGIN
1070
    73
1070
     1
1070
    44
1040
1.0
1070
    74
1070
     0
1000
MTEXTEND
  0
INSERT
  5
378F
330
1F
100
AcDbEntity
  8
sunpo
100
AcDbBlockReference
  2
_DOT
 10
800.0000000000005
 20
757.4024026202141
 30
0.0
 41
8.0
 42
8.0
 43
8.0
 50
180.0
  0
INSERT
  5
3790
330
1F
100
AcDbEntity
  8
sunpo
100
AcDbBlockReference
  2
_DOT
 10
980.0000000000004
 20
757.4024026202141
 30
0.0
 41
8.0
 42
8.0
 43
8.0
  0
LINE
  5
3791
330
1F
100
AcDbEntity
  8
sunpo
100
AcDbLine
 10
980.0000000000004
 20
779.6809383784814
 30
0.0
 11
980.0000000000004
 21
757.4024026202141
 31
0.0
  0
LINE
  5
3792
330
1F
100
AcDbEntity
  8
sunpo
100
AcDbLine
 10
990.0000000000003
 20
779.6809383784814
 30
0.0
 11
990.0000000000003
 21
757.4024026202141
 31
0.0
  0
LINE
  5
3793
330
1F
100
AcDbEntity
  8
sunpo
100
AcDbLine
 10
972.0000000000004
 20
757.4024026202141
 30
0.0
 11
964.0000000000004
 21
757.4024026202141
 31
0.0
  0
LINE
  5
3794
330
1F
100
AcDbEntity
  8
sunpo
100
AcDbLine
 10
998.0000000000003
 20
757.4024026202141
 30
0.0
 11
1006.0
 21
757.4024026202141
 31
0.0
  0
MTEXT
  5
3795
330
1F
100
AcDbEntity
  8
sunpo
100
AcDbMText
 10
958.5813232888881
 20
773.2818169543215
 30
0.0
 40
20.0
 41
0.0
 71
     5
 72
     1
  1
\A1;10
  7
MSゴシック
 73
     1
 44
1.0
1001
ACAD
1000
MTEXTBEGIN
1070
    73
1070
     1
1070
    44
1040
1.0
1070
    74
1070
     0
1000
MTEXTEND
  0
LINE
  5
3796
330
1F
100
AcDbEntity
  8
sunpo
100
AcDbLine
 10
980.0000000000004
 20
757.4024026202141
 30
0.0
 11
990.0000000000003
 21
757.4024026202141
 31
0.0
  0
INSERT
  5
3797
330
1F
100
AcDbEntity
  8
sunpo
100
AcDbBlockReference
  2
_DOT
 10
980.0000000000004
 20
757.4024026202141
 30
0.0
 41
8.0
 42
8.0
 43
8.0
  0
INSERT
  5
3798
330
1F
100
AcDbEntity
  8
sunpo
100
AcDbBlockReference
  2
_DOT
 10
990.0000000000003
 20
757.4024026202141
 30
0.0
 41
8.0
 42
8.0
 43
8.0
 50
180.0
  0
LINE
  5
3799
330
1F
100
AcDbEntity
  8
sunpo
 48
0.5
100
AcDbLine
 10
795.000000000001
 20
592.0000000000002
 30
0.0
 11
686.645540522207
 21
592.0
 31
0.0
  0
LINE
  5
379A
330
1F
100
AcDbEntity
  8
sunpo
 48
0.5
100
AcDbLine
 10
795.000000000001
 20
945.0000000000004
 30
0.0
 11
686.6455405222069
 21
945.0000000000002
 31
0.0
  0
LINE
  5
379B
330
1F
100
AcDbEntity
  8
sunpo
 48
0.5
100
AcDbLine
 10
686.645540522207
 20
600.0
 30
0.0
 11
686.6455405222069
 21
937.0000000000002
 31
0.0
  0
INSERT
  5
379C
330
1F
100
AcDbEntity
  8
sunpo
 48
0.5
100
AcDbBlockReference
  2
_DOT
 10
686.645540522207
 20
592.0
 30
0.0
 41
8.0
 42
8.0
 43
8.0
 50
270.0
  0
INSERT
  5
379D
330
1F
100
AcDbEntity
  8
sunpo
 48
0.5
100
AcDbBlockReference
  2
_DOT
 10
686.6455405222069
 20
945.0000000000002
 30
0.0
 41
8.0
 42
8.0
 43
8.0
 50
90.0
  0
MTEXT
  5
379E
330
1F
100
AcDbEntity
  8
sunpo
 48
0.5
100
AcDbMText
 10
674.1734593039329
 20
768.5
 30
0.0
 40
20.0
 41
0.0
 71
     5
 72
     1
  1
\A1;150以上（水上）
  7
MSゴシック
 11
0.0000000000000001
 21
1.0
 31
0.0
 73
     1
 44
1.0
1001
ACAD
1000
MTEXTBEGIN
1070
    73
1070
     1
1070
    44
1040
1.0
1070
    74
1070
     0
1000
MTEXTEND
  0
LINE
  5
379F
330
1F
100
AcDbEntity
  8
MOJI
100
AcDbLine
 10
1148.963924743991
 20
779.4196111848209
 30
0.0
 11
1098.963924743991
 21
779.4196111848209
 31
0.0
  0
LINE
  5
37A0
330
1F
100
AcDbEntity
  8
MOJI
100
AcDbLine
 10
1098.963924743991
 20
779.4196111848209
 30
0.0
 11
995.6442183584799
 21
600.4646303020172
 31
0.0
  0
LINE
  5
37A1
330
1F
100
AcDbEntity
  8
MOJI
100
AcDbLine
 10
1562.445065046232
 20
817.9284873471997
 30
0.0
 11
1512.445065046232
 21
817.9284873471997
 31
0.0
  0
LINE
  5
37A2
330
1F
100
AcDbEntity
  8
MOJI
100
AcDbLine
 10
1512.445065046232
 20
817.9284873471997
 30
0.0
 11
1355.555420810982
 21
546.1876523503424
 31
0.0
  0
ARC
  5
37A3
330
1F
100
AcDbEntity
  8
MOJI
  6
ByBlock
 62
     0
100
AcDbCircle
 10
1380.082615662319
 20
588.6699999999998
 30
0.0
 40
1.999999999999967
100
AcDbArc
 50
59.99999999999946
 51
239.9999999999995
  0
ARC
  5
37A4
330
1F
100
AcDbEntity
  8
MOJI
  6
ByBlock
 62
     0
100
AcDbCircle
 10
1380.082615662319
 20
588.6699999999998
 30
0.0
 40
1.999999999999967
100
AcDbArc
 50
239.9999999999995
 51
59.99999999999946
  0
ARC
  5
37A5
330
1F
100
AcDbEntity
  8
MOJI
  6
ByBlock
 62
     0
100
AcDbCircle
 10
1365.052693954473
 20
562.6374119682284
 30
0.0
 40
1.999999999999967
100
AcDbArc
 50
59.99999999999946
 51
239.9999999999995
  0
ARC
  5
37A6
330
1F
100
AcDbEntity
  8
MOJI
  6
ByBlock
 62
     0
100
AcDbCircle
 10
1365.052693954473
 20
562.6374119682284
 30
0.0
 40
1.999999999999967
100
AcDbArc
 50
239.9999999999995
 51
59.99999999999946
  0
LINE
  5
37A7
330
1F
100
AcDbEntity
  8
MOJI
100
AcDbLine
 10
1137.022096827771
 20
1129.576492829452
 30
0.0
 11
1087.022096827771
 21
1129.576492829452
 31
0.0
  0
LINE
  5
37A8
330
1F
100
AcDbEntity
  8
MOJI
100
AcDbLine
 10
1087.022096827771
 20
1129.576492829452
 30
0.0
 11
983.6266799606605
 21
950.4903775458515
 31
0.0
  0
LINE
  5
37A9
330
1F
100
AcDbEntity
  8
MOJI
100
AcDbLine
 10
1111.23408101152
 20
1287.285461831865
 30
0.0
 11
1061.23408101152
 21
1287.285461831865
 31
0.0
  0
LINE
  5
37AA
330
1F
100
AcDbEntity
  8
MOJI
100
AcDbLine
 10
1061.23408101152
 20
1287.285461831865
 30
0.0
 11
991.1599031707023
 21
1165.913425512951
 31
0.0
  0
LINE
  5
37AB
330
1F
100
AcDbEntity
  8
MOJI
100
AcDbLine
 10
1164.904475608492
 20
1101.11219224883
 30
0.0
 11
1114.904475608492
 21
1101.11219224883
 31
0.0
  0
LINE
  5
37AC
330
1F
100
AcDbEntity
  8
MOJI
100
AcDbLine
 10
1114.904475608492
 20
1101.11219224883
 30
0.0
 11
1011.50905874138
 21
922.0260769652295
 31
0.0
  0
LINE
  5
37AD
330
1F
100
AcDbEntity
  8
sunpo
100
AcDbLine
 10
2018.500000000002
 20
789.0000000000005
 30
0.0
 11
2212.505247813659
 21
789.0000000000005
 31
0.0
  0
LINE
  5
37AE
330
1F
100
AcDbEntity
  8
sunpo
100
AcDbLine
 10
2140.000000000002
 20
584.0000000000002
 30
0.0
 11
2212.505247813659
 21
584.0000000000002
 31
0.0
  0
LINE
  5
37AF
330
1F
100
AcDbEntity
  8
sunpo
100
AcDbLine
 10
2212.505247813659
 20
781.0000000000004
 30
0.0
 11
2212.505247813659
 21
592.0000000000002
 31
0.0
  0
INSERT
  5
37B0
330
1F
100
AcDbEntity
  8
sunpo
100
AcDbBlockReference
  2
_DOT
 10
2212.505247813659
 20
789.0000000000005
 30
0.0
 41
8.0
 42
8.0
 43
8.0
 50
90.0
  0
INSERT
  5
37B1
330
1F
100
AcDbEntity
  8
sunpo
100
AcDbBlockReference
  2
_DOT
 10
2212.505247813659
 20
584.0000000000002
 30
0.0
 41
8.0
 42
8.0
 43
8.0
 50
270.0
  0
MTEXT
  5
37B2
330
1F
100
AcDbEntity
  8
sunpo
100
AcDbMText
 10
2223.505247813659
 20
686.4999999999996
 30
0.0
 40
20.0
 41
0.0
 71
     5
 72
     1
  1
\A1;205
  7
MSゴシック
 11
0.0000000000000001
 21
1.0
 31
0.0
 73
     1
 44
1.0
1001
ACAD
1000
MTEXTBEGIN
1070
    73
1070
     1
1070
    44
1040
1.0
1070
    74
1070
     0
1000
MTEXTEND
  0
LINE
  5
37B3
330
1F
100
AcDbEntity
  8
MOJI
100
AcDbLine
 10
1964.856356867982
 20
846.3458897125569
 30
0.0
 11
1914.856356867982
 21
846.3458897125569
 31
0.0
  0
LINE
  5
37B4
330
1F
100
AcDbEntity
  8
MOJI
100
AcDbLine
 10
1914.856356867982
 20
846.3458897125569
 30
0.0
 11
1947.965021730445
 21
789.0
 31
0.0
  0
ARC
  5
37B5
330
1F
100
AcDbEntity
  8
KANAMONO
100
AcDbCircle
 10
1010.7
 20
899.9999999999998
 30
0.0
 40
0.5
100
AcDbArc
 50
90.0
 51
180.0
  0
LINE
  5
37B6
330
1F
100
AcDbEntity
  8
KANAMONO
100
AcDbLine
 10
1010.2
 20
899.9999999999998
 30
0.0
 11
1010.2
 21
899.4433756729739
 31
0.0
  0
ARC
  5
37B7
330
1F
100
AcDbEntity
  8
KANAMONO
100
AcDbCircle
 10
1010.7
 20
899.4433756729739
 30
0.0
 40
0.5
100
AcDbArc
 50
180.0
 51
240.0000000000027
  0
LINE
  5
37B8
330
1F
100
AcDbEntity
  8
KANAMONO
100
AcDbLine
 10
1010.45
 20
899.0103629710816
 30
0.0
 11
1010.522949016875
 21
898.9682458365518
 31
0.0
  0
ARC
  5
37B9
330
1F
100
AcDbEntity
  8
KANAMONO
100
AcDbCircle
 10
1010.772949016875
 20
899.4012585384441
 30
0.0
 40
0.500000000000041
100
AcDbArc
 50
240.0000000000027
 51
315.522487814065
  0
ARC
  5
37BA
330
1F
100
AcDbEntity
  8
KANAMONO
100
AcDbCircle
 10
1012.2
 20
897.9999999999998
 30
0.0
 40
1.500000000000033
100
AcDbArc
 50
224.4775121859288
 51
135.5224878140711
  0
ARC
  5
37BB
330
1F
100
AcDbEntity
  8
KANAMONO
100
AcDbCircle
 10
1010.772949016875
 20
896.5987414615558
 30
0.0
 40
0.4999999999999846
100
AcDbArc
 50
44.47751218592575
 51
120.0000000000038
  0
LINE
  5
37BC
330
1F
100
AcDbEntity
  8
KANAMONO
100
AcDbLine
 10
1010.522949016875
 20
897.031754163448
 30
0.0
 11
1010.45
 21
896.9896370289179
 31
0.0
  0
ARC
  5
37BD
330
1F
100
AcDbEntity
  8
KANAMONO
100
AcDbCircle
 10
1010.7
 20
896.5566243270258
 30
0.0
 40
0.4999999999999426
100
AcDbArc
 50
120.0000000000038
 51
180.0
  0
LINE
  5
37BE
330
1F
100
AcDbEntity
  8
KANAMONO
100
AcDbLine
 10
1010.2
 20
896.5566243270258
 30
0.0
 11
1010.2
 21
895.9999999999999
 31
0.0
  0
ARC
  5
37BF
330
1F
100
AcDbEntity
  8
KANAMONO
100
AcDbCircle
 10
1010.7
 20
895.9999999999999
 30
0.0
 40
0.5
100
AcDbArc
 50
180.0
 51
270.0
  0
LINE
  5
37C0
330
1F
100
AcDbEntity
  8
KANAMONO
100
AcDbLine
 10
1010.7
 20
895.4999999999998
 30
0.0
 11
1013.7
 21
895.4999999999998
 31
0.0
  0
LINE
  5
37C1
330
1F
100
AcDbEntity
  8
KANAMONO
100
AcDbLine
 10
1013.7
 20
895.4999999999998
 30
0.0
 11
1013.7
 21
894.9999999999999
 31
0.0
  0
LINE
  5
37C2
330
1F
100
AcDbEntity
  8
KANAMONO
100
AcDbLine
 10
1013.7
 20
894.9999999999999
 30
0.0
 11
1015.0
 21
894.9999999999999
 31
0.0
  0
LINE
  5
37C3
330
1F
100
AcDbEntity
  8
KANAMONO
100
AcDbLine
 10
1015.0
 20
894.9999999999999
 30
0.0
 11
1015.0
 21
955.0
 31
0.0
  0
LINE
  5
37C4
330
1F
100
AcDbEntity
  8
KANAMONO
100
AcDbLine
 10
1015.0
 20
955.0
 30
0.0
 11
989.4823619097953
 21
961.8374305190199
 31
0.0
  0
ARC
  5
37C5
330
1F
100
AcDbEntity
  8
KANAMONO
100
AcDbCircle
 10
990.0000000000003
 20
963.7692821715981
 30
0.0
 40
1.999999999999921
100
AcDbArc
 50
180.0000000000032
 51
255.0000000000015
  0
LINE
  5
37C6
330
1F
100
AcDbEntity
  8
KANAMONO
100
AcDbLine
 10
988.0000000000004
 20
963.769282171598
 30
0.0
 11
988.0000000000004
 21
967.1999999999998
 31
0.0
  0
LINE
  5
37C7
330
1F
100
AcDbEntity
  8
KANAMONO
100
AcDbLine
 10
988.0000000000004
 20
967.1999999999998
 30
0.0
 11
987.7000000000005
 21
967.4999999999997
 31
0.0
  0
LINE
  5
37C8
330
1F
100
AcDbEntity
  8
KANAMONO
100
AcDbLine
 10
987.7000000000005
 20
967.4999999999997
 30
0.0
 11
988.0000000000004
 21
967.7999999999999
 31
0.0
  0
LINE
  5
37C9
330
1F
100
AcDbEntity
  8
KANAMONO
100
AcDbLine
 10
988.0000000000004
 20
967.7999999999999
 30
0.0
 11
988.0000000000004
 21
978.5
 31
0.0
  0
LINE
  5
37CA
330
1F
100
AcDbEntity
  8
KANAMONO
100
AcDbLine
 10
988.0000000000004
 20
978.5
 30
0.0
 11
995.0000000000004
 21
978.5
 31
0.0
  0
LINE
  5
37CB
330
1F
100
AcDbEntity
  8
KANAMONO
100
AcDbLine
 10
995.0000000000004
 20
978.5
 30
0.0
 11
995.0000000000004
 21
980.0
 31
0.0
  0
LINE
  5
37CC
330
1F
100
AcDbEntity
  8
KANAMONO
100
AcDbLine
 10
995.0000000000004
 20
980.0
 30
0.0
 11
985.2238290441242
 21
981.173140514705
 31
0.0
  0
ARC
  5
37CD
330
1F
100
AcDbEntity
  8
KANAMONO
100
AcDbCircle
 10
985.2000000000003
 20
980.9745651470077
 30
0.0
 40
0.1999999999999706
100
AcDbArc
 50
83.15722658734319
 51
179.9999999999674
  0
LINE
  5
37CE
330
1F
100
AcDbEntity
  8
KANAMONO
100
AcDbLine
 10
985.0000000000004
 20
980.9745651470077
 30
0.0
 11
985.0000000000004
 21
976.0
 31
0.0
  0
LINE
  5
37CF
330
1F
100
AcDbEntity
  8
KANAMONO
100
AcDbLine
 10
985.0000000000004
 20
976.0
 30
0.0
 11
986.5000000000005
 21
976.0
 31
0.0
  0
LINE
  5
37D0
330
1F
100
AcDbEntity
  8
KANAMONO
100
AcDbLine
 10
986.5000000000005
 20
976.0
 30
0.0
 11
986.5000000000005
 21
958.9999999999998
 31
0.0
  0
LINE
  5
37D1
330
1F
100
AcDbEntity
  8
KANAMONO
100
AcDbLine
 10
986.5000000000005
 20
958.9999999999998
 30
0.0
 11
985.0000000000004
 21
958.9999999999998
 31
0.0
  0
LINE
  5
37D2
330
1F
100
AcDbEntity
  8
KANAMONO
100
AcDbLine
 10
985.0000000000004
 20
958.9999999999998
 30
0.0
 11
985.0000000000004
 21
955.0
 31
0.0
  0
LINE
  5
37D3
330
1F
100
AcDbEntity
  8
KANAMONO
100
AcDbLine
 10
985.0000000000004
 20
955.0
 30
0.0
 11
988.0000000000004
 21
955.0
 31
0.0
  0
LINE
  5
37D4
330
1F
100
AcDbEntity
  8
KANAMONO
100
AcDbLine
 10
988.0000000000004
 20
955.0
 30
0.0
 11
988.0000000000004
 21
958.9999999999998
 31
0.0
  0
LINE
  5
37D5
330
1F
100
AcDbEntity
  8
KANAMONO
100
AcDbLine
 10
988.0000000000004
 20
958.9999999999998
 30
0.0
 11
995.0489824730219
 21
958.9999999999998
 31
0.0
  0
LINE
  5
37D6
330
1F
100
AcDbEntity
  8
KANAMONO
100
AcDbLine
 10
995.0489824730219
 20
958.9999999999998
 30
0.0
 11
1013.7
 21
954.0024749156273
 31
0.0
  0
LINE
  5
37D7
330
1F
100
AcDbEntity
  8
KANAMONO
100
AcDbLine
 10
1013.7
 20
954.0024749156273
 30
0.0
 11
1013.7
 21
925.2999999999998
 31
0.0
  0
ARC
  5
37D8
330
1F
100
AcDbEntity
  8
KANAMONO
100
AcDbCircle
 10
1013.7
 20
924.9999999999998
 30
0.0
 40
0.2999999999999545
100
AcDbArc
 50
270.0
 51
90.0
  0
LINE
  5
37D9
330
1F
100
AcDbEntity
  8
KANAMONO
100
AcDbLine
 10
1013.7
 20
924.6999999999998
 30
0.0
 11
1013.7
 21
900.4999999999999
 31
0.0
  0
LINE
  5
37DA
330
1F
100
AcDbEntity
  8
KANAMONO
100
AcDbLine
 10
1013.7
 20
900.4999999999999
 30
0.0
 11
1010.7
 21
900.4999999999999
 31
0.0
  0
ARC
  5
37DB
330
1F
100
AcDbEntity
  8
KANAMONO
 62
     1
100
AcDbCircle
 10
981.0000000000004
 20
954.0
 30
0.0
 40
1.0
100
AcDbArc
 50
180.0
 51
270.0
  0
LINE
  5
37DC
330
1F
100
AcDbEntity
  8
KANAMONO
 62
     1
100
AcDbLine
 10
981.0000000000004
 20
953.0
 30
0.0
 11
985.0000000000004
 21
953.0
 31
0.0
  0
LINE
  5
37DD
330
1F
100
AcDbEntity
  8
KANAMONO
 62
     1
100
AcDbLine
 10
985.0000000000004
 20
953.0
 30
0.0
 11
985.0000000000004
 21
958.9999999999998
 31
0.0
  0
LINE
  5
37DE
330
1F
100
AcDbEntity
  8
KANAMONO
 62
     1
100
AcDbLine
 10
985.0000000000004
 20
958.9999999999998
 30
0.0
 11
986.5000000000005
 21
959.2999999999999
 31
0.0
  0
LINE
  5
37DF
330
1F
100
AcDbEntity
  8
KANAMONO
 62
     1
100
AcDbLine
 10
986.5000000000005
 20
959.2999999999999
 30
0.0
 11
986.5000000000005
 21
975.6999999999997
 31
0.0
  0
LINE
  5
37E0
330
1F
100
AcDbEntity
  8
KANAMONO
 62
     1
100
AcDbLine
 10
986.5000000000005
 20
975.6999999999997
 30
0.0
 11
985.0000000000004
 21
976.0
 31
0.0
  0
LINE
  5
37E1
330
1F
100
AcDbEntity
  8
KANAMONO
 62
     1
100
AcDbLine
 10
985.0000000000004
 20
976.0
 30
0.0
 11
985.0000000000004
 21
981.1999999999997
 31
0.0
  0
LINE
  5
37E2
330
1F
100
AcDbEntity
  8
KANAMONO
 62
     1
100
AcDbLine
 10
985.0000000000004
 20
981.1999999999997
 30
0.0
 11
991.4404273896911
 21
980.4271487132368
 31
0.0
  0
ARC
  5
37E3
330
1F
100
AcDbEntity
  8
KANAMONO
 62
     1
100
AcDbCircle
 10
991.5000000000004
 20
980.9235871324803
 30
0.0
 40
0.5000000000000756
100
AcDbArc
 50
263.1572265873649
 51
0.0
  0
LINE
  5
37E4
330
1F
100
AcDbEntity
  8
KANAMONO
 62
     1
100
AcDbLine
 10
992.0000000000005
 20
980.9235871324803
 30
0.0
 11
992.0000000000005
 21
981.5599999999999
 31
0.0
  0
ARC
  5
37E5
330
1F
100
AcDbEntity
  8
KANAMONO
 62
     1
100
AcDbCircle
 10
975.1123254890254
 20
945.2997400779949
 30
0.0
 40
40.0
100
AcDbArc
 50
65.0269535174227
 51
82.98138185553092
  0
LINE
  5
37E6
330
1F
100
AcDbEntity
  8
KANAMONO
 62
     1
100
AcDbLine
 10
980.0000000000004
 20
985.0
 30
0.0
 11
980.0000000000004
 21
980.4999999999999
 31
0.0
  0
LINE
  5
37E7
330
1F
100
AcDbEntity
  8
KANAMONO
 62
     1
100
AcDbLine
 10
980.0000000000004
 20
980.4999999999999
 30
0.0
 11
980.5000000000005
 21
980.0
 31
0.0
  0
LINE
  5
37E8
330
1F
100
AcDbEntity
  8
KANAMONO
 62
     1
100
AcDbLine
 10
980.5000000000005
 20
980.0
 30
0.0
 11
980.5000000000005
 21
976.5
 31
0.0
  0
LINE
  5
37E9
330
1F
100
AcDbEntity
  8
KANAMONO
 62
     1
100
AcDbLine
 10
980.5000000000005
 20
976.5
 30
0.0
 11
980.0000000000004
 21
976.0
 31
0.0
  0
LINE
  5
37EA
330
1F
100
AcDbEntity
  8
KANAMONO
 62
     1
100
AcDbLine
 10
980.0000000000004
 20
976.0
 30
0.0
 11
980.0000000000004
 21
954.0
 31
0.0
  0
LINE
  5
37EB
330
1F
100
AcDbEntity
  8
KANAMONO
100
AcDbLine
 10
989.2000000000004
 20
939.25
 30
0.0
 11
990.0000000000003
 21
940.0
 31
0.0
  0
LINE
  5
37EC
330
1F
100
AcDbEntity
  8
KANAMONO
100
AcDbLine
 10
990.0000000000003
 20
940.0
 30
0.0
 11
990.0000000000003
 21
943.5
 31
0.0
  0
LINE
  5
37ED
330
1F
100
AcDbEntity
  8
KANAMONO
100
AcDbLine
 10
990.0000000000003
 20
943.5
 30
0.0
 11
989.2000000000004
 21
944.25
 31
0.0
  0
LINE
  5
37EE
330
1F
100
AcDbEntity
  8
KANAMONO
100
AcDbLine
 10
989.2000000000004
 20
944.25
 30
0.0
 11
990.0000000000003
 21
945.0
 31
0.0
  0
LINE
  5
37EF
330
1F
100
AcDbEntity
  8
KANAMONO
100
AcDbLine
 10
990.0000000000003
 20
945.0
 30
0.0
 11
1000.0
 21
945.0
 31
0.0
  0
LINE
  5
37F0
330
1F
100
AcDbEntity
  8
KANAMONO
100
AcDbLine
 10
1000.0
 20
945.0
 30
0.0
 11
1000.0
 21
941.0
 31
0.0
  0
LINE
  5
37F1
330
1F
100
AcDbEntity
  8
KANAMONO
100
AcDbLine
 10
1000.0
 20
941.0
 30
0.0
 11
998.8000000000004
 21
941.0
 31
0.0
  0
LINE
  5
37F2
330
1F
100
AcDbEntity
  8
KANAMONO
100
AcDbLine
 10
998.8000000000004
 20
941.0
 30
0.0
 11
998.8000000000004
 21
943.7999999999997
 31
0.0
  0
LINE
  5
37F3
330
1F
100
AcDbEntity
  8
KANAMONO
100
AcDbLine
 10
998.8000000000004
 20
943.7999999999997
 30
0.0
 11
991.2000000000004
 21
943.7999999999997
 31
0.0
  0
LINE
  5
37F4
330
1F
100
AcDbEntity
  8
KANAMONO
100
AcDbLine
 10
991.2000000000004
 20
943.7999999999997
 30
0.0
 11
991.2000000000004
 21
910.3629999999999
 31
0.0
  0
LINE
  5
37F5
330
1F
100
AcDbEntity
  8
KANAMONO
100
AcDbLine
 10
991.2000000000004
 20
910.3629999999999
 30
0.0
 11
994.9980000000005
 21
904.6659999999999
 31
0.0
  0
LINE
  5
37F6
330
1F
100
AcDbEntity
  8
KANAMONO
100
AcDbLine
 10
994.9980000000005
 20
904.6659999999999
 30
0.0
 11
994.0000000000004
 21
903.9999999999999
 31
0.0
  0
LINE
  5
37F7
330
1F
100
AcDbEntity
  8
KANAMONO
100
AcDbLine
 10
994.0000000000004
 20
903.9999999999999
 30
0.0
 11
990.0000000000003
 21
909.9999999999999
 31
0.0
  0
LINE
  5
37F8
330
1F
100
AcDbEntity
  8
KANAMONO
100
AcDbLine
 10
990.0000000000003
 20
909.9999999999999
 30
0.0
 11
990.0000000000003
 21
913.4999999999999
 31
0.0
  0
LINE
  5
37F9
330
1F
100
AcDbEntity
  8
KANAMONO
100
AcDbLine
 10
990.0000000000003
 20
913.4999999999999
 30
0.0
 11
989.2000000000004
 21
914.2499999999998
 31
0.0
  0
LINE
  5
37FA
330
1F
100
AcDbEntity
  8
KANAMONO
100
AcDbLine
 10
989.2000000000004
 20
914.2499999999998
 30
0.0
 11
990.0000000000003
 21
914.9999999999998
 31
0.0
  0
LINE
  5
37FB
330
1F
100
AcDbEntity
  8
KANAMONO
100
AcDbLine
 10
990.0000000000003
 20
914.9999999999998
 30
0.0
 11
990.0000000000003
 21
918.4999999999998
 31
0.0
  0
LINE
  5
37FC
330
1F
100
AcDbEntity
  8
KANAMONO
100
AcDbLine
 10
990.0000000000003
 20
918.4999999999998
 30
0.0
 11
989.2000000000004
 21
919.2499999999999
 31
0.0
  0
LINE
  5
37FD
330
1F
100
AcDbEntity
  8
KANAMONO
100
AcDbLine
 10
989.2000000000004
 20
919.2499999999999
 30
0.0
 11
990.0000000000003
 21
919.9999999999999
 31
0.0
  0
LINE
  5
37FE
330
1F
100
AcDbEntity
  8
KANAMONO
100
AcDbLine
 10
990.0000000000003
 20
919.9999999999999
 30
0.0
 11
990.0000000000003
 21
923.4999999999999
 31
0.0
  0
LINE
  5
37FF
330
1F
100
AcDbEntity
  8
KANAMONO
100
AcDbLine
 10
990.0000000000003
 20
923.4999999999999
 30
0.0
 11
989.2000000000004
 21
924.2499999999999
 31
0.0
  0
LINE
  5
3800
330
1F
100
AcDbEntity
  8
KANAMONO
100
AcDbLine
 10
989.2000000000004
 20
924.2499999999999
 30
0.0
 11
990.0000000000003
 21
925.0
 31
0.0
  0
LINE
  5
3801
330
1F
100
AcDbEntity
  8
KANAMONO
100
AcDbLine
 10
990.0000000000003
 20
925.0
 30
0.0
 11
990.0000000000003
 21
928.5
 31
0.0
  0
LINE
  5
3802
330
1F
100
AcDbEntity
  8
KANAMONO
100
AcDbLine
 10
990.0000000000003
 20
928.5
 30
0.0
 11
989.2000000000004
 21
929.25
 31
0.0
  0
LINE
  5
3803
330
1F
100
AcDbEntity
  8
KANAMONO
100
AcDbLine
 10
989.2000000000004
 20
929.25
 30
0.0
 11
990.0000000000003
 21
930.0
 31
0.0
  0
LINE
  5
3804
330
1F
100
AcDbEntity
  8
KANAMONO
100
AcDbLine
 10
990.0000000000003
 20
930.0
 30
0.0
 11
990.0000000000003
 21
933.5
 31
0.0
  0
LINE
  5
3805
330
1F
100
AcDbEntity
  8
KANAMONO
100
AcDbLine
 10
990.0000000000003
 20
933.5
 30
0.0
 11
989.2000000000004
 21
934.2499999999999
 31
0.0
  0
LINE
  5
3806
330
1F
100
AcDbEntity
  8
KANAMONO
100
AcDbLine
 10
989.2000000000004
 20
934.2499999999999
 30
0.0
 11
990.0000000000003
 21
935.0
 31
0.0
  0
LINE
  5
3807
330
1F
100
AcDbEntity
  8
KANAMONO
100
AcDbLine
 10
990.0000000000003
 20
935.0
 30
0.0
 11
990.0000000000003
 21
938.4999999999999
 31
0.0
  0
LINE
  5
3808
330
1F
100
AcDbEntity
  8
KANAMONO
100
AcDbLine
 10
990.0000000000003
 20
938.4999999999999
 30
0.0
 11
989.2000000000004
 21
939.25
 31
0.0
  0
LINE
  5
3809
330
1F
100
AcDbEntity
  8
KANAMONO
100
AcDbLine
 10
989.2000000000004
 20
939.25
 30
0.0
 11
990.0000000000003
 21
940.0
 31
0.0
  0
LINE
  5
380A
330
1F
100
AcDbEntity
  8
KANAMONO_SCREW
 48
20.0
100
AcDbLine
 10
975.6301965628331
 20
929.7100514272896
 30
0.0
 11
965.5260108967159
 21
930.1558243243242
 31
0.0
  0
LINE
  5
380B
330
1F
100
AcDbEntity
  8
KANAMONO_SCREW
 48
20.0
100
AcDbLine
 10
975.6301965628335
 20
924.4529485727026
 30
0.0
 11
965.5260108967159
 21
924.0071756756755
 31
0.0
  0
LINE
  5
380C
330
1F
100
AcDbEntity
  8
KANAMONO_SCREW
 48
20.0
100
AcDbLine
 10
978.5440289147338
 20
926.8731666666665
 30
0.0
 11
964.3773622480672
 21
926.2481666666666
 31
0.0
  0
LINE
  5
380D
330
1F
100
AcDbEntity
  8
KANAMONO_SCREW
 48
20.0
100
AcDbLine
 10
978.5440289147338
 20
927.2898333333332
 30
0.0
 11
964.3773622480672
 21
927.9148333333331
 31
0.0
  0
LINE
  5
380E
330
1F
100
AcDbEntity
  8
KANAMONO_SCREW
 48
20.0
100
AcDbLine
 10
964.3773622480672
 20
928.6760143015211
 30
0.0
 11
961.457215236515
 21
927.4664498143906
 31
0.0
  0
LINE
  5
380F
330
1F
100
AcDbEntity
  8
KANAMONO_SCREW
 48
20.0
100
AcDbLine
 10
964.3773622480672
 20
925.4869856984786
 30
0.0
 11
961.457215236515
 21
926.6965502039646
 31
0.0
  0
ARC
  5
3810
330
1F
100
AcDbEntity
  8
KANAMONO_SCREW
 48
20.0
100
AcDbCircle
 10
961.6166666666671
 20
927.0815000091777
 30
0.0
 40
0.4166666666666667
100
AcDbArc
 50
112.4999999999997
 51
247.5000000000002
  0
LINE
  5
3811
330
1F
100
AcDbEntity
  8
KANAMONO_SCREW
 48
20.0
100
AcDbLine
 10
964.3773622480672
 20
926.2481666666666
 30
0.0
 11
964.3773622480672
 21
924.5814999999998
 31
0.0
  0
LINE
  5
3812
330
1F
100
AcDbEntity
  8
KANAMONO_SCREW
 48
20.0
100
AcDbLine
 10
964.3773622480672
 20
927.9148333333331
 30
0.0
 11
964.3773622480672
 21
929.5814999999997
 31
0.0
  0
LINE
  5
3813
330
1F
100
AcDbEntity
  8
KANAMONO_SCREW
 48
20.0
100
AcDbLine
 10
964.3773622480672
 20
929.5814999999997
 30
0.0
 11
965.5260108967159
 21
930.1558243243242
 31
0.0
  0
LINE
  5
3814
330
1F
100
AcDbEntity
  8
KANAMONO_SCREW
 48
20.0
100
AcDbLine
 10
965.1670430480393
 20
927.8799944745109
 30
0.0
 11
965.5619348608885
 21
926.3004272231144
 31
0.0
  0
LINE
  5
3815
330
1F
100
AcDbEntity
  8
KANAMONO_SCREW
 48
20.0
100
AcDbLine
 10
966.4309835684854
 20
927.8242323927264
 30
0.0
 11
966.7982984972521
 21
926.3549726776599
 31
0.0
  0
LINE
  5
3816
330
1F
100
AcDbEntity
  8
KANAMONO_SCREW
 48
20.0
100
AcDbLine
 10
963.7799066443148
 20
928.4285400894088
 30
0.0
 11
964.3773622480672
 21
926.0387176743996
 31
0.0
  0
LINE
  5
3817
330
1F
100
AcDbEntity
  8
KANAMONO_SCREW
 48
20.0
100
AcDbLine
 10
967.6949240889316
 20
927.7684703109422
 30
0.0
 11
968.0346621336157
 21
926.4095181322055
 31
0.0
  0
LINE
  5
3818
330
1F
100
AcDbEntity
  8
KANAMONO_SCREW
 48
20.0
100
AcDbLine
 10
972.750686170716
 20
927.5454219838046
 30
0.0
 11
972.9801166790704
 21
926.6276999503871
 31
0.0
  0
LINE
  5
3819
330
1F
100
AcDbEntity
  8
KANAMONO_SCREW
 48
20.0
100
AcDbLine
 10
968.9588646093776
 20
927.7127082291576
 30
0.0
 11
969.2710257699795
 21
926.4640635867507
 31
0.0
  0
LINE
  5
381A
330
1F
100
AcDbEntity
  8
KANAMONO_SCREW
 48
20.0
100
AcDbLine
 10
970.2228051298238
 20
927.6569461473734
 30
0.0
 11
970.5073894063431
 21
926.5186090412962
 31
0.0
  0
LINE
  5
381B
330
1F
100
AcDbEntity
  8
KANAMONO_SCREW
 48
20.0
100
AcDbLine
 10
971.4867456502698
 20
927.6011840655888
 30
0.0
 11
971.7437530427066
 21
926.5731544958418
 31
0.0
  0
LINE
  5
381C
330
1F
100
AcDbEntity
  8
KANAMONO_SCREW
 48
20.0
100
AcDbLine
 10
964.3773622480672
 20
924.5814999999998
 30
0.0
 11
965.5260108967159
 21
924.0071756756755
 31
0.0
  0
LINE
  5
381D
330
1F
100
AcDbEntity
  8
KANAMONO_SCREW
 48
20.0
100
AcDbLine
 10
990.3666666666671
 20
929.5814999999997
 30
0.0
 11
978.5440289147343
 21
929.5814999999997
 31
0.0
  0
LINE
  5
381E
330
1F
100
AcDbEntity
  8
KANAMONO_SCREW
 48
20.0
100
AcDbLine
 10
990.3666666666671
 20
924.5814999999998
 30
0.0
 11
978.5440289147343
 21
924.5814999999998
 31
0.0
  0
LINE
  5
381F
330
1F
100
AcDbEntity
  8
KANAMONO_SCREW
 48
20.0
100
AcDbLine
 10
980.2106955814011
 20
929.5814999999997
 30
0.0
 11
980.2106955814011
 21
924.5814999999998
 31
0.0
  0
LINE
  5
3820
330
1F
100
AcDbEntity
  8
KANAMONO_SCREW
 48
20.0
100
AcDbLine
 10
982.7106955814011
 20
929.5814999999997
 30
0.0
 11
982.7106955814011
 21
924.5814999999998
 31
0.0
  0
LINE
  5
3821
330
1F
100
AcDbEntity
  8
KANAMONO_SCREW
 48
20.0
100
AcDbLine
 10
978.5348466699273
 20
929.3733691177211
 30
0.0
 11
978.5440289147343
 21
929.5814999999997
 31
0.0
  0
LINE
  5
3822
330
1F
100
AcDbEntity
  8
KANAMONO_SCREW
 48
20.0
100
AcDbLine
 10
978.3267157876489
 20
929.382551362528
 30
0.0
 11
978.3358980324559
 21
929.5906822448067
 31
0.0
  0
LINE
  5
3823
330
1F
100
AcDbEntity
  8
KANAMONO_SCREW
 48
20.0
100
AcDbLine
 10
975.8291452003051
 20
929.4927383002114
 30
0.0
 11
975.8383274451121
 21
929.7008691824899
 31
0.0
  0
LINE
  5
3824
330
1F
100
AcDbEntity
  8
KANAMONO_SCREW
 48
20.0
100
AcDbLine
 10
975.6210143180267
 20
929.5019205450184
 30
0.0
 11
975.6301965628335
 21
929.7100514272969
 31
0.0
  0
LINE
  5
3825
330
1F
100
AcDbEntity
  8
KANAMONO_SCREW
 48
20.0
100
AcDbLine
 10
978.3358980324557
 20
929.5906822448062
 30
0.0
 11
975.8383274451118
 21
929.7008691824832
 31
0.0
  0
LINE
  5
3826
330
1F
100
AcDbEntity
  8
KANAMONO_SCREW
 48
20.0
100
AcDbLine
 10
978.5348466699273
 20
929.3733691177211
 30
0.0
 11
975.6210143180263
 21
929.5019205450108
 31
0.0
  0
LINE
  5
3827
330
1F
100
AcDbEntity
  8
KANAMONO_SCREW
 48
20.0
100
AcDbLine
 10
978.5440289147338
 20
927.2898333333332
 30
0.0
 11
978.5440289147338
 21
926.8731666666665
 31
0.0
  0
LINE
  5
3828
330
1F
100
AcDbEntity
  8
KANAMONO_SCREW
 48
20.0
100
AcDbLine
 10
977.8064482525003
 20
927.322373656667
 30
0.0
 11
977.9255712245248
 21
926.845881768569
 31
0.0
  0
LINE
  5
3829
330
1F
100
AcDbEntity
  8
KANAMONO_SCREW
 48
20.0
100
AcDbLine
 10
974.014626691162
 20
927.48965990202
 30
0.0
 11
974.216480315434
 21
926.6822454049327
 31
0.0
  0
LINE
  5
382A
330
1F
100
AcDbEntity
  8
KANAMONO_SCREW
 48
20.0
100
AcDbLine
 10
975.2785672116083
 20
927.4338978202358
 30
0.0
 11
975.4528439517976
 21
926.7367908594781
 31
0.0
  0
LINE
  5
382B
330
1F
100
AcDbEntity
  8
KANAMONO_SCREW
 48
20.0
100
AcDbLine
 10
976.5425077320543
 20
927.3781357384514
 30
0.0
 11
976.6892075881612
 21
926.7913363140236
 31
0.0
  0
LINE
  5
382C
330
1F
100
AcDbEntity
  8
KANAMONO_SCREW
 48
20.0
100
AcDbLine
 10
978.3267157876489
 20
924.7804486374715
 30
0.0
 11
978.3358980324559
 21
924.5723177551928
 31
0.0
  0
LINE
  5
382D
330
1F
100
AcDbEntity
  8
KANAMONO_SCREW
 48
20.0
100
AcDbLine
 10
978.5348466699273
 20
924.7896308822785
 30
0.0
 11
978.5440289147343
 21
924.5814999999998
 31
0.0
  0
LINE
  5
382E
330
1F
100
AcDbEntity
  8
KANAMONO_SCREW
 48
20.0
100
AcDbLine
 10
975.6210143180267
 20
924.6610794549813
 30
0.0
 11
975.6301965628335
 21
924.4529485727026
 31
0.0
  0
LINE
  5
382F
330
1F
100
AcDbEntity
  8
KANAMONO_SCREW
 48
20.0
100
AcDbLine
 10
975.8291452003051
 20
924.6702616997881
 30
0.0
 11
975.8383274451121
 21
924.4621308175096
 31
0.0
  0
LINE
  5
3830
330
1F
100
AcDbEntity
  8
KANAMONO_SCREW
 48
20.0
100
AcDbLine
 10
978.5348466699273
 20
924.7896308822785
 30
0.0
 11
975.6210143180263
 21
924.6610794549887
 31
0.0
  0
LINE
  5
3831
330
1F
100
AcDbEntity
  8
KANAMONO_SCREW
 48
20.0
100
AcDbLine
 10
978.3358980324557
 20
924.5723177551933
 30
0.0
 11
975.8383274451118
 21
924.4621308175165
 31
0.0
  0
LINE
  5
3832
330
1F
100
AcDbEntity
  8
KANAMONO_SCREW
 48
20.0
100
AcDbLine
 10
991.2000000000004
 20
930.414833333333
 30
0.0
 11
991.2000000000004
 21
923.7481666666665
 31
0.0
  0
LINE
  5
3833
330
1F
100
AcDbEntity
  8
KANAMONO_SCREW
 48
20.0
100
AcDbLine
 10
993.2833333333338
 20
923.539833333333
 30
0.0
 11
993.2833333333338
 21
930.6231666666663
 31
0.0
  0
LINE
  5
3834
330
1F
100
AcDbEntity
  8
KANAMONO_SCREW
 48
20.0
100
AcDbLine
 10
993.4916666666671
 20
924.5814999999998
 30
0.0
 11
993.4916666666671
 21
929.5814999999997
 31
0.0
  0
LINE
  5
3835
330
1F
100
AcDbEntity
  8
KANAMONO_SCREW
 48
20.0
100
AcDbLine
 10
992.8666666666671
 20
931.6648333333331
 30
0.0
 11
992.8666666666671
 21
922.4981666666664
 31
0.0
  0
LINE
  5
3836
330
1F
100
AcDbEntity
  8
KANAMONO_SCREW
 48
20.0
100
AcDbLine
 10
993.2833333333338
 20
930.6231666666663
 30
0.0
 11
992.8666666666671
 21
930.6231666666663
 31
0.0
  0
LINE
  5
3837
330
1F
100
AcDbEntity
  8
KANAMONO_SCREW
 48
20.0
100
AcDbLine
 10
993.2833333333338
 20
930.6231666666663
 30
0.0
 11
993.4916666666671
 21
929.5814999999997
 31
0.0
  0
ARC
  5
3838
330
1F
100
AcDbEntity
  8
KANAMONO_SCREW
 48
20.0
100
AcDbCircle
 10
990.3666666666671
 20
930.414833333333
 30
0.0
 40
0.8333333333333333
100
AcDbArc
 50
270.0
 51
0.0
  0
LINE
  5
3839
330
1F
100
AcDbEntity
  8
KANAMONO_SCREW
 48
20.0
100
AcDbLine
 10
991.2000000000004
 20
931.6648333333331
 30
0.0
 11
991.2000000000004
 21
930.414833333333
 31
0.0
  0
LINE
  5
383A
330
1F
100
AcDbEntity
  8
KANAMONO_SCREW
 48
20.0
100
AcDbLine
 10
991.2000000000004
 20
931.6648333333331
 30
0.0
 11
992.8666666666671
 21
931.6648333333331
 31
0.0
  0
LINE
  5
383B
330
1F
100
AcDbEntity
  8
KANAMONO_SCREW
 48
20.0
100
AcDbLine
 10
992.8666666666671
 20
922.4981666666664
 30
0.0
 11
991.2000000000004
 21
922.4981666666664
 31
0.0
  0
LINE
  5
383C
330
1F
100
AcDbEntity
  8
KANAMONO_SCREW
 48
20.0
100
AcDbLine
 10
992.8666666666671
 20
923.539833333333
 30
0.0
 11
993.2833333333338
 21
923.539833333333
 31
0.0
  0
LINE
  5
383D
330
1F
100
AcDbEntity
  8
KANAMONO_SCREW
 48
20.0
100
AcDbLine
 10
993.4916666666671
 20
924.5814999999998
 30
0.0
 11
993.2833333333338
 21
923.539833333333
 31
0.0
  0
ARC
  5
383E
330
1F
100
AcDbEntity
  8
KANAMONO_SCREW
 48
20.0
100
AcDbCircle
 10
990.3666666666671
 20
923.7481666666665
 30
0.0
 40
0.8333333333333333
100
AcDbArc
 50
0.0
 51
90.0
  0
LINE
  5
383F
330
1F
100
AcDbEntity
  8
KANAMONO_SCREW
 48
20.0
100
AcDbLine
 10
991.2000000000004
 20
923.7481666666665
 30
0.0
 11
991.2000000000004
 21
922.4981666666664
 31
0.0
  0
LINE
  5
3840
330
1F
100
AcDbEntity
  8
HATCH
  6
Continuous
100
AcDbLine
 10
980.0000000000006
 20
952.4506403026729
 30
0.0
 11
980.5189123648034
 21
952.9695526674757
 31
0.0
  0
LINE
  5
3841
330
1F
100
AcDbEntity
  8
HATCH
  6
Continuous
100
AcDbLine
 10
980.0000000000006
 20
947.9605122421384
 30
0.0
 11
984.5013413892543
 21
952.4618536313921
 31
0.0
  0
LINE
  5
3842
330
1F
100
AcDbEntity
  8
HATCH
  6
Continuous
100
AcDbLine
 10
981.5296158183954
 20
944.9999999999986
 30
0.0
 11
988.0997032854487
 21
951.5700874670521
 31
0.0
  0
LINE
  5
3843
330
1F
100
AcDbEntity
  8
HATCH
  6
Continuous
100
AcDbLine
 10
986.0197438789302
 20
944.9999999999988
 30
0.0
 11
991.3855386292393
 21
950.3657947503079
 31
0.0
  0
LINE
  5
3844
330
1F
100
AcDbEntity
  8
HATCH
  6
Continuous
100
AcDbLine
 10
990.5098719394647
 20
944.9999999999988
 30
0.0
 11
994.4020605328612
 21
948.8921885933953
 31
0.0
  0
LINE
  5
3845
330
1F
100
AcDbEntity
  8
HATCH
  6
Continuous
100
AcDbLine
 10
994.9999999999997
 20
944.9999999999993
 30
0.0
 11
997.1762297625037
 21
947.1762297625032
 31
0.0
  0
LINE
  5
3846
330
1F
100
AcDbEntity
  8
HATCH
  6
Continuous
100
AcDbLine
 10
999.4901280605349
 20
945.0
 30
0.0
 11
999.7244671764127
 21
945.2343391158777
 31
0.0
  0
LINE
  5
3847
330
1F
100
AcDbEntity
  8
HATCH
  6
Continuous
100
AcDbLine
 10
981.478651724838
 20
944.9999999999985
 30
0.0
 11
980.0000000000004
 21
946.4786517248361
 31
0.0
  0
LINE
  5
3848
330
1F
100
AcDbEntity
  8
HATCH
  6
Continuous
100
AcDbLine
 10
985.9687797853725
 20
944.9999999999985
 30
0.0
 11
980.0000000000004
 21
950.9687797853706
 31
0.0
  0
LINE
  5
3849
330
1F
100
AcDbEntity
  8
HATCH
  6
Continuous
100
AcDbLine
 10
990.4589078459068
 20
944.9999999999986
 30
0.0
 11
982.7078593152428
 21
952.7510485306626
 31
0.0
  0
LINE
  5
384A
330
1F
100
AcDbEntity
  8
HATCH
  6
Continuous
100
AcDbLine
 10
994.9490359064409
 20
944.9999999999992
 30
0.0
 11
988.5073241616961
 21
951.441711744744
 31
0.0
  0
LINE
  5
384B
330
1F
100
AcDbEntity
  8
HATCH
  6
Continuous
100
AcDbLine
 10
999.4391639669746
 20
944.9999999999999
 30
0.0
 11
997.461704254988
 21
946.9774597119865
 31
0.0
  0
LINE
  5
384C
330
1F
100
AcDbEntity
  8
BOUSUI
100
AcDbLine
 10
1958.650000000001
 20
592.0
 30
0.0
 11
1033.639610306789
 21
592.0
 31
0.0
  0
LINE
  5
384D
330
1F
100
AcDbEntity
  8
BOUSUI
100
AcDbLine
 10
1033.639610306789
 20
592.0
 30
0.0
 11
990.0000000000007
 21
635.6396103067888
 31
0.0
  0
LINE
  5
384E
330
1F
100
AcDbEntity
  8
BOUSUI
100
AcDbLine
 10
990.0000000000007
 20
635.6396103067888
 30
0.0
 11
990.0000000000003
 21
909.9999999999999
 31
0.0
  0
LINE
  5
384F
330
1F
100
AcDbEntity
  8
HATCH
  6
Continuous
100
AcDbLine
 10
980.0000000000007
 20
579.7700112783031
 30
0.0
 11
982.2299887216978
 21
582.0000000000002
 31
0.0
  0
LINE
  5
3850
330
1F
100
AcDbEntity
  8
HATCH
  6
Continuous
100
AcDbLine
 10
980.0000000000006
 20
566.2996270966995
 30
0.0
 11
995.7003729033013
 21
582.0000000000002
 31
0.0
  0
LINE
  5
3851
330
1F
100
AcDbEntity
  8
HATCH
  6
Continuous
100
AcDbLine
 10
980.0000000000007
 20
552.8292429150958
 30
0.0
 11
1009.170757084905
 21
582.0000000000002
 31
0.0
  0
LINE
  5
3852
330
1F
100
AcDbEntity
  8
HATCH
  6
Continuous
100
AcDbLine
 10
987.6411412665087
 20
547.0
 30
0.0
 11
1022.641141266509
 21
582.0000000000003
 31
0.0
  0
LINE
  5
3853
330
1F
100
AcDbEntity
  8
HATCH
  6
Continuous
100
AcDbLine
 10
1001.111525448112
 20
547.0000000000002
 30
0.0
 11
1036.111525448112
 21
582.0000000000001
 31
0.0
  0
LINE
  5
3854
330
1F
100
AcDbEntity
  8
HATCH
  6
Continuous
100
AcDbLine
 10
1014.581909629716
 20
547.0000000000002
 30
0.0
 11
1049.581909629716
 21
582.0000000000002
 31
0.0
  0
LINE
  5
3855
330
1F
100
AcDbEntity
  8
HATCH
  6
Continuous
100
AcDbLine
 10
1028.05229381132
 20
547.0000000000001
 30
0.0
 11
1063.05229381132
 21
582.0000000000002
 31
0.0
  0
LINE
  5
3856
330
1F
100
AcDbEntity
  8
HATCH
  6
Continuous
100
AcDbLine
 10
1041.522677992923
 20
547.0000000000001
 30
0.0
 11
1076.522677992924
 21
582.0000000000002
 31
0.0
  0
LINE
  5
3857
330
1F
100
AcDbEntity
  8
HATCH
  6
Continuous
100
AcDbLine
 10
1054.993062174527
 20
547.0
 30
0.0
 11
1089.993062174527
 21
582.0000000000003
 31
0.0
  0
LINE
  5
3858
330
1F
100
AcDbEntity
  8
HATCH
  6
Continuous
100
AcDbLine
 10
1068.463446356131
 20
547.0
 30
0.0
 11
1103.463446356131
 21
582.0000000000002
 31
0.0
  0
LINE
  5
3859
330
1F
100
AcDbEntity
  8
HATCH
  6
Continuous
100
AcDbLine
 10
1081.933830537735
 20
547.0000000000002
 30
0.0
 11
1116.933830537734
 21
582.0
 31
0.0
  0
LINE
  5
385A
330
1F
100
AcDbEntity
  8
HATCH
  6
Continuous
100
AcDbLine
 10
1095.404214719338
 20
547.0000000000001
 30
0.0
 11
1130.404214719338
 21
582.0000000000002
 31
0.0
  0
LINE
  5
385B
330
1F
100
AcDbEntity
  8
HATCH
  6
Continuous
100
AcDbLine
 10
1108.874598900942
 20
547.0000000000001
 30
0.0
 11
1143.874598900942
 21
582.0000000000001
 31
0.0
  0
LINE
  5
385C
330
1F
100
AcDbEntity
  8
HATCH
  6
Continuous
100
AcDbLine
 10
1122.344983082546
 20
547.0
 30
0.0
 11
1157.344983082546
 21
582.0000000000003
 31
0.0
  0
LINE
  5
385D
330
1F
100
AcDbEntity
  8
HATCH
  6
Continuous
100
AcDbLine
 10
1135.815367264149
 20
547.0
 30
0.0
 11
1170.815367264149
 21
582.0000000000002
 31
0.0
  0
LINE
  5
385E
330
1F
100
AcDbEntity
  8
HATCH
  6
Continuous
100
AcDbLine
 10
1149.285751445753
 20
547.0000000000002
 30
0.0
 11
1184.285751445753
 21
582.0
 31
0.0
  0
LINE
  5
385F
330
1F
100
AcDbEntity
  8
HATCH
  6
Continuous
100
AcDbLine
 10
1162.756135627357
 20
547.0000000000001
 30
0.0
 11
1197.756135627357
 21
582.0000000000002
 31
0.0
  0
LINE
  5
3860
330
1F
100
AcDbEntity
  8
HATCH
  6
Continuous
100
AcDbLine
 10
1176.22651980896
 20
547.0
 30
0.0
 11
1211.226519808961
 21
582.0000000000001
 31
0.0
  0
LINE
  5
3861
330
1F
100
AcDbEntity
  8
HATCH
  6
Continuous
100
AcDbLine
 10
1189.696903990564
 20
547.0
 30
0.0
 11
1224.696903990565
 21
582.0000000000002
 31
0.0
  0
LINE
  5
3862
330
1F
100
AcDbEntity
  8
HATCH
  6
Continuous
100
AcDbLine
 10
1203.167288172168
 20
547.0
 30
0.0
 11
1238.167288172168
 21
582.0000000000002
 31
0.0
  0
LINE
  5
3863
330
1F
100
AcDbEntity
  8
HATCH
  6
Continuous
100
AcDbLine
 10
1216.637672353772
 20
547.0000000000002
 30
0.0
 11
1251.637672353772
 21
582.0
 31
0.0
  0
LINE
  5
3864
330
1F
100
AcDbEntity
  8
HATCH
  6
Continuous
100
AcDbLine
 10
1230.108056535376
 20
547.0000000000001
 30
0.0
 11
1265.108056535376
 21
582.0000000000002
 31
0.0
  0
LINE
  5
3865
330
1F
100
AcDbEntity
  8
HATCH
  6
Continuous
100
AcDbLine
 10
1243.578440716979
 20
547.0
 30
0.0
 11
1278.578440716979
 21
582.0000000000001
 31
0.0
  0
LINE
  5
3866
330
1F
100
AcDbEntity
  8
HATCH
  6
Continuous
100
AcDbLine
 10
1257.048824898583
 20
547.0
 30
0.0
 11
1292.048824898583
 21
582.0000000000002
 31
0.0
  0
LINE
  5
3867
330
1F
100
AcDbEntity
  8
HATCH
  6
Continuous
100
AcDbLine
 10
1270.519209080187
 20
547.0
 30
0.0
 11
1305.519209080187
 21
582.0000000000002
 31
0.0
  0
LINE
  5
3868
330
1F
100
AcDbEntity
  8
HATCH
  6
Continuous
100
AcDbLine
 10
1283.989593261791
 20
547.0000000000002
 30
0.0
 11
1318.98959326179
 21
582.0000000000001
 31
0.0
  0
LINE
  5
3869
330
1F
100
AcDbEntity
  8
HATCH
  6
Continuous
100
AcDbLine
 10
1297.459977443394
 20
547.0000000000001
 30
0.0
 11
1332.459977443394
 21
582.0000000000002
 31
0.0
  0
LINE
  5
386A
330
1F
100
AcDbEntity
  8
HATCH
  6
Continuous
100
AcDbLine
 10
1310.930361624998
 20
547.0000000000001
 30
0.0
 11
1345.930361624998
 21
582.0
 31
0.0
  0
LINE
  5
386B
330
1F
100
AcDbEntity
  8
HATCH
  6
Continuous
100
AcDbLine
 10
1324.400745806602
 20
547.0
 30
0.0
 11
1359.400745806602
 21
582.0000000000002
 31
0.0
  0
LINE
  5
386C
330
1F
100
AcDbEntity
  8
HATCH
  6
Continuous
100
AcDbLine
 10
1337.871129988206
 20
547.0
 30
0.0
 11
1372.871129988206
 21
582.0000000000002
 31
0.0
  0
LINE
  5
386D
330
1F
100
AcDbEntity
  8
HATCH
  6
Continuous
100
AcDbLine
 10
1351.341514169809
 20
547.0000000000002
 30
0.0
 11
1386.341514169809
 21
582.0000000000002
 31
0.0
  0
LINE
  5
386E
330
1F
100
AcDbEntity
  8
HATCH
  6
Continuous
100
AcDbLine
 10
1364.811898351413
 20
547.0000000000001
 30
0.0
 11
1399.811898351413
 21
582.0000000000001
 31
0.0
  0
LINE
  5
386F
330
1F
100
AcDbEntity
  8
HATCH
  6
Continuous
100
AcDbLine
 10
1378.282282533017
 20
547.0000000000002
 30
0.0
 11
1413.282282533017
 21
582.0
 31
0.0
  0
LINE
  5
3870
330
1F
100
AcDbEntity
  8
HATCH
  6
Continuous
100
AcDbLine
 10
1391.75266671462
 20
547.0000000000002
 30
0.0
 11
1426.75266671462
 21
582.0000000000002
 31
0.0
  0
LINE
  5
3871
330
1F
100
AcDbEntity
  8
HATCH
  6
Continuous
100
AcDbLine
 10
1405.223050896224
 20
547.0000000000002
 30
0.0
 11
1440.223050896224
 21
582.0000000000002
 31
0.0
  0
LINE
  5
3872
330
1F
100
AcDbEntity
  8
HATCH
  6
Continuous
100
AcDbLine
 10
1418.693435077828
 20
547.0000000000002
 30
0.0
 11
1453.693435077828
 21
582.0000000000002
 31
0.0
  0
LINE
  5
3873
330
1F
100
AcDbEntity
  8
HATCH
  6
Continuous
100
AcDbLine
 10
1432.163819259432
 20
547.0000000000003
 30
0.0
 11
1467.163819259432
 21
582.0000000000001
 31
0.0
  0
LINE
  5
3874
330
1F
100
AcDbEntity
  8
HATCH
  6
Continuous
100
AcDbLine
 10
1445.634203441035
 20
547.0000000000002
 30
0.0
 11
1480.634203441035
 21
582.0
 31
0.0
  0
LINE
  5
3875
330
1F
100
AcDbEntity
  8
HATCH
  6
Continuous
100
AcDbLine
 10
1459.104587622639
 20
547.0000000000002
 30
0.0
 11
1494.104587622639
 21
582.0
 31
0.0
  0
LINE
  5
3876
330
1F
100
AcDbEntity
  8
HATCH
  6
Continuous
100
AcDbLine
 10
1472.574971804243
 20
547.0000000000002
 30
0.0
 11
1507.574971804243
 21
582.0
 31
0.0
  0
LINE
  5
3877
330
1F
100
AcDbEntity
  8
HATCH
  6
Continuous
100
AcDbLine
 10
1486.045355985847
 20
547.0000000000005
 30
0.0
 11
1521.045355985847
 21
582.0000000000002
 31
0.0
  0
LINE
  5
3878
330
1F
100
AcDbEntity
  8
HATCH
  6
Continuous
100
AcDbLine
 10
1499.51574016745
 20
547.0000000000003
 30
0.0
 11
1534.51574016745
 21
582.0000000000001
 31
0.0
  0
LINE
  5
3879
330
1F
100
AcDbEntity
  8
HATCH
  6
Continuous
100
AcDbLine
 10
1512.986124349054
 20
547.0000000000002
 30
0.0
 11
1547.986124349054
 21
582.0
 31
0.0
  0
LINE
  5
387A
330
1F
100
AcDbEntity
  8
HATCH
  6
Continuous
100
AcDbLine
 10
1526.456508530658
 20
547.0000000000005
 30
0.0
 11
1561.456508530658
 21
582.0
 31
0.0
  0
LINE
  5
387B
330
1F
100
AcDbEntity
  8
HATCH
  6
Continuous
100
AcDbLine
 10
1539.926892712261
 20
547.0000000000003
 30
0.0
 11
1574.926892712261
 21
582.0000000000001
 31
0.0
  0
LINE
  5
387C
330
1F
100
AcDbEntity
  8
HATCH
  6
Continuous
100
AcDbLine
 10
1553.397276893865
 20
547.0000000000005
 30
0.0
 11
1588.397276893865
 21
582.0000000000002
 31
0.0
  0
LINE
  5
387D
330
1F
100
AcDbEntity
  8
HATCH
  6
Continuous
100
AcDbLine
 10
1566.867661075469
 20
547.0000000000003
 30
0.0
 11
1601.867661075469
 21
582.0000000000001
 31
0.0
  0
LINE
  5
387E
330
1F
100
AcDbEntity
  8
HATCH
  6
Continuous
100
AcDbLine
 10
1580.338045257073
 20
547.0000000000002
 30
0.0
 11
1615.338045257072
 21
582.0
 31
0.0
  0
LINE
  5
387F
330
1F
100
AcDbEntity
  8
HATCH
  6
Continuous
100
AcDbLine
 10
1593.808429438676
 20
547.0000000000005
 30
0.0
 11
1628.808429438676
 21
582.0
 31
0.0
  0
LINE
  5
3880
330
1F
100
AcDbEntity
  8
HATCH
  6
Continuous
100
AcDbLine
 10
1607.27881362028
 20
547.0000000000003
 30
0.0
 11
1642.27881362028
 21
582.0000000000001
 31
0.0
  0
LINE
  5
3881
330
1F
100
AcDbEntity
  8
HATCH
  6
Continuous
100
AcDbLine
 10
1620.749197801884
 20
547.0000000000005
 30
0.0
 11
1655.749197801884
 21
582.0000000000002
 31
0.0
  0
LINE
  5
3882
330
1F
100
AcDbEntity
  8
HATCH
  6
Continuous
100
AcDbLine
 10
1634.219581983488
 20
547.0000000000003
 30
0.0
 11
1669.219581983488
 21
582.0000000000001
 31
0.0
  0
LINE
  5
3883
330
1F
100
AcDbEntity
  8
HATCH
  6
Continuous
100
AcDbLine
 10
1647.689966165091
 20
547.0000000000002
 30
0.0
 11
1682.689966165091
 21
582.0
 31
0.0
  0
LINE
  5
3884
330
1F
100
AcDbEntity
  8
HATCH
  6
Continuous
100
AcDbLine
 10
1661.160350346695
 20
547.0000000000005
 30
0.0
 11
1696.160350346695
 21
582.0
 31
0.0
  0
LINE
  5
3885
330
1F
100
AcDbEntity
  8
HATCH
  6
Continuous
100
AcDbLine
 10
1674.630734528299
 20
547.0000000000005
 30
0.0
 11
1709.630734528299
 21
582.0000000000001
 31
0.0
  0
LINE
  5
3886
330
1F
100
AcDbEntity
  8
HATCH
  6
Continuous
100
AcDbLine
 10
1688.101118709903
 20
547.0000000000005
 30
0.0
 11
1723.101118709903
 21
582.0000000000002
 31
0.0
  0
LINE
  5
3887
330
1F
100
AcDbEntity
  8
HATCH
  6
Continuous
100
AcDbLine
 10
1701.571502891506
 20
547.0000000000003
 30
0.0
 11
1736.571502891506
 21
582.0000000000001
 31
0.0
  0
LINE
  5
3888
330
1F
100
AcDbEntity
  8
HATCH
  6
Continuous
100
AcDbLine
 10
1715.04188707311
 20
547.0000000000005
 30
0.0
 11
1750.04188707311
 21
582.0000000000001
 31
0.0
  0
LINE
  5
3889
330
1F
100
AcDbEntity
  8
HATCH
  6
Continuous
100
AcDbLine
 10
1728.512271254714
 20
547.0000000000005
 30
0.0
 11
1763.512271254714
 21
582.0
 31
0.0
  0
LINE
  5
388A
330
1F
100
AcDbEntity
  8
HATCH
  6
Continuous
100
AcDbLine
 10
1741.982655436318
 20
547.0000000000005
 30
0.0
 11
1776.982655436318
 21
582.0000000000001
 31
0.0
  0
LINE
  5
388B
330
1F
100
AcDbEntity
  8
HATCH
  6
Continuous
100
AcDbLine
 10
1755.453039617921
 20
547.0000000000005
 30
0.0
 11
1790.453039617921
 21
582.0
 31
0.0
  0
LINE
  5
388C
330
1F
100
AcDbEntity
  8
HATCH
  6
Continuous
100
AcDbLine
 10
1768.923423799525
 20
547.0000000000003
 30
0.0
 11
1803.923423799525
 21
582.0000000000001
 31
0.0
  0
LINE
  5
388D
330
1F
100
AcDbEntity
  8
HATCH
  6
Continuous
100
AcDbLine
 10
1782.393807981129
 20
547.0000000000005
 30
0.0
 11
1817.393807981128
 21
582.0000000000001
 31
0.0
  0
LINE
  5
388E
330
1F
100
AcDbEntity
  8
HATCH
  6
Continuous
100
AcDbLine
 10
1795.864192162733
 20
547.0000000000005
 30
0.0
 11
1830.864192162732
 21
582.0
 31
0.0
  0
LINE
  5
388F
330
1F
100
AcDbEntity
  8
HATCH
  6
Continuous
100
AcDbLine
 10
1809.334576344337
 20
547.0000000000005
 30
0.0
 11
1844.334576344335
 21
581.9999999999999
 31
0.0
  0
LINE
  5
3890
330
1F
100
AcDbEntity
  8
HATCH
  6
Continuous
100
AcDbLine
 10
1822.80496052594
 20
547.0000000000005
 30
0.0
 11
1857.80496052594
 21
582.0
 31
0.0
  0
LINE
  5
3891
330
1F
100
AcDbEntity
  8
HATCH
  6
Continuous
100
AcDbLine
 10
1836.275344707544
 20
547.0000000000003
 30
0.0
 11
1871.275344707544
 21
582.0000000000001
 31
0.0
  0
LINE
  5
3892
330
1F
100
AcDbEntity
  8
HATCH
  6
Continuous
100
AcDbLine
 10
1849.745728889148
 20
547.0000000000005
 30
0.0
 11
1884.745728889147
 21
582.0000000000001
 31
0.0
  0
LINE
  5
3893
330
1F
100
AcDbEntity
  8
HATCH
  6
Continuous
100
AcDbLine
 10
1863.216113070751
 20
547.0000000000006
 30
0.0
 11
1898.216113070751
 21
582.0
 31
0.0
  0
LINE
  5
3894
330
1F
100
AcDbEntity
  8
HATCH
  6
Continuous
100
AcDbLine
 10
1876.686497252355
 20
547.0000000000005
 30
0.0
 11
1911.686497252354
 21
581.9999999999999
 31
0.0
  0
LINE
  5
3895
330
1F
100
AcDbEntity
  8
HATCH
  6
Continuous
100
AcDbLine
 10
1891.656881433959
 20
548.5000000000002
 30
0.0
 11
1925.156881433958
 21
582.0
 31
0.0
  0
LINE
  5
3896
330
1F
100
AcDbEntity
  8
HATCH
  6
Continuous
100
AcDbLine
 10
1905.127265615562
 20
548.5000000000001
 30
0.0
 11
1938.627265615562
 21
581.9999999999999
 31
0.0
  0
LINE
  5
3897
330
1F
100
AcDbEntity
  8
HATCH
  6
Continuous
100
AcDbLine
 10
1918.597649797166
 20
548.5000000000001
 30
0.0
 11
1952.097649797166
 21
582.0000000000001
 31
0.0
  0
LINE
  5
3898
330
1F
100
AcDbEntity
  8
HATCH
  6
Continuous
100
AcDbLine
 10
1932.068033978769
 20
548.5
 30
0.0
 11
1965.56803397877
 21
582.0
 31
0.0
  0
LINE
  5
3899
330
1F
100
AcDbEntity
  8
HATCH
  6
Continuous
100
AcDbLine
 10
1945.538418160374
 20
548.5000000000001
 30
0.0
 11
1966.400000000001
 21
569.3615818396275
 31
0.0
  0
LINE
  5
389A
330
1F
100
AcDbEntity
  8
HATCH
  6
Continuous
100
AcDbLine
 10
1959.008802341977
 20
548.5000000000002
 30
0.0
 11
1966.400000000001
 21
555.8911976580239
 31
0.0
  0
LINE
  5
389B
330
1F
100
AcDbEntity
  8
HATCH
  6
Continuous
100
AcDbLine
 10
1993.6
 20
569.6208134764199
 30
0.0
 11
2005.979186523581
 21
582.0000000000002
 31
0.0
  0
LINE
  5
389C
330
1F
100
AcDbEntity
  8
HATCH
  6
Continuous
100
AcDbLine
 10
1993.6
 20
556.1504292948158
 30
0.0
 11
2019.449570705185
 21
582.0000000000001
 31
0.0
  0
LINE
  5
389D
330
1F
100
AcDbEntity
  8
HATCH
  6
Continuous
100
AcDbLine
 10
1999.419954886788
 20
548.5
 30
0.0
 11
2032.919954886788
 21
582.0
 31
0.0
  0
LINE
  5
389E
330
1F
100
AcDbEntity
  8
HATCH
  6
Continuous
100
AcDbLine
 10
2012.890339068392
 20
548.4999999999998
 30
0.0
 11
2046.390339068392
 21
582.0000000000003
 31
0.0
  0
LINE
  5
389F
330
1F
100
AcDbEntity
  8
HATCH
  6
Continuous
100
AcDbLine
 10
2026.360723249996
 20
548.5
 30
0.0
 11
2059.860723249996
 21
582.0000000000002
 31
0.0
  0
LINE
  5
38A0
330
1F
100
AcDbEntity
  8
HATCH
  6
Continuous
100
AcDbLine
 10
2039.8311074316
 20
548.5000000000002
 30
0.0
 11
2073.3311074316
 21
582.0000000000002
 31
0.0
  0
LINE
  5
38A1
330
1F
100
AcDbEntity
  8
HATCH
  6
Continuous
100
AcDbLine
 10
2053.301491613203
 20
548.5000000000001
 30
0.0
 11
2086.801491613203
 21
582.0000000000001
 31
0.0
  0
LINE
  5
38A2
330
1F
100
AcDbEntity
  8
HATCH
  6
Continuous
100
AcDbLine
 10
2066.771875794807
 20
548.5
 30
0.0
 11
2100.271875794807
 21
582.0
 31
0.0
  0
LINE
  5
38A3
330
1F
100
AcDbEntity
  8
HATCH
  6
Continuous
100
AcDbLine
 10
2080.000000000001
 20
548.2577400235901
 30
0.0
 11
2113.74225997641
 21
581.9999999999999
 31
0.0
  0
LINE
  5
38A4
330
1F
100
AcDbEntity
  8
HATCH
  6
Continuous
100
AcDbLine
 10
2092.212644158014
 20
547.0
 30
0.0
 11
2127.212644158015
 21
582.0000000000002
 31
0.0
  0
LINE
  5
38A5
330
1F
100
AcDbEntity
  8
HATCH
  6
Continuous
100
AcDbLine
 10
2105.683028339619
 20
547.0000000000002
 30
0.0
 11
2140.683028339619
 21
582.0000000000002
 31
0.0
  0
LINE
  5
38A6
330
1F
100
AcDbEntity
  8
HATCH
  6
Continuous
100
AcDbLine
 10
2119.153412521222
 20
547.0000000000001
 30
0.0
 11
2154.153412521222
 21
582.0000000000001
 31
0.0
  0
LINE
  5
38A7
330
1F
100
AcDbEntity
  8
HATCH
  6
Continuous
100
AcDbLine
 10
2132.623796702826
 20
547.0
 30
0.0
 11
2167.623796702826
 21
582.0
 31
0.0
  0
LINE
  5
38A8
330
1F
100
AcDbEntity
  8
HATCH
  6
Continuous
100
AcDbLine
 10
2146.09418088443
 20
547.0000000000001
 30
0.0
 11
2181.094180884429
 21
581.9999999999999
 31
0.0
  0
LINE
  5
38A9
330
1F
100
AcDbEntity
  8
HATCH
  6
Continuous
100
AcDbLine
 10
2159.564565066033
 20
547.0
 30
0.0
 11
2194.564565066034
 21
582.0000000000002
 31
0.0
  0
LINE
  5
38AA
330
1F
100
AcDbEntity
  8
HATCH
  6
Continuous
100
AcDbLine
 10
2173.034949247637
 20
547.0000000000002
 30
0.0
 11
2208.034949247637
 21
582.0000000000002
 31
0.0
  0
LINE
  5
38AB
330
1F
100
AcDbEntity
  8
HATCH
  6
Continuous
100
AcDbLine
 10
2186.505333429241
 20
547.0000000000001
 30
0.0
 11
2221.505333429241
 21
582.0000000000001
 31
0.0
  0
LINE
  5
38AC
330
1F
100
AcDbEntity
  8
HATCH
  6
Continuous
100
AcDbLine
 10
2199.975717610844
 20
547.0
 30
0.0
 11
2234.975717610844
 21
582.0
 31
0.0
  0
LINE
  5
38AD
330
1F
100
AcDbEntity
  8
HATCH
  6
Continuous
100
AcDbLine
 10
2213.446101792448
 20
547.0000000000001
 30
0.0
 11
2248.446101792448
 21
582.0000000000001
 31
0.0
  0
LINE
  5
38AE
330
1F
100
AcDbEntity
  8
HATCH
  6
Continuous
100
AcDbLine
 10
2226.916485974052
 20
547.0000000000001
 30
0.0
 11
2261.916485974052
 21
582.0000000000003
 31
0.0
  0
LINE
  5
38AF
330
1F
100
AcDbEntity
  8
HATCH
  6
Continuous
100
AcDbLine
 10
2240.386870155656
 20
547.0000000000002
 30
0.0
 11
2275.386870155656
 21
582.0000000000002
 31
0.0
  0
LINE
  5
38B0
330
1F
100
AcDbEntity
  8
HATCH
  6
Continuous
100
AcDbLine
 10
2253.857254337259
 20
546.9999999999998
 30
0.0
 11
2280.000000000001
 21
573.1427456627415
 31
0.0
  0
LINE
  5
38B1
330
1F
100
AcDbEntity
  8
HATCH
  6
Continuous
100
AcDbLine
 10
2267.327638518863
 20
547.0
 30
0.0
 11
2280.000000000001
 21
559.6723614811378
 31
0.0
  0
LINE
  5
38B2
330
1F
100
AcDbEntity
  8
HATCH
  6
Continuous
100
AcDbLine
 10
993.3276385188626
 20
547.0
 30
0.0
 11
980.0000000000004
 21
560.3276385188622
 31
0.0
  0
LINE
  5
38B3
330
1F
100
AcDbEntity
  8
HATCH
  6
Continuous
100
AcDbLine
 10
1006.798022700466
 20
547.0000000000001
 30
0.0
 11
980.0000000000004
 21
573.798022700466
 31
0.0
  0
LINE
  5
38B4
330
1F
100
AcDbEntity
  8
HATCH
  6
Continuous
100
AcDbLine
 10
1020.26840688207
 20
547.0
 30
0.0
 11
985.2684068820702
 21
581.9999999999997
 31
0.0
  0
LINE
  5
38B5
330
1F
100
AcDbEntity
  8
HATCH
  6
Continuous
100
AcDbLine
 10
1033.738791063674
 20
547.0
 30
0.0
 11
998.7387910636741
 21
581.9999999999996
 31
0.0
  0
LINE
  5
38B6
330
1F
100
AcDbEntity
  8
HATCH
  6
Continuous
100
AcDbLine
 10
1047.209175245278
 20
547.0
 30
0.0
 11
1012.209175245277
 21
581.9999999999997
 31
0.0
  0
LINE
  5
38B7
330
1F
100
AcDbEntity
  8
HATCH
  6
Continuous
100
AcDbLine
 10
1060.679559426881
 20
547.0
 30
0.0
 11
1025.679559426881
 21
581.9999999999999
 31
0.0
  0
LINE
  5
38B8
330
1F
100
AcDbEntity
  8
HATCH
  6
Continuous
100
AcDbLine
 10
1074.149943608485
 20
547.0000000000001
 30
0.0
 11
1039.149943608485
 21
581.9999999999997
 31
0.0
  0
LINE
  5
38B9
330
1F
100
AcDbEntity
  8
HATCH
  6
Continuous
100
AcDbLine
 10
1087.620327790089
 20
547.0
 30
0.0
 11
1052.620327790089
 21
581.9999999999997
 31
0.0
  0
LINE
  5
38BA
330
1F
100
AcDbEntity
  8
HATCH
  6
Continuous
100
AcDbLine
 10
1101.090711971692
 20
547.0
 30
0.0
 11
1066.090711971693
 21
581.9999999999996
 31
0.0
  0
LINE
  5
38BB
330
1F
100
AcDbEntity
  8
HATCH
  6
Continuous
100
AcDbLine
 10
1114.561096153296
 20
547.0
 30
0.0
 11
1079.561096153296
 21
581.9999999999997
 31
0.0
  0
LINE
  5
38BC
330
1F
100
AcDbEntity
  8
HATCH
  6
Continuous
100
AcDbLine
 10
1128.0314803349
 20
547.0
 30
0.0
 11
1093.0314803349
 21
581.9999999999999
 31
0.0
  0
LINE
  5
38BD
330
1F
100
AcDbEntity
  8
HATCH
  6
Continuous
100
AcDbLine
 10
1141.501864516504
 20
546.9999999999997
 30
0.0
 11
1106.501864516504
 21
581.9999999999996
 31
0.0
  0
LINE
  5
38BE
330
1F
100
AcDbEntity
  8
HATCH
  6
Continuous
100
AcDbLine
 10
1154.972248698107
 20
546.9999999999997
 30
0.0
 11
1119.972248698107
 21
581.9999999999997
 31
0.0
  0
LINE
  5
38BF
330
1F
100
AcDbEntity
  8
HATCH
  6
Continuous
100
AcDbLine
 10
1168.442632879711
 20
547.0
 30
0.0
 11
1133.442632879711
 21
581.9999999999999
 31
0.0
  0
LINE
  5
38C0
330
1F
100
AcDbEntity
  8
HATCH
  6
Continuous
100
AcDbLine
 10
1181.913017061315
 20
547.0
 30
0.0
 11
1146.913017061315
 21
581.9999999999997
 31
0.0
  0
LINE
  5
38C1
330
1F
100
AcDbEntity
  8
HATCH
  6
Continuous
100
AcDbLine
 10
1195.383401242919
 20
547.0
 30
0.0
 11
1160.383401242919
 21
582.0
 31
0.0
  0
LINE
  5
38C2
330
1F
100
AcDbEntity
  8
HATCH
  6
Continuous
100
AcDbLine
 10
1208.853785424522
 20
546.9999999999997
 30
0.0
 11
1173.853785424523
 21
581.9999999999997
 31
0.0
  0
LINE
  5
38C3
330
1F
100
AcDbEntity
  8
HATCH
  6
Continuous
100
AcDbLine
 10
1222.324169606126
 20
546.9999999999997
 30
0.0
 11
1187.324169606126
 21
581.9999999999997
 31
0.0
  0
LINE
  5
38C4
330
1F
100
AcDbEntity
  8
HATCH
  6
Continuous
100
AcDbLine
 10
1235.79455378773
 20
546.9999999999997
 30
0.0
 11
1200.79455378773
 21
581.9999999999997
 31
0.0
  0
LINE
  5
38C5
330
1F
100
AcDbEntity
  8
HATCH
  6
Continuous
100
AcDbLine
 10
1249.264937969333
 20
546.9999999999997
 30
0.0
 11
1214.264937969333
 21
581.9999999999997
 31
0.0
  0
LINE
  5
38C6
330
1F
100
AcDbEntity
  8
HATCH
  6
Continuous
100
AcDbLine
 10
1262.735322150937
 20
546.9999999999997
 30
0.0
 11
1227.735322150937
 21
581.9999999999997
 31
0.0
  0
LINE
  5
38C7
330
1F
100
AcDbEntity
  8
HATCH
  6
Continuous
100
AcDbLine
 10
1276.205706332541
 20
546.9999999999997
 30
0.0
 11
1241.205706332541
 21
581.9999999999997
 31
0.0
  0
LINE
  5
38C8
330
1F
100
AcDbEntity
  8
HATCH
  6
Continuous
100
AcDbLine
 10
1289.676090514145
 20
546.9999999999997
 30
0.0
 11
1254.676090514145
 21
581.9999999999997
 31
0.0
  0
LINE
  5
38C9
330
1F
100
AcDbEntity
  8
HATCH
  6
Continuous
100
AcDbLine
 10
1303.146474695748
 20
546.9999999999997
 30
0.0
 11
1268.146474695748
 21
581.9999999999997
 31
0.0
  0
LINE
  5
38CA
330
1F
100
AcDbEntity
  8
HATCH
  6
Continuous
100
AcDbLine
 10
1316.616858877352
 20
546.9999999999997
 30
0.0
 11
1281.616858877352
 21
581.9999999999997
 31
0.0
  0
LINE
  5
38CB
330
1F
100
AcDbEntity
  8
HATCH
  6
Continuous
100
AcDbLine
 10
1330.087243058956
 20
546.9999999999997
 30
0.0
 11
1295.087243058956
 21
581.9999999999997
 31
0.0
  0
LINE
  5
38CC
330
1F
100
AcDbEntity
  8
HATCH
  6
Continuous
100
AcDbLine
 10
1343.55762724056
 20
546.9999999999997
 30
0.0
 11
1308.557627240559
 21
581.9999999999997
 31
0.0
  0
LINE
  5
38CD
330
1F
100
AcDbEntity
  8
HATCH
  6
Continuous
100
AcDbLine
 10
1357.028011422163
 20
546.9999999999997
 30
0.0
 11
1322.028011422163
 21
581.9999999999997
 31
0.0
  0
LINE
  5
38CE
330
1F
100
AcDbEntity
  8
HATCH
  6
Continuous
100
AcDbLine
 10
1370.498395603767
 20
546.9999999999997
 30
0.0
 11
1335.498395603767
 21
582.0
 31
0.0
  0
LINE
  5
38CF
330
1F
100
AcDbEntity
  8
HATCH
  6
Continuous
100
AcDbLine
 10
1383.968779785371
 20
546.9999999999998
 30
0.0
 11
1348.968779785371
 21
582.0
 31
0.0
  0
LINE
  5
38D0
330
1F
100
AcDbEntity
  8
HATCH
  6
Continuous
100
AcDbLine
 10
1397.439163966974
 20
546.9999999999997
 30
0.0
 11
1362.439163966975
 21
581.9999999999997
 31
0.0
  0
LINE
  5
38D1
330
1F
100
AcDbEntity
  8
HATCH
  6
Continuous
100
AcDbLine
 10
1410.909548148578
 20
547.0
 30
0.0
 11
1375.909548148578
 21
582.0
 31
0.0
  0
LINE
  5
38D2
330
1F
100
AcDbEntity
  8
HATCH
  6
Continuous
100
AcDbLine
 10
1424.379932330182
 20
546.9999999999997
 30
0.0
 11
1389.379932330182
 21
581.9999999999997
 31
0.0
  0
LINE
  5
38D3
330
1F
100
AcDbEntity
  8
HATCH
  6
Continuous
100
AcDbLine
 10
1437.850316511786
 20
546.9999999999997
 30
0.0
 11
1402.850316511786
 21
581.9999999999997
 31
0.0
  0
LINE
  5
38D4
330
1F
100
AcDbEntity
  8
HATCH
  6
Continuous
100
AcDbLine
 10
1451.320700693389
 20
546.9999999999998
 30
0.0
 11
1416.320700693389
 21
581.9999999999997
 31
0.0
  0
LINE
  5
38D5
330
1F
100
AcDbEntity
  8
HATCH
  6
Continuous
100
AcDbLine
 10
1464.791084874993
 20
546.9999999999997
 30
0.0
 11
1429.791084874993
 21
581.9999999999997
 31
0.0
  0
LINE
  5
38D6
330
1F
100
AcDbEntity
  8
HATCH
  6
Continuous
100
AcDbLine
 10
1478.261469056597
 20
546.9999999999997
 30
0.0
 11
1443.261469056597
 21
581.9999999999997
 31
0.0
  0
LINE
  5
38D7
330
1F
100
AcDbEntity
  8
HATCH
  6
Continuous
100
AcDbLine
 10
1491.731853238201
 20
546.9999999999997
 30
0.0
 11
1456.731853238201
 21
581.9999999999997
 31
0.0
  0
LINE
  5
38D8
330
1F
100
AcDbEntity
  8
HATCH
  6
Continuous
100
AcDbLine
 10
1505.202237419804
 20
546.9999999999997
 30
0.0
 11
1470.202237419804
 21
581.9999999999997
 31
0.0
  0
LINE
  5
38D9
330
1F
100
AcDbEntity
  8
HATCH
  6
Continuous
100
AcDbLine
 10
1518.672621601408
 20
546.9999999999998
 30
0.0
 11
1483.672621601408
 21
581.9999999999997
 31
0.0
  0
LINE
  5
38DA
330
1F
100
AcDbEntity
  8
HATCH
  6
Continuous
100
AcDbLine
 10
1532.143005783012
 20
546.9999999999997
 30
0.0
 11
1497.143005783012
 21
581.9999999999997
 31
0.0
  0
LINE
  5
38DB
330
1F
100
AcDbEntity
  8
HATCH
  6
Continuous
100
AcDbLine
 10
1545.613389964615
 20
546.9999999999997
 30
0.0
 11
1510.613389964615
 21
581.9999999999997
 31
0.0
  0
LINE
  5
38DC
330
1F
100
AcDbEntity
  8
HATCH
  6
Continuous
100
AcDbLine
 10
1559.083774146219
 20
546.9999999999997
 30
0.0
 11
1524.083774146219
 21
581.9999999999997
 31
0.0
  0
LINE
  5
38DD
330
1F
100
AcDbEntity
  8
HATCH
  6
Continuous
100
AcDbLine
 10
1572.554158327823
 20
546.9999999999997
 30
0.0
 11
1537.554158327823
 21
581.9999999999997
 31
0.0
  0
LINE
  5
38DE
330
1F
100
AcDbEntity
  8
HATCH
  6
Continuous
100
AcDbLine
 10
1586.024542509427
 20
546.9999999999997
 30
0.0
 11
1551.024542509427
 21
581.9999999999997
 31
0.0
  0
LINE
  5
38DF
330
1F
100
AcDbEntity
  8
HATCH
  6
Continuous
100
AcDbLine
 10
1599.49492669103
 20
546.9999999999997
 30
0.0
 11
1564.49492669103
 21
581.9999999999997
 31
0.0
  0
LINE
  5
38E0
330
1F
100
AcDbEntity
  8
HATCH
  6
Continuous
100
AcDbLine
 10
1612.965310872634
 20
546.9999999999997
 30
0.0
 11
1577.965310872634
 21
581.9999999999999
 31
0.0
  0
LINE
  5
38E1
330
1F
100
AcDbEntity
  8
HATCH
  6
Continuous
100
AcDbLine
 10
1626.435695054238
 20
546.9999999999997
 30
0.0
 11
1591.435695054238
 21
582.0
 31
0.0
  0
LINE
  5
38E2
330
1F
100
AcDbEntity
  8
HATCH
  6
Continuous
100
AcDbLine
 10
1639.906079235842
 20
546.9999999999997
 30
0.0
 11
1604.906079235842
 21
581.9999999999997
 31
0.0
  0
LINE
  5
38E3
330
1F
100
AcDbEntity
  8
HATCH
  6
Continuous
100
AcDbLine
 10
1653.376463417445
 20
546.9999999999997
 30
0.0
 11
1618.376463417445
 21
581.9999999999997
 31
0.0
  0
LINE
  5
38E4
330
1F
100
AcDbEntity
  8
HATCH
  6
Continuous
100
AcDbLine
 10
1666.846847599049
 20
546.9999999999997
 30
0.0
 11
1631.846847599049
 21
581.9999999999997
 31
0.0
  0
LINE
  5
38E5
330
1F
100
AcDbEntity
  8
HATCH
  6
Continuous
100
AcDbLine
 10
1680.317231780653
 20
546.9999999999995
 30
0.0
 11
1645.317231780652
 21
581.9999999999999
 31
0.0
  0
LINE
  5
38E6
330
1F
100
AcDbEntity
  8
HATCH
  6
Continuous
100
AcDbLine
 10
1693.787615962257
 20
546.9999999999997
 30
0.0
 11
1658.787615962256
 21
581.9999999999999
 31
0.0
  0
LINE
  5
38E7
330
1F
100
AcDbEntity
  8
HATCH
  6
Continuous
100
AcDbLine
 10
1707.25800014386
 20
546.9999999999997
 30
0.0
 11
1672.25800014386
 21
581.9999999999997
 31
0.0
  0
LINE
  5
38E8
330
1F
100
AcDbEntity
  8
HATCH
  6
Continuous
100
AcDbLine
 10
1720.728384325464
 20
546.9999999999997
 30
0.0
 11
1685.728384325464
 21
581.9999999999999
 31
0.0
  0
LINE
  5
38E9
330
1F
100
AcDbEntity
  8
HATCH
  6
Continuous
100
AcDbLine
 10
1734.198768507068
 20
546.9999999999997
 30
0.0
 11
1699.198768507068
 21
581.9999999999999
 31
0.0
  0
LINE
  5
38EA
330
1F
100
AcDbEntity
  8
HATCH
  6
Continuous
100
AcDbLine
 10
1747.669152688672
 20
546.9999999999995
 30
0.0
 11
1712.669152688671
 21
581.9999999999999
 31
0.0
  0
LINE
  5
38EB
330
1F
100
AcDbEntity
  8
HATCH
  6
Continuous
100
AcDbLine
 10
1761.139536870275
 20
546.9999999999997
 30
0.0
 11
1726.139536870275
 21
581.9999999999999
 31
0.0
  0
LINE
  5
38EC
330
1F
100
AcDbEntity
  8
HATCH
  6
Continuous
100
AcDbLine
 10
1774.609921051879
 20
546.9999999999995
 30
0.0
 11
1739.609921051879
 21
581.9999999999997
 31
0.0
  0
LINE
  5
38ED
330
1F
100
AcDbEntity
  8
HATCH
  6
Continuous
100
AcDbLine
 10
1788.080305233483
 20
546.9999999999995
 30
0.0
 11
1753.080305233483
 21
581.9999999999996
 31
0.0
  0
LINE
  5
38EE
330
1F
100
AcDbEntity
  8
HATCH
  6
Continuous
100
AcDbLine
 10
1801.550689415087
 20
546.9999999999997
 30
0.0
 11
1766.550689415086
 21
581.9999999999999
 31
0.0
  0
LINE
  5
38EF
330
1F
100
AcDbEntity
  8
HATCH
  6
Continuous
100
AcDbLine
 10
1815.02107359669
 20
546.9999999999994
 30
0.0
 11
1780.02107359669
 21
581.9999999999999
 31
0.0
  0
LINE
  5
38F0
330
1F
100
AcDbEntity
  8
HATCH
  6
Continuous
100
AcDbLine
 10
1828.491457778294
 20
546.9999999999997
 30
0.0
 11
1793.491457778294
 21
581.9999999999999
 31
0.0
  0
LINE
  5
38F1
330
1F
100
AcDbEntity
  8
HATCH
  6
Continuous
100
AcDbLine
 10
1841.961841959898
 20
546.9999999999995
 30
0.0
 11
1806.961841959898
 21
581.9999999999997
 31
0.0
  0
LINE
  5
38F2
330
1F
100
AcDbEntity
  8
HATCH
  6
Continuous
100
AcDbLine
 10
1855.432226141502
 20
546.9999999999995
 30
0.0
 11
1820.432226141501
 21
581.9999999999996
 31
0.0
  0
LINE
  5
38F3
330
1F
100
AcDbEntity
  8
HATCH
  6
Continuous
100
AcDbLine
 10
1868.902610323105
 20
546.9999999999995
 30
0.0
 11
1833.902610323105
 21
581.9999999999999
 31
0.0
  0
LINE
  5
38F4
330
1F
100
AcDbEntity
  8
HATCH
  6
Continuous
100
AcDbLine
 10
1880.872994504709
 20
548.4999999999996
 30
0.0
 11
1847.372994504708
 21
581.9999999999999
 31
0.0
  0
LINE
  5
38F5
330
1F
100
AcDbEntity
  8
HATCH
  6
Continuous
100
AcDbLine
 10
1894.343378686312
 20
548.4999999999998
 30
0.0
 11
1860.843378686312
 21
581.9999999999999
 31
0.0
  0
LINE
  5
38F6
330
1F
100
AcDbEntity
  8
HATCH
  6
Continuous
100
AcDbLine
 10
1907.813762867916
 20
548.4999999999998
 30
0.0
 11
1874.313762867916
 21
581.9999999999997
 31
0.0
  0
LINE
  5
38F7
330
1F
100
AcDbEntity
  8
HATCH
  6
Continuous
100
AcDbLine
 10
1921.28414704952
 20
548.4999999999997
 30
0.0
 11
1887.78414704952
 21
581.9999999999996
 31
0.0
  0
LINE
  5
38F8
330
1F
100
AcDbEntity
  8
HATCH
  6
Continuous
100
AcDbLine
 10
1934.754531231124
 20
548.5
 30
0.0
 11
1901.254531231124
 21
581.9999999999999
 31
0.0
  0
LINE
  5
38F9
330
1F
100
AcDbEntity
  8
HATCH
  6
Continuous
100
AcDbLine
 10
1948.224915412728
 20
548.4999999999997
 30
0.0
 11
1914.724915412727
 21
581.9999999999999
 31
0.0
  0
LINE
  5
38FA
330
1F
100
AcDbEntity
  8
HATCH
  6
Continuous
100
AcDbLine
 10
1961.695299594331
 20
548.4999999999998
 30
0.0
 11
1928.195299594331
 21
581.9999999999999
 31
0.0
  0
LINE
  5
38FB
330
1F
100
AcDbEntity
  8
HATCH
  6
Continuous
100
AcDbLine
 10
1966.4
 20
557.2656837759342
 30
0.0
 11
1941.665683775935
 21
581.9999999999997
 31
0.0
  0
LINE
  5
38FC
330
1F
100
AcDbEntity
  8
HATCH
  6
Continuous
100
AcDbLine
 10
1966.4
 20
570.7360679575379
 30
0.0
 11
1955.136067957539
 21
581.9999999999997
 31
0.0
  0
LINE
  5
38FD
330
1F
100
AcDbEntity
  8
HATCH
  6
Continuous
100
AcDbLine
 10
2002.106452139142
 20
548.5
 30
0.0
 11
1993.6
 21
557.0064521391421
 31
0.0
  0
LINE
  5
38FE
330
1F
100
AcDbEntity
  8
HATCH
  6
Continuous
100
AcDbLine
 10
2015.576836320746
 20
548.5000000000001
 30
0.0
 11
1993.6
 21
570.4768363207457
 31
0.0
  0
LINE
  5
38FF
330
1F
100
AcDbEntity
  8
HATCH
  6
Continuous
100
AcDbLine
 10
2029.047220502349
 20
548.5000000000001
 30
0.0
 11
1995.54722050235
 21
581.9999999999997
 31
0.0
  0
LINE
  5
3900
330
1F
100
AcDbEntity
  8
HATCH
  6
Continuous
100
AcDbLine
 10
2042.517604683954
 20
548.4999999999998
 30
0.0
 11
2009.017604683954
 21
581.9999999999997
 31
0.0
  0
LINE
  5
3901
330
1F
100
AcDbEntity
  8
HATCH
  6
Continuous
100
AcDbLine
 10
2055.987988865557
 20
548.4999999999998
 30
0.0
 11
2022.487988865558
 21
581.9999999999996
 31
0.0
  0
LINE
  5
3902
330
1F
100
AcDbEntity
  8
HATCH
  6
Continuous
100
AcDbLine
 10
2069.45837304716
 20
548.5000000000001
 30
0.0
 11
2035.958373047161
 21
581.9999999999999
 31
0.0
  0
LINE
  5
3903
330
1F
100
AcDbEntity
  8
HATCH
  6
Continuous
100
AcDbLine
 10
2084.428757228765
 20
546.9999999999998
 30
0.0
 11
2049.428757228765
 21
581.9999999999999
 31
0.0
  0
LINE
  5
3904
330
1F
100
AcDbEntity
  8
HATCH
  6
Continuous
100
AcDbLine
 10
2097.899141410369
 20
546.9999999999998
 30
0.0
 11
2062.899141410369
 21
581.9999999999995
 31
0.0
  0
LINE
  5
3905
330
1F
100
AcDbEntity
  8
HATCH
  6
Continuous
100
AcDbLine
 10
2111.369525591972
 20
547.0
 30
0.0
 11
2076.369525591973
 21
581.9999999999997
 31
0.0
  0
LINE
  5
3906
330
1F
100
AcDbEntity
  8
HATCH
  6
Continuous
100
AcDbLine
 10
2124.839909773576
 20
546.9999999999997
 30
0.0
 11
2089.839909773576
 21
581.9999999999996
 31
0.0
  0
LINE
  5
3907
330
1F
100
AcDbEntity
  8
HATCH
  6
Continuous
100
AcDbLine
 10
2138.31029395518
 20
546.9999999999998
 30
0.0
 11
2103.31029395518
 21
581.9999999999999
 31
0.0
  0
LINE
  5
3908
330
1F
100
AcDbEntity
  8
HATCH
  6
Continuous
100
AcDbLine
 10
2151.780678136784
 20
546.9999999999998
 30
0.0
 11
2116.780678136784
 21
581.9999999999999
 31
0.0
  0
LINE
  5
3909
330
1F
100
AcDbEntity
  8
HATCH
  6
Continuous
100
AcDbLine
 10
2165.251062318387
 20
546.9999999999998
 30
0.0
 11
2130.251062318387
 21
581.9999999999995
 31
0.0
  0
LINE
  5
390A
330
1F
100
AcDbEntity
  8
HATCH
  6
Continuous
100
AcDbLine
 10
2178.721446499991
 20
547.0
 30
0.0
 11
2143.721446499991
 21
581.9999999999997
 31
0.0
  0
LINE
  5
390B
330
1F
100
AcDbEntity
  8
HATCH
  6
Continuous
100
AcDbLine
 10
2192.191830681595
 20
546.9999999999997
 30
0.0
 11
2157.191830681595
 21
581.9999999999997
 31
0.0
  0
LINE
  5
390C
330
1F
100
AcDbEntity
  8
HATCH
  6
Continuous
100
AcDbLine
 10
2205.662214863199
 20
546.9999999999998
 30
0.0
 11
2170.662214863198
 21
581.9999999999999
 31
0.0
  0
LINE
  5
390D
330
1F
100
AcDbEntity
  8
HATCH
  6
Continuous
100
AcDbLine
 10
2219.132599044802
 20
546.9999999999998
 30
0.0
 11
2184.132599044803
 21
581.9999999999999
 31
0.0
  0
LINE
  5
390E
330
1F
100
AcDbEntity
  8
HATCH
  6
Continuous
100
AcDbLine
 10
2232.602983226406
 20
546.9999999999998
 30
0.0
 11
2197.602983226406
 21
581.9999999999995
 31
0.0
  0
LINE
  5
390F
330
1F
100
AcDbEntity
  8
HATCH
  6
Continuous
100
AcDbLine
 10
2246.073367408009
 20
547.0
 30
0.0
 11
2211.07336740801
 21
581.9999999999997
 31
0.0
  0
LINE
  5
3910
330
1F
100
AcDbEntity
  8
HATCH
  6
Continuous
100
AcDbLine
 10
2259.543751589613
 20
547.0
 30
0.0
 11
2224.543751589613
 21
581.9999999999997
 31
0.0
  0
LINE
  5
3911
330
1F
100
AcDbEntity
  8
HATCH
  6
Continuous
100
AcDbLine
 10
2273.014135771217
 20
546.9999999999998
 30
0.0
 11
2238.014135771217
 21
581.9999999999999
 31
0.0
  0
LINE
  5
3912
330
1F
100
AcDbEntity
  8
HATCH
  6
Continuous
100
AcDbLine
 10
2280.0
 20
553.4845199528202
 30
0.0
 11
2251.484519952821
 21
581.9999999999999
 31
0.0
  0
LINE
  5
3913
330
1F
100
AcDbEntity
  8
HATCH
  6
Continuous
100
AcDbLine
 10
2280.0
 20
566.9549041344238
 30
0.0
 11
2264.954904134425
 21
581.9999999999995
 31
0.0
  0
LINE
  5
3914
330
1F
100
AcDbEntity
  8
HATCH
  6
Continuous
100
AcDbLine
 10
2280.0
 20
580.4252883160278
 30
0.0
 11
2278.425288316029
 21
581.9999999999997
 31
0.0
  0
LWPOLYLINE
  5
3915
330
1F
100
AcDbEntity
  8
KANAMONO
100
AcDbPolyline
 90
        4
 70
     0
 43
0.0
 10
1966.400000000001
 20
548.5
 10
1880.0
 20
548.5
 10
1880.0
 20
547.0
 10
1966.400000000001
 20
547.0
  0
LWPOLYLINE
  5
3916
330
1F
100
AcDbEntity
  8
KANAMONO
100
AcDbPolyline
 90
        4
 70
     1
 43
0.0
 10
1966.400000000001
 20
547.0
 10
1967.900000000001
 20
547.0
 10
1967.900000000001
 20
753.5
 10
1966.400000000001
 20
753.5
  0
LWPOLYLINE
  5
3917
330
1F
100
AcDbEntity
  8
KANAMONO
100
AcDbPolyline
 90
        4
 70
     1
 43
0.0
 10
1992.100000000001
 20
547.0
 10
1993.6
 20
547.0
 10
1993.6
 20
753.5
 10
1992.100000000001
 20
753.5
  0
LWPOLYLINE
  5
3918
330
1F
100
AcDbEntity
  8
KANAMONO
100
AcDbPolyline
 90
        4
 70
     0
 43
0.0
 10
1993.6
 20
547.0
 10
2080.0
 20
547.0
 10
2080.0
 20
548.5
 10
1993.6
 20
548.5
  0
LINE
  5
3919
330
1F
100
AcDbEntity
  8
KANAMONO
370
     5
100
AcDbLine
 10
1967.900000000001
 20
547.0
 30
0.0
 11
1992.100000000001
 21
547.0
 31
0.0
  0
LINE
  5
391A
330
1F
100
AcDbEntity
  8
KANAMONO
370
     5
100
AcDbLine
 10
1967.900000000001
 20
548.5
 30
0.0
 11
1992.100000000001
 21
548.5
 31
0.0
  0
LWPOLYLINE
  5
391B
330
1F
100
AcDbEntity
  8
KANAMONO
100
AcDbPolyline
 90
        6
 70
     1
 43
0.0
 10
1993.700000000001
 20
663.4999999999999
 10
1998.850000000001
 20
663.4999999999999
 10
1998.850000000001
 20
660.5
 10
1998.150000000001
 20
660.5
 10
1998.150000000001
 20
662.8000000000001
 10
1993.700000000001
 20
662.8000000000001
  0
LWPOLYLINE
  5
391C
330
1F
100
AcDbEntity
  8
KANAMONO
100
AcDbPolyline
 90
        6
 70
     1
 43
0.0
 10
1966.300000000001
 20
663.4999999999999
 10
1961.150000000001
 20
663.4999999999999
 10
1961.150000000001
 20
660.5
 10
1961.850000000001
 20
660.5
 10
1961.850000000001
 20
662.8000000000001
 10
1966.300000000001
 20
662.8000000000001
  0
LWPOLYLINE
  5
391D
330
1F
100
AcDbEntity
  8
KANAMONO
100
AcDbPolyline
 90
        6
 70
     1
 43
0.0
 10
1993.700000000001
 20
743.5
 10
1998.850000000001
 20
743.5
 10
1998.850000000001
 20
740.5
 10
1998.150000000001
 20
740.5
 10
1998.150000000001
 20
742.8000000000001
 10
1993.700000000001
 20
742.8000000000001
  0
LWPOLYLINE
  5
391E
330
1F
100
AcDbEntity
  8
KANAMONO
100
AcDbPolyline
 90
        6
 70
     1
 43
0.0
 10
1966.300000000001
 20
743.5
 10
1961.150000000001
 20
743.5
 10
1961.150000000001
 20
740.5
 10
1961.850000000001
 20
740.5
 10
1961.850000000001
 20
742.8000000000001
 10
1966.300000000001
 20
742.8000000000001
  0
LINE
  5
391F
330
1F
100
AcDbEntity
  8
KANAMONO
370
     5
100
AcDbLine
 10
1967.900000000001
 20
753.5
 30
0.0
 11
1992.100000000001
 21
753.5
 31
0.0
  0
LWPOLYLINE
  5
3920
330
1F
100
AcDbEntity
  8
KANAMONO
100
AcDbPolyline
 90
       16
 70
     1
 43
0.0
 10
2020.000000000001
 20
638.4999999999999
 10
2020.000000000001
 20
778.3707503932705
 42
0.3348602696008476
 10
2015.068103669703
 20
784.9091132372282
 10
2002.500000000001
 20
788.4999999999999
 10
1957.500000000001
 20
788.4999999999999
 10
1944.931896330298
 20
784.9091132372282
 42
0.3348602696008476
 10
1940.000000000001
 20
778.3707503932705
 10
1940.000000000001
 20
638.4999999999999
 10
1940.800000000001
 20
638.4999999999999
 10
1940.800000000001
 20
778.3707503932705
 42
-0.3348602696008326
 10
1945.151673232617
 20
784.1398940791155
 10
1957.612043955712
 20
787.6999999999998
 10
2002.387956044289
 20
787.6999999999998
 10
2014.848326767386
 20
784.1398940791159
 42
-0.3348602696008298
 10
2019.200000000001
 20
778.3707503932705
 10
2019.200000000001
 20
638.4999999999999
  0
LWPOLYLINE
  5
3921
330
1F
100
AcDbEntity
  8
KANAMONO
100
AcDbPolyline
 90
       16
 70
     1
 43
0.0
 10
1960.000000000001
 20
773.6999999999998
 10
1960.000000000001
 20
783.1999999999998
 42
-0.4142135623730951
 10
1964.500000000001
 20
787.6999999999998
 10
1995.500000000001
 20
787.6999999999998
 42
-0.4142135623730951
 10
2000.000000000001
 20
783.1999999999998
 10
2000.000000000001
 20
773.6999999999998
 10
1999.188000000001
 20
773.6999999999998
 10
1999.188000000001
 20
760.6999999999998
 10
1998.500000000001
 20
760.6999999999998
 10
1998.500000000001
 20
783.1999999999998
 42
0.4142135623731117
 10
1995.500000000001
 20
786.1999999999998
 10
1964.500000000001
 20
786.1999999999998
 42
0.4142135623731784
 10
1961.5
 20
783.1999999999998
 10
1961.500000000001
 20
760.6999999999998
 10
1960.812000000002
 20
760.6999999999998
 10
1960.812000000002
 20
773.6999999999998
  0
LWPOLYLINE
  5
3922
330
1F
100
AcDbEntity
  8
KANAMONO
100
AcDbPolyline
 90
        4
 70
     0
 43
0.0
 10
1999.188000000001
 20
773.6999999999998
 10
2000.000000000002
 20
773.4824252557464
 10
2000.000000000001
 20
760.9175747442536
 10
1999.188000000001
 20
760.6999999999998
  0
LINE
  5
3923
330
1F
100
AcDbEntity
  8
KANAMONO
370
     5
100
AcDbLine
 10
2000.000000000001
 20
776.4999999999995
 30
0.0
 11
1998.500000000001
 21
776.4999999999995
 31
0.0
  0
LWPOLYLINE
  5
3924
330
1F
100
AcDbEntity
  8
KANAMONO
100
AcDbPolyline
 90
        4
 70
     0
 43
0.0
 10
1960.812000000001
 20
773.6999999999998
 10
1960.000000000001
 20
773.4824252557464
 10
1960.000000000001
 20
760.9175747442536
 10
1960.812000000001
 20
760.6999999999998
  0
LINE
  5
3925
330
1F
100
AcDbEntity
  8
KANAMONO
370
     5
100
AcDbLine
 10
1961.500000000001
 20
776.4999999999995
 30
0.0
 11
1960.000000000001
 21
776.4999999999995
 31
0.0
  0
LINE
  5
3926
330
1F
100
AcDbEntity
  8
KANAMONO
370
     5
100
AcDbLine
 10
1999.808131845709
 20
784.4999999999995
 30
0.0
 11
1998.203701166921
 21
784.4999999999995
 31
0.0
  0
LINE
  5
3927
330
1F
100
AcDbEntity
  8
KANAMONO
370
     5
100
AcDbLine
 10
1961.796298833081
 20
784.4999999999995
 30
0.0
 11
1960.191868154293
 21
784.4999999999995
 31
0.0
  0
LWPOLYLINE
  5
3928
330
1F
100
AcDbEntity
  8
KANAMONO
100
AcDbPolyline
 90
       12
 70
     1
 43
0.0
 10
2019.000000000001
 20
638.4999999999999
 10
2019.000000000001
 20
646.8000000000001
 42
0.4142135623730951
 10
2017.300000000001
 20
648.5
 10
2012.350000000001
 20
648.5
 42
-0.4142135623730951
 10
2012.050000000001
 20
648.8000000000002
 10
2012.050000000001
 20
651.5
 10
2011.350000000001
 20
651.5
 10
2011.350000000001
 20
648.7999999999987
 42
0.4142135623721311
 10
2012.35
 20
647.8000000000001
 10
2017.300000000001
 20
647.7999999999997
 42
-0.4142135623733347
 10
2018.300000000001
 20
646.8000000000001
 10
2018.300000000001
 20
638.4999999999999
  0
LWPOLYLINE
  5
3929
330
1F
100
AcDbEntity
  8
KANAMONO
100
AcDbPolyline
 90
        4
 70
     1
 43
0.0
 10
2130.000000000001
 20
582.0
 10
2130.000000000001
 20
583.4999999999999
 10
1830.000000000001
 20
583.4999999999999
 10
1830.000000000001
 20
582.0
  0
LINE
  5
392A
330
1F
100
AcDbEntity
  8
KANAMONO
  6
DASHED
100
AcDbLine
 10
1960.15
 20
727.6415388154045
 30
0.0
 11
1960.15
 21
583.4999999999999
 31
0.0
  0
LINE
  5
392B
330
1F
100
AcDbEntity
  8
KANAMONO
  6
DASHED
100
AcDbLine
 10
1999.850000000001
 20
729.3584611845944
 30
0.0
 11
1999.850000000001
 21
583.4999999999999
 31
0.0
  0
LWPOLYLINE
  5
392C
330
1F
100
AcDbEntity
  8
KANAMONO
100
AcDbPolyline
 90
        9
 70
     0
 43
0.0
 10
1999.850000000001
 20
729.3584611845944
 10
1999.850000000001
 20
761.0980762113536
 10
1999.188000000001
 20
762.2446938459647
 10
2000.000000000001
 20
762.2446938459652
 10
2000.000000000001
 20
773.5
 10
2000.688000000001
 20
773.5
 10
2000.688000000001
 20
762.6466176346111
 10
2001.350000000002
 20
761.5
 10
2001.350000000002
 20
583.4999999999999
  0
LWPOLYLINE
  5
392D
330
1F
100
AcDbEntity
  8
KANAMONO
100
AcDbPolyline
 90
        9
 70
     0
 43
0.0
 10
1960.15
 20
727.6415388154045
 10
1960.15
 20
761.0980762113536
 10
1960.812000000002
 20
762.2446938459647
 10
1960.000000000001
 20
762.2446938459652
 10
1960.000000000001
 20
773.5
 10
1959.312000000001
 20
773.5
 10
1959.312000000001
 20
762.6466176346111
 10
1958.65
 20
761.5
 10
1958.65
 20
583.4999999999999
  0
LWPOLYLINE
  5
392E
330
1F
100
AcDbEntity
  8
KANAMONO
100
AcDbPolyline
 90
        4
 70
     0
 43
0.0
 10
2000.000000000001
 20
773.5
 10
1999.188000000001
 20
773.2824252557461
 10
1999.188000000001
 20
762.4622685902186
 10
2000.000000000001
 20
762.2446938459652
  0
LWPOLYLINE
  5
392F
330
1F
100
AcDbEntity
  8
KANAMONO
100
AcDbPolyline
 90
        4
 70
     0
 43
0.0
 10
1960.000000000001
 20
773.5
 10
1960.812000000001
 20
773.2824252557461
 10
1960.812000000001
 20
762.4622685902186
 10
1960.000000000001
 20
762.2446938459652
  0
LWPOLYLINE
  5
3930
330
1F
100
AcDbEntity
  8
KANAMONO
100
AcDbPolyline
 90
       12
 70
     1
 43
0.0
 10
1941.000000000001
 20
638.4999999999999
 10
1941.000000000001
 20
646.8000000000001
 42
-0.4142135623730951
 10
1942.700000000001
 20
648.5
 10
1947.65
 20
648.5
 42
0.4142135623730951
 10
1947.950000000001
 20
648.8000000000002
 10
1947.950000000001
 20
651.5
 10
1948.65
 20
651.5
 10
1948.65
 20
648.7999999999987
 42
-0.4142135623721311
 10
1947.650000000001
 20
647.8000000000001
 10
1942.700000000001
 20
647.7999999999997
 42
0.4142135623733347
 10
1941.700000000001
 20
646.8000000000001
 10
1941.700000000001
 20
638.4999999999999
  0
ELLIPSE
  5
3931
330
1F
100
AcDbEntity
  8
KANAMONO
370
     5
100
AcDbEllipse
 10
1989.797958971134
 20
780.5
 30
0.0
 11
-0.000000000000001
 21
-4.0
 31
0.0
210
0.0
220
0.0
230
-1.0
 40
0.8660254037844197
 41
0.0
 42
6.283185307179586
  0
ELLIPSE
  5
3932
330
1F
100
AcDbEntity
  8
KANAMONO
370
     5
100
AcDbEllipse
 10
1970.202041028868
 20
780.5
 30
0.0
 11
-0.000000000000001
 21
-4.0
 31
0.0
210
0.0
220
0.0
230
1.0
 40
0.8660254037844197
 41
0.0
 42
6.283185307179586
  0
LINE
  5
3933
330
1F
100
AcDbEntity
  8
KANAMONO
370
     5
100
AcDbLine
 10
1961.500000000001
 20
760.6999999999998
 30
0.0
 11
1998.500000000001
 21
760.6999999999998
 31
0.0
  0
LINE
  5
3934
330
1F
100
AcDbEntity
  8
WAKU
100
AcDbLine
 10
2760.000000000001
 20
1790.0
 30
0.0
 11
0.0
 21
1790.0
 31
0.0
  0
LINE
  5
3935
330
1F
100
AcDbEntity
  8
WAKU
100
AcDbLine
 10
0.0
 20
1790.0
 30
0.0
 11
0.0
 21
1910.0
 31
0.0
  0
LINE
  5
3936
330
1F
100
AcDbEntity
  8
WAKU
100
AcDbLine
 10
0.0
 20
1910.0
 30
0.0
 11
2760.000000000001
 21
1910.0
 31
0.0
  0
LINE
  5
3937
330
1F
100
AcDbEntity
  8
WAKU
100
AcDbLine
 10
2760.000000000001
 20
1910.0
 30
0.0
 11
2760.000000000001
 21
1790.0
 31
0.0
  0
LINE
  5
3938
330
1F
100
AcDbEntity
  8
WAKU
100
AcDbLine
 10
0.0
 20
0.0
 30
0.0
 11
2760.000000000001
 21
0.0
 31
0.0
  0
LINE
  5
3939
330
1F
100
AcDbEntity
  8
WAKU
100
AcDbLine
 10
2760.000000000001
 20
0.0
 30
0.0
 11
2760.000000000001
 21
1910.0
 31
0.0
  0
LINE
  5
393A
330
1F
100
AcDbEntity
  8
WAKU
100
AcDbLine
 10
2760.000000000001
 20
1910.0
 30
0.0
 11
0.0
 21
1910.0
 31
0.0
  0
LINE
  5
393B
330
1F
100
AcDbEntity
  8
WAKU
100
AcDbLine
 10
0.0
 20
1910.0
 30
0.0
 11
0.0
 21
0.0
 31
0.0
  0
ENDSEC
  0
SECTION
  2
OBJECTS
  0
DICTIONARY
  5
C
330
0
100
AcDbDictionary
281
     1
  3
ACAD_CIP_PREVIOUS_PRODUCT_INFO
350
2FD8
  3
ACAD_COLOR
350
2E82
  3
ACAD_DETAILVIEWSTYLE
350
2FD3
  3
ACAD_GROUP
350
D
  3
ACAD_LAYOUT
350
1A
  3
ACAD_MATERIAL
350
2E55
  3
ACAD_MLEADERSTYLE
350
2E97
  3
ACAD_MLINESTYLE
350
17
  3
ACAD_PLOTSETTINGS
350
19
  3
ACAD_PLOTSTYLENAME
350
E
  3
ACAD_SCALELIST
350
2E85
  3
ACAD_SECTIONVIEWSTYLE
350
2FD1
  3
ACAD_TABLESTYLE
350
2E83
  3
ACAD_VISUALSTYLE
350
2E6E
  3
ACDB_RECOMPOSE_DATA
350
393E
  3
AcDbVariableDictionary
350
1835
  3
AEC_PROPERTY_SET_DEFS
350
3037
  3
DWGPROPS
350
393F
  0
DICTIONARY
  5
2EB4
330
8
100
AcDbDictionary
280
     1
281
     1
  0
DICTIONARY
  5
2D
330
2
100
AcDbDictionary
280
     1
281
     1
  3
ACAD_LAYERFILTERS
360
2E
  3
ACAD_LAYERSTATES
360
918
  0
DICTIONARY
  5
2E9E
330
10
100
AcDbDictionary
280
     1
281
     1
  3
ADSK_XREC_LAYER_RECONCILED
360
2E9F
  0
DICTIONARY
  5
2EA0
330
2294
100
AcDbDictionary
280
     1
281
     1
  3
ADSK_XREC_LAYER_RECONCILED
360
2EA1
  0
DICTIONARY
  5
2EA2
330
235F
100
AcDbDictionary
280
     1
281
     1
  3
ADSK_XREC_LAYER_RECONCILED
360
2EA3
  0
DICTIONARY
  5
2EA4
330
2360
100
AcDbDictionary
280
     1
281
     1
  3
ADSK_XREC_LAYER_RECONCILED
360
2EA5
  0
DICTIONARY
  5
2EA6
330
2361
100
AcDbDictionary
280
     1
281
     1
  3
ADSK_XREC_LAYER_RECONCILED
360
2EA7
  0
DICTIONARY
  5
2EA8
330
2363
100
AcDbDictionary
280
     1
281
     1
  3
ADSK_XREC_LAYER_RECONCILED
360
2EA9
  0
DICTIONARY
  5
2EAA
330
2364
100
AcDbDictionary
280
     1
281
     1
  3
ADSK_XREC_LAYER_RECONCILED
360
2EAB
  0
DICTIONARY
  5
2EAC
330
2501
100
AcDbDictionary
280
     1
281
     1
  3
ADSK_XREC_LAYER_RECONCILED
360
2EAD
  0
DICTIONARY
  5
2EAE
330
27C0
100
AcDbDictionary
280
     1
281
     1
  3
ADSK_XREC_LAYER_RECONCILED
360
2EAF
  0
DICTIONARY
  5
3025
330
3024
100
AcDbDictionary
280
     1
281
     1
  0
DICTIONARY
  5
1C62
330
1F
100
AcDbDictionary
280
     1
281
     1
  3
ACAD_SORTENTS
360
1C63
  0
XRECORD
  5
2FD8
102
{ACAD_REACTORS
330
C
102
}
330
C
100
AcDbXrecord
280
     1
300
ACD
300
2022
300

  0
DICTIONARY
  5
2E82
102
{ACAD_REACTORS
330
C
102
}
330
C
100
AcDbDictionary
281
     1
  0
DICTIONARY
  5
2FD3
102
{ACAD_REACTORS
330
C
102
}
330
C
100
AcDbDictionary
281
     1
  3
Metric50
350
2FD4
  0
DICTIONARY
  5
D
102
{ACAD_REACTORS
330
C
102
}
330
C
100
AcDbDictionary
281
     1
  0
DICTIONARY
  5
1A
102
{ACAD_REACTORS
330
C
102
}
330
C
100
AcDbDictionary
281
     1
  3
Model
350
22
  3
\U+FF9A\U+FF72\U+FF71\U+FF73\U+FF841
350
1CD1
  0
DICTIONARY
  5
2E55
102
{ACAD_REACTORS
330
C
102
}
330
C
100
AcDbDictionary
281
     1
  3
ByBlock
350
2E5E
  3
ByLayer
350
2E56
  3
Global
350
2E66
  0
DICTIONARY
  5
2E97
102
{ACAD_REACTORS
330
C
102
}
330
C
100
AcDbDictionary
281
     1
  3
Standard
350
2E98
  0
DICTIONARY
  5
17
102
{ACAD_REACTORS
330
C
102
}
330
C
100
AcDbDictionary
281
     1
  3
Standard
350
18
  0
DICTIONARY
  5
19
102
{ACAD_REACTORS
330
C
102
}
330
C
100
AcDbDictionary
281
     1
  0
ACDBDICTIONARYWDFLT
  5
E
102
{ACAD_REACTORS
330
C
102
}
330
C
100
AcDbDictionary
281
     1
  3
Normal
350
F
  3
通常
350
29
100
AcDbDictionaryWithDefault
340
F
  0
DICTIONARY
  5
2E85
102
{ACAD_REACTORS
330
C
102
}
330
C
100
AcDbDictionary
281
     1
  3
A0
350
2E86
  3
A1
350
2E87
  3
A2
350
2E88
  3
A3
350
2E89
  3
A4
350
2E8A
  3
A5
350
2E8B
  3
A6
350
2E8C
  3
A7
350
2E8D
  3
A8
350
2E8E
  3
A9
350
2E8F
  3
B0
350
2E90
  3
B1
350
2E91
  3
B2
350
2E92
  3
B3
350
2E93
  3
B4
350
2E94
  3
B5
350
2E95
  3
B6
350
2E96
  0
DICTIONARY
  5
2FD1
102
{ACAD_REACTORS
330
C
102
}
330
C
100
AcDbDictionary
281
     1
  3
Metric50
350
2FD2
  0
DICTIONARY
  5
2E83
102
{ACAD_REACTORS
330
C
102
}
330
C
100
AcDbDictionary
281
     1
  3
Standard
350
2E84
  0
DICTIONARY
  5
2E6E
102
{ACAD_REACTORS
330
C
102
}
330
C
100
AcDbDictionary
281
     1
  3
2dWireframe
350
2E74
  3
3D Hidden
350
2E76
  3
3dWireframe
350
2E75
  3
Basic
350
2E73
  3
Brighten
350
2E7A
  3
ColorChange
350
2E7E
  3
Conceptual
350
2E77
  3
Dim
350
2E79
  3
EdgeColorOff
350
2E81
  3
Facepattern
350
2E7D
  3
Flat
350
2E6F
  3
FlatWithEdges
350
2E70
  3
Gouraud
350
2E71
  3
GouraudWithEdges
350
2E72
  3
Hidden
350
2FCB
  3
JitterOff
350
2E7F
  3
Linepattern
350
2E7C
  3
OverhangOff
350
2E80
  3
Realistic
350
2E78
  3
Shaded
350
2FD0
  3
Shaded with edges
350
2FCF
  3
Shades of Gray
350
2FCC
  3
Sketchy
350
2FCD
  3
Thicken
350
2E7B
  3
Wireframe
350
2FCA
  3
X-Ray
350
2FCE
  0
XRECORD
  5
393E
102
{ACAD_REACTORS
330
C
102
}
330
C
100
AcDbXrecord
280
     1
 90
        1
330
2E84
  0
DICTIONARY
  5
1835
102
{ACAD_REACTORS
330
C
102
}
330
C
100
AcDbDictionary
281
     1
  3
CANNOSCALE
350
2EE7
  3
CMLEADERSTYLE
350
2EE6
  3
CTABLESTYLE
350
2EE5
  3
CVIEWDETAILSTYLE
350
301D
  3
CVIEWSECTIONSTYLE
350
301E
  3
DIMASSOC
350
2EE9
  3
INDEXCTL
350
2EE8
  3
SORTENTS
350
1836
  3
XCLIPFRAME
350
393C
  0
DICTIONARY
  5
3037
102
{ACAD_REACTORS
330
C
102
}
330
C
100
AcDbDictionary
281
     1
  0
XRECORD
  5
393F
102
{ACAD_REACTORS
330
C
102
}
330
C
100
AcDbXrecord
280
     1
  1
DWGPROPS COOKIE
  2

  3

  4

  6

  7

  8
2020009
  9

300
=
301
=
302
=
303
=
304
=
305
=
306
=
307
=
308
=
309
=
 40
0.3509233217592593
 41
2453276.413761574
 42
2459970.704340278
  1

 90
        0
  0
DICTIONARY
  5
2E
102
{ACAD_REACTORS
330
2D
102
}
330
2D
100
AcDbDictionary
280
     1
281
     1
  0
DICTIONARY
  5
918
102
{ACAD_REACTORS
330
2D
102
}
330
2D
100
AcDbDictionary
281
     1
  0
XRECORD
  5
2E9F
102
{ACAD_REACTORS
330
2E9E
102
}
330
2E9E
100
AcDbXrecord
280
     1
290
     1
  0
XRECORD
  5
2EA1
102
{ACAD_REACTORS
330
2EA0
102
}
330
2EA0
100
AcDbXrecord
280
     1
290
     1
  0
XRECORD
  5
2EA3
102
{ACAD_REACTORS
330
2EA2
102
}
330
2EA2
100
AcDbXrecord
280
     1
290
     1
  0
XRECORD
  5
2EA5
102
{ACAD_REACTORS
330
2EA4
102
}
330
2EA4
100
AcDbXrecord
280
     1
290
     1
  0
XRECORD
  5
2EA7
102
{ACAD_REACTORS
330
2EA6
102
}
330
2EA6
100
AcDbXrecord
280
     1
290
     1
  0
XRECORD
  5
2EA9
102
{ACAD_REACTORS
330
2EA8
102
}
330
2EA8
100
AcDbXrecord
280
     1
290
     1
  0
XRECORD
  5
2EAB
102
{ACAD_REACTORS
330
2EAA
102
}
330
2EAA
100
AcDbXrecord
280
     1
290
     1
  0
XRECORD
  5
2EAD
102
{ACAD_REACTORS
330
2EAC
102
}
330
2EAC
100
AcDbXrecord
280
     1
290
     1
  0
XRECORD
  5
2EAF
102
{ACAD_REACTORS
330
2EAE
102
}
330
2EAE
100
AcDbXrecord
280
     1
290
     1
  0
SORTENTSTABLE
  5
1C63
102
{ACAD_REACTORS
330
1C62
102
}
330
1C62
100
AcDbSortentsTable
330
1F
331
24F1
  5
2502
331
24F2
  5
2511
331
24F4
  5
289F
331
24F5
  5
28A1
331
2502
  5
28B4
331
2511
  5
28B8
331
289F
  5
2DF8
331
28A1
  5
2E02
331
28B4
  5
2E05
331
28B8
  5
2E0A
331
28BA
  5
2E0B
331
28BE
  5
303B
331
28BF
  5
303C
331
28C0
  5
303E
331
28C1
  5
303F
331
28CA
  5
32E1
331
28CB
  5
32E3
331
28D0
  5
377B
331
28D1
  5
377C
331
28D3
  5
377F
331
28D5
  5
3780
331
28D6
  5
3781
331
28E4
  5
3788
331
28E9
  5
378B
331
28EA
  5
378C
331
28EB
  5
378D
331
28EC
  5
378E
331
28ED
  5
378F
331
28EE
  5
3790
331
2960
  5
3791
331
2A0D
  5
3792
331
2A0E
  5
3793
331
2A0F
  5
3794
331
2A10
  5
3795
331
2A14
  5
3796
331
2A15
  5
3797
331
2B4B
  5
3823
331
2BD1
  5
3833
331
2CAE
  5
38FA
331
2DF0
  5
38FB
331
2DF1
  5
38FC
331
2DF2
  5
38FD
331
2DF6
  5
38FE
331
2DF7
  5
38FF
331
2DF8
  5
3900
331
2E02
  5
3901
331
2E03
  5
3902
331
2E04
  5
3903
331
2E05
  5
3904
331
2E06
  5
3905
331
2E07
  5
3906
331
2E08
  5
3907
331
2E09
  5
3908
331
2E0A
  5
3909
331
2E0B
  5
390A
331
2E0C
  5
390B
331
2E0D
  5
390C
331
303B
  5
3930
331
303C
  5
3931
331
303E
  5
3936
331
303F
  5
3937
331
3040
  5
3938
331
325D
  5
3939
331
32E1
  5
393A
331
32E3
  5
393B
331
3779
  5
24F1
331
377A
  5
24F2
331
377B
  5
24F4
331
377C
  5
24F5
331
377D
  5
28BA
331
377E
  5
28BE
331
377F
  5
28BF
331
3780
  5
28C0
331
3781
  5
28C1
331
3782
  5
28CA
331
3783
  5
28CB
331
3784
  5
28D0
331
3785
  5
28D1
331
3786
  5
28D3
331
3787
  5
28D5
331
3788
  5
28D6
331
3789
  5
28E4
331
378A
  5
28E9
331
378B
  5
28EA
331
378C
  5
28EB
331
378D
  5
28EC
331
378E
  5
28ED
331
378F
  5
28EE
331
3790
  5
2960
331
3791
  5
2A0D
331
3792
  5
2A0E
331
3793
  5
2A0F
331
3794
  5
2A10
331
3795
  5
2A14
331
3796
  5
2A15
331
3797
  5
2B4B
331
3798
  5
2BD1
331
3799
  5
2CAE
331
379A
  5
2DF0
331
379B
  5
2DF1
331
379C
  5
2DF2
331
379D
  5
2DF6
331
379E
  5
2DF7
331
379F
  5
2E03
331
37A0
  5
2E04
331
37A1
  5
2E06
331
37A2
  5
2E07
331
37A3
  5
2E08
331
37A4
  5
2E09
331
37A5
  5
2E0C
331
37A6
  5
2E0D
331
37A7
  5
3040
331
37A8
  5
325D
331
37A9
  5
3779
331
37AA
  5
377A
331
37AB
  5
377D
331
37AC
  5
377E
331
37AD
  5
3782
331
37AE
  5
3783
331
37AF
  5
3784
331
37B0
  5
3785
331
37B1
  5
3786
331
37B2
  5
3787
331
37B3
  5
3789
331
37B4
  5
378A
331
37B5
  5
3798
331
37B6
  5
3799
331
37B7
  5
379A
331
37B8
  5
379B
331
37B9
  5
379C
331
37BA
  5
379D
331
37BB
  5
379E
331
37BC
  5
379F
331
37BD
  5
37A0
331
37BE
  5
37A1
331
37BF
  5
37A2
331
37C0
  5
37A3
331
37C1
  5
37A4
331
37C2
  5
37A5
331
37C3
  5
37A6
331
37C4
  5
37A7
331
37C5
  5
37A8
331
37C6
  5
37A9
331
37C7
  5
37AA
331
37C8
  5
37AB
331
37C9
  5
37AC
331
37CA
  5
37AD
331
37CB
  5
37AE
331
37CC
  5
37AF
331
37CD
  5
37B0
331
37CE
  5
37B1
331
37CF
  5
37B2
331
37D0
  5
37B3
331
37D1
  5
37B4
331
37D2
  5
37B5
331
37D3
  5
37B6
331
37D4
  5
37B7
331
37D5
  5
37B8
331
37D6
  5
37B9
331
37D7
  5
37BA
331
37D8
  5
37BB
331
37D9
  5
37BC
331
37DA
  5
37BD
331
37DB
  5
37BE
331
37DC
  5
37BF
331
37DD
  5
37C0
331
37DE
  5
37C1
331
37DF
  5
37C2
331
37E0
  5
37C3
331
37E1
  5
37C4
331
37E2
  5
37C5
331
37E3
  5
37C6
331
37E4
  5
37C7
331
37E5
  5
37C8
331
37E6
  5
37C9
331
37E7
  5
37CA
331
37E8
  5
37CB
331
37E9
  5
37CC
331
37EA
  5
37CD
331
37EB
  5
37CE
331
37EC
  5
37CF
331
37ED
  5
37D0
331
37EE
  5
37D1
331
37EF
  5
37D2
331
37F0
  5
37D3
331
37F1
  5
37D4
331
37F2
  5
37D5
331
37F3
  5
37D6
331
37F4
  5
37D7
331
37F5
  5
37D8
331
37F6
  5
37D9
331
37F7
  5
37DA
331
37F8
  5
37DB
331
37F9
  5
37DC
331
37FA
  5
37DD
331
37FB
  5
37DE
331
37FC
  5
37DF
331
37FD
  5
37E0
331
37FE
  5
37E1
331
37FF
  5
37E2
331
3800
  5
37E3
331
3801
  5
37E4
331
3802
  5
37E5
331
3803
  5
37E6
331
3804
  5
37E7
331
3805
  5
37E8
331
3806
  5
37E9
331
3807
  5
37EA
331
3808
  5
37EB
331
3809
  5
37EC
331
380A
  5
37ED
331
380B
  5
37EE
331
380C
  5
37EF
331
380D
  5
37F0
331
380E
  5
37F1
331
380F
  5
37F2
331
3810
  5
37F3
331
3811
  5
37F4
331
3812
  5
37F5
331
3813
  5
37F6
331
3814
  5
37F7
331
3815
  5
37F8
331
3816
  5
37F9
331
3817
  5
37FA
331
3818
  5
37FB
331
3819
  5
37FC
331
381A
  5
37FD
331
381B
  5
37FE
331
381C
  5
37FF
331
381D
  5
3800
331
381E
  5
3801
331
381F
  5
3802
331
3820
  5
3803
331
3821
  5
3804
331
3822
  5
3805
331
3823
  5
3806
331
3824
  5
3807
331
3825
  5
3808
331
3826
  5
3809
331
3827
  5
380A
331
3828
  5
380B
331
3829
  5
380C
331
382A
  5
380D
331
382B
  5
380E
331
382C
  5
380F
331
382D
  5
3810
331
382E
  5
3811
331
382F
  5
3812
331
3830
  5
3813
331
3831
  5
3814
331
3832
  5
3815
331
3833
  5
3816
331
3834
  5
3817
331
3835
  5
3818
331
3836
  5
3819
331
3837
  5
381A
331
3838
  5
381B
331
3839
  5
381C
331
383A
  5
381D
331
383B
  5
381E
331
383C
  5
381F
331
383D
  5
3820
331
383E
  5
3821
331
383F
  5
3822
331
3840
  5
3824
331
3841
  5
3825
331
3842
  5
3826
331
3843
  5
3827
331
3844
  5
3828
331
3845
  5
3829
331
3846
  5
382A
331
3847
  5
382B
331
3848
  5
382C
331
3849
  5
382D
331
384A
  5
382E
331
384B
  5
382F
331
384C
  5
3830
331
384D
  5
3831
331
384E
  5
3832
331
384F
  5
3834
331
3850
  5
3835
331
3851
  5
3836
331
3852
  5
3837
331
3853
  5
3838
331
3854
  5
3839
331
3855
  5
383A
331
3856
  5
383B
331
3857
  5
383C
331
3858
  5
383D
331
3859
  5
383E
331
385A
  5
383F
331
385B
  5
3840
331
385C
  5
3841
331
385D
  5
3842
331
385E
  5
3843
331
385F
  5
3844
331
3860
  5
3845
331
3861
  5
3846
331
3862
  5
3847
331
3863
  5
3848
331
3864
  5
3849
331
3865
  5
384A
331
3866
  5
384B
331
3867
  5
384C
331
3868
  5
384D
331
3869
  5
384E
331
386A
  5
384F
331
386B
  5
3850
331
386C
  5
3851
331
386D
  5
3852
331
386E
  5
3853
331
386F
  5
3854
331
3870
  5
3855
331
3871
  5
3856
331
3872
  5
3857
331
3873
  5
3858
331
3874
  5
3859
331
3875
  5
385A
331
3876
  5
385B
331
3877
  5
385C
331
3878
  5
385D
331
3879
  5
385E
331
387A
  5
385F
331
387B
  5
3860
331
387C
  5
3861
331
387D
  5
3862
331
387E
  5
3863
331
387F
  5
3864
331
3880
  5
3865
331
3881
  5
3866
331
3882
  5
3867
331
3883
  5
3868
331
3884
  5
3869
331
3885
  5
386A
331
3886
  5
386B
331
3887
  5
386C
331
3888
  5
386D
331
3889
  5
386E
331
388A
  5
386F
331
388B
  5
3870
331
388C
  5
3871
331
388D
  5
3872
331
388E
  5
3873
331
388F
  5
3874
331
3890
  5
3875
331
3891
  5
3876
331
3892
  5
3877
331
3893
  5
3878
331
3894
  5
3879
331
3895
  5
387A
331
3896
  5
387B
331
3897
  5
387C
331
3898
  5
387D
331
3899
  5
387E
331
389A
  5
387F
331
389B
  5
3880
331
389C
  5
3881
331
389D
  5
3882
331
389E
  5
3883
331
389F
  5
3884
331
38A0
  5
3885
331
38A1
  5
3886
331
38A2
  5
3887
331
38A3
  5
3888
331
38A4
  5
3889
331
38A5
  5
388A
331
38A6
  5
388B
331
38A7
  5
388C
331
38A8
  5
388D
331
38A9
  5
388E
331
38AA
  5
388F
331
38AB
  5
3890
331
38AC
  5
3891
331
38AD
  5
3892
331
38AE
  5
3893
331
38AF
  5
3894
331
38B0
  5
3895
331
38B1
  5
3896
331
38B2
  5
3897
331
38B3
  5
3898
331
38B4
  5
3899
331
38B5
  5
389A
331
38B6
  5
389B
331
38B7
  5
389C
331
38B8
  5
389D
331
38B9
  5
389E
331
38BA
  5
389F
331
38BB
  5
38A0
331
38BC
  5
38A1
331
38BD
  5
38A2
331
38BE
  5
38A3
331
38BF
  5
38A4
331
38C0
  5
38A5
331
38C1
  5
38A6
331
38C2
  5
38A7
331
38C3
  5
38A8
331
38C4
  5
38A9
331
38C5
  5
38AA
331
38C6
  5
38AB
331
38C7
  5
38AC
331
38C8
  5
38AD
331
38C9
  5
38AE
331
38CA
  5
38AF
331
38CB
  5
38B0
331
38CC
  5
38B1
331
38CD
  5
38B2
331
38CE
  5
38B3
331
38CF
  5
38B4
331
38D0
  5
38B5
331
38D1
  5
38B6
331
38D2
  5
38B7
331
38D3
  5
38B8
331
38D4
  5
38B9
331
38D5
  5
38BA
331
38D6
  5
38BB
331
38D7
  5
38BC
331
38D8
  5
38BD
331
38D9
  5
38BE
331
38DA
  5
38BF
331
38DB
  5
38C0
331
38DC
  5
38C1
331
38DD
  5
38C2
331
38DE
  5
38C3
331
38DF
  5
38C4
331
38E0
  5
38C5
331
38E1
  5
38C6
331
38E2
  5
38C7
331
38E3
  5
38C8
331
38E4
  5
38C9
331
38E5
  5
38CA
331
38E6
  5
38CB
331
38E7
  5
38CC
331
38E8
  5
38CD
331
38E9
  5
38CE
331
38EA
  5
38CF
331
38EB
  5
38D0
331
38EC
  5
38D1
331
38ED
  5
38D2
331
38EE
  5
38D3
331
38EF
  5
38D4
331
38F0
  5
38D5
331
38F1
  5
38D6
331
38F2
  5
38D7
331
38F3
  5
38D8
331
38F4
  5
38D9
331
38F5
  5
38DA
331
38F6
  5
38DB
331
38F7
  5
38DC
331
38F8
  5
38DD
331
38F9
  5
38DE
331
38FA
  5
38DF
331
38FB
  5
38E0
331
38FC
  5
38E1
331
38FD
  5
38E2
331
38FE
  5
38E3
331
38FF
  5
38E4
331
3900
  5
38E5
331
3901
  5
38E6
331
3902
  5
38E7
331
3903
  5
38E8
331
3904
  5
38E9
331
3905
  5
38EA
331
3906
  5
38EB
331
3907
  5
38EC
331
3908
  5
38ED
331
3909
  5
38EE
331
390A
  5
38EF
331
390B
  5
38F0
331
390C
  5
38F1
331
390D
  5
38F2
331
390E
  5
38F3
331
390F
  5
38F4
331
3910
  5
38F5
331
3911
  5
38F6
331
3912
  5
38F7
331
3913
  5
38F8
331
3914
  5
38F9
331
3915
  5
390D
331
3916
  5
390E
331
3917
  5
390F
331
3918
  5
3910
331
3919
  5
3911
331
391A
  5
3912
331
391B
  5
3913
331
391C
  5
3914
331
391D
  5
3915
331
391E
  5
3916
331
391F
  5
3917
331
3920
  5
3918
331
3921
  5
3919
331
3922
  5
391A
331
3923
  5
391B
331
3924
  5
391C
331
3925
  5
391D
331
3926
  5
391E
331
3927
  5
391F
331
3928
  5
3920
331
3929
  5
3921
331
392A
  5
3922
331
392B
  5
3923
331
392C
  5
3924
331
392D
  5
3925
331
392E
  5
3926
331
392F
  5
3927
331
3930
  5
3928
331
3931
  5
3929
331
3932
  5
392A
331
3933
  5
392B
331
3934
  5
392C
331
3935
  5
392D
331
3936
  5
392E
331
3937
  5
392F
331
3938
  5
3932
331
3939
  5
3933
331
393A
  5
3934
331
393B
  5
3935
  0
ACDBDETAILVIEWSTYLE
  5
2FD4
102
{ACAD_XDICTIONARY
360
397E
102
}
102
{ACAD_REACTORS
330
2FD3
102
}
330
2FD3
100
AcDbModelDocViewStyle
 70
     0
  3
Metric50
290
     0
100
AcDbDetailViewStyle
 70
     0
 71
     0
 90
        3
 71
     1
340
11
 40
5.0
340
0
 40
5.0
300

 40
0.0
280
     1
 71
     2
340
16
 90
       25
 71
     3
340
11
 40
5.0
 90
        0
 40
15.0
 90
        1
300
%<\AcVar ViewDetailId>% (%<\AcVar ViewScale \f "%sn">%)
 71
     4
340
16
 90
       25
340
16
 90
       25
280
     0
1001
ACAD
1000
AcRTDxfName
1000
ACDBDETAILVIEWSTYLE
1000
AcRTDxfName
1000
ACDBDETAILVIEWSTYLE
1000
AcRTDxfName
1000
ACDBDETAILVIEWSTYLE
  0
LAYOUT
  5
22
102
{ACAD_XDICTIONARY
360
3940
102
}
102
{ACAD_REACTORS
330
1A
102
}
330
1A
100
AcDbPlotSettings
  1

  2
Canon LBP3800 LIPSLX
  4
A4
  6

 40
5.873749732971191
 41
5.873747825622558
 42
5.873748779296875
 43
5.873748779296875
 44
209.9733276367187
 45
296.9259948730469
 46
0.61
 47
0.59
 48
444.9983463649091
 49
-1090.000000918417
140
2395.001653364909
141
1659.999999081583
142
1.0
143
10.0
 70
 11940
 72
     1
 73
     1
 74
     2
  7
monochrome.ctb
 75
     0
147
0.1
148
0.0
149
0.0
100
AcDbLayout
  1
Model
 70
     1
 71
     0
 10
0.0
 20
0.0
 11
12.0
 21
9.0
 12
0.0
 22
0.0
 32
0.0
 14
0.0
 24
0.0
 34
0.0
 15
0.0
 25
0.0
 35
0.0
146
0.0
 13
0.0
 23
0.0
 33
0.0
 16
1.0
 26
0.0
 36
0.0
 17
0.0
 27
1.0
 37
0.0
 76
     0
330
1F
331
2E53
  0
LAYOUT
  5
1CD1
102
{ACAD_XDICTIONARY
360
3942
102
}
102
{ACAD_REACTORS
330
1A
102
}
330
1A
100
AcDbPlotSettings
  1

  2
\\ek_srv\Canon LBP-880 LIPS4
  4

  6

 40
0.0
 41
0.0
 42
0.0
 43
0.0
 44
0.0
 45
0.0
 46
0.0
 47
0.0
 48
0.0
 49
0.0
140
0.0
141
0.0
142
1.0
143
1.0
 70
   688
 72
     0
 73
     0
 74
     5
  7
monochrome.ctb
 75
    16
147
1.0
148
0.0
149
0.0
100
AcDbLayout
  1
\U+FF9A\U+FF72\U+FF71\U+FF73\U+FF841
 70
     1
 71
     1
 10
0.0
 20
0.0
 11
12.0
 21
9.0
 12
0.0
 22
0.0
 32
0.0
 14
0.0
 24
0.0
 34
0.0
 15
0.0
 25
0.0
 35
0.0
146
0.0
 13
0.0
 23
0.0
 33
0.0
 16
1.0
 26
0.0
 36
0.0
 17
0.0
 27
1.0
 37
0.0
 76
     0
330
1CD0
  0
MATERIAL
  5
2E5E
102
{ACAD_XDICTIONARY
360
2E5F
102
}
102
{ACAD_REACTORS
330
2E55
102
}
330
2E55
100
AcDbMaterial
  1
ByBlock
 72
     0
 43
0.0008202099737533
 43
0.0
 43
0.0
 43
0.0
 43
0.0
 43
0.0008202099737533
 43
0.0
 43
0.0
 43
0.0
 43
0.0
 43
1.0
 43
0.0
 43
0.0
 43
0.0
 43
0.0
 43
1.0
 77
     0
 47
0.0008202099737533
 47
0.0
 47
0.0
 47
0.0
 47
0.0
 47
0.0008202099737533
 47
0.0
 47
0.0
 47
0.0
 47
0.0
 47
1.0
 47
0.0
 47
0.0
 47
0.0
 47
0.0
 47
1.0
171
     0
 49
0.0008202099737533
 49
0.0
 49
0.0
 49
0.0
 49
0.0
 49
0.0008202099737533
 49
0.0
 49
0.0
 49
0.0
 49
0.0
 49
1.0
 49
0.0
 49
0.0
 49
0.0
 49
0.0
 49
1.0
175
     0
142
0.0008202099737533
142
0.0
142
0.0
142
0.0
142
0.0
142
0.0008202099737533
142
0.0
142
0.0
142
0.0
142
0.0
142
1.0
142
0.0
142
0.0
142
0.0
142
0.0
142
1.0
179
     0
144
0.0008202099737533
144
0.0
144
0.0
144
0.0
144
0.0
144
0.0008202099737533
144
0.0
144
0.0
144
0.0
144
0.0
144
1.0
144
0.0
144
0.0
144
0.0
144
0.0
144
1.0
147
0.0008202099737533
147
0.0
147
0.0
147
0.0
147
0.0
147
0.0008202099737533
147
0.0
147
0.0
147
0.0
147
0.0
147
1.0
147
0.0
147
0.0
147
0.0
147
0.0
147
1.0
  0
MATERIAL
  5
2E56
102
{ACAD_XDICTIONARY
360
2E57
102
}
102
{ACAD_REACTORS
330
2E55
102
}
330
2E55
100
AcDbMaterial
  1
ByLayer
 72
     0
 43
0.0008202099737533
 43
0.0
 43
0.0
 43
0.0
 43
0.0
 43
0.0008202099737533
 43
0.0
 43
0.0
 43
0.0
 43
0.0
 43
1.0
 43
0.0
 43
0.0
 43
0.0
 43
0.0
 43
1.0
 77
     0
 47
0.0008202099737533
 47
0.0
 47
0.0
 47
0.0
 47
0.0
 47
0.0008202099737533
 47
0.0
 47
0.0
 47
0.0
 47
0.0
 47
1.0
 47
0.0
 47
0.0
 47
0.0
 47
0.0
 47
1.0
171
     0
 49
0.0008202099737533
 49
0.0
 49
0.0
 49
0.0
 49
0.0
 49
0.0008202099737533
 49
0.0
 49
0.0
 49
0.0
 49
0.0
 49
1.0
 49
0.0
 49
0.0
 49
0.0
 49
0.0
 49
1.0
175
     0
142
0.0008202099737533
142
0.0
142
0.0
142
0.0
142
0.0
142
0.0008202099737533
142
0.0
142
0.0
142
0.0
142
0.0
142
1.0
142
0.0
142
0.0
142
0.0
142
0.0
142
1.0
179
     0
144
0.0008202099737533
144
0.0
144
0.0
144
0.0
144
0.0
144
0.0008202099737533
144
0.0
144
0.0
144
0.0
144
0.0
144
1.0
144
0.0
144
0.0
144
0.0
144
0.0
144
1.0
147
0.0008202099737533
147
0.0
147
0.0
147
0.0
147
0.0
147
0.0008202099737533
147
0.0
147
0.0
147
0.0
147
0.0
147
1.0
147
0.0
147
0.0
147
0.0
147
0.0
147
1.0
  0
MATERIAL
  5
2E66
102
{ACAD_XDICTIONARY
360
2E67
102
}
102
{ACAD_REACTORS
330
2E55
102
}
330
2E55
100
AcDbMaterial
  1
Global
 72
     0
 43
0.0008202099737533
 43
0.0
 43
0.0
 43
0.0
 43
0.0
 43
0.0008202099737533
 43
0.0
 43
0.0
 43
0.0
 43
0.0
 43
1.0
 43
0.0
 43
0.0
 43
0.0
 43
0.0
 43
1.0
 77
     0
 47
0.0008202099737533
 47
0.0
 47
0.0
 47
0.0
 47
0.0
 47
0.0008202099737533
 47
0.0
 47
0.0
 47
0.0
 47
0.0
 47
1.0
 47
0.0
 47
0.0
 47
0.0
 47
0.0
 47
1.0
171
     0
 49
0.0008202099737533
 49
0.0
 49
0.0
 49
0.0
 49
0.0
 49
0.0008202099737533
 49
0.0
 49
0.0
 49
0.0
 49
0.0
 49
1.0
 49
0.0
 49
0.0
 49
0.0
 49
0.0
 49
1.0
175
     0
142
0.0008202099737533
142
0.0
142
0.0
142
0.0
142
0.0
142
0.0008202099737533
142
0.0
142
0.0
142
0.0
142
0.0
142
1.0
142
0.0
142
0.0
142
0.0
142
0.0
142
1.0
179
     0
144
0.0008202099737533
144
0.0
144
0.0
144
0.0
144
0.0
144
0.0008202099737533
144
0.0
144
0.0
144
0.0
144
0.0
144
1.0
144
0.0
144
0.0
144
0.0
144
0.0
144
1.0
147
0.0008202099737533
147
0.0
147
0.0
147
0.0
147
0.0
147
0.0008202099737533
147
0.0
147
0.0
147
0.0
147
0.0
147
1.0
147
0.0
147
0.0
147
0.0
147
0.0
147
1.0
  0
MLEADERSTYLE
  5
2E98
102
{ACAD_REACTORS
330
2E97
102
}
330
2E97
100
AcDbMLeaderStyle
170
     2
171
     1
172
     0
 90
        2
 40
0.0
 41
0.0
173
     1
 91
-1056964608
340
14
 92
       -2
290
     1
 42
2.0
291
     1
 43
0.36
  3
Standard
 44
4.0
300

342
11
174
     1
178
     6
175
     1
176
     0
 93
-1056964608
 45
4.0
292
     0
297
     0
 46
4.0
 94
-1056964608
 47
1.0
 49
1.0
140
1.0
293
     1
141
0.0
294
     1
177
     0
142
1.0
295
     0
296
     0
143
0.125
1001
ACAD_MLEADERVER
1070
     2
  0
MLINESTYLE
  5
18
102
{ACAD_REACTORS
330
17
102
}
330
17
100
AcDbMlineStyle
  2
STANDARD
 70
     0
  3

 62
   256
 51
90.0
 52
90.0
 71
     2
 49
0.5
 62
   256
  6
BYLAYER
 49
-0.5
 62
   256
  6
BYLAYER
  0
ACDBPLACEHOLDER
  5
F
102
{ACAD_REACTORS
330
E
102
}
330
E
  0
ACDBPLACEHOLDER
  5
29
102
{ACAD_REACTORS
330
E
102
}
330
E
  0
SCALE
  5
2E86
102
{ACAD_REACTORS
330
2E85
102
}
330
2E85
100
AcDbScale
 70
     0
300
1:1
140
1.0
141
1.0
290
     1
  0
SCALE
  5
2E87
102
{ACAD_REACTORS
330
2E85
102
}
330
2E85
100
AcDbScale
 70
     0
300
1:2
140
1.0
141
2.0
290
     0
  0
SCALE
  5
2E88
102
{ACAD_REACTORS
330
2E85
102
}
330
2E85
100
AcDbScale
 70
     0
300
1:4
140
1.0
141
4.0
290
     0
  0
SCALE
  5
2E89
102
{ACAD_REACTORS
330
2E85
102
}
330
2E85
100
AcDbScale
 70
     0
300
1:5
140
1.0
141
5.0
290
     0
  0
SCALE
  5
2E8A
102
{ACAD_REACTORS
330
2E85
102
}
330
2E85
100
AcDbScale
 70
     0
300
1:8
140
1.0
141
8.0
290
     0
  0
SCALE
  5
2E8B
102
{ACAD_REACTORS
330
2E85
102
}
330
2E85
100
AcDbScale
 70
     0
300
1:10
140
1.0
141
10.0
290
     0
  0
SCALE
  5
2E8C
102
{ACAD_REACTORS
330
2E85
102
}
330
2E85
100
AcDbScale
 70
     0
300
1:16
140
1.0
141
16.0
290
     0
  0
SCALE
  5
2E8D
102
{ACAD_REACTORS
330
2E85
102
}
330
2E85
100
AcDbScale
 70
     0
300
1:20
140
1.0
141
20.0
290
     0
  0
SCALE
  5
2E8E
102
{ACAD_REACTORS
330
2E85
102
}
330
2E85
100
AcDbScale
 70
     0
300
1:30
140
1.0
141
30.0
290
     0
  0
SCALE
  5
2E8F
102
{ACAD_REACTORS
330
2E85
102
}
330
2E85
100
AcDbScale
 70
     0
300
1:40
140
1.0
141
40.0
290
     0
  0
SCALE
  5
2E90
102
{ACAD_REACTORS
330
2E85
102
}
330
2E85
100
AcDbScale
 70
     0
300
1:50
140
1.0
141
50.0
290
     0
  0
SCALE
  5
2E91
102
{ACAD_REACTORS
330
2E85
102
}
330
2E85
100
AcDbScale
 70
     0
300
1:100
140
1.0
141
100.0
290
     0
  0
SCALE
  5
2E92
102
{ACAD_REACTORS
330
2E85
102
}
330
2E85
100
AcDbScale
 70
     0
300
2:1
140
2.0
141
1.0
290
     0
  0
SCALE
  5
2E93
102
{ACAD_REACTORS
330
2E85
102
}
330
2E85
100
AcDbScale
 70
     0
300
4:1
140
4.0
141
1.0
290
     0
  0
SCALE
  5
2E94
102
{ACAD_REACTORS
330
2E85
102
}
330
2E85
100
AcDbScale
 70
     0
300
8:1
140
8.0
141
1.0
290
     0
  0
SCALE
  5
2E95
102
{ACAD_REACTORS
330
2E85
102
}
330
2E85
100
AcDbScale
 70
     0
300
10:1
140
10.0
141
1.0
290
     0
  0
SCALE
  5
2E96
102
{ACAD_REACTORS
330
2E85
102
}
330
2E85
100
AcDbScale
 70
     0
300
100:1
140
100.0
141
1.0
290
     0
  0
ACDBSECTIONVIEWSTYLE
  5
2FD2
102
{ACAD_XDICTIONARY
360
397C
102
}
102
{ACAD_REACTORS
330
2FD1
102
}
330
2FD1
100
AcDbModelDocViewStyle
 70
     0
  3
Metric50
290
     0
100
AcDbSectionViewStyle
 70
     0
 71
     0
 90
      102
 71
     1
340
11
 40
5.0
340
0
340
0
 40
5.0
300
I, O, Q, S, X, Z
 40
10.0
 90
        0
 40
2.5
 90
        0
 71
     2
340
16
 90
       25
340
16
 90
       50
 40
5.0
 40
2.5
 40
5.0
 71
     3
340
11
 40
5.0
 90
        0
 40
15.0
 90
        1
300
%<\AcVar ViewSectionStartId>%-%<\AcVar ViewSectionEndId>% (%<\AcVar ViewScale \f "%sn">%)
 71
     4
300
ANSI31
 40
1.0
 90
        0
290
     0
290
     0
 90
        6
 40
0.0
 40
1.570796326794896
 40
0.2617993877991494
 40
1.308996938995747
 40
-0.2617993877991494
 40
1.832595714594046
1001
ACAD
1000
AcRTDxfName
1000
ACDBSECTIONVIEWSTYLE
1000
AcRTDxfName
1000
ACDBSECTIONVIEWSTYLE
1000
AcRTDxfName
1000
ACDBSECTIONVIEWSTYLE
  0
TABLESTYLE
  5
2E84
102
{ACAD_XDICTIONARY
360
2EB0
102
}
102
{ACAD_REACTORS
330
2E83
102
}
330
2E83
100
AcDbTableStyle
  3
Standard
 70
     0
 71
     0
 40
1.5
 41
1.5
280
     0
281
     0
  7
Standard
140
4.5
170
     2
 62
     0
 63
     7
283
     0
274
    -2
284
     1
 64
     0
275
    -2
285
     1
 65
     0
276
    -2
286
     1
 66
     0
277
    -2
287
     1
 67
     0
278
    -2
288
     1
 68
     0
279
    -2
289
     1
 69
     0
  7
Standard
140
6.0
170
     5
 62
     0
 63
     7
283
     0
274
    -2
284
     1
 64
     0
275
    -2
285
     1
 65
     0
276
    -2
286
     1
 66
     0
277
    -2
287
     1
 67
     0
278
    -2
288
     1
 68
     0
279
    -2
289
     1
 69
     0
  7
Standard
140
4.5
170
     5
 62
     0
 63
     7
283
     0
274
    -2
284
     1
 64
     0
275
    -2
285
     1
 65
     0
276
    -2
286
     1
 66
     0
277
    -2
287
     1
 67
     0
278
    -2
288
     1
 68
     0
279
    -2
289
     1
 69
     0
  0
VISUALSTYLE
  5
2E74
102
{ACAD_XDICTIONARY
360
3951
102
}
102
{ACAD_REACTORS
330
2E6E
102
}
330
2E6E
100
AcDbVisualStyle
  2
2dWireframe
 70
     4
 71
     0
 72
     2
 73
     0
 90
        0
 40
-0.6
 41
-30.0
 62
     5
 63
     7
 74
     1
 91
        4
 64
     7
 65
   257
 75
     1
175
     1
 42
1.0
 92
        0
 66
   257
 43
1.0
 76
     1
 77
     6
 78
     2
 67
     7
 79
     5
170
     0
171
     0
290
     0
174
     0
 93
        1
 44
0.0
173
     0
291
     0
 45
0.0
1001
ACAD
1000
AcDbSavedByObjectVersion
1070
     0
  0
VISUALSTYLE
  5
2E76
102
{ACAD_XDICTIONARY
360
3955
102
}
102
{ACAD_REACTORS
330
2E6E
102
}
330
2E6E
100
AcDbVisualStyle
  2
3D Hidden
 70
     6
 71
     1
 72
     2
 73
     2
 90
        0
 40
-0.6
 41
-30.0
 62
     5
 63
     7
 74
     2
 91
        2
 64
     7
 65
   257
 75
     2
175
     1
 42
179.0
 92
        0
 66
   257
 43
1.0
 76
     1
 77
     6
 78
     2
 67
     7
 79
     3
170
     0
171
     0
290
     0
174
     0
 93
        1
 44
0.0
173
     0
291
     0
 45
0.0
1001
ACAD
1000
AcDbSavedByObjectVersion
1070
     0
  0
VISUALSTYLE
  5
2E75
102
{ACAD_XDICTIONARY
360
3953
102
}
102
{ACAD_REACTORS
330
2E6E
102
}
330
2E6E
100
AcDbVisualStyle
  2
3dWireframe
 70
     5
 71
     0
 72
     2
 73
     0
 90
        0
 40
-0.6
 41
-30.0
 62
     5
 63
     7
 74
     1
 91
        4
 64
     7
 65
   257
 75
     1
175
     1
 42
1.0
 92
        0
 66
   257
 43
1.0
 76
     1
 77
     6
 78
     2
 67
     7
 79
     5
170
     0
171
     0
290
     0
174
     0
 93
        1
 44
0.0
173
     0
291
     0
 45
0.0
1001
ACAD
1000
AcDbSavedByObjectVersion
1070
     0
  0
VISUALSTYLE
  5
2E73
102
{ACAD_XDICTIONARY
360
394F
102
}
102
{ACAD_REACTORS
330
2E6E
102
}
330
2E6E
100
AcDbVisualStyle
  2
Basic
 70
     7
 71
     1
 72
     0
 73
     1
 90
        0
 40
-0.6
 41
-30.0
 62
     5
 63
     7
 74
     0
 91
        4
 64
     7
 65
   257
 75
     1
175
     1
 42
1.0
 92
        8
 66
     7
 43
1.0
 76
     1
 77
     6
 78
     2
 67
     7
 79
     5
170
     0
171
     0
290
     0
174
     0
 93
        1
 44
0.0
173
     0
291
     1
 45
0.0
1001
ACAD
1000
AcDbSavedByObjectVersion
1070
     0
  0
VISUALSTYLE
  5
2E7A
102
{ACAD_XDICTIONARY
360
395D
102
}
102
{ACAD_REACTORS
330
2E6E
102
}
330
2E6E
100
AcDbVisualStyle
  2
Brighten
 70
    12
 71
     2
 72
     2
 73
     0
 90
        0
 40
-0.6
 41
-30.0
 62
     5
 63
     7
 74
     1
 91
        4
 64
     7
 65
   257
 75
     1
175
     1
 42
1.0
 92
        8
 66
     7
 43
1.0
 76
     1
 77
     6
 78
     2
 67
     7
 79
     5
170
     0
171
     0
290
     0
174
     0
 93
        1
 44
50.0
173
     0
291
     1
 45
0.0
1001
ACAD
1000
AcDbSavedByObjectVersion
1070
     0
  0
VISUALSTYLE
  5
2E7E
102
{ACAD_XDICTIONARY
360
3965
102
}
102
{ACAD_REACTORS
330
2E6E
102
}
330
2E6E
100
AcDbVisualStyle
  2
ColorChange
 70
    16
 71
     2
 72
     2
 73
     3
 90
        0
 40
-0.6
 41
-30.0
 62
     5
 63
     8
 74
     1
 91
        4
 64
     7
 65
   257
 75
     1
175
     1
 42
1.0
 92
        8
 66
     8
 43
1.0
 76
     1
 77
     6
 78
     2
 67
     7
 79
     5
170
     0
171
     0
290
     0
174
     0
 93
        1
 44
0.0
173
     0
291
     1
 45
0.0
1001
ACAD
1000
AcDbSavedByObjectVersion
1070
     0
  0
VISUALSTYLE
  5
2E77
102
{ACAD_XDICTIONARY
360
3957
102
}
102
{ACAD_REACTORS
330
2E6E
102
}
330
2E6E
100
AcDbVisualStyle
  2
Conceptual
 70
     9
 71
     3
 72
     2
 73
     0
 90
        0
 40
-0.6
 41
-30.0
 62
     5
 63
     7
 74
     2
 91
        2
 64
     7
 65
   257
 75
     1
175
     1
 42
179.0
 92
        8
 66
     7
 43
1.0
 76
     1
 77
     6
 78
     2
 67
     7
 79
     3
170
     0
171
     0
290
     0
174
     0
 93
        1
 44
0.0
173
     0
291
     0
 45
0.0
1001
ACAD
1000
AcDbSavedByObjectVersion
1070
     0
  0
VISUALSTYLE
  5
2E79
102
{ACAD_XDICTIONARY
360
395B
102
}
102
{ACAD_REACTORS
330
2E6E
102
}
330
2E6E
100
AcDbVisualStyle
  2
Dim
 70
    11
 71
     2
 72
     2
 73
     0
 90
        0
 40
-0.6
 41
-30.0
 62
     5
 63
     7
 74
     1
 91
        4
 64
     7
 65
   257
 75
     1
175
     1
 42
1.0
 92
        8
 66
     7
 43
1.0
 76
     1
 77
     6
 78
     2
 67
     7
 79
     5
170
     0
171
     0
290
     0
174
     0
 93
        1
 44
-50.0
173
     0
291
     1
 45
0.0
1001
ACAD
1000
AcDbSavedByObjectVersion
1070
     0
  0
VISUALSTYLE
  5
2E81
102
{ACAD_XDICTIONARY
360
396B
102
}
102
{ACAD_REACTORS
330
2E6E
102
}
330
2E6E
100
AcDbVisualStyle
  2
EdgeColorOff
 70
    22
 71
     2
 72
     2
 73
     0
 90
        0
 40
-0.6
 41
-30.0
 62
     5
 63
     7
 74
     1
 91
        4
 64
     7
 65
   257
 75
     1
175
     1
 42
1.0
 92
        8
 66
     7
 43
1.0
 76
     1
 77
     6
 78
     2
 67
     7
 79
     5
170
     0
171
     0
290
     0
174
     0
 93
        1
 44
0.0
173
     0
291
     1
 45
0.0
1001
ACAD
1000
AcDbSavedByObjectVersion
1070
     0
  0
VISUALSTYLE
  5
2E7D
102
{ACAD_XDICTIONARY
360
3963
102
}
102
{ACAD_REACTORS
330
2E6E
102
}
330
2E6E
100
AcDbVisualStyle
  2
Facepattern
 70
    15
 71
     2
 72
     2
 73
     0
 90
        0
 40
-0.6
 41
-30.0
 62
     5
 63
     7
 74
     1
 91
        4
 64
     7
 65
   257
 75
     1
175
     1
 42
1.0
 92
        8
 66
     7
 43
1.0
 76
     1
 77
     6
 78
     2
 67
     7
 79
     5
170
     0
171
     0
290
     0
174
     0
 93
        1
 44
0.0
173
     0
291
     1
 45
0.0
1001
ACAD
1000
AcDbSavedByObjectVersion
1070
     0
  0
VISUALSTYLE
  5
2E6F
102
{ACAD_XDICTIONARY
360
3947
102
}
102
{ACAD_REACTORS
330
2E6E
102
}
330
2E6E
100
AcDbVisualStyle
  2
Flat
 70
     0
 71
     2
 72
     1
 73
     1
 90
        2
 40
-0.6
 41
30.0
 62
     5
 63
     7
 74
     0
 91
        4
 64
     7
 65
   257
 75
     1
175
     1
 42
1.0
 92
        8
 66
     7
 43
1.0
 76
     1
 77
     6
 78
     2
 67
     7
 79
     5
170
     0
171
     0
290
     0
174
     0
 93
       13
 44
0.0
173
     0
291
     1
 45
0.0
1001
ACAD
1000
AcDbSavedByObjectVersion
1070
     0
  0
VISUALSTYLE
  5
2E70
102
{ACAD_XDICTIONARY
360
3949
102
}
102
{ACAD_REACTORS
330
2E6E
102
}
330
2E6E
100
AcDbVisualStyle
  2
FlatWithEdges
 70
     1
 71
     2
 72
     1
 73
     1
 90
        2
 40
-0.6
 41
30.0
 62
     5
 63
     7
 74
     1
 91
        4
 64
     7
 65
   257
 75
     1
175
     1
 42
1.0
 92
        0
 66
   257
 43
1.0
 76
     1
 77
     6
 78
     2
 67
     7
 79
     5
170
     0
171
     0
290
     0
174
     0
 93
       13
 44
0.0
173
     0
291
     1
 45
0.0
1001
ACAD
1000
AcDbSavedByObjectVersion
1070
     0
  0
VISUALSTYLE
  5
2E71
102
{ACAD_XDICTIONARY
360
394B
102
}
102
{ACAD_REACTORS
330
2E6E
102
}
330
2E6E
100
AcDbVisualStyle
  2
Gouraud
 70
     2
 71
     2
 72
     2
 73
     1
 90
        2
 40
-0.6
 41
30.0
 62
     5
 63
     7
 74
     0
 91
        4
 64
     7
 65
   257
 75
     1
175
     1
 42
1.0
 92
        0
 66
     7
 43
1.0
 76
     1
 77
     6
 78
     2
 67
     7
 79
     5
170
     0
171
     0
290
     0
174
     0
 93
       13
 44
0.0
173
     0
291
     1
 45
0.0
1001
ACAD
1000
AcDbSavedByObjectVersion
1070
     0
  0
VISUALSTYLE
  5
2E72
102
{ACAD_XDICTIONARY
360
394D
102
}
102
{ACAD_REACTORS
330
2E6E
102
}
330
2E6E
100
AcDbVisualStyle
  2
GouraudWithEdges
 70
     3
 71
     2
 72
     2
 73
     1
 90
        2
 40
-0.6
 41
30.0
 62
     5
 63
     7
 74
     1
 91
        4
 64
     7
 65
   257
 75
     1
175
     1
 42
1.0
 92
        0
 66
   257
 43
1.0
 76
     1
 77
     6
 78
     2
 67
     7
 79
     5
170
     0
171
     0
290
     0
174
     0
 93
       13
 44
0.0
173
     0
291
     1
 45
0.0
1001
ACAD
1000
AcDbSavedByObjectVersion
1070
     0
  0
VISUALSTYLE
  5
2FCB
102
{ACAD_XDICTIONARY
360
3970
102
}
102
{ACAD_REACTORS
330
2E6E
102
}
330
2E6E
100
AcDbVisualStyle
  2
Hidden
 70
     6
 71
     1
 72
     2
 73
     2
 90
        0
 40
-0.6
 41
-30.0
 62
     5
 63
     7
 74
     2
 91
        2
 64
     7
 65
   257
 75
     2
175
     1
 42
40.0
 92
        0
 66
   257
 43
1.0
 76
     1
 77
     6
 78
     2
 67
     7
 79
     3
170
     0
171
     0
290
     0
174
     0
 93
        1
 44
0.0
173
     0
291
     0
 45
0.0
1001
ACAD
1000
AcDbSavedByObjectVersion
1070
     0
  0
VISUALSTYLE
  5
2E7F
102
{ACAD_XDICTIONARY
360
3967
102
}
102
{ACAD_REACTORS
330
2E6E
102
}
330
2E6E
100
AcDbVisualStyle
  2
JitterOff
 70
    20
 71
     2
 72
     2
 73
     0
 90
        0
 40
-0.6
 41
-30.0
 62
     5
 63
     7
 74
     1
 91
        4
 64
     7
 65
   257
 75
     1
175
     1
 42
1.0
 92
       10
 66
     7
 43
1.0
 76
     1
 77
     6
 78
     2
 67
     7
 79
     5
170
     0
171
     0
290
     0
174
     0
 93
        1
 44
0.0
173
     0
291
     1
 45
0.0
1001
ACAD
1000
AcDbSavedByObjectVersion
1070
     0
  0
VISUALSTYLE
  5
2E7C
102
{ACAD_XDICTIONARY
360
3961
102
}
102
{ACAD_REACTORS
330
2E6E
102
}
330
2E6E
100
AcDbVisualStyle
  2
Linepattern
 70
    14
 71
     2
 72
     2
 73
     0
 90
        0
 40
-0.6
 41
-30.0
 62
     5
 63
     7
 74
     1
 91
        4
 64
     7
 65
   257
 75
     7
175
     7
 42
1.0
 92
        8
 66
     7
 43
1.0
 76
     1
 77
     6
 78
     2
 67
     7
 79
     5
170
     0
171
     0
290
     0
174
     0
 93
        1
 44
0.0
173
     0
291
     1
 45
0.0
1001
ACAD
1000
AcDbSavedByObjectVersion
1070
     0
  0
VISUALSTYLE
  5
2E80
102
{ACAD_XDICTIONARY
360
3969
102
}
102
{ACAD_REACTORS
330
2E6E
102
}
330
2E6E
100
AcDbVisualStyle
  2
OverhangOff
 70
    21
 71
     2
 72
     2
 73
     0
 90
        0
 40
-0.6
 41
-30.0
 62
     5
 63
     7
 74
     1
 91
        4
 64
     7
 65
   257
 75
     1
175
     1
 42
1.0
 92
        9
 66
     7
 43
1.0
 76
     1
 77
     6
 78
     2
 67
     7
 79
     5
170
     0
171
     0
290
     0
174
     0
 93
        1
 44
0.0
173
     0
291
     1
 45
0.0
1001
ACAD
1000
AcDbSavedByObjectVersion
1070
     0
  0
VISUALSTYLE
  5
2E78
102
{ACAD_XDICTIONARY
360
3959
102
}
102
{ACAD_REACTORS
330
2E6E
102
}
330
2E6E
100
AcDbVisualStyle
  2
Realistic
 70
     8
 71
     2
 72
     2
 73
     0
 90
        0
 40
-0.6
 41
-30.0
 62
     5
 63
     7
 74
     1
 91
        0
 64
     7
 65
   257
 75
     1
175
     1
 42
1.0
 92
        8
 66
     8
 43
1.0
 76
     1
 77
     6
 78
     2
 67
     7
 79
     5
170
     0
171
     0
290
     0
174
     0
 93
       13
 44
0.0
173
     0
291
     0
 45
0.0
1001
ACAD
1000
AcDbSavedByObjectVersion
1070
     0
  0
VISUALSTYLE
  5
2FD0
102
{ACAD_XDICTIONARY
360
397A
102
}
102
{ACAD_REACTORS
330
2E6E
102
}
330
2E6E
100
AcDbVisualStyle
  2
Shaded
 70
    27
 71
     2
 72
     2
 73
     1
 90
        2
 40
-0.6
 41
30.0
 62
     5
 63
     7
 74
     0
 91
        4
 64
     7
 65
   257
 75
     1
175
     1
 42
1.0
 92
        8
 66
   257
 43
1.0
 76
     1
 77
     6
 78
     2
 67
     8
 79
     3
170
     0
171
     0
290
     0
174
     0
 93
        5
 44
0.0
173
     0
291
     0
 45
0.0
1001
ACAD
1000
AcDbSavedByObjectVersion
1070
     0
  0
VISUALSTYLE
  5
2FCF
102
{ACAD_XDICTIONARY
360
3978
102
}
102
{ACAD_REACTORS
330
2E6E
102
}
330
2E6E
100
AcDbVisualStyle
  2
Shaded with edges
 70
    26
 71
     2
 72
     2
 73
     1
 90
        2
 40
-0.6
 41
30.0
 62
     5
 63
     7
 74
     1
 91
        2
 64
     7
 65
   257
 75
     2
175
     1
 42
1.0
 92
        8
 66
   257
 43
1.0
 76
     1
 77
     6
 78
     2
 67
     7
 79
     3
170
     0
171
     0
290
     0
174
     0
 93
        5
 44
0.0
173
     0
291
     0
 45
0.0
1001
ACAD
1000
AcDbSavedByObjectVersion
1070
     0
  0
VISUALSTYLE
  5
2FCC
102
{ACAD_XDICTIONARY
360
3972
102
}
102
{ACAD_REACTORS
330
2E6E
102
}
330
2E6E
100
AcDbVisualStyle
  2
Shades of Gray
 70
    23
 71
     2
 72
     2
 73
     3
 90
        0
 40
-0.6
 41
-30.0
 62
     5
 63
     7
 74
     2
 91
        2
 64
     7
 65
     7
 75
     1
175
     1
 42
40.0
 92
        8
 66
     7
 43
1.0
 76
     1
 77
     6
 78
     2
 67
     7
 79
     3
170
     0
171
     0
290
     0
174
     0
 93
        1
 44
0.0
173
     0
291
     0
 45
0.0
1001
ACAD
1000
AcDbSavedByObjectVersion
1070
     0
  0
VISUALSTYLE
  5
2FCD
102
{ACAD_XDICTIONARY
360
3974
102
}
102
{ACAD_REACTORS
330
2E6E
102
}
330
2E6E
100
AcDbVisualStyle
  2
Sketchy
 70
    24
 71
     1
 72
     2
 73
     2
 90
        0
 40
-0.6
 41
-30.0
 62
     5
 63
     7
 74
     2
 91
        2
 64
     7
 65
     7
 75
     1
175
     1
 42
40.0
 92
       11
 66
     7
 43
1.0
 76
     1
 77
     6
 78
     2
 67
     7
 79
     6
170
     0
171
     0
290
     0
174
     0
 93
        1
 44
0.0
173
     0
291
     0
 45
0.0
1001
ACAD
1000
AcDbSavedByObjectVersion
1070
     0
  0
VISUALSTYLE
  5
2E7B
102
{ACAD_XDICTIONARY
360
395F
102
}
102
{ACAD_REACTORS
330
2E6E
102
}
330
2E6E
100
AcDbVisualStyle
  2
Thicken
 70
    13
 71
     2
 72
     2
 73
     0
 90
        0
 40
-0.6
 41
-30.0
 62
     5
 63
     7
 74
     1
 91
        4
 64
     7
 65
   257
 75
     1
175
     1
 42
1.0
 92
       12
 66
     7
 43
1.0
 76
     1
 77
     6
 78
     2
 67
     7
 79
     5
170
     0
171
     0
290
     0
174
     0
 93
        1
 44
0.0
173
     0
291
     1
 45
0.0
1001
ACAD
1000
AcDbSavedByObjectVersion
1070
     0
  0
VISUALSTYLE
  5
2FCA
102
{ACAD_XDICTIONARY
360
396E
102
}
102
{ACAD_REACTORS
330
2E6E
102
}
330
2E6E
100
AcDbVisualStyle
  2
Wireframe
 70
     5
 71
     0
 72
     2
 73
     0
 90
        0
 40
-0.6
 41
-30.0
 62
     5
 63
     7
 74
     1
 91
        4
 64
     7
 65
   257
 75
     1
175
     1
 42
1.0
 92
        0
 66
   257
 43
1.0
 76
     1
 77
     6
 78
     2
 67
     7
 79
     3
170
     0
171
     0
290
     0
174
     0
 93
        1
 44
0.0
173
     0
291
     0
 45
0.0
1001
ACAD
1000
AcDbSavedByObjectVersion
1070
     0
  0
VISUALSTYLE
  5
2FCE
102
{ACAD_XDICTIONARY
360
3976
102
}
102
{ACAD_REACTORS
330
2E6E
102
}
330
2E6E
100
AcDbVisualStyle
  2
X-Ray
 70
    25
 71
     2
 72
     2
 73
     1
 90
        1
 40
0.5
 41
-30.0
 62
     5
 63
     7
 74
     1
 91
        0
 64
     7
 65
   257
 75
     1
175
     1
 42
1.0
 92
        8
 66
     7
 43
1.0
 76
     1
 77
     6
 78
     2
 67
     7
 79
     3
170
     0
171
     0
290
     0
174
     0
 93
       13
 44
0.0
173
     0
291
     0
 45
0.0
1001
ACAD
1000
AcDbSavedByObjectVersion
1070
     0
  0
DICTIONARYVAR
  5
2EE7
102
{ACAD_REACTORS
330
1835
102
}
330
1835
100
DictionaryVariables
280
     0
  1
1:1
  0
DICTIONARYVAR
  5
2EE6
102
{ACAD_REACTORS
330
1835
102
}
330
1835
100
DictionaryVariables
280
     0
  1
STANDARD
  0
DICTIONARYVAR
  5
2EE5
102
{ACAD_REACTORS
330
1835
102
}
330
1835
100
DictionaryVariables
280
     0
  1
STANDARD
  0
DICTIONARYVAR
  5
301D
102
{ACAD_REACTORS
330
1835
102
}
330
1835
100
DictionaryVariables
280
     0
  1
Metric50
  0
DICTIONARYVAR
  5
301E
102
{ACAD_REACTORS
330
1835
102
}
330
1835
100
DictionaryVariables
280
     0
  1
Metric50
  0
DICTIONARYVAR
  5
2EE9
102
{ACAD_REACTORS
330
1835
102
}
330
1835
100
DictionaryVariables
280
     0
  1
1
  0
DICTIONARYVAR
  5
2EE8
102
{ACAD_REACTORS
330
1835
102
}
330
1835
100
DictionaryVariables
280
     0
  1
0
  0
DICTIONARYVAR
  5
1836
102
{ACAD_REACTORS
330
1835
102
}
330
1835
100
DictionaryVariables
280
     0
  1
127
  0
DICTIONARYVAR
  5
393C
102
{ACAD_REACTORS
330
1835
102
}
330
1835
100
DictionaryVariables
280
     0
  1
2
  0
DICTIONARY
  5
397E
330
2FD4
100
AcDbDictionary
280
     1
281
     1
  3
ACAD_XREC_ROUNDTRIP
360
397F
  0
DICTIONARY
  5
3940
330
22
100
AcDbDictionary
280
     1
281
     1
  3
ACAD_XREC_ROUNDTRIP
360
3941
  0
DICTIONARY
  5
3942
330
1CD1
100
AcDbDictionary
280
     1
281
     1
  3
ACAD_XREC_ROUNDTRIP
360
3943
  0
DICTIONARY
  5
2E5F
330
2E5E
100
AcDbDictionary
280
     1
281
     1
  3
ACAD_XREC_ROUNDTRIP
360
3945
  3
BUMPTILE
360
2E61
  3
DIFFUSETILE
360
2E60
  3
OPACITYTILE
360
2E64
  3
REFLECTIONTILE
360
2E63
  3
REFRACTIONTILE
360
2E65
  3
SPECULARTILE
360
2E62
  0
DICTIONARY
  5
2E57
330
2E56
100
AcDbDictionary
280
     1
281
     1
  3
ACAD_XREC_ROUNDTRIP
360
3944
  3
BUMPTILE
360
2E59
  3
DIFFUSETILE
360
2E58
  3
OPACITYTILE
360
2E5C
  3
REFLECTIONTILE
360
2E5B
  3
REFRACTIONTILE
360
2E5D
  3
SPECULARTILE
360
2E5A
  0
DICTIONARY
  5
2E67
330
2E66
100
AcDbDictionary
280
     1
281
     1
  3
ACAD_XREC_ROUNDTRIP
360
3946
  3
BUMPTILE
360
2E69
  3
DIFFUSETILE
360
2E68
  3
OPACITYTILE
360
2E6C
  3
REFLECTIONTILE
360
2E6B
  3
REFRACTIONTILE
360
2E6D
  3
SPECULARTILE
360
2E6A
  0
DICTIONARY
  5
397C
330
2FD2
100
AcDbDictionary
280
     1
281
     1
  3
ACAD_XREC_ROUNDTRIP
360
397D
  0
DICTIONARY
  5
2EB0
330
2E84
100
AcDbDictionary
280
     1
281
     1
  3
ACAD_ROUNDTRIP_2008_TABLESTYLE_CELLSTYLEMAP
360
393D
  3
ACAD_XREC_ROUNDTRIP
360
396D
  0
DICTIONARY
  5
3951
330
2E74
100
AcDbDictionary
280
     1
281
     1
  3
ACAD_XREC_ROUNDTRIP
360
3952
  0
DICTIONARY
  5
3955
330
2E76
100
AcDbDictionary
280
     1
281
     1
  3
ACAD_XREC_ROUNDTRIP
360
3956
  0
DICTIONARY
  5
3953
330
2E75
100
AcDbDictionary
280
     1
281
     1
  3
ACAD_XREC_ROUNDTRIP
360
3954
  0
DICTIONARY
  5
394F
330
2E73
100
AcDbDictionary
280
     1
281
     1
  3
ACAD_XREC_ROUNDTRIP
360
3950
  0
DICTIONARY
  5
395D
330
2E7A
100
AcDbDictionary
280
     1
281
     1
  3
ACAD_XREC_ROUNDTRIP
360
395E
  0
DICTIONARY
  5
3965
330
2E7E
100
AcDbDictionary
280
     1
281
     1
  3
ACAD_XREC_ROUNDTRIP
360
3966
  0
DICTIONARY
  5
3957
330
2E77
100
AcDbDictionary
280
     1
281
     1
  3
ACAD_XREC_ROUNDTRIP
360
3958
  0
DICTIONARY
  5
395B
330
2E79
100
AcDbDictionary
280
     1
281
     1
  3
ACAD_XREC_ROUNDTRIP
360
395C
  0
DICTIONARY
  5
396B
330
2E81
100
AcDbDictionary
280
     1
281
     1
  3
ACAD_XREC_ROUNDTRIP
360
396C
  0
DICTIONARY
  5
3963
330
2E7D
100
AcDbDictionary
280
     1
281
     1
  3
ACAD_XREC_ROUNDTRIP
360
3964
  0
DICTIONARY
  5
3947
330
2E6F
100
AcDbDictionary
280
     1
281
     1
  3
ACAD_XREC_ROUNDTRIP
360
3948
  0
DICTIONARY
  5
3949
330
2E70
100
AcDbDictionary
280
     1
281
     1
  3
ACAD_XREC_ROUNDTRIP
360
394A
  0
DICTIONARY
  5
394B
330
2E71
100
AcDbDictionary
280
     1
281
     1
  3
ACAD_XREC_ROUNDTRIP
360
394C
  0
DICTIONARY
  5
394D
330
2E72
100
AcDbDictionary
280
     1
281
     1
  3
ACAD_XREC_ROUNDTRIP
360
394E
  0
DICTIONARY
  5
3970
330
2FCB
100
AcDbDictionary
280
     1
281
     1
  3
ACAD_XREC_ROUNDTRIP
360
3971
  0
DICTIONARY
  5
3967
330
2E7F
100
AcDbDictionary
280
     1
281
     1
  3
ACAD_XREC_ROUNDTRIP
360
3968
  0
DICTIONARY
  5
3961
330
2E7C
100
AcDbDictionary
280
     1
281
     1
  3
ACAD_XREC_ROUNDTRIP
360
3962
  0
DICTIONARY
  5
3969
330
2E80
100
AcDbDictionary
280
     1
281
     1
  3
ACAD_XREC_ROUNDTRIP
360
396A
  0
DICTIONARY
  5
3959
330
2E78
100
AcDbDictionary
280
     1
281
     1
  3
ACAD_XREC_ROUNDTRIP
360
395A
  0
DICTIONARY
  5
397A
330
2FD0
100
AcDbDictionary
280
     1
281
     1
  3
ACAD_XREC_ROUNDTRIP
360
397B
  0
DICTIONARY
  5
3978
330
2FCF
100
AcDbDictionary
280
     1
281
     1
  3
ACAD_XREC_ROUNDTRIP
360
3979
  0
DICTIONARY
  5
3972
330
2FCC
100
AcDbDictionary
280
     1
281
     1
  3
ACAD_XREC_ROUNDTRIP
360
3973
  0
DICTIONARY
  5
3974
330
2FCD
100
AcDbDictionary
280
     1
281
     1
  3
ACAD_XREC_ROUNDTRIP
360
3975
  0
DICTIONARY
  5
395F
330
2E7B
100
AcDbDictionary
280
     1
281
     1
  3
ACAD_XREC_ROUNDTRIP
360
3960
  0
DICTIONARY
  5
396E
330
2FCA
100
AcDbDictionary
280
     1
281
     1
  3
ACAD_XREC_ROUNDTRIP
360
396F
  0
DICTIONARY
  5
3976
330
2FCE
100
AcDbDictionary
280
     1
281
     1
  3
ACAD_XREC_ROUNDTRIP
360
3977
  0
XRECORD
  5
397F
102
{ACAD_REACTORS
330
397E
102
}
330
397E
100
AcDbXrecord
280
     1
102
DISPLAYNAME
  1
Metric50
102
FLAGS
 90
        0
  0
XRECORD
  5
3941
102
{ACAD_REACTORS
330
3940
102
}
330
3940
100
AcDbXrecord
280
     1
102
SHADEPLOT
 70
     0
102
SHADEPLOTRESLEVEL
 70
     2
102
SHADEPLOTCUSTOMDPI
 70
   300
  0
XRECORD
  5
3943
102
{ACAD_REACTORS
330
3942
102
}
330
3942
100
AcDbXrecord
280
     1
102
SHADEPLOT
 70
     0
102
SHADEPLOTRESLEVEL
 70
     2
102
SHADEPLOTCUSTOMDPI
 70
   300
  0
XRECORD
  5
3945
102
{ACAD_REACTORS
330
2E5F
102
}
330
2E5F
100
AcDbXrecord
280
     1
102
MATERIAL
148
0.0
149
0.0
149
0.0
 93
        0
 94
      127
282
     0
 72
     0
 77
     0
171
     0
175
     0
179
     0
273
     0
  0
XRECORD
  5
2E61
102
{ACAD_REACTORS
330
2E5F
102
}
330
2E5F
100
AcDbXrecord
280
     1
270
     1
271
     1
  0
XRECORD
  5
2E60
102
{ACAD_REACTORS
330
2E5F
102
}
330
2E5F
100
AcDbXrecord
280
     1
270
     1
271
     1
  0
XRECORD
  5
2E64
102
{ACAD_REACTORS
330
2E5F
102
}
330
2E5F
100
AcDbXrecord
280
     1
270
     1
271
     1
  0
XRECORD
  5
2E63
102
{ACAD_REACTORS
330
2E5F
102
}
330
2E5F
100
AcDbXrecord
280
     1
270
     1
271
     1
  0
XRECORD
  5
2E65
102
{ACAD_REACTORS
330
2E5F
102
}
330
2E5F
100
AcDbXrecord
280
     1
270
     1
271
     1
  0
XRECORD
  5
2E62
102
{ACAD_REACTORS
330
2E5F
102
}
330
2E5F
100
AcDbXrecord
280
     1
270
     1
271
     1
  0
XRECORD
  5
3944
102
{ACAD_REACTORS
330
2E57
102
}
330
2E57
100
AcDbXrecord
280
     1
102
MATERIAL
148
0.0
149
0.0
149
0.0
 93
        0
 94
      127
282
     0
 72
     0
 77
     0
171
     0
175
     0
179
     0
273
     0
  0
XRECORD
  5
2E59
102
{ACAD_REACTORS
330
2E57
102
}
330
2E57
100
AcDbXrecord
280
     1
270
     1
271
     1
  0
XRECORD
  5
2E58
102
{ACAD_REACTORS
330
2E57
102
}
330
2E57
100
AcDbXrecord
280
     1
270
     1
271
     1
  0
XRECORD
  5
2E5C
102
{ACAD_REACTORS
330
2E57
102
}
330
2E57
100
AcDbXrecord
280
     1
270
     1
271
     1
  0
XRECORD
  5
2E5B
102
{ACAD_REACTORS
330
2E57
102
}
330
2E57
100
AcDbXrecord
280
     1
270
     1
271
     1
  0
XRECORD
  5
2E5D
102
{ACAD_REACTORS
330
2E57
102
}
330
2E57
100
AcDbXrecord
280
     1
270
     1
271
     1
  0
XRECORD
  5
2E5A
102
{ACAD_REACTORS
330
2E57
102
}
330
2E57
100
AcDbXrecord
280
     1
270
     1
271
     1
  0
XRECORD
  5
3946
102
{ACAD_REACTORS
330
2E67
102
}
330
2E67
100
AcDbXrecord
280
     1
102
MATERIAL
148
0.0
149
0.0
149
0.0
 93
        0
 94
      127
282
     0
 72
     0
 77
     0
171
     0
175
     0
179
     0
273
     0
  0
XRECORD
  5
2E69
102
{ACAD_REACTORS
330
2E67
102
}
330
2E67
100
AcDbXrecord
280
     1
270
     1
271
     1
  0
XRECORD
  5
2E68
102
{ACAD_REACTORS
330
2E67
102
}
330
2E67
100
AcDbXrecord
280
     1
270
     1
271
     1
  0
XRECORD
  5
2E6C
102
{ACAD_REACTORS
330
2E67
102
}
330
2E67
100
AcDbXrecord
280
     1
270
     1
271
     1
  0
XRECORD
  5
2E6B
102
{ACAD_REACTORS
330
2E67
102
}
330
2E67
100
AcDbXrecord
280
     1
270
     1
271
     1
  0
XRECORD
  5
2E6D
102
{ACAD_REACTORS
330
2E67
102
}
330
2E67
100
AcDbXrecord
280
     1
270
     1
271
     1
  0
XRECORD
  5
2E6A
102
{ACAD_REACTORS
330
2E67
102
}
330
2E67
100
AcDbXrecord
280
     1
270
     1
271
     1
  0
XRECORD
  5
397D
102
{ACAD_REACTORS
330
397C
102
}
330
397C
100
AcDbXrecord
280
     1
102
DISPLAYNAME
  1
Metric50
102
FLAGS
 90
        0
  0
CELLSTYLEMAP
  5
393D
102
{ACAD_REACTORS
330
2EB0
102
}
330
2EB0
100
AcDbCellStyleMap
 90
        3
300
CELLSTYLE
  1
TABLEFORMAT_BEGIN
 90
        5
170
     1
 91
        0
 92
    32768
 62
   257
 93
        1
300
CONTENTFORMAT
  1
CONTENTFORMAT_BEGIN
 90
        0
 91
        0
 92
      512
 93
        0
300

 40
0.0
140
1.0
 94
        5
 62
     0
340
11
144
6.0
309
CONTENTFORMAT_END
171
     1
301
MARGIN
  1
CELLMARGIN_BEGIN
 40
1.5
 40
1.5
 40
1.5
 40
1.5
 40
4.5
 40
4.5
309
CELLMARGIN_END
 94
        6
 95
        1
302
GRIDFORMAT
  1
GRIDFORMAT_BEGIN
 90
        0
 91
        1
 62
     0
 92
       -2
340
0
 93
        0
 40
1.125
309
GRIDFORMAT_END
 95
        2
302
GRIDFORMAT
  1
GRIDFORMAT_BEGIN
 90
        0
 91
        1
 62
     0
 92
       -2
340
0
 93
        0
 40
1.125
309
GRIDFORMAT_END
 95
        4
302
GRIDFORMAT
  1
GRIDFORMAT_BEGIN
 90
        0
 91
        1
 62
     0
 92
       -2
340
0
 93
        0
 40
1.125
309
GRIDFORMAT_END
 95
        8
302
GRIDFORMAT
  1
GRIDFORMAT_BEGIN
 90
        0
 91
        1
 62
     0
 92
       -2
340
0
 93
        0
 40
1.125
309
GRIDFORMAT_END
 95
       16
302
GRIDFORMAT
  1
GRIDFORMAT_BEGIN
 90
        0
 91
        1
 62
     0
 92
       -2
340
0
 93
        0
 40
1.125
309
GRIDFORMAT_END
 95
       32
302
GRIDFORMAT
  1
GRIDFORMAT_BEGIN
 90
        0
 91
        1
 62
     0
 92
       -2
340
0
 93
        0
 40
1.125
309
GRIDFORMAT_END
309
TABLEFORMAT_END
  1
CELLSTYLE_BEGIN
 90
        1
 91
        1
300
_TITLE
309
CELLSTYLE_END
300
CELLSTYLE
  1
TABLEFORMAT_BEGIN
 90
        5
170
     1
 91
        0
 92
        0
 62
   257
 93
        1
300
CONTENTFORMAT
  1
CONTENTFORMAT_BEGIN
 90
        0
 91
        0
 92
      512
 93
        0
300

 40
0.0
140
1.0
 94
        5
 62
     0
340
11
144
4.5
309
CONTENTFORMAT_END
171
     1
301
MARGIN
  1
CELLMARGIN_BEGIN
 40
1.5
 40
1.5
 40
1.5
 40
1.5
 40
4.5
 40
4.5
309
CELLMARGIN_END
 94
        6
 95
        1
302
GRIDFORMAT
  1
GRIDFORMAT_BEGIN
 90
        0
 91
        1
 62
     0
 92
       -2
340
0
 93
        0
 40
1.125
309
GRIDFORMAT_END
 95
        2
302
GRIDFORMAT
  1
GRIDFORMAT_BEGIN
 90
        0
 91
        1
 62
     0
 92
       -2
340
0
 93
        0
 40
1.125
309
GRIDFORMAT_END
 95
        4
302
GRIDFORMAT
  1
GRIDFORMAT_BEGIN
 90
        0
 91
        1
 62
     0
 92
       -2
340
0
 93
        0
 40
1.125
309
GRIDFORMAT_END
 95
        8
302
GRIDFORMAT
  1
GRIDFORMAT_BEGIN
 90
        0
 91
        1
 62
     0
 92
       -2
340
0
 93
        0
 40
1.125
309
GRIDFORMAT_END
 95
       16
302
GRIDFORMAT
  1
GRIDFORMAT_BEGIN
 90
        0
 91
        1
 62
     0
 92
       -2
340
0
 93
        0
 40
1.125
309
GRIDFORMAT_END
 95
       32
302
GRIDFORMAT
  1
GRIDFORMAT_BEGIN
 90
        0
 91
        1
 62
     0
 92
       -2
340
0
 93
        0
 40
1.125
309
GRIDFORMAT_END
309
TABLEFORMAT_END
  1
CELLSTYLE_BEGIN
 90
        2
 91
        1
300
_HEADER
309
CELLSTYLE_END
300
CELLSTYLE
  1
TABLEFORMAT_BEGIN
 90
        5
170
     1
 91
        0
 92
        0
 62
   257
 93
        1
300
CONTENTFORMAT
  1
CONTENTFORMAT_BEGIN
 90
        0
 91
        0
 92
      512
 93
        0
300

 40
0.0
140
1.0
 94
        2
 62
     0
340
11
144
4.5
309
CONTENTFORMAT_END
171
     1
301
MARGIN
  1
CELLMARGIN_BEGIN
 40
1.5
 40
1.5
 40
1.5
 40
1.5
 40
4.5
 40
4.5
309
CELLMARGIN_END
 94
        6
 95
        1
302
GRIDFORMAT
  1
GRIDFORMAT_BEGIN
 90
        0
 91
        1
 62
     0
 92
       -2
340
0
 93
        0
 40
1.125
309
GRIDFORMAT_END
 95
        2
302
GRIDFORMAT
  1
GRIDFORMAT_BEGIN
 90
        0
 91
        1
 62
     0
 92
       -2
340
0
 93
        0
 40
1.125
309
GRIDFORMAT_END
 95
        4
302
GRIDFORMAT
  1
GRIDFORMAT_BEGIN
 90
        0
 91
        1
 62
     0
 92
       -2
340
0
 93
        0
 40
1.125
309
GRIDFORMAT_END
 95
        8
302
GRIDFORMAT
  1
GRIDFORMAT_BEGIN
 90
        0
 91
        1
 62
     0
 92
       -2
340
0
 93
        0
 40
1.125
309
GRIDFORMAT_END
 95
       16
302
GRIDFORMAT
  1
GRIDFORMAT_BEGIN
 90
        0
 91
        1
 62
     0
 92
       -2
340
0
 93
        0
 40
1.125
309
GRIDFORMAT_END
 95
       32
302
GRIDFORMAT
  1
GRIDFORMAT_BEGIN
 90
        0
 91
        1
 62
     0
 92
       -2
340
0
 93
        0
 40
1.125
309
GRIDFORMAT_END
309
TABLEFORMAT_END
  1
CELLSTYLE_BEGIN
 90
        3
 91
        2
300
_DATA
309
CELLSTYLE_END
  0
XRECORD
  5
396D
102
{ACAD_REACTORS
330
2EB0
102
}
330
2EB0
100
AcDbXrecord
280
     1
102
ACAD_ROUNDTRIP_PRE2007_TABLESTYLE
 90
      512
 91
        0
  1

 92
      512
 93
        0
  2

 94
      512
 95
        0
  3

  0
XRECORD
  5
3952
102
{ACAD_REACTORS
330
3951
102
}
330
3951
100
AcDbXrecord
280
     1
102
RTVSPost2010Prop28
280
     1
102
RTVSPost2010PropOp28
 70
     1
102
RTVSPost2010Prop29
280
     1
102
RTVSPost2010PropOp29
 70
     1
102
RTVSPost2010Prop30
280
     0
102
RTVSPost2010PropOp30
 70
     1
102
RTVSPost2010Prop31
280
     0
102
RTVSPost2010PropOp31
 70
     1
102
RTVSPost2010Prop32
280
     0
102
RTVSPost2010PropOp32
 70
     1
102
RTVSPost2010Prop33
280
     0
102
RTVSPost2010PropOp33
 70
     1
102
RTVSPost2010Prop34
280
     0
102
RTVSPost2010PropOp34
 70
     1
102
RTVSPost2010Prop35
280
     0
102
RTVSPost2010PropOp35
 70
     1
102
RTVSPost2010Prop36
280
     0
102
RTVSPost2010PropOp36
 70
     1
102
RTVSPost2010Prop37
 90
       50
102
RTVSPost2010PropOp37
 70
     1
102
RTVSPost2010Prop38
140
0.0
102
RTVSPost2010PropOp38
 70
     1
102
RTVSPost2010Prop39
140
1.0
102
RTVSPost2010PropOp39
 70
     1
102
RTVSPost2010Prop40
 90
        0
102
RTVSPost2010PropOp40
 70
     1
102
RTVSPost2010Prop41ColorIndex
 90
       18
102
RTVSPost2010Prop41ColorRGB
 90
        0
102
RTVSPost2010PropOp41
 70
     1
102
RTVSPost2010Prop42
 90
       50
102
RTVSPost2010PropOp42
 70
     1
102
RTVSPost2010Prop43
 90
        3
102
RTVSPost2010PropOp43
 70
     1
102
RTVSPost2010Prop44ColorIndex
 90
        5
102
RTVSPost2010Prop44ColorRGB
 90
      255
102
RTVSPost2010PropOp44
 70
     1
102
RTVSPost2010Prop45
280
     0
102
RTVSPost2010PropOp45
 70
     1
102
RTVSPost2010Prop46
 90
       50
102
RTVSPost2010PropOp46
 70
     1
102
RTVSPost2010Prop47
 90
       50
102
RTVSPost2010PropOp47
 70
     1
102
RTVSPost2010Prop48
 90
       50
102
RTVSPost2010PropOp48
 70
     1
102
RTVSPost2010Prop49
280
     0
102
RTVSPost2010PropOp49
 70
     1
102
RTVSPost2010Prop50
 90
       50
102
RTVSPost2010PropOp50
 70
     1
102
RTVSPost2010Prop51ColorIndex
 90
      256
102
RTVSPost2010Prop51ColorRGB
 90
-16777216
102
RTVSPost2010PropOp51
 70
     0
102
RTVSPost2010Prop52
140
1.0
102
RTVSPost2010PropOp52
 70
     0
102
RTVSPost2010Prop53
 90
        2
102
RTVSPost2010PropOp53
 70
     1
102
RTVSPost2010Prop54
  1
strokes_ogs.tif
102
RTVSPost2010PropOp54
 70
     1
102
RTVSPost2010Prop55
280
     0
102
RTVSPost2010PropOp55
 70
     1
102
RTVSPost2010Prop56
140
1.0
102
RTVSPost2010PropOp56
 70
     1
102
RTVSPost2010Prop57
140
1.0
102
RTVSPost2010PropOp57
 70
     1
102
RTVSPropertyOp0
 70
     1
102
RTVSPropertyOp1
 70
     1
102
RTVSPropertyOp2
 70
     1
102
RTVSPropertyOp3
 70
     1
102
RTVSPropertyOp4
 70
     1
102
RTVSPropertyOp5
 70
     1
102
RTVSPropertyOp6
 70
     1
102
RTVSPropertyOp7
 70
     1
102
RTVSPropertyOp8
 70
     1
102
RTVSPropertyOp9
 70
     1
102
RTVSPropertyOp10
 70
     1
102
RTVSPropertyOp11
 70
     1
102
RTVSPropertyOp12
 70
     1
102
RTVSPropertyOp13
 70
     1
102
RTVSPropertyOp14
 70
     1
102
RTVSPropertyOp15
 70
     1
102
RTVSPropertyOp16
 70
     1
102
RTVSPropertyOp17
 70
     1
102
RTVSPropertyOp18
 70
     1
102
RTVSPropertyOp19
 70
     1
102
RTVSPropertyOp20
 70
     1
102
RTVSPropertyOp21
 70
     1
102
RTVSPropertyOp22
 70
     1
102
RTVSPropertyOp23
 70
     1
102
RTVSPropertyOp24
 70
     1
102
RTVSPropertyOp25
 70
     1
102
RTVSPropertyOp26
 70
     1
102
RTVSPropertyOp27
 70
     1
102
RTVSPropertyOp28
 70
     1
102
RTVSPropertyOp29
 70
     1
102
RTVSPropertyOp30
 70
     1
102
RTVSPropertyOp31
 70
     1
102
RTVSPropertyOp32
 70
     1
102
RTVSPropertyOp33
 70
     1
102
RTVSPropertyOp34
 70
     1
102
RTVSPropertyOp35
 70
     1
102
RTVSPropertyOp36
 70
     1
102
RTVSPropertyOp37
 70
     1
102
RTVSPropertyOp38
 70
     1
102
RTVSPropertyOp39
 70
     1
102
RTVSPropertyOp40
 70
     1
102
RTVSPropertyOp41
 70
     1
102
RTVSPropertyOp42
 70
     1
102
RTVSPropertyOp43
 70
     1
102
RTVSPropertyOp44
 70
     1
102
RTVSPropertyOp45
 70
     1
102
RTVSPropertyOp46
 70
     1
102
RTVSPropertyOp47
 70
     1
102
RTVSPropertyOp48
 70
     1
102
RTVSPropertyOp49
 70
     1
102
RTVSPropertyOp50
 70
     1
102
RTVSPropertyOp51
 70
     0
102
RTVSPropertyOp52
 70
     0
102
RTVSPropertyOp53
 70
     1
102
RTVSPropertyOp54
 70
     1
102
RTVSPropertyOp55
 70
     1
102
RTVSPropertyOp56
 70
     1
102
RTVSPropertyOp57
 70
     1
102
RTVSPropertyOp58
 70
     1
102
RTVSPropertyOp59
 70
     1
102
RTVSPropertyOp60
 70
     1
102
RTVSPropertyOp61
 70
     1
102
RTVSPropertyOp62
 70
     1
  0
XRECORD
  5
3956
102
{ACAD_REACTORS
330
3955
102
}
330
3955
100
AcDbXrecord
280
     1
102
RTVSPost2010Prop28
280
     0
102
RTVSPost2010PropOp28
 70
     1
102
RTVSPost2010Prop29
280
     1
102
RTVSPost2010PropOp29
 70
     1
102
RTVSPost2010Prop30
280
     1
102
RTVSPost2010PropOp30
 70
     1
102
RTVSPost2010Prop31
280
     0
102
RTVSPost2010PropOp31
 70
     1
102
RTVSPost2010Prop32
280
     0
102
RTVSPost2010PropOp32
 70
     1
102
RTVSPost2010Prop33
280
     0
102
RTVSPost2010PropOp33
 70
     1
102
RTVSPost2010Prop34
280
     0
102
RTVSPost2010PropOp34
 70
     1
102
RTVSPost2010Prop35
280
     0
102
RTVSPost2010PropOp35
 70
     1
102
RTVSPost2010Prop36
280
     0
102
RTVSPost2010PropOp36
 70
     1
102
RTVSPost2010Prop37
 90
       50
102
RTVSPost2010PropOp37
 70
     1
102
RTVSPost2010Prop38
140
0.0
102
RTVSPost2010PropOp38
 70
     1
102
RTVSPost2010Prop39
140
1.0
102
RTVSPost2010PropOp39
 70
     1
102
RTVSPost2010Prop40
 90
        0
102
RTVSPost2010PropOp40
 70
     1
102
RTVSPost2010Prop41ColorIndex
 90
       18
102
RTVSPost2010Prop41ColorRGB
 90
        0
102
RTVSPost2010PropOp41
 70
     1
102
RTVSPost2010Prop42
 90
       50
102
RTVSPost2010PropOp42
 70
     1
102
RTVSPost2010Prop43
 90
        3
102
RTVSPost2010PropOp43
 70
     1
102
RTVSPost2010Prop44ColorIndex
 90
        5
102
RTVSPost2010Prop44ColorRGB
 90
      255
102
RTVSPost2010PropOp44
 70
     1
102
RTVSPost2010Prop45
280
     0
102
RTVSPost2010PropOp45
 70
     1
102
RTVSPost2010Prop46
 90
       50
102
RTVSPost2010PropOp46
 70
     1
102
RTVSPost2010Prop47
 90
       50
102
RTVSPost2010PropOp47
 70
     1
102
RTVSPost2010Prop48
 90
       50
102
RTVSPost2010PropOp48
 70
     1
102
RTVSPost2010Prop49
280
     0
102
RTVSPost2010PropOp49
 70
     1
102
RTVSPost2010Prop50
 90
       50
102
RTVSPost2010PropOp50
 70
     1
102
RTVSPost2010Prop51ColorIndex
 90
      256
102
RTVSPost2010Prop51ColorRGB
 90
-16777216
102
RTVSPost2010PropOp51
 70
     0
102
RTVSPost2010Prop52
140
1.0
102
RTVSPost2010PropOp52
 70
     0
102
RTVSPost2010Prop53
 90
        2
102
RTVSPost2010PropOp53
 70
     1
102
RTVSPost2010Prop54
  1
strokes_ogs.tif
102
RTVSPost2010PropOp54
 70
     1
102
RTVSPost2010Prop55
280
     0
102
RTVSPost2010PropOp55
 70
     1
102
RTVSPost2010Prop56
140
1.0
102
RTVSPost2010PropOp56
 70
     1
102
RTVSPost2010Prop57
140
1.0
102
RTVSPost2010PropOp57
 70
     1
102
RTVSPropertyOp0
 70
     1
102
RTVSPropertyOp1
 70
     1
102
RTVSPropertyOp2
 70
     1
102
RTVSPropertyOp3
 70
     1
102
RTVSPropertyOp4
 70
     1
102
RTVSPropertyOp5
 70
     1
102
RTVSPropertyOp6
 70
     1
102
RTVSPropertyOp7
 70
     1
102
RTVSPropertyOp8
 70
     1
102
RTVSPropertyOp9
 70
     1
102
RTVSPropertyOp10
 70
     1
102
RTVSPropertyOp11
 70
     1
102
RTVSPropertyOp12
 70
     1
102
RTVSPropertyOp13
 70
     1
102
RTVSPropertyOp14
 70
     1
102
RTVSPropertyOp15
 70
     1
102
RTVSPropertyOp16
 70
     1
102
RTVSPropertyOp17
 70
     1
102
RTVSPropertyOp18
 70
     1
102
RTVSPropertyOp19
 70
     1
102
RTVSPropertyOp20
 70
     1
102
RTVSPropertyOp21
 70
     1
102
RTVSPropertyOp22
 70
     1
102
RTVSPropertyOp23
 70
     1
102
RTVSPropertyOp24
 70
     1
102
RTVSPropertyOp25
 70
     1
102
RTVSPropertyOp26
 70
     1
102
RTVSPropertyOp27
 70
     1
102
RTVSPropertyOp28
 70
     1
102
RTVSPropertyOp29
 70
     1
102
RTVSPropertyOp30
 70
     1
102
RTVSPropertyOp31
 70
     1
102
RTVSPropertyOp32
 70
     1
102
RTVSPropertyOp33
 70
     1
102
RTVSPropertyOp34
 70
     1
102
RTVSPropertyOp35
 70
     1
102
RTVSPropertyOp36
 70
     1
102
RTVSPropertyOp37
 70
     1
102
RTVSPropertyOp38
 70
     1
102
RTVSPropertyOp39
 70
     1
102
RTVSPropertyOp40
 70
     1
102
RTVSPropertyOp41
 70
     1
102
RTVSPropertyOp42
 70
     1
102
RTVSPropertyOp43
 70
     1
102
RTVSPropertyOp44
 70
     1
102
RTVSPropertyOp45
 70
     1
102
RTVSPropertyOp46
 70
     1
102
RTVSPropertyOp47
 70
     1
102
RTVSPropertyOp48
 70
     1
102
RTVSPropertyOp49
 70
     1
102
RTVSPropertyOp50
 70
     1
102
RTVSPropertyOp51
 70
     0
102
RTVSPropertyOp52
 70
     0
102
RTVSPropertyOp53
 70
     1
102
RTVSPropertyOp54
 70
     1
102
RTVSPropertyOp55
 70
     1
102
RTVSPropertyOp56
 70
     1
102
RTVSPropertyOp57
 70
     1
102
RTVSPropertyOp58
 70
     1
102
RTVSPropertyOp59
 70
     1
102
RTVSPropertyOp60
 70
     1
102
RTVSPropertyOp61
 70
     1
102
RTVSPropertyOp62
 70
     1
  0
XRECORD
  5
3954
102
{ACAD_REACTORS
330
3953
102
}
330
3953
100
AcDbXrecord
280
     1
102
RTVSPost2010Prop28
280
     0
102
RTVSPost2010PropOp28
 70
     1
102
RTVSPost2010Prop29
280
     1
102
RTVSPost2010PropOp29
 70
     1
102
RTVSPost2010Prop30
280
     1
102
RTVSPost2010PropOp30
 70
     1
102
RTVSPost2010Prop31
280
     0
102
RTVSPost2010PropOp31
 70
     1
102
RTVSPost2010Prop32
280
     0
102
RTVSPost2010PropOp32
 70
     1
102
RTVSPost2010Prop33
280
     0
102
RTVSPost2010PropOp33
 70
     1
102
RTVSPost2010Prop34
280
     0
102
RTVSPost2010PropOp34
 70
     1
102
RTVSPost2010Prop35
280
     0
102
RTVSPost2010PropOp35
 70
     1
102
RTVSPost2010Prop36
280
     0
102
RTVSPost2010PropOp36
 70
     1
102
RTVSPost2010Prop37
 90
       50
102
RTVSPost2010PropOp37
 70
     1
102
RTVSPost2010Prop38
140
0.0
102
RTVSPost2010PropOp38
 70
     1
102
RTVSPost2010Prop39
140
1.0
102
RTVSPost2010PropOp39
 70
     1
102
RTVSPost2010Prop40
 90
        0
102
RTVSPost2010PropOp40
 70
     1
102
RTVSPost2010Prop41ColorIndex
 90
       18
102
RTVSPost2010Prop41ColorRGB
 90
        0
102
RTVSPost2010PropOp41
 70
     1
102
RTVSPost2010Prop42
 90
       50
102
RTVSPost2010PropOp42
 70
     1
102
RTVSPost2010Prop43
 90
        3
102
RTVSPost2010PropOp43
 70
     1
102
RTVSPost2010Prop44ColorIndex
 90
        5
102
RTVSPost2010Prop44ColorRGB
 90
      255
102
RTVSPost2010PropOp44
 70
     1
102
RTVSPost2010Prop45
280
     0
102
RTVSPost2010PropOp45
 70
     1
102
RTVSPost2010Prop46
 90
       50
102
RTVSPost2010PropOp46
 70
     1
102
RTVSPost2010Prop47
 90
       50
102
RTVSPost2010PropOp47
 70
     1
102
RTVSPost2010Prop48
 90
       50
102
RTVSPost2010PropOp48
 70
     1
102
RTVSPost2010Prop49
280
     0
102
RTVSPost2010PropOp49
 70
     1
102
RTVSPost2010Prop50
 90
       50
102
RTVSPost2010PropOp50
 70
     1
102
RTVSPost2010Prop51ColorIndex
 90
      256
102
RTVSPost2010Prop51ColorRGB
 90
-16777216
102
RTVSPost2010PropOp51
 70
     0
102
RTVSPost2010Prop52
140
1.0
102
RTVSPost2010PropOp52
 70
     0
102
RTVSPost2010Prop53
 90
        2
102
RTVSPost2010PropOp53
 70
     1
102
RTVSPost2010Prop54
  1
strokes_ogs.tif
102
RTVSPost2010PropOp54
 70
     1
102
RTVSPost2010Prop55
280
     0
102
RTVSPost2010PropOp55
 70
     1
102
RTVSPost2010Prop56
140
1.0
102
RTVSPost2010PropOp56
 70
     1
102
RTVSPost2010Prop57
140
1.0
102
RTVSPost2010PropOp57
 70
     1
102
RTVSPropertyOp0
 70
     1
102
RTVSPropertyOp1
 70
     1
102
RTVSPropertyOp2
 70
     1
102
RTVSPropertyOp3
 70
     1
102
RTVSPropertyOp4
 70
     1
102
RTVSPropertyOp5
 70
     1
102
RTVSPropertyOp6
 70
     1
102
RTVSPropertyOp7
 70
     1
102
RTVSPropertyOp8
 70
     1
102
RTVSPropertyOp9
 70
     1
102
RTVSPropertyOp10
 70
     1
102
RTVSPropertyOp11
 70
     1
102
RTVSPropertyOp12
 70
     1
102
RTVSPropertyOp13
 70
     1
102
RTVSPropertyOp14
 70
     1
102
RTVSPropertyOp15
 70
     1
102
RTVSPropertyOp16
 70
     1
102
RTVSPropertyOp17
 70
     1
102
RTVSPropertyOp18
 70
     1
102
RTVSPropertyOp19
 70
     1
102
RTVSPropertyOp20
 70
     1
102
RTVSPropertyOp21
 70
     1
102
RTVSPropertyOp22
 70
     1
102
RTVSPropertyOp23
 70
     1
102
RTVSPropertyOp24
 70
     1
102
RTVSPropertyOp25
 70
     1
102
RTVSPropertyOp26
 70
     1
102
RTVSPropertyOp27
 70
     1
102
RTVSPropertyOp28
 70
     1
102
RTVSPropertyOp29
 70
     1
102
RTVSPropertyOp30
 70
     1
102
RTVSPropertyOp31
 70
     1
102
RTVSPropertyOp32
 70
     1
102
RTVSPropertyOp33
 70
     1
102
RTVSPropertyOp34
 70
     1
102
RTVSPropertyOp35
 70
     1
102
RTVSPropertyOp36
 70
     1
102
RTVSPropertyOp37
 70
     1
102
RTVSPropertyOp38
 70
     1
102
RTVSPropertyOp39
 70
     1
102
RTVSPropertyOp40
 70
     1
102
RTVSPropertyOp41
 70
     1
102
RTVSPropertyOp42
 70
     1
102
RTVSPropertyOp43
 70
     1
102
RTVSPropertyOp44
 70
     1
102
RTVSPropertyOp45
 70
     1
102
RTVSPropertyOp46
 70
     1
102
RTVSPropertyOp47
 70
     1
102
RTVSPropertyOp48
 70
     1
102
RTVSPropertyOp49
 70
     1
102
RTVSPropertyOp50
 70
     1
102
RTVSPropertyOp51
 70
     0
102
RTVSPropertyOp52
 70
     0
102
RTVSPropertyOp53
 70
     1
102
RTVSPropertyOp54
 70
     1
102
RTVSPropertyOp55
 70
     1
102
RTVSPropertyOp56
 70
     1
102
RTVSPropertyOp57
 70
     1
102
RTVSPropertyOp58
 70
     1
102
RTVSPropertyOp59
 70
     1
102
RTVSPropertyOp60
 70
     1
102
RTVSPropertyOp61
 70
     1
102
RTVSPropertyOp62
 70
     1
  0
XRECORD
  5
3950
102
{ACAD_REACTORS
330
394F
102
}
330
394F
100
AcDbXrecord
280
     1
102
RTVSPost2010Prop28
280
     0
102
RTVSPost2010PropOp28
 70
     1
102
RTVSPost2010Prop29
280
     1
102
RTVSPost2010PropOp29
 70
     1
102
RTVSPost2010Prop30
280
     1
102
RTVSPost2010PropOp30
 70
     1
102
RTVSPost2010Prop31
280
     0
102
RTVSPost2010PropOp31
 70
     1
102
RTVSPost2010Prop32
280
     0
102
RTVSPost2010PropOp32
 70
     1
102
RTVSPost2010Prop33
280
     0
102
RTVSPost2010PropOp33
 70
     1
102
RTVSPost2010Prop34
280
     0
102
RTVSPost2010PropOp34
 70
     1
102
RTVSPost2010Prop35
280
     0
102
RTVSPost2010PropOp35
 70
     1
102
RTVSPost2010Prop36
280
     0
102
RTVSPost2010PropOp36
 70
     1
102
RTVSPost2010Prop37
 90
       50
102
RTVSPost2010PropOp37
 70
     1
102
RTVSPost2010Prop38
140
0.0
102
RTVSPost2010PropOp38
 70
     1
102
RTVSPost2010Prop39
140
1.0
102
RTVSPost2010PropOp39
 70
     1
102
RTVSPost2010Prop40
 90
        0
102
RTVSPost2010PropOp40
 70
     1
102
RTVSPost2010Prop41ColorIndex
 90
       18
102
RTVSPost2010Prop41ColorRGB
 90
        0
102
RTVSPost2010PropOp41
 70
     1
102
RTVSPost2010Prop42
 90
       50
102
RTVSPost2010PropOp42
 70
     1
102
RTVSPost2010Prop43
 90
        3
102
RTVSPost2010PropOp43
 70
     1
102
RTVSPost2010Prop44ColorIndex
 90
        5
102
RTVSPost2010Prop44ColorRGB
 90
      255
102
RTVSPost2010PropOp44
 70
     1
102
RTVSPost2010Prop45
280
     0
102
RTVSPost2010PropOp45
 70
     1
102
RTVSPost2010Prop46
 90
       50
102
RTVSPost2010PropOp46
 70
     1
102
RTVSPost2010Prop47
 90
       50
102
RTVSPost2010PropOp47
 70
     1
102
RTVSPost2010Prop48
 90
       50
102
RTVSPost2010PropOp48
 70
     1
102
RTVSPost2010Prop49
280
     0
102
RTVSPost2010PropOp49
 70
     1
102
RTVSPost2010Prop50
 90
       50
102
RTVSPost2010PropOp50
 70
     1
102
RTVSPost2010Prop51ColorIndex
 90
      256
102
RTVSPost2010Prop51ColorRGB
 90
-16777216
102
RTVSPost2010PropOp51
 70
     0
102
RTVSPost2010Prop52
140
1.0
102
RTVSPost2010PropOp52
 70
     0
102
RTVSPost2010Prop53
 90
        2
102
RTVSPost2010PropOp53
 70
     1
102
RTVSPost2010Prop54
  1
strokes_ogs.tif
102
RTVSPost2010PropOp54
 70
     1
102
RTVSPost2010Prop55
280
     0
102
RTVSPost2010PropOp55
 70
     1
102
RTVSPost2010Prop56
140
1.0
102
RTVSPost2010PropOp56
 70
     1
102
RTVSPost2010Prop57
140
1.0
102
RTVSPost2010PropOp57
 70
     1
102
RTVSPropertyOp0
 70
     1
102
RTVSPropertyOp1
 70
     1
102
RTVSPropertyOp2
 70
     1
102
RTVSPropertyOp3
 70
     1
102
RTVSPropertyOp4
 70
     1
102
RTVSPropertyOp5
 70
     1
102
RTVSPropertyOp6
 70
     1
102
RTVSPropertyOp7
 70
     1
102
RTVSPropertyOp8
 70
     1
102
RTVSPropertyOp9
 70
     1
102
RTVSPropertyOp10
 70
     1
102
RTVSPropertyOp11
 70
     1
102
RTVSPropertyOp12
 70
     1
102
RTVSPropertyOp13
 70
     1
102
RTVSPropertyOp14
 70
     1
102
RTVSPropertyOp15
 70
     1
102
RTVSPropertyOp16
 70
     1
102
RTVSPropertyOp17
 70
     1
102
RTVSPropertyOp18
 70
     1
102
RTVSPropertyOp19
 70
     1
102
RTVSPropertyOp20
 70
     1
102
RTVSPropertyOp21
 70
     1
102
RTVSPropertyOp22
 70
     1
102
RTVSPropertyOp23
 70
     1
102
RTVSPropertyOp24
 70
     1
102
RTVSPropertyOp25
 70
     1
102
RTVSPropertyOp26
 70
     1
102
RTVSPropertyOp27
 70
     1
102
RTVSPropertyOp28
 70
     1
102
RTVSPropertyOp29
 70
     1
102
RTVSPropertyOp30
 70
     1
102
RTVSPropertyOp31
 70
     1
102
RTVSPropertyOp32
 70
     1
102
RTVSPropertyOp33
 70
     1
102
RTVSPropertyOp34
 70
     1
102
RTVSPropertyOp35
 70
     1
102
RTVSPropertyOp36
 70
     1
102
RTVSPropertyOp37
 70
     1
102
RTVSPropertyOp38
 70
     1
102
RTVSPropertyOp39
 70
     1
102
RTVSPropertyOp40
 70
     1
102
RTVSPropertyOp41
 70
     1
102
RTVSPropertyOp42
 70
     1
102
RTVSPropertyOp43
 70
     1
102
RTVSPropertyOp44
 70
     1
102
RTVSPropertyOp45
 70
     1
102
RTVSPropertyOp46
 70
     1
102
RTVSPropertyOp47
 70
     1
102
RTVSPropertyOp48
 70
     1
102
RTVSPropertyOp49
 70
     1
102
RTVSPropertyOp50
 70
     1
102
RTVSPropertyOp51
 70
     0
102
RTVSPropertyOp52
 70
     0
102
RTVSPropertyOp53
 70
     1
102
RTVSPropertyOp54
 70
     1
102
RTVSPropertyOp55
 70
     1
102
RTVSPropertyOp56
 70
     1
102
RTVSPropertyOp57
 70
     1
102
RTVSPropertyOp58
 70
     1
102
RTVSPropertyOp59
 70
     1
102
RTVSPropertyOp60
 70
     1
102
RTVSPropertyOp61
 70
     1
102
RTVSPropertyOp62
 70
     1
  0
XRECORD
  5
395E
102
{ACAD_REACTORS
330
395D
102
}
330
395D
100
AcDbXrecord
280
     1
102
RTVSPost2010Prop28
280
     0
102
RTVSPost2010PropOp28
 70
     1
102
RTVSPost2010Prop29
280
     1
102
RTVSPost2010PropOp29
 70
     1
102
RTVSPost2010Prop30
280
     1
102
RTVSPost2010PropOp30
 70
     1
102
RTVSPost2010Prop31
280
     0
102
RTVSPost2010PropOp31
 70
     1
102
RTVSPost2010Prop32
280
     0
102
RTVSPost2010PropOp32
 70
     1
102
RTVSPost2010Prop33
280
     0
102
RTVSPost2010PropOp33
 70
     1
102
RTVSPost2010Prop34
280
     0
102
RTVSPost2010PropOp34
 70
     1
102
RTVSPost2010Prop35
280
     0
102
RTVSPost2010PropOp35
 70
     1
102
RTVSPost2010Prop36
280
     0
102
RTVSPost2010PropOp36
 70
     1
102
RTVSPost2010Prop37
 90
       50
102
RTVSPost2010PropOp37
 70
     1
102
RTVSPost2010Prop38
140
0.0
102
RTVSPost2010PropOp38
 70
     1
102
RTVSPost2010Prop39
140
1.0
102
RTVSPost2010PropOp39
 70
     1
102
RTVSPost2010Prop40
 90
        0
102
RTVSPost2010PropOp40
 70
     1
102
RTVSPost2010Prop41ColorIndex
 90
       18
102
RTVSPost2010Prop41ColorRGB
 90
        0
102
RTVSPost2010PropOp41
 70
     1
102
RTVSPost2010Prop42
 90
       50
102
RTVSPost2010PropOp42
 70
     1
102
RTVSPost2010Prop43
 90
        3
102
RTVSPost2010PropOp43
 70
     1
102
RTVSPost2010Prop44ColorIndex
 90
        5
102
RTVSPost2010Prop44ColorRGB
 90
      255
102
RTVSPost2010PropOp44
 70
     1
102
RTVSPost2010Prop45
280
     0
102
RTVSPost2010PropOp45
 70
     1
102
RTVSPost2010Prop46
 90
       50
102
RTVSPost2010PropOp46
 70
     1
102
RTVSPost2010Prop47
 90
       50
102
RTVSPost2010PropOp47
 70
     1
102
RTVSPost2010Prop48
 90
       50
102
RTVSPost2010PropOp48
 70
     1
102
RTVSPost2010Prop49
280
     0
102
RTVSPost2010PropOp49
 70
     1
102
RTVSPost2010Prop50
 90
       50
102
RTVSPost2010PropOp50
 70
     1
102
RTVSPost2010Prop51ColorIndex
 90
      256
102
RTVSPost2010Prop51ColorRGB
 90
-16777216
102
RTVSPost2010PropOp51
 70
     0
102
RTVSPost2010Prop52
140
1.0
102
RTVSPost2010PropOp52
 70
     0
102
RTVSPost2010Prop53
 90
        2
102
RTVSPost2010PropOp53
 70
     1
102
RTVSPost2010Prop54
  1
strokes_ogs.tif
102
RTVSPost2010PropOp54
 70
     1
102
RTVSPost2010Prop55
280
     0
102
RTVSPost2010PropOp55
 70
     1
102
RTVSPost2010Prop56
140
1.0
102
RTVSPost2010PropOp56
 70
     1
102
RTVSPost2010Prop57
140
1.0
102
RTVSPost2010PropOp57
 70
     1
102
RTVSPropertyOp0
 70
     1
102
RTVSPropertyOp1
 70
     1
102
RTVSPropertyOp2
 70
     1
102
RTVSPropertyOp3
 70
     1
102
RTVSPropertyOp4
 70
     1
102
RTVSPropertyOp5
 70
     1
102
RTVSPropertyOp6
 70
     1
102
RTVSPropertyOp7
 70
     1
102
RTVSPropertyOp8
 70
     1
102
RTVSPropertyOp9
 70
     1
102
RTVSPropertyOp10
 70
     1
102
RTVSPropertyOp11
 70
     1
102
RTVSPropertyOp12
 70
     1
102
RTVSPropertyOp13
 70
     1
102
RTVSPropertyOp14
 70
     1
102
RTVSPropertyOp15
 70
     1
102
RTVSPropertyOp16
 70
     1
102
RTVSPropertyOp17
 70
     1
102
RTVSPropertyOp18
 70
     1
102
RTVSPropertyOp19
 70
     1
102
RTVSPropertyOp20
 70
     1
102
RTVSPropertyOp21
 70
     1
102
RTVSPropertyOp22
 70
     1
102
RTVSPropertyOp23
 70
     1
102
RTVSPropertyOp24
 70
     1
102
RTVSPropertyOp25
 70
     1
102
RTVSPropertyOp26
 70
     1
102
RTVSPropertyOp27
 70
     1
102
RTVSPropertyOp28
 70
     1
102
RTVSPropertyOp29
 70
     1
102
RTVSPropertyOp30
 70
     1
102
RTVSPropertyOp31
 70
     1
102
RTVSPropertyOp32
 70
     1
102
RTVSPropertyOp33
 70
     1
102
RTVSPropertyOp34
 70
     1
102
RTVSPropertyOp35
 70
     1
102
RTVSPropertyOp36
 70
     1
102
RTVSPropertyOp37
 70
     1
102
RTVSPropertyOp38
 70
     1
102
RTVSPropertyOp39
 70
     1
102
RTVSPropertyOp40
 70
     1
102
RTVSPropertyOp41
 70
     1
102
RTVSPropertyOp42
 70
     1
102
RTVSPropertyOp43
 70
     1
102
RTVSPropertyOp44
 70
     1
102
RTVSPropertyOp45
 70
     1
102
RTVSPropertyOp46
 70
     1
102
RTVSPropertyOp47
 70
     1
102
RTVSPropertyOp48
 70
     1
102
RTVSPropertyOp49
 70
     1
102
RTVSPropertyOp50
 70
     1
102
RTVSPropertyOp51
 70
     0
102
RTVSPropertyOp52
 70
     0
102
RTVSPropertyOp53
 70
     1
102
RTVSPropertyOp54
 70
     1
102
RTVSPropertyOp55
 70
     1
102
RTVSPropertyOp56
 70
     1
102
RTVSPropertyOp57
 70
     1
102
RTVSPropertyOp58
 70
     1
102
RTVSPropertyOp59
 70
     1
102
RTVSPropertyOp60
 70
     1
102
RTVSPropertyOp61
 70
     1
102
RTVSPropertyOp62
 70
     1
  0
XRECORD
  5
3966
102
{ACAD_REACTORS
330
3965
102
}
330
3965
100
AcDbXrecord
280
     1
102
RTVSPost2010Prop28
280
     0
102
RTVSPost2010PropOp28
 70
     1
102
RTVSPost2010Prop29
280
     1
102
RTVSPost2010PropOp29
 70
     1
102
RTVSPost2010Prop30
280
     1
102
RTVSPost2010PropOp30
 70
     1
102
RTVSPost2010Prop31
280
     0
102
RTVSPost2010PropOp31
 70
     1
102
RTVSPost2010Prop32
280
     0
102
RTVSPost2010PropOp32
 70
     1
102
RTVSPost2010Prop33
280
     0
102
RTVSPost2010PropOp33
 70
     1
102
RTVSPost2010Prop34
280
     0
102
RTVSPost2010PropOp34
 70
     1
102
RTVSPost2010Prop35
280
     0
102
RTVSPost2010PropOp35
 70
     1
102
RTVSPost2010Prop36
280
     0
102
RTVSPost2010PropOp36
 70
     1
102
RTVSPost2010Prop37
 90
       50
102
RTVSPost2010PropOp37
 70
     1
102
RTVSPost2010Prop38
140
0.0
102
RTVSPost2010PropOp38
 70
     1
102
RTVSPost2010Prop39
140
1.0
102
RTVSPost2010PropOp39
 70
     1
102
RTVSPost2010Prop40
 90
        0
102
RTVSPost2010PropOp40
 70
     1
102
RTVSPost2010Prop41ColorIndex
 90
       18
102
RTVSPost2010Prop41ColorRGB
 90
        0
102
RTVSPost2010PropOp41
 70
     1
102
RTVSPost2010Prop42
 90
       50
102
RTVSPost2010PropOp42
 70
     1
102
RTVSPost2010Prop43
 90
        3
102
RTVSPost2010PropOp43
 70
     1
102
RTVSPost2010Prop44ColorIndex
 90
        5
102
RTVSPost2010Prop44ColorRGB
 90
      255
102
RTVSPost2010PropOp44
 70
     1
102
RTVSPost2010Prop45
280
     0
102
RTVSPost2010PropOp45
 70
     1
102
RTVSPost2010Prop46
 90
       50
102
RTVSPost2010PropOp46
 70
     1
102
RTVSPost2010Prop47
 90
       50
102
RTVSPost2010PropOp47
 70
     1
102
RTVSPost2010Prop48
 90
       50
102
RTVSPost2010PropOp48
 70
     1
102
RTVSPost2010Prop49
280
     0
102
RTVSPost2010PropOp49
 70
     1
102
RTVSPost2010Prop50
 90
       50
102
RTVSPost2010PropOp50
 70
     1
102
RTVSPost2010Prop51ColorIndex
 90
      256
102
RTVSPost2010Prop51ColorRGB
 90
-16777216
102
RTVSPost2010PropOp51
 70
     0
102
RTVSPost2010Prop52
140
1.0
102
RTVSPost2010PropOp52
 70
     0
102
RTVSPost2010Prop53
 90
        2
102
RTVSPost2010PropOp53
 70
     1
102
RTVSPost2010Prop54
  1
strokes_ogs.tif
102
RTVSPost2010PropOp54
 70
     1
102
RTVSPost2010Prop55
280
     0
102
RTVSPost2010PropOp55
 70
     1
102
RTVSPost2010Prop56
140
1.0
102
RTVSPost2010PropOp56
 70
     1
102
RTVSPost2010Prop57
140
1.0
102
RTVSPost2010PropOp57
 70
     1
102
RTVSPropertyOp0
 70
     1
102
RTVSPropertyOp1
 70
     1
102
RTVSPropertyOp2
 70
     1
102
RTVSPropertyOp3
 70
     1
102
RTVSPropertyOp4
 70
     1
102
RTVSPropertyOp5
 70
     1
102
RTVSPropertyOp6
 70
     1
102
RTVSPropertyOp7
 70
     1
102
RTVSPropertyOp8
 70
     1
102
RTVSPropertyOp9
 70
     1
102
RTVSPropertyOp10
 70
     1
102
RTVSPropertyOp11
 70
     1
102
RTVSPropertyOp12
 70
     1
102
RTVSPropertyOp13
 70
     1
102
RTVSPropertyOp14
 70
     1
102
RTVSPropertyOp15
 70
     1
102
RTVSPropertyOp16
 70
     1
102
RTVSPropertyOp17
 70
     1
102
RTVSPropertyOp18
 70
     1
102
RTVSPropertyOp19
 70
     1
102
RTVSPropertyOp20
 70
     1
102
RTVSPropertyOp21
 70
     1
102
RTVSPropertyOp22
 70
     1
102
RTVSPropertyOp23
 70
     1
102
RTVSPropertyOp24
 70
     1
102
RTVSPropertyOp25
 70
     1
102
RTVSPropertyOp26
 70
     1
102
RTVSPropertyOp27
 70
     1
102
RTVSPropertyOp28
 70
     1
102
RTVSPropertyOp29
 70
     1
102
RTVSPropertyOp30
 70
     1
102
RTVSPropertyOp31
 70
     1
102
RTVSPropertyOp32
 70
     1
102
RTVSPropertyOp33
 70
     1
102
RTVSPropertyOp34
 70
     1
102
RTVSPropertyOp35
 70
     1
102
RTVSPropertyOp36
 70
     1
102
RTVSPropertyOp37
 70
     1
102
RTVSPropertyOp38
 70
     1
102
RTVSPropertyOp39
 70
     1
102
RTVSPropertyOp40
 70
     1
102
RTVSPropertyOp41
 70
     1
102
RTVSPropertyOp42
 70
     1
102
RTVSPropertyOp43
 70
     1
102
RTVSPropertyOp44
 70
     1
102
RTVSPropertyOp45
 70
     1
102
RTVSPropertyOp46
 70
     1
102
RTVSPropertyOp47
 70
     1
102
RTVSPropertyOp48
 70
     1
102
RTVSPropertyOp49
 70
     1
102
RTVSPropertyOp50
 70
     1
102
RTVSPropertyOp51
 70
     0
102
RTVSPropertyOp52
 70
     0
102
RTVSPropertyOp53
 70
     1
102
RTVSPropertyOp54
 70
     1
102
RTVSPropertyOp55
 70
     1
102
RTVSPropertyOp56
 70
     1
102
RTVSPropertyOp57
 70
     1
102
RTVSPropertyOp58
 70
     1
102
RTVSPropertyOp59
 70
     1
102
RTVSPropertyOp60
 70
     1
102
RTVSPropertyOp61
 70
     1
102
RTVSPropertyOp62
 70
     1
  0
XRECORD
  5
3958
102
{ACAD_REACTORS
330
3957
102
}
330
3957
100
AcDbXrecord
280
     1
102
RTVSPost2010Prop28
280
     0
102
RTVSPost2010PropOp28
 70
     1
102
RTVSPost2010Prop29
280
     1
102
RTVSPost2010PropOp29
 70
     1
102
RTVSPost2010Prop30
280
     1
102
RTVSPost2010PropOp30
 70
     1
102
RTVSPost2010Prop31
280
     0
102
RTVSPost2010PropOp31
 70
     1
102
RTVSPost2010Prop32
280
     0
102
RTVSPost2010PropOp32
 70
     1
102
RTVSPost2010Prop33
280
     0
102
RTVSPost2010PropOp33
 70
     1
102
RTVSPost2010Prop34
280
     0
102
RTVSPost2010PropOp34
 70
     1
102
RTVSPost2010Prop35
280
     0
102
RTVSPost2010PropOp35
 70
     1
102
RTVSPost2010Prop36
280
     0
102
RTVSPost2010PropOp36
 70
     1
102
RTVSPost2010Prop37
 90
       50
102
RTVSPost2010PropOp37
 70
     1
102
RTVSPost2010Prop38
140
0.0
102
RTVSPost2010PropOp38
 70
     1
102
RTVSPost2010Prop39
140
1.0
102
RTVSPost2010PropOp39
 70
     1
102
RTVSPost2010Prop40
 90
        0
102
RTVSPost2010PropOp40
 70
     1
102
RTVSPost2010Prop41ColorIndex
 90
       18
102
RTVSPost2010Prop41ColorRGB
 90
        0
102
RTVSPost2010PropOp41
 70
     1
102
RTVSPost2010Prop42
 90
       50
102
RTVSPost2010PropOp42
 70
     1
102
RTVSPost2010Prop43
 90
        3
102
RTVSPost2010PropOp43
 70
     1
102
RTVSPost2010Prop44ColorIndex
 90
        5
102
RTVSPost2010Prop44ColorRGB
 90
      255
102
RTVSPost2010PropOp44
 70
     1
102
RTVSPost2010Prop45
280
     0
102
RTVSPost2010PropOp45
 70
     1
102
RTVSPost2010Prop46
 90
       50
102
RTVSPost2010PropOp46
 70
     1
102
RTVSPost2010Prop47
 90
       50
102
RTVSPost2010PropOp47
 70
     1
102
RTVSPost2010Prop48
 90
       50
102
RTVSPost2010PropOp48
 70
     1
102
RTVSPost2010Prop49
280
     0
102
RTVSPost2010PropOp49
 70
     1
102
RTVSPost2010Prop50
 90
       50
102
RTVSPost2010PropOp50
 70
     1
102
RTVSPost2010Prop51ColorIndex
 90
      256
102
RTVSPost2010Prop51ColorRGB
 90
-16777216
102
RTVSPost2010PropOp51
 70
     0
102
RTVSPost2010Prop52
140
1.0
102
RTVSPost2010PropOp52
 70
     0
102
RTVSPost2010Prop53
 90
        2
102
RTVSPost2010PropOp53
 70
     1
102
RTVSPost2010Prop54
  1
strokes_ogs.tif
102
RTVSPost2010PropOp54
 70
     1
102
RTVSPost2010Prop55
280
     0
102
RTVSPost2010PropOp55
 70
     1
102
RTVSPost2010Prop56
140
1.0
102
RTVSPost2010PropOp56
 70
     1
102
RTVSPost2010Prop57
140
1.0
102
RTVSPost2010PropOp57
 70
     1
102
RTVSPropertyOp0
 70
     1
102
RTVSPropertyOp1
 70
     1
102
RTVSPropertyOp2
 70
     1
102
RTVSPropertyOp3
 70
     1
102
RTVSPropertyOp4
 70
     1
102
RTVSPropertyOp5
 70
     1
102
RTVSPropertyOp6
 70
     1
102
RTVSPropertyOp7
 70
     1
102
RTVSPropertyOp8
 70
     1
102
RTVSPropertyOp9
 70
     1
102
RTVSPropertyOp10
 70
     1
102
RTVSPropertyOp11
 70
     1
102
RTVSPropertyOp12
 70
     1
102
RTVSPropertyOp13
 70
     1
102
RTVSPropertyOp14
 70
     1
102
RTVSPropertyOp15
 70
     1
102
RTVSPropertyOp16
 70
     1
102
RTVSPropertyOp17
 70
     1
102
RTVSPropertyOp18
 70
     1
102
RTVSPropertyOp19
 70
     1
102
RTVSPropertyOp20
 70
     1
102
RTVSPropertyOp21
 70
     1
102
RTVSPropertyOp22
 70
     1
102
RTVSPropertyOp23
 70
     1
102
RTVSPropertyOp24
 70
     1
102
RTVSPropertyOp25
 70
     1
102
RTVSPropertyOp26
 70
     1
102
RTVSPropertyOp27
 70
     1
102
RTVSPropertyOp28
 70
     1
102
RTVSPropertyOp29
 70
     1
102
RTVSPropertyOp30
 70
     1
102
RTVSPropertyOp31
 70
     1
102
RTVSPropertyOp32
 70
     1
102
RTVSPropertyOp33
 70
     1
102
RTVSPropertyOp34
 70
     1
102
RTVSPropertyOp35
 70
     1
102
RTVSPropertyOp36
 70
     1
102
RTVSPropertyOp37
 70
     1
102
RTVSPropertyOp38
 70
     1
102
RTVSPropertyOp39
 70
     1
102
RTVSPropertyOp40
 70
     1
102
RTVSPropertyOp41
 70
     1
102
RTVSPropertyOp42
 70
     1
102
RTVSPropertyOp43
 70
     1
102
RTVSPropertyOp44
 70
     1
102
RTVSPropertyOp45
 70
     1
102
RTVSPropertyOp46
 70
     1
102
RTVSPropertyOp47
 70
     1
102
RTVSPropertyOp48
 70
     1
102
RTVSPropertyOp49
 70
     1
102
RTVSPropertyOp50
 70
     1
102
RTVSPropertyOp51
 70
     0
102
RTVSPropertyOp52
 70
     0
102
RTVSPropertyOp53
 70
     1
102
RTVSPropertyOp54
 70
     1
102
RTVSPropertyOp55
 70
     1
102
RTVSPropertyOp56
 70
     1
102
RTVSPropertyOp57
 70
     1
102
RTVSPropertyOp58
 70
     1
102
RTVSPropertyOp59
 70
     1
102
RTVSPropertyOp60
 70
     1
102
RTVSPropertyOp61
 70
     1
102
RTVSPropertyOp62
 70
     1
  0
XRECORD
  5
395C
102
{ACAD_REACTORS
330
395B
102
}
330
395B
100
AcDbXrecord
280
     1
102
RTVSPost2010Prop28
280
     0
102
RTVSPost2010PropOp28
 70
     1
102
RTVSPost2010Prop29
280
     1
102
RTVSPost2010PropOp29
 70
     1
102
RTVSPost2010Prop30
280
     1
102
RTVSPost2010PropOp30
 70
     1
102
RTVSPost2010Prop31
280
     0
102
RTVSPost2010PropOp31
 70
     1
102
RTVSPost2010Prop32
280
     0
102
RTVSPost2010PropOp32
 70
     1
102
RTVSPost2010Prop33
280
     0
102
RTVSPost2010PropOp33
 70
     1
102
RTVSPost2010Prop34
280
     0
102
RTVSPost2010PropOp34
 70
     1
102
RTVSPost2010Prop35
280
     0
102
RTVSPost2010PropOp35
 70
     1
102
RTVSPost2010Prop36
280
     0
102
RTVSPost2010PropOp36
 70
     1
102
RTVSPost2010Prop37
 90
       50
102
RTVSPost2010PropOp37
 70
     1
102
RTVSPost2010Prop38
140
0.0
102
RTVSPost2010PropOp38
 70
     1
102
RTVSPost2010Prop39
140
1.0
102
RTVSPost2010PropOp39
 70
     1
102
RTVSPost2010Prop40
 90
        0
102
RTVSPost2010PropOp40
 70
     1
102
RTVSPost2010Prop41ColorIndex
 90
       18
102
RTVSPost2010Prop41ColorRGB
 90
        0
102
RTVSPost2010PropOp41
 70
     1
102
RTVSPost2010Prop42
 90
       50
102
RTVSPost2010PropOp42
 70
     1
102
RTVSPost2010Prop43
 90
        3
102
RTVSPost2010PropOp43
 70
     1
102
RTVSPost2010Prop44ColorIndex
 90
        5
102
RTVSPost2010Prop44ColorRGB
 90
      255
102
RTVSPost2010PropOp44
 70
     1
102
RTVSPost2010Prop45
280
     0
102
RTVSPost2010PropOp45
 70
     1
102
RTVSPost2010Prop46
 90
       50
102
RTVSPost2010PropOp46
 70
     1
102
RTVSPost2010Prop47
 90
       50
102
RTVSPost2010PropOp47
 70
     1
102
RTVSPost2010Prop48
 90
       50
102
RTVSPost2010PropOp48
 70
     1
102
RTVSPost2010Prop49
280
     0
102
RTVSPost2010PropOp49
 70
     1
102
RTVSPost2010Prop50
 90
       50
102
RTVSPost2010PropOp50
 70
     1
102
RTVSPost2010Prop51ColorIndex
 90
      256
102
RTVSPost2010Prop51ColorRGB
 90
-16777216
102
RTVSPost2010PropOp51
 70
     0
102
RTVSPost2010Prop52
140
1.0
102
RTVSPost2010PropOp52
 70
     0
102
RTVSPost2010Prop53
 90
        2
102
RTVSPost2010PropOp53
 70
     1
102
RTVSPost2010Prop54
  1
strokes_ogs.tif
102
RTVSPost2010PropOp54
 70
     1
102
RTVSPost2010Prop55
280
     0
102
RTVSPost2010PropOp55
 70
     1
102
RTVSPost2010Prop56
140
1.0
102
RTVSPost2010PropOp56
 70
     1
102
RTVSPost2010Prop57
140
1.0
102
RTVSPost2010PropOp57
 70
     1
102
RTVSPropertyOp0
 70
     1
102
RTVSPropertyOp1
 70
     1
102
RTVSPropertyOp2
 70
     1
102
RTVSPropertyOp3
 70
     1
102
RTVSPropertyOp4
 70
     1
102
RTVSPropertyOp5
 70
     1
102
RTVSPropertyOp6
 70
     1
102
RTVSPropertyOp7
 70
     1
102
RTVSPropertyOp8
 70
     1
102
RTVSPropertyOp9
 70
     1
102
RTVSPropertyOp10
 70
     1
102
RTVSPropertyOp11
 70
     1
102
RTVSPropertyOp12
 70
     1
102
RTVSPropertyOp13
 70
     1
102
RTVSPropertyOp14
 70
     1
102
RTVSPropertyOp15
 70
     1
102
RTVSPropertyOp16
 70
     1
102
RTVSPropertyOp17
 70
     1
102
RTVSPropertyOp18
 70
     1
102
RTVSPropertyOp19
 70
     1
102
RTVSPropertyOp20
 70
     1
102
RTVSPropertyOp21
 70
     1
102
RTVSPropertyOp22
 70
     1
102
RTVSPropertyOp23
 70
     1
102
RTVSPropertyOp24
 70
     1
102
RTVSPropertyOp25
 70
     1
102
RTVSPropertyOp26
 70
     1
102
RTVSPropertyOp27
 70
     1
102
RTVSPropertyOp28
 70
     1
102
RTVSPropertyOp29
 70
     1
102
RTVSPropertyOp30
 70
     1
102
RTVSPropertyOp31
 70
     1
102
RTVSPropertyOp32
 70
     1
102
RTVSPropertyOp33
 70
     1
102
RTVSPropertyOp34
 70
     1
102
RTVSPropertyOp35
 70
     1
102
RTVSPropertyOp36
 70
     1
102
RTVSPropertyOp37
 70
     1
102
RTVSPropertyOp38
 70
     1
102
RTVSPropertyOp39
 70
     1
102
RTVSPropertyOp40
 70
     1
102
RTVSPropertyOp41
 70
     1
102
RTVSPropertyOp42
 70
     1
102
RTVSPropertyOp43
 70
     1
102
RTVSPropertyOp44
 70
     1
102
RTVSPropertyOp45
 70
     1
102
RTVSPropertyOp46
 70
     1
102
RTVSPropertyOp47
 70
     1
102
RTVSPropertyOp48
 70
     1
102
RTVSPropertyOp49
 70
     1
102
RTVSPropertyOp50
 70
     1
102
RTVSPropertyOp51
 70
     0
102
RTVSPropertyOp52
 70
     0
102
RTVSPropertyOp53
 70
     1
102
RTVSPropertyOp54
 70
     1
102
RTVSPropertyOp55
 70
     1
102
RTVSPropertyOp56
 70
     1
102
RTVSPropertyOp57
 70
     1
102
RTVSPropertyOp58
 70
     1
102
RTVSPropertyOp59
 70
     1
102
RTVSPropertyOp60
 70
     1
102
RTVSPropertyOp61
 70
     1
102
RTVSPropertyOp62
 70
     1
  0
XRECORD
  5
396C
102
{ACAD_REACTORS
330
396B
102
}
330
396B
100
AcDbXrecord
280
     1
102
RTVSPost2010Prop28
280
     0
102
RTVSPost2010PropOp28
 70
     1
102
RTVSPost2010Prop29
280
     1
102
RTVSPost2010PropOp29
 70
     1
102
RTVSPost2010Prop30
280
     1
102
RTVSPost2010PropOp30
 70
     1
102
RTVSPost2010Prop31
280
     0
102
RTVSPost2010PropOp31
 70
     1
102
RTVSPost2010Prop32
280
     0
102
RTVSPost2010PropOp32
 70
     1
102
RTVSPost2010Prop33
280
     0
102
RTVSPost2010PropOp33
 70
     1
102
RTVSPost2010Prop34
280
     0
102
RTVSPost2010PropOp34
 70
     1
102
RTVSPost2010Prop35
280
     0
102
RTVSPost2010PropOp35
 70
     1
102
RTVSPost2010Prop36
280
     0
102
RTVSPost2010PropOp36
 70
     1
102
RTVSPost2010Prop37
 90
       50
102
RTVSPost2010PropOp37
 70
     1
102
RTVSPost2010Prop38
140
0.0
102
RTVSPost2010PropOp38
 70
     1
102
RTVSPost2010Prop39
140
1.0
102
RTVSPost2010PropOp39
 70
     1
102
RTVSPost2010Prop40
 90
        0
102
RTVSPost2010PropOp40
 70
     1
102
RTVSPost2010Prop41ColorIndex
 90
       18
102
RTVSPost2010Prop41ColorRGB
 90
        0
102
RTVSPost2010PropOp41
 70
     1
102
RTVSPost2010Prop42
 90
       50
102
RTVSPost2010PropOp42
 70
     1
102
RTVSPost2010Prop43
 90
        3
102
RTVSPost2010PropOp43
 70
     1
102
RTVSPost2010Prop44ColorIndex
 90
        5
102
RTVSPost2010Prop44ColorRGB
 90
      255
102
RTVSPost2010PropOp44
 70
     1
102
RTVSPost2010Prop45
280
     0
102
RTVSPost2010PropOp45
 70
     1
102
RTVSPost2010Prop46
 90
       50
102
RTVSPost2010PropOp46
 70
     1
102
RTVSPost2010Prop47
 90
       50
102
RTVSPost2010PropOp47
 70
     1
102
RTVSPost2010Prop48
 90
       50
102
RTVSPost2010PropOp48
 70
     1
102
RTVSPost2010Prop49
280
     0
102
RTVSPost2010PropOp49
 70
     1
102
RTVSPost2010Prop50
 90
       50
102
RTVSPost2010PropOp50
 70
     1
102
RTVSPost2010Prop51ColorIndex
 90
      256
102
RTVSPost2010Prop51ColorRGB
 90
-16777216
102
RTVSPost2010PropOp51
 70
     0
102
RTVSPost2010Prop52
140
1.0
102
RTVSPost2010PropOp52
 70
     0
102
RTVSPost2010Prop53
 90
        2
102
RTVSPost2010PropOp53
 70
     1
102
RTVSPost2010Prop54
  1
strokes_ogs.tif
102
RTVSPost2010PropOp54
 70
     1
102
RTVSPost2010Prop55
280
     0
102
RTVSPost2010PropOp55
 70
     1
102
RTVSPost2010Prop56
140
1.0
102
RTVSPost2010PropOp56
 70
     1
102
RTVSPost2010Prop57
140
1.0
102
RTVSPost2010PropOp57
 70
     1
102
RTVSPropertyOp0
 70
     0
102
RTVSPropertyOp1
 70
     0
102
RTVSPropertyOp2
 70
     0
102
RTVSPropertyOp3
 70
     0
102
RTVSPropertyOp4
 70
     0
102
RTVSPropertyOp5
 70
     0
102
RTVSPropertyOp6
 70
     0
102
RTVSPropertyOp7
 70
     0
102
RTVSPropertyOp8
 70
     0
102
RTVSPropertyOp9
 70
     0
102
RTVSPropertyOp10
 70
     0
102
RTVSPropertyOp11
 70
     0
102
RTVSPropertyOp12
 70
     0
102
RTVSPropertyOp13
 70
     0
102
RTVSPropertyOp14
 70
     2
102
RTVSPropertyOp15
 70
     0
102
RTVSPropertyOp16
 70
     0
102
RTVSPropertyOp17
 70
     0
102
RTVSPropertyOp18
 70
     0
102
RTVSPropertyOp19
 70
     0
102
RTVSPropertyOp20
 70
     0
102
RTVSPropertyOp21
 70
     0
102
RTVSPropertyOp22
 70
     0
102
RTVSPropertyOp23
 70
     0
102
RTVSPropertyOp24
 70
     0
102
RTVSPropertyOp25
 70
     0
102
RTVSPropertyOp26
 70
     0
102
RTVSPropertyOp27
 70
     0
102
RTVSPropertyOp28
 70
     1
102
RTVSPropertyOp29
 70
     1
102
RTVSPropertyOp30
 70
     1
102
RTVSPropertyOp31
 70
     1
102
RTVSPropertyOp32
 70
     1
102
RTVSPropertyOp33
 70
     1
102
RTVSPropertyOp34
 70
     1
102
RTVSPropertyOp35
 70
     1
102
RTVSPropertyOp36
 70
     1
102
RTVSPropertyOp37
 70
     1
102
RTVSPropertyOp38
 70
     1
102
RTVSPropertyOp39
 70
     1
102
RTVSPropertyOp40
 70
     1
102
RTVSPropertyOp41
 70
     1
102
RTVSPropertyOp42
 70
     1
102
RTVSPropertyOp43
 70
     1
102
RTVSPropertyOp44
 70
     1
102
RTVSPropertyOp45
 70
     1
102
RTVSPropertyOp46
 70
     1
102
RTVSPropertyOp47
 70
     1
102
RTVSPropertyOp48
 70
     1
102
RTVSPropertyOp49
 70
     1
102
RTVSPropertyOp50
 70
     1
102
RTVSPropertyOp51
 70
     0
102
RTVSPropertyOp52
 70
     0
102
RTVSPropertyOp53
 70
     1
102
RTVSPropertyOp54
 70
     1
102
RTVSPropertyOp55
 70
     1
102
RTVSPropertyOp56
 70
     1
102
RTVSPropertyOp57
 70
     1
102
RTVSPropertyOp58
 70
     1
102
RTVSPropertyOp59
 70
     1
102
RTVSPropertyOp60
 70
     1
102
RTVSPropertyOp61
 70
     1
102
RTVSPropertyOp62
 70
     1
  0
XRECORD
  5
3964
102
{ACAD_REACTORS
330
3963
102
}
330
3963
100
AcDbXrecord
280
     1
102
RTVSPost2010Prop28
280
     0
102
RTVSPost2010PropOp28
 70
     1
102
RTVSPost2010Prop29
280
     1
102
RTVSPost2010PropOp29
 70
     1
102
RTVSPost2010Prop30
280
     1
102
RTVSPost2010PropOp30
 70
     1
102
RTVSPost2010Prop31
280
     0
102
RTVSPost2010PropOp31
 70
     1
102
RTVSPost2010Prop32
280
     0
102
RTVSPost2010PropOp32
 70
     1
102
RTVSPost2010Prop33
280
     0
102
RTVSPost2010PropOp33
 70
     1
102
RTVSPost2010Prop34
280
     0
102
RTVSPost2010PropOp34
 70
     1
102
RTVSPost2010Prop35
280
     0
102
RTVSPost2010PropOp35
 70
     1
102
RTVSPost2010Prop36
280
     0
102
RTVSPost2010PropOp36
 70
     1
102
RTVSPost2010Prop37
 90
       50
102
RTVSPost2010PropOp37
 70
     1
102
RTVSPost2010Prop38
140
0.0
102
RTVSPost2010PropOp38
 70
     1
102
RTVSPost2010Prop39
140
1.0
102
RTVSPost2010PropOp39
 70
     1
102
RTVSPost2010Prop40
 90
        0
102
RTVSPost2010PropOp40
 70
     1
102
RTVSPost2010Prop41ColorIndex
 90
       18
102
RTVSPost2010Prop41ColorRGB
 90
        0
102
RTVSPost2010PropOp41
 70
     1
102
RTVSPost2010Prop42
 90
       50
102
RTVSPost2010PropOp42
 70
     1
102
RTVSPost2010Prop43
 90
        3
102
RTVSPost2010PropOp43
 70
     1
102
RTVSPost2010Prop44ColorIndex
 90
        5
102
RTVSPost2010Prop44ColorRGB
 90
      255
102
RTVSPost2010PropOp44
 70
     1
102
RTVSPost2010Prop45
280
     0
102
RTVSPost2010PropOp45
 70
     1
102
RTVSPost2010Prop46
 90
       50
102
RTVSPost2010PropOp46
 70
     1
102
RTVSPost2010Prop47
 90
       50
102
RTVSPost2010PropOp47
 70
     1
102
RTVSPost2010Prop48
 90
       50
102
RTVSPost2010PropOp48
 70
     1
102
RTVSPost2010Prop49
280
     0
102
RTVSPost2010PropOp49
 70
     1
102
RTVSPost2010Prop50
 90
       50
102
RTVSPost2010PropOp50
 70
     1
102
RTVSPost2010Prop51ColorIndex
 90
      256
102
RTVSPost2010Prop51ColorRGB
 90
-16777216
102
RTVSPost2010PropOp51
 70
     0
102
RTVSPost2010Prop52
140
1.0
102
RTVSPost2010PropOp52
 70
     0
102
RTVSPost2010Prop53
 90
        2
102
RTVSPost2010PropOp53
 70
     1
102
RTVSPost2010Prop54
  1
strokes_ogs.tif
102
RTVSPost2010PropOp54
 70
     1
102
RTVSPost2010Prop55
280
     0
102
RTVSPost2010PropOp55
 70
     1
102
RTVSPost2010Prop56
140
1.0
102
RTVSPost2010PropOp56
 70
     1
102
RTVSPost2010Prop57
140
1.0
102
RTVSPost2010PropOp57
 70
     1
102
RTVSPropertyOp0
 70
     1
102
RTVSPropertyOp1
 70
     1
102
RTVSPropertyOp2
 70
     1
102
RTVSPropertyOp3
 70
     1
102
RTVSPropertyOp4
 70
     1
102
RTVSPropertyOp5
 70
     1
102
RTVSPropertyOp6
 70
     1
102
RTVSPropertyOp7
 70
     1
102
RTVSPropertyOp8
 70
     1
102
RTVSPropertyOp9
 70
     1
102
RTVSPropertyOp10
 70
     1
102
RTVSPropertyOp11
 70
     1
102
RTVSPropertyOp12
 70
     1
102
RTVSPropertyOp13
 70
     1
102
RTVSPropertyOp14
 70
     1
102
RTVSPropertyOp15
 70
     1
102
RTVSPropertyOp16
 70
     1
102
RTVSPropertyOp17
 70
     1
102
RTVSPropertyOp18
 70
     1
102
RTVSPropertyOp19
 70
     1
102
RTVSPropertyOp20
 70
     1
102
RTVSPropertyOp21
 70
     1
102
RTVSPropertyOp22
 70
     1
102
RTVSPropertyOp23
 70
     1
102
RTVSPropertyOp24
 70
     1
102
RTVSPropertyOp25
 70
     1
102
RTVSPropertyOp26
 70
     1
102
RTVSPropertyOp27
 70
     1
102
RTVSPropertyOp28
 70
     1
102
RTVSPropertyOp29
 70
     1
102
RTVSPropertyOp30
 70
     1
102
RTVSPropertyOp31
 70
     1
102
RTVSPropertyOp32
 70
     1
102
RTVSPropertyOp33
 70
     1
102
RTVSPropertyOp34
 70
     1
102
RTVSPropertyOp35
 70
     1
102
RTVSPropertyOp36
 70
     1
102
RTVSPropertyOp37
 70
     1
102
RTVSPropertyOp38
 70
     1
102
RTVSPropertyOp39
 70
     1
102
RTVSPropertyOp40
 70
     1
102
RTVSPropertyOp41
 70
     1
102
RTVSPropertyOp42
 70
     1
102
RTVSPropertyOp43
 70
     1
102
RTVSPropertyOp44
 70
     1
102
RTVSPropertyOp45
 70
     1
102
RTVSPropertyOp46
 70
     1
102
RTVSPropertyOp47
 70
     1
102
RTVSPropertyOp48
 70
     1
102
RTVSPropertyOp49
 70
     1
102
RTVSPropertyOp50
 70
     1
102
RTVSPropertyOp51
 70
     0
102
RTVSPropertyOp52
 70
     0
102
RTVSPropertyOp53
 70
     1
102
RTVSPropertyOp54
 70
     1
102
RTVSPropertyOp55
 70
     1
102
RTVSPropertyOp56
 70
     1
102
RTVSPropertyOp57
 70
     1
102
RTVSPropertyOp58
 70
     1
102
RTVSPropertyOp59
 70
     1
102
RTVSPropertyOp60
 70
     1
102
RTVSPropertyOp61
 70
     1
102
RTVSPropertyOp62
 70
     1
  0
XRECORD
  5
3948
102
{ACAD_REACTORS
330
3947
102
}
330
3947
100
AcDbXrecord
280
     1
102
RTVSPost2010Prop28
280
     0
102
RTVSPost2010PropOp28
 70
     1
102
RTVSPost2010Prop29
280
     1
102
RTVSPost2010PropOp29
 70
     1
102
RTVSPost2010Prop30
280
     1
102
RTVSPost2010PropOp30
 70
     1
102
RTVSPost2010Prop31
280
     0
102
RTVSPost2010PropOp31
 70
     1
102
RTVSPost2010Prop32
280
     0
102
RTVSPost2010PropOp32
 70
     1
102
RTVSPost2010Prop33
280
     0
102
RTVSPost2010PropOp33
 70
     1
102
RTVSPost2010Prop34
280
     0
102
RTVSPost2010PropOp34
 70
     1
102
RTVSPost2010Prop35
280
     0
102
RTVSPost2010PropOp35
 70
     1
102
RTVSPost2010Prop36
280
     0
102
RTVSPost2010PropOp36
 70
     1
102
RTVSPost2010Prop37
 90
       50
102
RTVSPost2010PropOp37
 70
     1
102
RTVSPost2010Prop38
140
0.0
102
RTVSPost2010PropOp38
 70
     1
102
RTVSPost2010Prop39
140
1.0
102
RTVSPost2010PropOp39
 70
     1
102
RTVSPost2010Prop40
 90
        0
102
RTVSPost2010PropOp40
 70
     1
102
RTVSPost2010Prop41ColorIndex
 90
       18
102
RTVSPost2010Prop41ColorRGB
 90
        0
102
RTVSPost2010PropOp41
 70
     1
102
RTVSPost2010Prop42
 90
       50
102
RTVSPost2010PropOp42
 70
     1
102
RTVSPost2010Prop43
 90
        3
102
RTVSPost2010PropOp43
 70
     1
102
RTVSPost2010Prop44ColorIndex
 90
        5
102
RTVSPost2010Prop44ColorRGB
 90
      255
102
RTVSPost2010PropOp44
 70
     1
102
RTVSPost2010Prop45
280
     0
102
RTVSPost2010PropOp45
 70
     1
102
RTVSPost2010Prop46
 90
       50
102
RTVSPost2010PropOp46
 70
     1
102
RTVSPost2010Prop47
 90
       50
102
RTVSPost2010PropOp47
 70
     1
102
RTVSPost2010Prop48
 90
       50
102
RTVSPost2010PropOp48
 70
     1
102
RTVSPost2010Prop49
280
     0
102
RTVSPost2010PropOp49
 70
     1
102
RTVSPost2010Prop50
 90
       50
102
RTVSPost2010PropOp50
 70
     1
102
RTVSPost2010Prop51ColorIndex
 90
      256
102
RTVSPost2010Prop51ColorRGB
 90
-16777216
102
RTVSPost2010PropOp51
 70
     0
102
RTVSPost2010Prop52
140
1.0
102
RTVSPost2010PropOp52
 70
     0
102
RTVSPost2010Prop53
 90
        2
102
RTVSPost2010PropOp53
 70
     1
102
RTVSPost2010Prop54
  1
strokes_ogs.tif
102
RTVSPost2010PropOp54
 70
     1
102
RTVSPost2010Prop55
280
     0
102
RTVSPost2010PropOp55
 70
     1
102
RTVSPost2010Prop56
140
1.0
102
RTVSPost2010PropOp56
 70
     1
102
RTVSPost2010Prop57
140
1.0
102
RTVSPost2010PropOp57
 70
     1
102
RTVSPropertyOp0
 70
     1
102
RTVSPropertyOp1
 70
     1
102
RTVSPropertyOp2
 70
     1
102
RTVSPropertyOp3
 70
     1
102
RTVSPropertyOp4
 70
     1
102
RTVSPropertyOp5
 70
     1
102
RTVSPropertyOp6
 70
     1
102
RTVSPropertyOp7
 70
     1
102
RTVSPropertyOp8
 70
     1
102
RTVSPropertyOp9
 70
     1
102
RTVSPropertyOp10
 70
     1
102
RTVSPropertyOp11
 70
     1
102
RTVSPropertyOp12
 70
     1
102
RTVSPropertyOp13
 70
     1
102
RTVSPropertyOp14
 70
     1
102
RTVSPropertyOp15
 70
     1
102
RTVSPropertyOp16
 70
     1
102
RTVSPropertyOp17
 70
     1
102
RTVSPropertyOp18
 70
     1
102
RTVSPropertyOp19
 70
     1
102
RTVSPropertyOp20
 70
     1
102
RTVSPropertyOp21
 70
     1
102
RTVSPropertyOp22
 70
     1
102
RTVSPropertyOp23
 70
     1
102
RTVSPropertyOp24
 70
     1
102
RTVSPropertyOp25
 70
     1
102
RTVSPropertyOp26
 70
     1
102
RTVSPropertyOp27
 70
     1
102
RTVSPropertyOp28
 70
     1
102
RTVSPropertyOp29
 70
     1
102
RTVSPropertyOp30
 70
     1
102
RTVSPropertyOp31
 70
     1
102
RTVSPropertyOp32
 70
     1
102
RTVSPropertyOp33
 70
     1
102
RTVSPropertyOp34
 70
     1
102
RTVSPropertyOp35
 70
     1
102
RTVSPropertyOp36
 70
     1
102
RTVSPropertyOp37
 70
     1
102
RTVSPropertyOp38
 70
     1
102
RTVSPropertyOp39
 70
     1
102
RTVSPropertyOp40
 70
     1
102
RTVSPropertyOp41
 70
     1
102
RTVSPropertyOp42
 70
     1
102
RTVSPropertyOp43
 70
     1
102
RTVSPropertyOp44
 70
     1
102
RTVSPropertyOp45
 70
     1
102
RTVSPropertyOp46
 70
     1
102
RTVSPropertyOp47
 70
     1
102
RTVSPropertyOp48
 70
     1
102
RTVSPropertyOp49
 70
     1
102
RTVSPropertyOp50
 70
     1
102
RTVSPropertyOp51
 70
     0
102
RTVSPropertyOp52
 70
     0
102
RTVSPropertyOp53
 70
     1
102
RTVSPropertyOp54
 70
     1
102
RTVSPropertyOp55
 70
     1
102
RTVSPropertyOp56
 70
     1
102
RTVSPropertyOp57
 70
     1
102
RTVSPropertyOp58
 70
     1
102
RTVSPropertyOp59
 70
     1
102
RTVSPropertyOp60
 70
     1
102
RTVSPropertyOp61
 70
     1
102
RTVSPropertyOp62
 70
     1
  0
XRECORD
  5
394A
102
{ACAD_REACTORS
330
3949
102
}
330
3949
100
AcDbXrecord
280
     1
102
RTVSPost2010Prop28
280
     0
102
RTVSPost2010PropOp28
 70
     1
102
RTVSPost2010Prop29
280
     1
102
RTVSPost2010PropOp29
 70
     1
102
RTVSPost2010Prop30
280
     1
102
RTVSPost2010PropOp30
 70
     1
102
RTVSPost2010Prop31
280
     0
102
RTVSPost2010PropOp31
 70
     1
102
RTVSPost2010Prop32
280
     0
102
RTVSPost2010PropOp32
 70
     1
102
RTVSPost2010Prop33
280
     0
102
RTVSPost2010PropOp33
 70
     1
102
RTVSPost2010Prop34
280
     0
102
RTVSPost2010PropOp34
 70
     1
102
RTVSPost2010Prop35
280
     0
102
RTVSPost2010PropOp35
 70
     1
102
RTVSPost2010Prop36
280
     0
102
RTVSPost2010PropOp36
 70
     1
102
RTVSPost2010Prop37
 90
       50
102
RTVSPost2010PropOp37
 70
     1
102
RTVSPost2010Prop38
140
0.0
102
RTVSPost2010PropOp38
 70
     1
102
RTVSPost2010Prop39
140
1.0
102
RTVSPost2010PropOp39
 70
     1
102
RTVSPost2010Prop40
 90
        0
102
RTVSPost2010PropOp40
 70
     1
102
RTVSPost2010Prop41ColorIndex
 90
       18
102
RTVSPost2010Prop41ColorRGB
 90
        0
102
RTVSPost2010PropOp41
 70
     1
102
RTVSPost2010Prop42
 90
       50
102
RTVSPost2010PropOp42
 70
     1
102
RTVSPost2010Prop43
 90
        3
102
RTVSPost2010PropOp43
 70
     1
102
RTVSPost2010Prop44ColorIndex
 90
        5
102
RTVSPost2010Prop44ColorRGB
 90
      255
102
RTVSPost2010PropOp44
 70
     1
102
RTVSPost2010Prop45
280
     0
102
RTVSPost2010PropOp45
 70
     1
102
RTVSPost2010Prop46
 90
       50
102
RTVSPost2010PropOp46
 70
     1
102
RTVSPost2010Prop47
 90
       50
102
RTVSPost2010PropOp47
 70
     1
102
RTVSPost2010Prop48
 90
       50
102
RTVSPost2010PropOp48
 70
     1
102
RTVSPost2010Prop49
280
     0
102
RTVSPost2010PropOp49
 70
     1
102
RTVSPost2010Prop50
 90
       50
102
RTVSPost2010PropOp50
 70
     1
102
RTVSPost2010Prop51ColorIndex
 90
      256
102
RTVSPost2010Prop51ColorRGB
 90
-16777216
102
RTVSPost2010PropOp51
 70
     0
102
RTVSPost2010Prop52
140
1.0
102
RTVSPost2010PropOp52
 70
     0
102
RTVSPost2010Prop53
 90
        2
102
RTVSPost2010PropOp53
 70
     1
102
RTVSPost2010Prop54
  1
strokes_ogs.tif
102
RTVSPost2010PropOp54
 70
     1
102
RTVSPost2010Prop55
280
     0
102
RTVSPost2010PropOp55
 70
     1
102
RTVSPost2010Prop56
140
1.0
102
RTVSPost2010PropOp56
 70
     1
102
RTVSPost2010Prop57
140
1.0
102
RTVSPost2010PropOp57
 70
     1
102
RTVSPropertyOp0
 70
     1
102
RTVSPropertyOp1
 70
     1
102
RTVSPropertyOp2
 70
     1
102
RTVSPropertyOp3
 70
     1
102
RTVSPropertyOp4
 70
     1
102
RTVSPropertyOp5
 70
     1
102
RTVSPropertyOp6
 70
     1
102
RTVSPropertyOp7
 70
     1
102
RTVSPropertyOp8
 70
     1
102
RTVSPropertyOp9
 70
     1
102
RTVSPropertyOp10
 70
     1
102
RTVSPropertyOp11
 70
     1
102
RTVSPropertyOp12
 70
     1
102
RTVSPropertyOp13
 70
     1
102
RTVSPropertyOp14
 70
     1
102
RTVSPropertyOp15
 70
     1
102
RTVSPropertyOp16
 70
     1
102
RTVSPropertyOp17
 70
     1
102
RTVSPropertyOp18
 70
     1
102
RTVSPropertyOp19
 70
     1
102
RTVSPropertyOp20
 70
     1
102
RTVSPropertyOp21
 70
     1
102
RTVSPropertyOp22
 70
     1
102
RTVSPropertyOp23
 70
     1
102
RTVSPropertyOp24
 70
     1
102
RTVSPropertyOp25
 70
     1
102
RTVSPropertyOp26
 70
     1
102
RTVSPropertyOp27
 70
     1
102
RTVSPropertyOp28
 70
     1
102
RTVSPropertyOp29
 70
     1
102
RTVSPropertyOp30
 70
     1
102
RTVSPropertyOp31
 70
     1
102
RTVSPropertyOp32
 70
     1
102
RTVSPropertyOp33
 70
     1
102
RTVSPropertyOp34
 70
     1
102
RTVSPropertyOp35
 70
     1
102
RTVSPropertyOp36
 70
     1
102
RTVSPropertyOp37
 70
     1
102
RTVSPropertyOp38
 70
     1
102
RTVSPropertyOp39
 70
     1
102
RTVSPropertyOp40
 70
     1
102
RTVSPropertyOp41
 70
     1
102
RTVSPropertyOp42
 70
     1
102
RTVSPropertyOp43
 70
     1
102
RTVSPropertyOp44
 70
     1
102
RTVSPropertyOp45
 70
     1
102
RTVSPropertyOp46
 70
     1
102
RTVSPropertyOp47
 70
     1
102
RTVSPropertyOp48
 70
     1
102
RTVSPropertyOp49
 70
     1
102
RTVSPropertyOp50
 70
     1
102
RTVSPropertyOp51
 70
     0
102
RTVSPropertyOp52
 70
     0
102
RTVSPropertyOp53
 70
     1
102
RTVSPropertyOp54
 70
     1
102
RTVSPropertyOp55
 70
     1
102
RTVSPropertyOp56
 70
     1
102
RTVSPropertyOp57
 70
     1
102
RTVSPropertyOp58
 70
     1
102
RTVSPropertyOp59
 70
     1
102
RTVSPropertyOp60
 70
     1
102
RTVSPropertyOp61
 70
     1
102
RTVSPropertyOp62
 70
     1
  0
XRECORD
  5
394C
102
{ACAD_REACTORS
330
394B
102
}
330
394B
100
AcDbXrecord
280
     1
102
RTVSPost2010Prop28
280
     0
102
RTVSPost2010PropOp28
 70
     1
102
RTVSPost2010Prop29
280
     1
102
RTVSPost2010PropOp29
 70
     1
102
RTVSPost2010Prop30
280
     1
102
RTVSPost2010PropOp30
 70
     1
102
RTVSPost2010Prop31
280
     0
102
RTVSPost2010PropOp31
 70
     1
102
RTVSPost2010Prop32
280
     0
102
RTVSPost2010PropOp32
 70
     1
102
RTVSPost2010Prop33
280
     0
102
RTVSPost2010PropOp33
 70
     1
102
RTVSPost2010Prop34
280
     0
102
RTVSPost2010PropOp34
 70
     1
102
RTVSPost2010Prop35
280
     0
102
RTVSPost2010PropOp35
 70
     1
102
RTVSPost2010Prop36
280
     0
102
RTVSPost2010PropOp36
 70
     1
102
RTVSPost2010Prop37
 90
       50
102
RTVSPost2010PropOp37
 70
     1
102
RTVSPost2010Prop38
140
0.0
102
RTVSPost2010PropOp38
 70
     1
102
RTVSPost2010Prop39
140
1.0
102
RTVSPost2010PropOp39
 70
     1
102
RTVSPost2010Prop40
 90
        0
102
RTVSPost2010PropOp40
 70
     1
102
RTVSPost2010Prop41ColorIndex
 90
       18
102
RTVSPost2010Prop41ColorRGB
 90
        0
102
RTVSPost2010PropOp41
 70
     1
102
RTVSPost2010Prop42
 90
       50
102
RTVSPost2010PropOp42
 70
     1
102
RTVSPost2010Prop43
 90
        3
102
RTVSPost2010PropOp43
 70
     1
102
RTVSPost2010Prop44ColorIndex
 90
        5
102
RTVSPost2010Prop44ColorRGB
 90
      255
102
RTVSPost2010PropOp44
 70
     1
102
RTVSPost2010Prop45
280
     0
102
RTVSPost2010PropOp45
 70
     1
102
RTVSPost2010Prop46
 90
       50
102
RTVSPost2010PropOp46
 70
     1
102
RTVSPost2010Prop47
 90
       50
102
RTVSPost2010PropOp47
 70
     1
102
RTVSPost2010Prop48
 90
       50
102
RTVSPost2010PropOp48
 70
     1
102
RTVSPost2010Prop49
280
     0
102
RTVSPost2010PropOp49
 70
     1
102
RTVSPost2010Prop50
 90
       50
102
RTVSPost2010PropOp50
 70
     1
102
RTVSPost2010Prop51ColorIndex
 90
      256
102
RTVSPost2010Prop51ColorRGB
 90
-16777216
102
RTVSPost2010PropOp51
 70
     0
102
RTVSPost2010Prop52
140
1.0
102
RTVSPost2010PropOp52
 70
     0
102
RTVSPost2010Prop53
 90
        2
102
RTVSPost2010PropOp53
 70
     1
102
RTVSPost2010Prop54
  1
strokes_ogs.tif
102
RTVSPost2010PropOp54
 70
     1
102
RTVSPost2010Prop55
280
     0
102
RTVSPost2010PropOp55
 70
     1
102
RTVSPost2010Prop56
140
1.0
102
RTVSPost2010PropOp56
 70
     1
102
RTVSPost2010Prop57
140
1.0
102
RTVSPost2010PropOp57
 70
     1
102
RTVSPropertyOp0
 70
     1
102
RTVSPropertyOp1
 70
     1
102
RTVSPropertyOp2
 70
     1
102
RTVSPropertyOp3
 70
     1
102
RTVSPropertyOp4
 70
     1
102
RTVSPropertyOp5
 70
     1
102
RTVSPropertyOp6
 70
     1
102
RTVSPropertyOp7
 70
     1
102
RTVSPropertyOp8
 70
     1
102
RTVSPropertyOp9
 70
     1
102
RTVSPropertyOp10
 70
     1
102
RTVSPropertyOp11
 70
     1
102
RTVSPropertyOp12
 70
     1
102
RTVSPropertyOp13
 70
     1
102
RTVSPropertyOp14
 70
     1
102
RTVSPropertyOp15
 70
     1
102
RTVSPropertyOp16
 70
     1
102
RTVSPropertyOp17
 70
     1
102
RTVSPropertyOp18
 70
     1
102
RTVSPropertyOp19
 70
     1
102
RTVSPropertyOp20
 70
     1
102
RTVSPropertyOp21
 70
     1
102
RTVSPropertyOp22
 70
     1
102
RTVSPropertyOp23
 70
     1
102
RTVSPropertyOp24
 70
     1
102
RTVSPropertyOp25
 70
     1
102
RTVSPropertyOp26
 70
     1
102
RTVSPropertyOp27
 70
     1
102
RTVSPropertyOp28
 70
     1
102
RTVSPropertyOp29
 70
     1
102
RTVSPropertyOp30
 70
     1
102
RTVSPropertyOp31
 70
     1
102
RTVSPropertyOp32
 70
     1
102
RTVSPropertyOp33
 70
     1
102
RTVSPropertyOp34
 70
     1
102
RTVSPropertyOp35
 70
     1
102
RTVSPropertyOp36
 70
     1
102
RTVSPropertyOp37
 70
     1
102
RTVSPropertyOp38
 70
     1
102
RTVSPropertyOp39
 70
     1
102
RTVSPropertyOp40
 70
     1
102
RTVSPropertyOp41
 70
     1
102
RTVSPropertyOp42
 70
     1
102
RTVSPropertyOp43
 70
     1
102
RTVSPropertyOp44
 70
     1
102
RTVSPropertyOp45
 70
     1
102
RTVSPropertyOp46
 70
     1
102
RTVSPropertyOp47
 70
     1
102
RTVSPropertyOp48
 70
     1
102
RTVSPropertyOp49
 70
     1
102
RTVSPropertyOp50
 70
     1
102
RTVSPropertyOp51
 70
     0
102
RTVSPropertyOp52
 70
     0
102
RTVSPropertyOp53
 70
     1
102
RTVSPropertyOp54
 70
     1
102
RTVSPropertyOp55
 70
     1
102
RTVSPropertyOp56
 70
     1
102
RTVSPropertyOp57
 70
     1
102
RTVSPropertyOp58
 70
     1
102
RTVSPropertyOp59
 70
     1
102
RTVSPropertyOp60
 70
     1
102
RTVSPropertyOp61
 70
     1
102
RTVSPropertyOp62
 70
     1
  0
XRECORD
  5
394E
102
{ACAD_REACTORS
330
394D
102
}
330
394D
100
AcDbXrecord
280
     1
102
RTVSPost2010Prop28
280
     0
102
RTVSPost2010PropOp28
 70
     1
102
RTVSPost2010Prop29
280
     1
102
RTVSPost2010PropOp29
 70
     1
102
RTVSPost2010Prop30
280
     1
102
RTVSPost2010PropOp30
 70
     1
102
RTVSPost2010Prop31
280
     0
102
RTVSPost2010PropOp31
 70
     1
102
RTVSPost2010Prop32
280
     0
102
RTVSPost2010PropOp32
 70
     1
102
RTVSPost2010Prop33
280
     0
102
RTVSPost2010PropOp33
 70
     1
102
RTVSPost2010Prop34
280
     0
102
RTVSPost2010PropOp34
 70
     1
102
RTVSPost2010Prop35
280
     0
102
RTVSPost2010PropOp35
 70
     1
102
RTVSPost2010Prop36
280
     0
102
RTVSPost2010PropOp36
 70
     1
102
RTVSPost2010Prop37
 90
       50
102
RTVSPost2010PropOp37
 70
     1
102
RTVSPost2010Prop38
140
0.0
102
RTVSPost2010PropOp38
 70
     1
102
RTVSPost2010Prop39
140
1.0
102
RTVSPost2010PropOp39
 70
     1
102
RTVSPost2010Prop40
 90
        0
102
RTVSPost2010PropOp40
 70
     1
102
RTVSPost2010Prop41ColorIndex
 90
       18
102
RTVSPost2010Prop41ColorRGB
 90
        0
102
RTVSPost2010PropOp41
 70
     1
102
RTVSPost2010Prop42
 90
       50
102
RTVSPost2010PropOp42
 70
     1
102
RTVSPost2010Prop43
 90
        3
102
RTVSPost2010PropOp43
 70
     1
102
RTVSPost2010Prop44ColorIndex
 90
        5
102
RTVSPost2010Prop44ColorRGB
 90
      255
102
RTVSPost2010PropOp44
 70
     1
102
RTVSPost2010Prop45
280
     0
102
RTVSPost2010PropOp45
 70
     1
102
RTVSPost2010Prop46
 90
       50
102
RTVSPost2010PropOp46
 70
     1
102
RTVSPost2010Prop47
 90
       50
102
RTVSPost2010PropOp47
 70
     1
102
RTVSPost2010Prop48
 90
       50
102
RTVSPost2010PropOp48
 70
     1
102
RTVSPost2010Prop49
280
     0
102
RTVSPost2010PropOp49
 70
     1
102
RTVSPost2010Prop50
 90
       50
102
RTVSPost2010PropOp50
 70
     1
102
RTVSPost2010Prop51ColorIndex
 90
      256
102
RTVSPost2010Prop51ColorRGB
 90
-16777216
102
RTVSPost2010PropOp51
 70
     0
102
RTVSPost2010Prop52
140
1.0
102
RTVSPost2010PropOp52
 70
     0
102
RTVSPost2010Prop53
 90
        2
102
RTVSPost2010PropOp53
 70
     1
102
RTVSPost2010Prop54
  1
strokes_ogs.tif
102
RTVSPost2010PropOp54
 70
     1
102
RTVSPost2010Prop55
280
     0
102
RTVSPost2010PropOp55
 70
     1
102
RTVSPost2010Prop56
140
1.0
102
RTVSPost2010PropOp56
 70
     1
102
RTVSPost2010Prop57
140
1.0
102
RTVSPost2010PropOp57
 70
     1
102
RTVSPropertyOp0
 70
     1
102
RTVSPropertyOp1
 70
     1
102
RTVSPropertyOp2
 70
     1
102
RTVSPropertyOp3
 70
     1
102
RTVSPropertyOp4
 70
     1
102
RTVSPropertyOp5
 70
     1
102
RTVSPropertyOp6
 70
     1
102
RTVSPropertyOp7
 70
     1
102
RTVSPropertyOp8
 70
     1
102
RTVSPropertyOp9
 70
     1
102
RTVSPropertyOp10
 70
     1
102
RTVSPropertyOp11
 70
     1
102
RTVSPropertyOp12
 70
     1
102
RTVSPropertyOp13
 70
     1
102
RTVSPropertyOp14
 70
     1
102
RTVSPropertyOp15
 70
     1
102
RTVSPropertyOp16
 70
     1
102
RTVSPropertyOp17
 70
     1
102
RTVSPropertyOp18
 70
     1
102
RTVSPropertyOp19
 70
     1
102
RTVSPropertyOp20
 70
     1
102
RTVSPropertyOp21
 70
     1
102
RTVSPropertyOp22
 70
     1
102
RTVSPropertyOp23
 70
     1
102
RTVSPropertyOp24
 70
     1
102
RTVSPropertyOp25
 70
     1
102
RTVSPropertyOp26
 70
     1
102
RTVSPropertyOp27
 70
     1
102
RTVSPropertyOp28
 70
     1
102
RTVSPropertyOp29
 70
     1
102
RTVSPropertyOp30
 70
     1
102
RTVSPropertyOp31
 70
     1
102
RTVSPropertyOp32
 70
     1
102
RTVSPropertyOp33
 70
     1
102
RTVSPropertyOp34
 70
     1
102
RTVSPropertyOp35
 70
     1
102
RTVSPropertyOp36
 70
     1
102
RTVSPropertyOp37
 70
     1
102
RTVSPropertyOp38
 70
     1
102
RTVSPropertyOp39
 70
     1
102
RTVSPropertyOp40
 70
     1
102
RTVSPropertyOp41
 70
     1
102
RTVSPropertyOp42
 70
     1
102
RTVSPropertyOp43
 70
     1
102
RTVSPropertyOp44
 70
     1
102
RTVSPropertyOp45
 70
     1
102
RTVSPropertyOp46
 70
     1
102
RTVSPropertyOp47
 70
     1
102
RTVSPropertyOp48
 70
     1
102
RTVSPropertyOp49
 70
     1
102
RTVSPropertyOp50
 70
     1
102
RTVSPropertyOp51
 70
     0
102
RTVSPropertyOp52
 70
     0
102
RTVSPropertyOp53
 70
     1
102
RTVSPropertyOp54
 70
     1
102
RTVSPropertyOp55
 70
     1
102
RTVSPropertyOp56
 70
     1
102
RTVSPropertyOp57
 70
     1
102
RTVSPropertyOp58
 70
     1
102
RTVSPropertyOp59
 70
     1
102
RTVSPropertyOp60
 70
     1
102
RTVSPropertyOp61
 70
     1
102
RTVSPropertyOp62
 70
     1
  0
XRECORD
  5
3971
102
{ACAD_REACTORS
330
3970
102
}
330
3970
100
AcDbXrecord
280
     1
102
RTVSPost2010Prop28
280
     0
102
RTVSPost2010PropOp28
 70
     1
102
RTVSPost2010Prop29
280
     1
102
RTVSPost2010PropOp29
 70
     1
102
RTVSPost2010Prop30
280
     1
102
RTVSPost2010PropOp30
 70
     1
102
RTVSPost2010Prop31
280
     0
102
RTVSPost2010PropOp31
 70
     1
102
RTVSPost2010Prop32
280
     0
102
RTVSPost2010PropOp32
 70
     1
102
RTVSPost2010Prop33
280
     0
102
RTVSPost2010PropOp33
 70
     1
102
RTVSPost2010Prop34
280
     0
102
RTVSPost2010PropOp34
 70
     1
102
RTVSPost2010Prop35
280
     0
102
RTVSPost2010PropOp35
 70
     1
102
RTVSPost2010Prop36
280
     0
102
RTVSPost2010PropOp36
 70
     1
102
RTVSPost2010Prop37
 90
       50
102
RTVSPost2010PropOp37
 70
     1
102
RTVSPost2010Prop38
140
0.0
102
RTVSPost2010PropOp38
 70
     1
102
RTVSPost2010Prop39
140
1.0
102
RTVSPost2010PropOp39
 70
     1
102
RTVSPost2010Prop40
 90
        0
102
RTVSPost2010PropOp40
 70
     1
102
RTVSPost2010Prop41ColorIndex
 90
       18
102
RTVSPost2010Prop41ColorRGB
 90
        0
102
RTVSPost2010PropOp41
 70
     1
102
RTVSPost2010Prop42
 90
       50
102
RTVSPost2010PropOp42
 70
     1
102
RTVSPost2010Prop43
 90
        3
102
RTVSPost2010PropOp43
 70
     1
102
RTVSPost2010Prop44ColorIndex
 90
        5
102
RTVSPost2010Prop44ColorRGB
 90
      255
102
RTVSPost2010PropOp44
 70
     1
102
RTVSPost2010Prop45
280
     0
102
RTVSPost2010PropOp45
 70
     1
102
RTVSPost2010Prop46
 90
       50
102
RTVSPost2010PropOp46
 70
     1
102
RTVSPost2010Prop47
 90
       50
102
RTVSPost2010PropOp47
 70
     1
102
RTVSPost2010Prop48
 90
       50
102
RTVSPost2010PropOp48
 70
     1
102
RTVSPost2010Prop49
280
     0
102
RTVSPost2010PropOp49
 70
     1
102
RTVSPost2010Prop50
 90
       50
102
RTVSPost2010PropOp50
 70
     1
102
RTVSPost2010Prop51ColorIndex
 90
      256
102
RTVSPost2010Prop51ColorRGB
 90
-16777216
102
RTVSPost2010PropOp51
 70
     0
102
RTVSPost2010Prop52
140
1.0
102
RTVSPost2010PropOp52
 70
     0
102
RTVSPost2010Prop53
 90
        2
102
RTVSPost2010PropOp53
 70
     1
102
RTVSPost2010Prop54
  1
strokes_ogs.tif
102
RTVSPost2010PropOp54
 70
     1
102
RTVSPost2010Prop55
280
     0
102
RTVSPost2010PropOp55
 70
     1
102
RTVSPost2010Prop56
140
1.0
102
RTVSPost2010PropOp56
 70
     1
102
RTVSPost2010Prop57
140
1.0
102
RTVSPost2010PropOp57
 70
     1
102
RTVSPropertyOp0
 70
     1
102
RTVSPropertyOp1
 70
     1
102
RTVSPropertyOp2
 70
     1
102
RTVSPropertyOp3
 70
     1
102
RTVSPropertyOp4
 70
     1
102
RTVSPropertyOp5
 70
     1
102
RTVSPropertyOp6
 70
     1
102
RTVSPropertyOp7
 70
     1
102
RTVSPropertyOp8
 70
     1
102
RTVSPropertyOp9
 70
     1
102
RTVSPropertyOp10
 70
     1
102
RTVSPropertyOp11
 70
     1
102
RTVSPropertyOp12
 70
     1
102
RTVSPropertyOp13
 70
     1
102
RTVSPropertyOp14
 70
     1
102
RTVSPropertyOp15
 70
     1
102
RTVSPropertyOp16
 70
     1
102
RTVSPropertyOp17
 70
     1
102
RTVSPropertyOp18
 70
     1
102
RTVSPropertyOp19
 70
     1
102
RTVSPropertyOp20
 70
     1
102
RTVSPropertyOp21
 70
     1
102
RTVSPropertyOp22
 70
     1
102
RTVSPropertyOp23
 70
     1
102
RTVSPropertyOp24
 70
     1
102
RTVSPropertyOp25
 70
     1
102
RTVSPropertyOp26
 70
     1
102
RTVSPropertyOp27
 70
     1
102
RTVSPropertyOp28
 70
     1
102
RTVSPropertyOp29
 70
     1
102
RTVSPropertyOp30
 70
     1
102
RTVSPropertyOp31
 70
     1
102
RTVSPropertyOp32
 70
     1
102
RTVSPropertyOp33
 70
     1
102
RTVSPropertyOp34
 70
     1
102
RTVSPropertyOp35
 70
     1
102
RTVSPropertyOp36
 70
     1
102
RTVSPropertyOp37
 70
     1
102
RTVSPropertyOp38
 70
     1
102
RTVSPropertyOp39
 70
     1
102
RTVSPropertyOp40
 70
     1
102
RTVSPropertyOp41
 70
     1
102
RTVSPropertyOp42
 70
     1
102
RTVSPropertyOp43
 70
     1
102
RTVSPropertyOp44
 70
     1
102
RTVSPropertyOp45
 70
     1
102
RTVSPropertyOp46
 70
     1
102
RTVSPropertyOp47
 70
     1
102
RTVSPropertyOp48
 70
     1
102
RTVSPropertyOp49
 70
     1
102
RTVSPropertyOp50
 70
     1
102
RTVSPropertyOp51
 70
     0
102
RTVSPropertyOp52
 70
     0
102
RTVSPropertyOp53
 70
     1
102
RTVSPropertyOp54
 70
     1
102
RTVSPropertyOp55
 70
     1
102
RTVSPropertyOp56
 70
     1
102
RTVSPropertyOp57
 70
     1
102
RTVSPropertyOp58
 70
     1
102
RTVSPropertyOp59
 70
     1
102
RTVSPropertyOp60
 70
     1
102
RTVSPropertyOp61
 70
     1
102
RTVSPropertyOp62
 70
     1
  0
XRECORD
  5
3968
102
{ACAD_REACTORS
330
3967
102
}
330
3967
100
AcDbXrecord
280
     1
102
RTVSPost2010Prop28
280
     0
102
RTVSPost2010PropOp28
 70
     1
102
RTVSPost2010Prop29
280
     1
102
RTVSPost2010PropOp29
 70
     1
102
RTVSPost2010Prop30
280
     1
102
RTVSPost2010PropOp30
 70
     1
102
RTVSPost2010Prop31
280
     0
102
RTVSPost2010PropOp31
 70
     1
102
RTVSPost2010Prop32
280
     0
102
RTVSPost2010PropOp32
 70
     1
102
RTVSPost2010Prop33
280
     0
102
RTVSPost2010PropOp33
 70
     1
102
RTVSPost2010Prop34
280
     0
102
RTVSPost2010PropOp34
 70
     1
102
RTVSPost2010Prop35
280
     0
102
RTVSPost2010PropOp35
 70
     1
102
RTVSPost2010Prop36
280
     0
102
RTVSPost2010PropOp36
 70
     1
102
RTVSPost2010Prop37
 90
       50
102
RTVSPost2010PropOp37
 70
     1
102
RTVSPost2010Prop38
140
0.0
102
RTVSPost2010PropOp38
 70
     1
102
RTVSPost2010Prop39
140
1.0
102
RTVSPost2010PropOp39
 70
     1
102
RTVSPost2010Prop40
 90
        0
102
RTVSPost2010PropOp40
 70
     1
102
RTVSPost2010Prop41ColorIndex
 90
       18
102
RTVSPost2010Prop41ColorRGB
 90
        0
102
RTVSPost2010PropOp41
 70
     1
102
RTVSPost2010Prop42
 90
       50
102
RTVSPost2010PropOp42
 70
     1
102
RTVSPost2010Prop43
 90
        3
102
RTVSPost2010PropOp43
 70
     1
102
RTVSPost2010Prop44ColorIndex
 90
        5
102
RTVSPost2010Prop44ColorRGB
 90
      255
102
RTVSPost2010PropOp44
 70
     1
102
RTVSPost2010Prop45
280
     0
102
RTVSPost2010PropOp45
 70
     1
102
RTVSPost2010Prop46
 90
       50
102
RTVSPost2010PropOp46
 70
     1
102
RTVSPost2010Prop47
 90
       50
102
RTVSPost2010PropOp47
 70
     1
102
RTVSPost2010Prop48
 90
       50
102
RTVSPost2010PropOp48
 70
     1
102
RTVSPost2010Prop49
280
     0
102
RTVSPost2010PropOp49
 70
     1
102
RTVSPost2010Prop50
 90
       50
102
RTVSPost2010PropOp50
 70
     1
102
RTVSPost2010Prop51ColorIndex
 90
      256
102
RTVSPost2010Prop51ColorRGB
 90
-16777216
102
RTVSPost2010PropOp51
 70
     0
102
RTVSPost2010Prop52
140
1.0
102
RTVSPost2010PropOp52
 70
     0
102
RTVSPost2010Prop53
 90
        2
102
RTVSPost2010PropOp53
 70
     1
102
RTVSPost2010Prop54
  1
strokes_ogs.tif
102
RTVSPost2010PropOp54
 70
     1
102
RTVSPost2010Prop55
280
     0
102
RTVSPost2010PropOp55
 70
     1
102
RTVSPost2010Prop56
140
1.0
102
RTVSPost2010PropOp56
 70
     1
102
RTVSPost2010Prop57
140
1.0
102
RTVSPost2010PropOp57
 70
     1
102
RTVSPropertyOp0
 70
     0
102
RTVSPropertyOp1
 70
     0
102
RTVSPropertyOp2
 70
     0
102
RTVSPropertyOp3
 70
     0
102
RTVSPropertyOp4
 70
     0
102
RTVSPropertyOp5
 70
     0
102
RTVSPropertyOp6
 70
     0
102
RTVSPropertyOp7
 70
     0
102
RTVSPropertyOp8
 70
     0
102
RTVSPropertyOp9
 70
     0
102
RTVSPropertyOp10
 70
     0
102
RTVSPropertyOp11
 70
     0
102
RTVSPropertyOp12
 70
     0
102
RTVSPropertyOp13
 70
     0
102
RTVSPropertyOp14
 70
     2
102
RTVSPropertyOp15
 70
     0
102
RTVSPropertyOp16
 70
     0
102
RTVSPropertyOp17
 70
     0
102
RTVSPropertyOp18
 70
     0
102
RTVSPropertyOp19
 70
     0
102
RTVSPropertyOp20
 70
     0
102
RTVSPropertyOp21
 70
     0
102
RTVSPropertyOp22
 70
     0
102
RTVSPropertyOp23
 70
     0
102
RTVSPropertyOp24
 70
     0
102
RTVSPropertyOp25
 70
     0
102
RTVSPropertyOp26
 70
     0
102
RTVSPropertyOp27
 70
     0
102
RTVSPropertyOp28
 70
     1
102
RTVSPropertyOp29
 70
     1
102
RTVSPropertyOp30
 70
     1
102
RTVSPropertyOp31
 70
     1
102
RTVSPropertyOp32
 70
     1
102
RTVSPropertyOp33
 70
     1
102
RTVSPropertyOp34
 70
     1
102
RTVSPropertyOp35
 70
     1
102
RTVSPropertyOp36
 70
     1
102
RTVSPropertyOp37
 70
     1
102
RTVSPropertyOp38
 70
     1
102
RTVSPropertyOp39
 70
     1
102
RTVSPropertyOp40
 70
     1
102
RTVSPropertyOp41
 70
     1
102
RTVSPropertyOp42
 70
     1
102
RTVSPropertyOp43
 70
     1
102
RTVSPropertyOp44
 70
     1
102
RTVSPropertyOp45
 70
     1
102
RTVSPropertyOp46
 70
     1
102
RTVSPropertyOp47
 70
     1
102
RTVSPropertyOp48
 70
     1
102
RTVSPropertyOp49
 70
     1
102
RTVSPropertyOp50
 70
     1
102
RTVSPropertyOp51
 70
     0
102
RTVSPropertyOp52
 70
     0
102
RTVSPropertyOp53
 70
     1
102
RTVSPropertyOp54
 70
     1
102
RTVSPropertyOp55
 70
     1
102
RTVSPropertyOp56
 70
     1
102
RTVSPropertyOp57
 70
     1
102
RTVSPropertyOp58
 70
     1
102
RTVSPropertyOp59
 70
     1
102
RTVSPropertyOp60
 70
     1
102
RTVSPropertyOp61
 70
     1
102
RTVSPropertyOp62
 70
     1
  0
XRECORD
  5
3962
102
{ACAD_REACTORS
330
3961
102
}
330
3961
100
AcDbXrecord
280
     1
102
RTVSPost2010Prop28
280
     0
102
RTVSPost2010PropOp28
 70
     1
102
RTVSPost2010Prop29
280
     1
102
RTVSPost2010PropOp29
 70
     1
102
RTVSPost2010Prop30
280
     1
102
RTVSPost2010PropOp30
 70
     1
102
RTVSPost2010Prop31
280
     0
102
RTVSPost2010PropOp31
 70
     1
102
RTVSPost2010Prop32
280
     0
102
RTVSPost2010PropOp32
 70
     1
102
RTVSPost2010Prop33
280
     0
102
RTVSPost2010PropOp33
 70
     1
102
RTVSPost2010Prop34
280
     0
102
RTVSPost2010PropOp34
 70
     1
102
RTVSPost2010Prop35
280
     0
102
RTVSPost2010PropOp35
 70
     1
102
RTVSPost2010Prop36
280
     0
102
RTVSPost2010PropOp36
 70
     1
102
RTVSPost2010Prop37
 90
       50
102
RTVSPost2010PropOp37
 70
     1
102
RTVSPost2010Prop38
140
0.0
102
RTVSPost2010PropOp38
 70
     1
102
RTVSPost2010Prop39
140
1.0
102
RTVSPost2010PropOp39
 70
     1
102
RTVSPost2010Prop40
 90
        0
102
RTVSPost2010PropOp40
 70
     1
102
RTVSPost2010Prop41ColorIndex
 90
       18
102
RTVSPost2010Prop41ColorRGB
 90
        0
102
RTVSPost2010PropOp41
 70
     1
102
RTVSPost2010Prop42
 90
       50
102
RTVSPost2010PropOp42
 70
     1
102
RTVSPost2010Prop43
 90
        3
102
RTVSPost2010PropOp43
 70
     1
102
RTVSPost2010Prop44ColorIndex
 90
        5
102
RTVSPost2010Prop44ColorRGB
 90
      255
102
RTVSPost2010PropOp44
 70
     1
102
RTVSPost2010Prop45
280
     0
102
RTVSPost2010PropOp45
 70
     1
102
RTVSPost2010Prop46
 90
       50
102
RTVSPost2010PropOp46
 70
     1
102
RTVSPost2010Prop47
 90
       50
102
RTVSPost2010PropOp47
 70
     1
102
RTVSPost2010Prop48
 90
       50
102
RTVSPost2010PropOp48
 70
     1
102
RTVSPost2010Prop49
280
     0
102
RTVSPost2010PropOp49
 70
     1
102
RTVSPost2010Prop50
 90
       50
102
RTVSPost2010PropOp50
 70
     1
102
RTVSPost2010Prop51ColorIndex
 90
      256
102
RTVSPost2010Prop51ColorRGB
 90
-16777216
102
RTVSPost2010PropOp51
 70
     0
102
RTVSPost2010Prop52
140
1.0
102
RTVSPost2010PropOp52
 70
     0
102
RTVSPost2010Prop53
 90
        2
102
RTVSPost2010PropOp53
 70
     1
102
RTVSPost2010Prop54
  1
strokes_ogs.tif
102
RTVSPost2010PropOp54
 70
     1
102
RTVSPost2010Prop55
280
     0
102
RTVSPost2010PropOp55
 70
     1
102
RTVSPost2010Prop56
140
1.0
102
RTVSPost2010PropOp56
 70
     1
102
RTVSPost2010Prop57
140
1.0
102
RTVSPost2010PropOp57
 70
     1
102
RTVSPropertyOp0
 70
     1
102
RTVSPropertyOp1
 70
     1
102
RTVSPropertyOp2
 70
     1
102
RTVSPropertyOp3
 70
     1
102
RTVSPropertyOp4
 70
     1
102
RTVSPropertyOp5
 70
     1
102
RTVSPropertyOp6
 70
     1
102
RTVSPropertyOp7
 70
     1
102
RTVSPropertyOp8
 70
     1
102
RTVSPropertyOp9
 70
     1
102
RTVSPropertyOp10
 70
     1
102
RTVSPropertyOp11
 70
     1
102
RTVSPropertyOp12
 70
     1
102
RTVSPropertyOp13
 70
     1
102
RTVSPropertyOp14
 70
     1
102
RTVSPropertyOp15
 70
     1
102
RTVSPropertyOp16
 70
     1
102
RTVSPropertyOp17
 70
     1
102
RTVSPropertyOp18
 70
     1
102
RTVSPropertyOp19
 70
     1
102
RTVSPropertyOp20
 70
     1
102
RTVSPropertyOp21
 70
     1
102
RTVSPropertyOp22
 70
     1
102
RTVSPropertyOp23
 70
     1
102
RTVSPropertyOp24
 70
     1
102
RTVSPropertyOp25
 70
     1
102
RTVSPropertyOp26
 70
     1
102
RTVSPropertyOp27
 70
     1
102
RTVSPropertyOp28
 70
     1
102
RTVSPropertyOp29
 70
     1
102
RTVSPropertyOp30
 70
     1
102
RTVSPropertyOp31
 70
     1
102
RTVSPropertyOp32
 70
     1
102
RTVSPropertyOp33
 70
     1
102
RTVSPropertyOp34
 70
     1
102
RTVSPropertyOp35
 70
     1
102
RTVSPropertyOp36
 70
     1
102
RTVSPropertyOp37
 70
     1
102
RTVSPropertyOp38
 70
     1
102
RTVSPropertyOp39
 70
     1
102
RTVSPropertyOp40
 70
     1
102
RTVSPropertyOp41
 70
     1
102
RTVSPropertyOp42
 70
     1
102
RTVSPropertyOp43
 70
     1
102
RTVSPropertyOp44
 70
     1
102
RTVSPropertyOp45
 70
     1
102
RTVSPropertyOp46
 70
     1
102
RTVSPropertyOp47
 70
     1
102
RTVSPropertyOp48
 70
     1
102
RTVSPropertyOp49
 70
     1
102
RTVSPropertyOp50
 70
     1
102
RTVSPropertyOp51
 70
     0
102
RTVSPropertyOp52
 70
     0
102
RTVSPropertyOp53
 70
     1
102
RTVSPropertyOp54
 70
     1
102
RTVSPropertyOp55
 70
     1
102
RTVSPropertyOp56
 70
     1
102
RTVSPropertyOp57
 70
     1
102
RTVSPropertyOp58
 70
     1
102
RTVSPropertyOp59
 70
     1
102
RTVSPropertyOp60
 70
     1
102
RTVSPropertyOp61
 70
     1
102
RTVSPropertyOp62
 70
     1
  0
XRECORD
  5
396A
102
{ACAD_REACTORS
330
3969
102
}
330
3969
100
AcDbXrecord
280
     1
102
RTVSPost2010Prop28
280
     0
102
RTVSPost2010PropOp28
 70
     1
102
RTVSPost2010Prop29
280
     1
102
RTVSPost2010PropOp29
 70
     1
102
RTVSPost2010Prop30
280
     1
102
RTVSPost2010PropOp30
 70
     1
102
RTVSPost2010Prop31
280
     0
102
RTVSPost2010PropOp31
 70
     1
102
RTVSPost2010Prop32
280
     0
102
RTVSPost2010PropOp32
 70
     1
102
RTVSPost2010Prop33
280
     0
102
RTVSPost2010PropOp33
 70
     1
102
RTVSPost2010Prop34
280
     0
102
RTVSPost2010PropOp34
 70
     1
102
RTVSPost2010Prop35
280
     0
102
RTVSPost2010PropOp35
 70
     1
102
RTVSPost2010Prop36
280
     0
102
RTVSPost2010PropOp36
 70
     1
102
RTVSPost2010Prop37
 90
       50
102
RTVSPost2010PropOp37
 70
     1
102
RTVSPost2010Prop38
140
0.0
102
RTVSPost2010PropOp38
 70
     1
102
RTVSPost2010Prop39
140
1.0
102
RTVSPost2010PropOp39
 70
     1
102
RTVSPost2010Prop40
 90
        0
102
RTVSPost2010PropOp40
 70
     1
102
RTVSPost2010Prop41ColorIndex
 90
       18
102
RTVSPost2010Prop41ColorRGB
 90
        0
102
RTVSPost2010PropOp41
 70
     1
102
RTVSPost2010Prop42
 90
       50
102
RTVSPost2010PropOp42
 70
     1
102
RTVSPost2010Prop43
 90
        3
102
RTVSPost2010PropOp43
 70
     1
102
RTVSPost2010Prop44ColorIndex
 90
        5
102
RTVSPost2010Prop44ColorRGB
 90
      255
102
RTVSPost2010PropOp44
 70
     1
102
RTVSPost2010Prop45
280
     0
102
RTVSPost2010PropOp45
 70
     1
102
RTVSPost2010Prop46
 90
       50
102
RTVSPost2010PropOp46
 70
     1
102
RTVSPost2010Prop47
 90
       50
102
RTVSPost2010PropOp47
 70
     1
102
RTVSPost2010Prop48
 90
       50
102
RTVSPost2010PropOp48
 70
     1
102
RTVSPost2010Prop49
280
     0
102
RTVSPost2010PropOp49
 70
     1
102
RTVSPost2010Prop50
 90
       50
102
RTVSPost2010PropOp50
 70
     1
102
RTVSPost2010Prop51ColorIndex
 90
      256
102
RTVSPost2010Prop51ColorRGB
 90
-16777216
102
RTVSPost2010PropOp51
 70
     0
102
RTVSPost2010Prop52
140
1.0
102
RTVSPost2010PropOp52
 70
     0
102
RTVSPost2010Prop53
 90
        2
102
RTVSPost2010PropOp53
 70
     1
102
RTVSPost2010Prop54
  1
strokes_ogs.tif
102
RTVSPost2010PropOp54
 70
     1
102
RTVSPost2010Prop55
280
     0
102
RTVSPost2010PropOp55
 70
     1
102
RTVSPost2010Prop56
140
1.0
102
RTVSPost2010PropOp56
 70
     1
102
RTVSPost2010Prop57
140
1.0
102
RTVSPost2010PropOp57
 70
     1
102
RTVSPropertyOp0
 70
     0
102
RTVSPropertyOp1
 70
     0
102
RTVSPropertyOp2
 70
     0
102
RTVSPropertyOp3
 70
     0
102
RTVSPropertyOp4
 70
     0
102
RTVSPropertyOp5
 70
     0
102
RTVSPropertyOp6
 70
     0
102
RTVSPropertyOp7
 70
     0
102
RTVSPropertyOp8
 70
     0
102
RTVSPropertyOp9
 70
     0
102
RTVSPropertyOp10
 70
     0
102
RTVSPropertyOp11
 70
     0
102
RTVSPropertyOp12
 70
     0
102
RTVSPropertyOp13
 70
     0
102
RTVSPropertyOp14
 70
     2
102
RTVSPropertyOp15
 70
     0
102
RTVSPropertyOp16
 70
     0
102
RTVSPropertyOp17
 70
     0
102
RTVSPropertyOp18
 70
     0
102
RTVSPropertyOp19
 70
     0
102
RTVSPropertyOp20
 70
     0
102
RTVSPropertyOp21
 70
     0
102
RTVSPropertyOp22
 70
     0
102
RTVSPropertyOp23
 70
     0
102
RTVSPropertyOp24
 70
     0
102
RTVSPropertyOp25
 70
     0
102
RTVSPropertyOp26
 70
     0
102
RTVSPropertyOp27
 70
     0
102
RTVSPropertyOp28
 70
     1
102
RTVSPropertyOp29
 70
     1
102
RTVSPropertyOp30
 70
     1
102
RTVSPropertyOp31
 70
     1
102
RTVSPropertyOp32
 70
     1
102
RTVSPropertyOp33
 70
     1
102
RTVSPropertyOp34
 70
     1
102
RTVSPropertyOp35
 70
     1
102
RTVSPropertyOp36
 70
     1
102
RTVSPropertyOp37
 70
     1
102
RTVSPropertyOp38
 70
     1
102
RTVSPropertyOp39
 70
     1
102
RTVSPropertyOp40
 70
     1
102
RTVSPropertyOp41
 70
     1
102
RTVSPropertyOp42
 70
     1
102
RTVSPropertyOp43
 70
     1
102
RTVSPropertyOp44
 70
     1
102
RTVSPropertyOp45
 70
     1
102
RTVSPropertyOp46
 70
     1
102
RTVSPropertyOp47
 70
     1
102
RTVSPropertyOp48
 70
     1
102
RTVSPropertyOp49
 70
     1
102
RTVSPropertyOp50
 70
     1
102
RTVSPropertyOp51
 70
     0
102
RTVSPropertyOp52
 70
     0
102
RTVSPropertyOp53
 70
     1
102
RTVSPropertyOp54
 70
     1
102
RTVSPropertyOp55
 70
     1
102
RTVSPropertyOp56
 70
     1
102
RTVSPropertyOp57
 70
     1
102
RTVSPropertyOp58
 70
     1
102
RTVSPropertyOp59
 70
     1
102
RTVSPropertyOp60
 70
     1
102
RTVSPropertyOp61
 70
     1
102
RTVSPropertyOp62
 70
     1
  0
XRECORD
  5
395A
102
{ACAD_REACTORS
330
3959
102
}
330
3959
100
AcDbXrecord
280
     1
102
RTVSPost2010Prop28
280
     0
102
RTVSPost2010PropOp28
 70
     1
102
RTVSPost2010Prop29
280
     1
102
RTVSPost2010PropOp29
 70
     1
102
RTVSPost2010Prop30
280
     1
102
RTVSPost2010PropOp30
 70
     1
102
RTVSPost2010Prop31
280
     0
102
RTVSPost2010PropOp31
 70
     1
102
RTVSPost2010Prop32
280
     0
102
RTVSPost2010PropOp32
 70
     1
102
RTVSPost2010Prop33
280
     0
102
RTVSPost2010PropOp33
 70
     1
102
RTVSPost2010Prop34
280
     0
102
RTVSPost2010PropOp34
 70
     1
102
RTVSPost2010Prop35
280
     0
102
RTVSPost2010PropOp35
 70
     1
102
RTVSPost2010Prop36
280
     0
102
RTVSPost2010PropOp36
 70
     1
102
RTVSPost2010Prop37
 90
       50
102
RTVSPost2010PropOp37
 70
     1
102
RTVSPost2010Prop38
140
0.0
102
RTVSPost2010PropOp38
 70
     1
102
RTVSPost2010Prop39
140
1.0
102
RTVSPost2010PropOp39
 70
     1
102
RTVSPost2010Prop40
 90
        0
102
RTVSPost2010PropOp40
 70
     1
102
RTVSPost2010Prop41ColorIndex
 90
       18
102
RTVSPost2010Prop41ColorRGB
 90
        0
102
RTVSPost2010PropOp41
 70
     1
102
RTVSPost2010Prop42
 90
       50
102
RTVSPost2010PropOp42
 70
     1
102
RTVSPost2010Prop43
 90
        3
102
RTVSPost2010PropOp43
 70
     1
102
RTVSPost2010Prop44ColorIndex
 90
        5
102
RTVSPost2010Prop44ColorRGB
 90
      255
102
RTVSPost2010PropOp44
 70
     1
102
RTVSPost2010Prop45
280
     0
102
RTVSPost2010PropOp45
 70
     1
102
RTVSPost2010Prop46
 90
       50
102
RTVSPost2010PropOp46
 70
     1
102
RTVSPost2010Prop47
 90
       50
102
RTVSPost2010PropOp47
 70
     1
102
RTVSPost2010Prop48
 90
       50
102
RTVSPost2010PropOp48
 70
     1
102
RTVSPost2010Prop49
280
     0
102
RTVSPost2010PropOp49
 70
     1
102
RTVSPost2010Prop50
 90
       50
102
RTVSPost2010PropOp50
 70
     1
102
RTVSPost2010Prop51ColorIndex
 90
      256
102
RTVSPost2010Prop51ColorRGB
 90
-16777216
102
RTVSPost2010PropOp51
 70
     0
102
RTVSPost2010Prop52
140
1.0
102
RTVSPost2010PropOp52
 70
     0
102
RTVSPost2010Prop53
 90
        2
102
RTVSPost2010PropOp53
 70
     1
102
RTVSPost2010Prop54
  1
strokes_ogs.tif
102
RTVSPost2010PropOp54
 70
     1
102
RTVSPost2010Prop55
280
     0
102
RTVSPost2010PropOp55
 70
     1
102
RTVSPost2010Prop56
140
1.0
102
RTVSPost2010PropOp56
 70
     1
102
RTVSPost2010Prop57
140
1.0
102
RTVSPost2010PropOp57
 70
     1
102
RTVSPropertyOp0
 70
     1
102
RTVSPropertyOp1
 70
     1
102
RTVSPropertyOp2
 70
     1
102
RTVSPropertyOp3
 70
     1
102
RTVSPropertyOp4
 70
     1
102
RTVSPropertyOp5
 70
     1
102
RTVSPropertyOp6
 70
     1
102
RTVSPropertyOp7
 70
     1
102
RTVSPropertyOp8
 70
     1
102
RTVSPropertyOp9
 70
     1
102
RTVSPropertyOp10
 70
     1
102
RTVSPropertyOp11
 70
     1
102
RTVSPropertyOp12
 70
     1
102
RTVSPropertyOp13
 70
     1
102
RTVSPropertyOp14
 70
     1
102
RTVSPropertyOp15
 70
     1
102
RTVSPropertyOp16
 70
     1
102
RTVSPropertyOp17
 70
     1
102
RTVSPropertyOp18
 70
     1
102
RTVSPropertyOp19
 70
     1
102
RTVSPropertyOp20
 70
     1
102
RTVSPropertyOp21
 70
     1
102
RTVSPropertyOp22
 70
     1
102
RTVSPropertyOp23
 70
     1
102
RTVSPropertyOp24
 70
     1
102
RTVSPropertyOp25
 70
     1
102
RTVSPropertyOp26
 70
     1
102
RTVSPropertyOp27
 70
     1
102
RTVSPropertyOp28
 70
     1
102
RTVSPropertyOp29
 70
     1
102
RTVSPropertyOp30
 70
     1
102
RTVSPropertyOp31
 70
     1
102
RTVSPropertyOp32
 70
     1
102
RTVSPropertyOp33
 70
     1
102
RTVSPropertyOp34
 70
     1
102
RTVSPropertyOp35
 70
     1
102
RTVSPropertyOp36
 70
     1
102
RTVSPropertyOp37
 70
     1
102
RTVSPropertyOp38
 70
     1
102
RTVSPropertyOp39
 70
     1
102
RTVSPropertyOp40
 70
     1
102
RTVSPropertyOp41
 70
     1
102
RTVSPropertyOp42
 70
     1
102
RTVSPropertyOp43
 70
     1
102
RTVSPropertyOp44
 70
     1
102
RTVSPropertyOp45
 70
     1
102
RTVSPropertyOp46
 70
     1
102
RTVSPropertyOp47
 70
     1
102
RTVSPropertyOp48
 70
     1
102
RTVSPropertyOp49
 70
     1
102
RTVSPropertyOp50
 70
     1
102
RTVSPropertyOp51
 70
     0
102
RTVSPropertyOp52
 70
     0
102
RTVSPropertyOp53
 70
     1
102
RTVSPropertyOp54
 70
     1
102
RTVSPropertyOp55
 70
     1
102
RTVSPropertyOp56
 70
     1
102
RTVSPropertyOp57
 70
     1
102
RTVSPropertyOp58
 70
     1
102
RTVSPropertyOp59
 70
     1
102
RTVSPropertyOp60
 70
     1
102
RTVSPropertyOp61
 70
     1
102
RTVSPropertyOp62
 70
     1
  0
XRECORD
  5
397B
102
{ACAD_REACTORS
330
397A
102
}
330
397A
100
AcDbXrecord
280
     1
102
RTVSPost2010Prop28
280
     0
102
RTVSPost2010PropOp28
 70
     1
102
RTVSPost2010Prop29
280
     1
102
RTVSPost2010PropOp29
 70
     1
102
RTVSPost2010Prop30
280
     1
102
RTVSPost2010PropOp30
 70
     1
102
RTVSPost2010Prop31
280
     0
102
RTVSPost2010PropOp31
 70
     1
102
RTVSPost2010Prop32
280
     0
102
RTVSPost2010PropOp32
 70
     1
102
RTVSPost2010Prop33
280
     0
102
RTVSPost2010PropOp33
 70
     1
102
RTVSPost2010Prop34
280
     0
102
RTVSPost2010PropOp34
 70
     1
102
RTVSPost2010Prop35
280
     0
102
RTVSPost2010PropOp35
 70
     1
102
RTVSPost2010Prop36
280
     0
102
RTVSPost2010PropOp36
 70
     1
102
RTVSPost2010Prop37
 90
       50
102
RTVSPost2010PropOp37
 70
     1
102
RTVSPost2010Prop38
140
0.0
102
RTVSPost2010PropOp38
 70
     1
102
RTVSPost2010Prop39
140
1.0
102
RTVSPost2010PropOp39
 70
     1
102
RTVSPost2010Prop40
 90
        0
102
RTVSPost2010PropOp40
 70
     1
102
RTVSPost2010Prop41ColorIndex
 90
       18
102
RTVSPost2010Prop41ColorRGB
 90
        0
102
RTVSPost2010PropOp41
 70
     1
102
RTVSPost2010Prop42
 90
       50
102
RTVSPost2010PropOp42
 70
     1
102
RTVSPost2010Prop43
 90
        3
102
RTVSPost2010PropOp43
 70
     1
102
RTVSPost2010Prop44ColorIndex
 90
        5
102
RTVSPost2010Prop44ColorRGB
 90
      255
102
RTVSPost2010PropOp44
 70
     1
102
RTVSPost2010Prop45
280
     0
102
RTVSPost2010PropOp45
 70
     1
102
RTVSPost2010Prop46
 90
       50
102
RTVSPost2010PropOp46
 70
     1
102
RTVSPost2010Prop47
 90
       50
102
RTVSPost2010PropOp47
 70
     1
102
RTVSPost2010Prop48
 90
       50
102
RTVSPost2010PropOp48
 70
     1
102
RTVSPost2010Prop49
280
     0
102
RTVSPost2010PropOp49
 70
     1
102
RTVSPost2010Prop50
 90
       50
102
RTVSPost2010PropOp50
 70
     1
102
RTVSPost2010Prop51ColorIndex
 90
      256
102
RTVSPost2010Prop51ColorRGB
 90
-16777216
102
RTVSPost2010PropOp51
 70
     0
102
RTVSPost2010Prop52
140
1.0
102
RTVSPost2010PropOp52
 70
     0
102
RTVSPost2010Prop53
 90
        2
102
RTVSPost2010PropOp53
 70
     1
102
RTVSPost2010Prop54
  1
strokes_ogs.tif
102
RTVSPost2010PropOp54
 70
     1
102
RTVSPost2010Prop55
280
     0
102
RTVSPost2010PropOp55
 70
     1
102
RTVSPost2010Prop56
140
1.0
102
RTVSPost2010PropOp56
 70
     1
102
RTVSPost2010Prop57
140
1.0
102
RTVSPost2010PropOp57
 70
     1
102
RTVSPropertyOp0
 70
     1
102
RTVSPropertyOp1
 70
     1
102
RTVSPropertyOp2
 70
     1
102
RTVSPropertyOp3
 70
     1
102
RTVSPropertyOp4
 70
     1
102
RTVSPropertyOp5
 70
     1
102
RTVSPropertyOp6
 70
     1
102
RTVSPropertyOp7
 70
     1
102
RTVSPropertyOp8
 70
     1
102
RTVSPropertyOp9
 70
     1
102
RTVSPropertyOp10
 70
     1
102
RTVSPropertyOp11
 70
     1
102
RTVSPropertyOp12
 70
     1
102
RTVSPropertyOp13
 70
     1
102
RTVSPropertyOp14
 70
     1
102
RTVSPropertyOp15
 70
     1
102
RTVSPropertyOp16
 70
     1
102
RTVSPropertyOp17
 70
     1
102
RTVSPropertyOp18
 70
     1
102
RTVSPropertyOp19
 70
     1
102
RTVSPropertyOp20
 70
     1
102
RTVSPropertyOp21
 70
     1
102
RTVSPropertyOp22
 70
     1
102
RTVSPropertyOp23
 70
     1
102
RTVSPropertyOp24
 70
     1
102
RTVSPropertyOp25
 70
     1
102
RTVSPropertyOp26
 70
     1
102
RTVSPropertyOp27
 70
     1
102
RTVSPropertyOp28
 70
     1
102
RTVSPropertyOp29
 70
     1
102
RTVSPropertyOp30
 70
     1
102
RTVSPropertyOp31
 70
     1
102
RTVSPropertyOp32
 70
     1
102
RTVSPropertyOp33
 70
     1
102
RTVSPropertyOp34
 70
     1
102
RTVSPropertyOp35
 70
     1
102
RTVSPropertyOp36
 70
     1
102
RTVSPropertyOp37
 70
     1
102
RTVSPropertyOp38
 70
     1
102
RTVSPropertyOp39
 70
     1
102
RTVSPropertyOp40
 70
     1
102
RTVSPropertyOp41
 70
     1
102
RTVSPropertyOp42
 70
     1
102
RTVSPropertyOp43
 70
     1
102
RTVSPropertyOp44
 70
     1
102
RTVSPropertyOp45
 70
     1
102
RTVSPropertyOp46
 70
     1
102
RTVSPropertyOp47
 70
     1
102
RTVSPropertyOp48
 70
     1
102
RTVSPropertyOp49
 70
     1
102
RTVSPropertyOp50
 70
     1
102
RTVSPropertyOp51
 70
     0
102
RTVSPropertyOp52
 70
     0
102
RTVSPropertyOp53
 70
     1
102
RTVSPropertyOp54
 70
     1
102
RTVSPropertyOp55
 70
     1
102
RTVSPropertyOp56
 70
     1
102
RTVSPropertyOp57
 70
     1
102
RTVSPropertyOp58
 70
     1
102
RTVSPropertyOp59
 70
     1
102
RTVSPropertyOp60
 70
     1
102
RTVSPropertyOp61
 70
     1
102
RTVSPropertyOp62
 70
     1
  0
XRECORD
  5
3979
102
{ACAD_REACTORS
330
3978
102
}
330
3978
100
AcDbXrecord
280
     1
102
RTVSPost2010Prop28
280
     0
102
RTVSPost2010PropOp28
 70
     1
102
RTVSPost2010Prop29
280
     1
102
RTVSPost2010PropOp29
 70
     1
102
RTVSPost2010Prop30
280
     1
102
RTVSPost2010PropOp30
 70
     1
102
RTVSPost2010Prop31
280
     0
102
RTVSPost2010PropOp31
 70
     1
102
RTVSPost2010Prop32
280
     0
102
RTVSPost2010PropOp32
 70
     1
102
RTVSPost2010Prop33
280
     0
102
RTVSPost2010PropOp33
 70
     1
102
RTVSPost2010Prop34
280
     0
102
RTVSPost2010PropOp34
 70
     1
102
RTVSPost2010Prop35
280
     0
102
RTVSPost2010PropOp35
 70
     1
102
RTVSPost2010Prop36
280
     0
102
RTVSPost2010PropOp36
 70
     1
102
RTVSPost2010Prop37
 90
       50
102
RTVSPost2010PropOp37
 70
     1
102
RTVSPost2010Prop38
140
0.0
102
RTVSPost2010PropOp38
 70
     1
102
RTVSPost2010Prop39
140
1.0
102
RTVSPost2010PropOp39
 70
     1
102
RTVSPost2010Prop40
 90
        0
102
RTVSPost2010PropOp40
 70
     1
102
RTVSPost2010Prop41ColorIndex
 90
       18
102
RTVSPost2010Prop41ColorRGB
 90
        0
102
RTVSPost2010PropOp41
 70
     1
102
RTVSPost2010Prop42
 90
       50
102
RTVSPost2010PropOp42
 70
     1
102
RTVSPost2010Prop43
 90
        3
102
RTVSPost2010PropOp43
 70
     1
102
RTVSPost2010Prop44ColorIndex
 90
        5
102
RTVSPost2010Prop44ColorRGB
 90
      255
102
RTVSPost2010PropOp44
 70
     1
102
RTVSPost2010Prop45
280
     0
102
RTVSPost2010PropOp45
 70
     1
102
RTVSPost2010Prop46
 90
       50
102
RTVSPost2010PropOp46
 70
     1
102
RTVSPost2010Prop47
 90
       50
102
RTVSPost2010PropOp47
 70
     1
102
RTVSPost2010Prop48
 90
       50
102
RTVSPost2010PropOp48
 70
     1
102
RTVSPost2010Prop49
280
     0
102
RTVSPost2010PropOp49
 70
     1
102
RTVSPost2010Prop50
 90
       50
102
RTVSPost2010PropOp50
 70
     1
102
RTVSPost2010Prop51ColorIndex
 90
      256
102
RTVSPost2010Prop51ColorRGB
 90
-16777216
102
RTVSPost2010PropOp51
 70
     0
102
RTVSPost2010Prop52
140
1.0
102
RTVSPost2010PropOp52
 70
     0
102
RTVSPost2010Prop53
 90
        2
102
RTVSPost2010PropOp53
 70
     1
102
RTVSPost2010Prop54
  1
strokes_ogs.tif
102
RTVSPost2010PropOp54
 70
     1
102
RTVSPost2010Prop55
280
     0
102
RTVSPost2010PropOp55
 70
     1
102
RTVSPost2010Prop56
140
1.0
102
RTVSPost2010PropOp56
 70
     1
102
RTVSPost2010Prop57
140
1.0
102
RTVSPost2010PropOp57
 70
     1
102
RTVSPropertyOp0
 70
     1
102
RTVSPropertyOp1
 70
     1
102
RTVSPropertyOp2
 70
     1
102
RTVSPropertyOp3
 70
     1
102
RTVSPropertyOp4
 70
     1
102
RTVSPropertyOp5
 70
     1
102
RTVSPropertyOp6
 70
     1
102
RTVSPropertyOp7
 70
     1
102
RTVSPropertyOp8
 70
     1
102
RTVSPropertyOp9
 70
     1
102
RTVSPropertyOp10
 70
     1
102
RTVSPropertyOp11
 70
     1
102
RTVSPropertyOp12
 70
     1
102
RTVSPropertyOp13
 70
     1
102
RTVSPropertyOp14
 70
     1
102
RTVSPropertyOp15
 70
     1
102
RTVSPropertyOp16
 70
     1
102
RTVSPropertyOp17
 70
     1
102
RTVSPropertyOp18
 70
     1
102
RTVSPropertyOp19
 70
     1
102
RTVSPropertyOp20
 70
     1
102
RTVSPropertyOp21
 70
     1
102
RTVSPropertyOp22
 70
     1
102
RTVSPropertyOp23
 70
     1
102
RTVSPropertyOp24
 70
     1
102
RTVSPropertyOp25
 70
     1
102
RTVSPropertyOp26
 70
     1
102
RTVSPropertyOp27
 70
     1
102
RTVSPropertyOp28
 70
     1
102
RTVSPropertyOp29
 70
     1
102
RTVSPropertyOp30
 70
     1
102
RTVSPropertyOp31
 70
     1
102
RTVSPropertyOp32
 70
     1
102
RTVSPropertyOp33
 70
     1
102
RTVSPropertyOp34
 70
     1
102
RTVSPropertyOp35
 70
     1
102
RTVSPropertyOp36
 70
     1
102
RTVSPropertyOp37
 70
     1
102
RTVSPropertyOp38
 70
     1
102
RTVSPropertyOp39
 70
     1
102
RTVSPropertyOp40
 70
     1
102
RTVSPropertyOp41
 70
     1
102
RTVSPropertyOp42
 70
     1
102
RTVSPropertyOp43
 70
     1
102
RTVSPropertyOp44
 70
     1
102
RTVSPropertyOp45
 70
     1
102
RTVSPropertyOp46
 70
     1
102
RTVSPropertyOp47
 70
     1
102
RTVSPropertyOp48
 70
     1
102
RTVSPropertyOp49
 70
     1
102
RTVSPropertyOp50
 70
     1
102
RTVSPropertyOp51
 70
     0
102
RTVSPropertyOp52
 70
     0
102
RTVSPropertyOp53
 70
     1
102
RTVSPropertyOp54
 70
     1
102
RTVSPropertyOp55
 70
     1
102
RTVSPropertyOp56
 70
     1
102
RTVSPropertyOp57
 70
     1
102
RTVSPropertyOp58
 70
     1
102
RTVSPropertyOp59
 70
     1
102
RTVSPropertyOp60
 70
     1
102
RTVSPropertyOp61
 70
     1
102
RTVSPropertyOp62
 70
     1
  0
XRECORD
  5
3973
102
{ACAD_REACTORS
330
3972
102
}
330
3972
100
AcDbXrecord
280
     1
102
RTVSPost2010Prop28
280
     0
102
RTVSPost2010PropOp28
 70
     1
102
RTVSPost2010Prop29
280
     1
102
RTVSPost2010PropOp29
 70
     1
102
RTVSPost2010Prop30
280
     1
102
RTVSPost2010PropOp30
 70
     1
102
RTVSPost2010Prop31
280
     0
102
RTVSPost2010PropOp31
 70
     1
102
RTVSPost2010Prop32
280
     0
102
RTVSPost2010PropOp32
 70
     1
102
RTVSPost2010Prop33
280
     0
102
RTVSPost2010PropOp33
 70
     1
102
RTVSPost2010Prop34
280
     0
102
RTVSPost2010PropOp34
 70
     1
102
RTVSPost2010Prop35
280
     0
102
RTVSPost2010PropOp35
 70
     1
102
RTVSPost2010Prop36
280
     0
102
RTVSPost2010PropOp36
 70
     1
102
RTVSPost2010Prop37
 90
       50
102
RTVSPost2010PropOp37
 70
     1
102
RTVSPost2010Prop38
140
0.0
102
RTVSPost2010PropOp38
 70
     1
102
RTVSPost2010Prop39
140
1.0
102
RTVSPost2010PropOp39
 70
     1
102
RTVSPost2010Prop40
 90
        0
102
RTVSPost2010PropOp40
 70
     1
102
RTVSPost2010Prop41ColorIndex
 90
       18
102
RTVSPost2010Prop41ColorRGB
 90
        0
102
RTVSPost2010PropOp41
 70
     1
102
RTVSPost2010Prop42
 90
       50
102
RTVSPost2010PropOp42
 70
     1
102
RTVSPost2010Prop43
 90
        3
102
RTVSPost2010PropOp43
 70
     1
102
RTVSPost2010Prop44ColorIndex
 90
        5
102
RTVSPost2010Prop44ColorRGB
 90
      255
102
RTVSPost2010PropOp44
 70
     1
102
RTVSPost2010Prop45
280
     0
102
RTVSPost2010PropOp45
 70
     1
102
RTVSPost2010Prop46
 90
       50
102
RTVSPost2010PropOp46
 70
     1
102
RTVSPost2010Prop47
 90
       50
102
RTVSPost2010PropOp47
 70
     1
102
RTVSPost2010Prop48
 90
       50
102
RTVSPost2010PropOp48
 70
     1
102
RTVSPost2010Prop49
280
     0
102
RTVSPost2010PropOp49
 70
     1
102
RTVSPost2010Prop50
 90
       50
102
RTVSPost2010PropOp50
 70
     1
102
RTVSPost2010Prop51ColorIndex
 90
      256
102
RTVSPost2010Prop51ColorRGB
 90
-16777216
102
RTVSPost2010PropOp51
 70
     0
102
RTVSPost2010Prop52
140
1.0
102
RTVSPost2010PropOp52
 70
     0
102
RTVSPost2010Prop53
 90
        2
102
RTVSPost2010PropOp53
 70
     1
102
RTVSPost2010Prop54
  1
strokes_ogs.tif
102
RTVSPost2010PropOp54
 70
     1
102
RTVSPost2010Prop55
280
     0
102
RTVSPost2010PropOp55
 70
     1
102
RTVSPost2010Prop56
140
1.0
102
RTVSPost2010PropOp56
 70
     1
102
RTVSPost2010Prop57
140
1.0
102
RTVSPost2010PropOp57
 70
     1
102
RTVSPropertyOp0
 70
     1
102
RTVSPropertyOp1
 70
     1
102
RTVSPropertyOp2
 70
     1
102
RTVSPropertyOp3
 70
     1
102
RTVSPropertyOp4
 70
     1
102
RTVSPropertyOp5
 70
     1
102
RTVSPropertyOp6
 70
     1
102
RTVSPropertyOp7
 70
     1
102
RTVSPropertyOp8
 70
     1
102
RTVSPropertyOp9
 70
     1
102
RTVSPropertyOp10
 70
     1
102
RTVSPropertyOp11
 70
     1
102
RTVSPropertyOp12
 70
     1
102
RTVSPropertyOp13
 70
     1
102
RTVSPropertyOp14
 70
     1
102
RTVSPropertyOp15
 70
     1
102
RTVSPropertyOp16
 70
     1
102
RTVSPropertyOp17
 70
     1
102
RTVSPropertyOp18
 70
     1
102
RTVSPropertyOp19
 70
     1
102
RTVSPropertyOp20
 70
     1
102
RTVSPropertyOp21
 70
     1
102
RTVSPropertyOp22
 70
     1
102
RTVSPropertyOp23
 70
     1
102
RTVSPropertyOp24
 70
     1
102
RTVSPropertyOp25
 70
     1
102
RTVSPropertyOp26
 70
     1
102
RTVSPropertyOp27
 70
     1
102
RTVSPropertyOp28
 70
     1
102
RTVSPropertyOp29
 70
     1
102
RTVSPropertyOp30
 70
     1
102
RTVSPropertyOp31
 70
     1
102
RTVSPropertyOp32
 70
     1
102
RTVSPropertyOp33
 70
     1
102
RTVSPropertyOp34
 70
     1
102
RTVSPropertyOp35
 70
     1
102
RTVSPropertyOp36
 70
     1
102
RTVSPropertyOp37
 70
     1
102
RTVSPropertyOp38
 70
     1
102
RTVSPropertyOp39
 70
     1
102
RTVSPropertyOp40
 70
     1
102
RTVSPropertyOp41
 70
     1
102
RTVSPropertyOp42
 70
     1
102
RTVSPropertyOp43
 70
     1
102
RTVSPropertyOp44
 70
     1
102
RTVSPropertyOp45
 70
     1
102
RTVSPropertyOp46
 70
     1
102
RTVSPropertyOp47
 70
     1
102
RTVSPropertyOp48
 70
     1
102
RTVSPropertyOp49
 70
     1
102
RTVSPropertyOp50
 70
     1
102
RTVSPropertyOp51
 70
     0
102
RTVSPropertyOp52
 70
     0
102
RTVSPropertyOp53
 70
     1
102
RTVSPropertyOp54
 70
     1
102
RTVSPropertyOp55
 70
     1
102
RTVSPropertyOp56
 70
     1
102
RTVSPropertyOp57
 70
     1
102
RTVSPropertyOp58
 70
     1
102
RTVSPropertyOp59
 70
     1
102
RTVSPropertyOp60
 70
     1
102
RTVSPropertyOp61
 70
     1
102
RTVSPropertyOp62
 70
     1
  0
XRECORD
  5
3975
102
{ACAD_REACTORS
330
3974
102
}
330
3974
100
AcDbXrecord
280
     1
102
RTVSPost2010Prop28
280
     0
102
RTVSPost2010PropOp28
 70
     1
102
RTVSPost2010Prop29
280
     1
102
RTVSPost2010PropOp29
 70
     1
102
RTVSPost2010Prop30
280
     1
102
RTVSPost2010PropOp30
 70
     1
102
RTVSPost2010Prop31
280
     0
102
RTVSPost2010PropOp31
 70
     1
102
RTVSPost2010Prop32
280
     0
102
RTVSPost2010PropOp32
 70
     1
102
RTVSPost2010Prop33
280
     0
102
RTVSPost2010PropOp33
 70
     1
102
RTVSPost2010Prop34
280
     0
102
RTVSPost2010PropOp34
 70
     1
102
RTVSPost2010Prop35
280
     0
102
RTVSPost2010PropOp35
 70
     1
102
RTVSPost2010Prop36
280
     0
102
RTVSPost2010PropOp36
 70
     1
102
RTVSPost2010Prop37
 90
       50
102
RTVSPost2010PropOp37
 70
     1
102
RTVSPost2010Prop38
140
0.0
102
RTVSPost2010PropOp38
 70
     1
102
RTVSPost2010Prop39
140
1.0
102
RTVSPost2010PropOp39
 70
     1
102
RTVSPost2010Prop40
 90
        0
102
RTVSPost2010PropOp40
 70
     1
102
RTVSPost2010Prop41ColorIndex
 90
       18
102
RTVSPost2010Prop41ColorRGB
 90
        0
102
RTVSPost2010PropOp41
 70
     1
102
RTVSPost2010Prop42
 90
       50
102
RTVSPost2010PropOp42
 70
     1
102
RTVSPost2010Prop43
 90
        3
102
RTVSPost2010PropOp43
 70
     1
102
RTVSPost2010Prop44ColorIndex
 90
        5
102
RTVSPost2010Prop44ColorRGB
 90
      255
102
RTVSPost2010PropOp44
 70
     1
102
RTVSPost2010Prop45
280
     0
102
RTVSPost2010PropOp45
 70
     1
102
RTVSPost2010Prop46
 90
       50
102
RTVSPost2010PropOp46
 70
     1
102
RTVSPost2010Prop47
 90
       50
102
RTVSPost2010PropOp47
 70
     1
102
RTVSPost2010Prop48
 90
       50
102
RTVSPost2010PropOp48
 70
     1
102
RTVSPost2010Prop49
280
     0
102
RTVSPost2010PropOp49
 70
     1
102
RTVSPost2010Prop50
 90
       50
102
RTVSPost2010PropOp50
 70
     1
102
RTVSPost2010Prop51ColorIndex
 90
      256
102
RTVSPost2010Prop51ColorRGB
 90
-16777216
102
RTVSPost2010PropOp51
 70
     0
102
RTVSPost2010Prop52
140
1.0
102
RTVSPost2010PropOp52
 70
     0
102
RTVSPost2010Prop53
 90
        2
102
RTVSPost2010PropOp53
 70
     1
102
RTVSPost2010Prop54
  1
strokes_ogs.tif
102
RTVSPost2010PropOp54
 70
     1
102
RTVSPost2010Prop55
280
     0
102
RTVSPost2010PropOp55
 70
     1
102
RTVSPost2010Prop56
140
1.0
102
RTVSPost2010PropOp56
 70
     1
102
RTVSPost2010Prop57
140
1.0
102
RTVSPost2010PropOp57
 70
     1
102
RTVSPropertyOp0
 70
     1
102
RTVSPropertyOp1
 70
     1
102
RTVSPropertyOp2
 70
     1
102
RTVSPropertyOp3
 70
     1
102
RTVSPropertyOp4
 70
     1
102
RTVSPropertyOp5
 70
     1
102
RTVSPropertyOp6
 70
     1
102
RTVSPropertyOp7
 70
     1
102
RTVSPropertyOp8
 70
     1
102
RTVSPropertyOp9
 70
     1
102
RTVSPropertyOp10
 70
     1
102
RTVSPropertyOp11
 70
     1
102
RTVSPropertyOp12
 70
     1
102
RTVSPropertyOp13
 70
     1
102
RTVSPropertyOp14
 70
     1
102
RTVSPropertyOp15
 70
     1
102
RTVSPropertyOp16
 70
     1
102
RTVSPropertyOp17
 70
     1
102
RTVSPropertyOp18
 70
     1
102
RTVSPropertyOp19
 70
     1
102
RTVSPropertyOp20
 70
     1
102
RTVSPropertyOp21
 70
     1
102
RTVSPropertyOp22
 70
     1
102
RTVSPropertyOp23
 70
     1
102
RTVSPropertyOp24
 70
     1
102
RTVSPropertyOp25
 70
     1
102
RTVSPropertyOp26
 70
     1
102
RTVSPropertyOp27
 70
     1
102
RTVSPropertyOp28
 70
     1
102
RTVSPropertyOp29
 70
     1
102
RTVSPropertyOp30
 70
     1
102
RTVSPropertyOp31
 70
     1
102
RTVSPropertyOp32
 70
     1
102
RTVSPropertyOp33
 70
     1
102
RTVSPropertyOp34
 70
     1
102
RTVSPropertyOp35
 70
     1
102
RTVSPropertyOp36
 70
     1
102
RTVSPropertyOp37
 70
     1
102
RTVSPropertyOp38
 70
     1
102
RTVSPropertyOp39
 70
     1
102
RTVSPropertyOp40
 70
     1
102
RTVSPropertyOp41
 70
     1
102
RTVSPropertyOp42
 70
     1
102
RTVSPropertyOp43
 70
     1
102
RTVSPropertyOp44
 70
     1
102
RTVSPropertyOp45
 70
     1
102
RTVSPropertyOp46
 70
     1
102
RTVSPropertyOp47
 70
     1
102
RTVSPropertyOp48
 70
     1
102
RTVSPropertyOp49
 70
     1
102
RTVSPropertyOp50
 70
     1
102
RTVSPropertyOp51
 70
     0
102
RTVSPropertyOp52
 70
     0
102
RTVSPropertyOp53
 70
     1
102
RTVSPropertyOp54
 70
     1
102
RTVSPropertyOp55
 70
     1
102
RTVSPropertyOp56
 70
     1
102
RTVSPropertyOp57
 70
     1
102
RTVSPropertyOp58
 70
     1
102
RTVSPropertyOp59
 70
     1
102
RTVSPropertyOp60
 70
     1
102
RTVSPropertyOp61
 70
     1
102
RTVSPropertyOp62
 70
     1
  0
XRECORD
  5
3960
102
{ACAD_REACTORS
330
395F
102
}
330
395F
100
AcDbXrecord
280
     1
102
RTVSPost2010Prop28
280
     0
102
RTVSPost2010PropOp28
 70
     1
102
RTVSPost2010Prop29
280
     1
102
RTVSPost2010PropOp29
 70
     1
102
RTVSPost2010Prop30
280
     1
102
RTVSPost2010PropOp30
 70
     1
102
RTVSPost2010Prop31
280
     0
102
RTVSPost2010PropOp31
 70
     1
102
RTVSPost2010Prop32
280
     0
102
RTVSPost2010PropOp32
 70
     1
102
RTVSPost2010Prop33
280
     0
102
RTVSPost2010PropOp33
 70
     1
102
RTVSPost2010Prop34
280
     0
102
RTVSPost2010PropOp34
 70
     1
102
RTVSPost2010Prop35
280
     0
102
RTVSPost2010PropOp35
 70
     1
102
RTVSPost2010Prop36
280
     0
102
RTVSPost2010PropOp36
 70
     1
102
RTVSPost2010Prop37
 90
       50
102
RTVSPost2010PropOp37
 70
     1
102
RTVSPost2010Prop38
140
0.0
102
RTVSPost2010PropOp38
 70
     1
102
RTVSPost2010Prop39
140
1.0
102
RTVSPost2010PropOp39
 70
     1
102
RTVSPost2010Prop40
 90
        0
102
RTVSPost2010PropOp40
 70
     1
102
RTVSPost2010Prop41ColorIndex
 90
       18
102
RTVSPost2010Prop41ColorRGB
 90
        0
102
RTVSPost2010PropOp41
 70
     1
102
RTVSPost2010Prop42
 90
       50
102
RTVSPost2010PropOp42
 70
     1
102
RTVSPost2010Prop43
 90
        3
102
RTVSPost2010PropOp43
 70
     1
102
RTVSPost2010Prop44ColorIndex
 90
        5
102
RTVSPost2010Prop44ColorRGB
 90
      255
102
RTVSPost2010PropOp44
 70
     1
102
RTVSPost2010Prop45
280
     0
102
RTVSPost2010PropOp45
 70
     1
102
RTVSPost2010Prop46
 90
       50
102
RTVSPost2010PropOp46
 70
     1
102
RTVSPost2010Prop47
 90
       50
102
RTVSPost2010PropOp47
 70
     1
102
RTVSPost2010Prop48
 90
       50
102
RTVSPost2010PropOp48
 70
     1
102
RTVSPost2010Prop49
280
     0
102
RTVSPost2010PropOp49
 70
     1
102
RTVSPost2010Prop50
 90
       50
102
RTVSPost2010PropOp50
 70
     1
102
RTVSPost2010Prop51ColorIndex
 90
      256
102
RTVSPost2010Prop51ColorRGB
 90
-16777216
102
RTVSPost2010PropOp51
 70
     0
102
RTVSPost2010Prop52
140
1.0
102
RTVSPost2010PropOp52
 70
     0
102
RTVSPost2010Prop53
 90
        2
102
RTVSPost2010PropOp53
 70
     1
102
RTVSPost2010Prop54
  1
strokes_ogs.tif
102
RTVSPost2010PropOp54
 70
     1
102
RTVSPost2010Prop55
280
     0
102
RTVSPost2010PropOp55
 70
     1
102
RTVSPost2010Prop56
140
1.0
102
RTVSPost2010PropOp56
 70
     1
102
RTVSPost2010Prop57
140
1.0
102
RTVSPost2010PropOp57
 70
     1
102
RTVSPropertyOp0
 70
     1
102
RTVSPropertyOp1
 70
     1
102
RTVSPropertyOp2
 70
     1
102
RTVSPropertyOp3
 70
     1
102
RTVSPropertyOp4
 70
     1
102
RTVSPropertyOp5
 70
     1
102
RTVSPropertyOp6
 70
     1
102
RTVSPropertyOp7
 70
     1
102
RTVSPropertyOp8
 70
     1
102
RTVSPropertyOp9
 70
     1
102
RTVSPropertyOp10
 70
     1
102
RTVSPropertyOp11
 70
     1
102
RTVSPropertyOp12
 70
     1
102
RTVSPropertyOp13
 70
     1
102
RTVSPropertyOp14
 70
     1
102
RTVSPropertyOp15
 70
     1
102
RTVSPropertyOp16
 70
     1
102
RTVSPropertyOp17
 70
     1
102
RTVSPropertyOp18
 70
     1
102
RTVSPropertyOp19
 70
     1
102
RTVSPropertyOp20
 70
     1
102
RTVSPropertyOp21
 70
     1
102
RTVSPropertyOp22
 70
     1
102
RTVSPropertyOp23
 70
     1
102
RTVSPropertyOp24
 70
     1
102
RTVSPropertyOp25
 70
     1
102
RTVSPropertyOp26
 70
     1
102
RTVSPropertyOp27
 70
     1
102
RTVSPropertyOp28
 70
     1
102
RTVSPropertyOp29
 70
     1
102
RTVSPropertyOp30
 70
     1
102
RTVSPropertyOp31
 70
     1
102
RTVSPropertyOp32
 70
     1
102
RTVSPropertyOp33
 70
     1
102
RTVSPropertyOp34
 70
     1
102
RTVSPropertyOp35
 70
     1
102
RTVSPropertyOp36
 70
     1
102
RTVSPropertyOp37
 70
     1
102
RTVSPropertyOp38
 70
     1
102
RTVSPropertyOp39
 70
     1
102
RTVSPropertyOp40
 70
     1
102
RTVSPropertyOp41
 70
     1
102
RTVSPropertyOp42
 70
     1
102
RTVSPropertyOp43
 70
     1
102
RTVSPropertyOp44
 70
     1
102
RTVSPropertyOp45
 70
     1
102
RTVSPropertyOp46
 70
     1
102
RTVSPropertyOp47
 70
     1
102
RTVSPropertyOp48
 70
     1
102
RTVSPropertyOp49
 70
     1
102
RTVSPropertyOp50
 70
     1
102
RTVSPropertyOp51
 70
     0
102
RTVSPropertyOp52
 70
     0
102
RTVSPropertyOp53
 70
     1
102
RTVSPropertyOp54
 70
     1
102
RTVSPropertyOp55
 70
     1
102
RTVSPropertyOp56
 70
     1
102
RTVSPropertyOp57
 70
     1
102
RTVSPropertyOp58
 70
     1
102
RTVSPropertyOp59
 70
     1
102
RTVSPropertyOp60
 70
     1
102
RTVSPropertyOp61
 70
     1
102
RTVSPropertyOp62
 70
     1
  0
XRECORD
  5
396F
102
{ACAD_REACTORS
330
396E
102
}
330
396E
100
AcDbXrecord
280
     1
102
RTVSPost2010Prop28
280
     0
102
RTVSPost2010PropOp28
 70
     1
102
RTVSPost2010Prop29
280
     1
102
RTVSPost2010PropOp29
 70
     1
102
RTVSPost2010Prop30
280
     1
102
RTVSPost2010PropOp30
 70
     1
102
RTVSPost2010Prop31
280
     0
102
RTVSPost2010PropOp31
 70
     1
102
RTVSPost2010Prop32
280
     0
102
RTVSPost2010PropOp32
 70
     1
102
RTVSPost2010Prop33
280
     0
102
RTVSPost2010PropOp33
 70
     1
102
RTVSPost2010Prop34
280
     0
102
RTVSPost2010PropOp34
 70
     1
102
RTVSPost2010Prop35
280
     0
102
RTVSPost2010PropOp35
 70
     1
102
RTVSPost2010Prop36
280
     0
102
RTVSPost2010PropOp36
 70
     1
102
RTVSPost2010Prop37
 90
       50
102
RTVSPost2010PropOp37
 70
     1
102
RTVSPost2010Prop38
140
0.0
102
RTVSPost2010PropOp38
 70
     1
102
RTVSPost2010Prop39
140
1.0
102
RTVSPost2010PropOp39
 70
     1
102
RTVSPost2010Prop40
 90
        0
102
RTVSPost2010PropOp40
 70
     1
102
RTVSPost2010Prop41ColorIndex
 90
       18
102
RTVSPost2010Prop41ColorRGB
 90
        0
102
RTVSPost2010PropOp41
 70
     1
102
RTVSPost2010Prop42
 90
       50
102
RTVSPost2010PropOp42
 70
     1
102
RTVSPost2010Prop43
 90
        3
102
RTVSPost2010PropOp43
 70
     1
102
RTVSPost2010Prop44ColorIndex
 90
        5
102
RTVSPost2010Prop44ColorRGB
 90
      255
102
RTVSPost2010PropOp44
 70
     1
102
RTVSPost2010Prop45
280
     0
102
RTVSPost2010PropOp45
 70
     1
102
RTVSPost2010Prop46
 90
       50
102
RTVSPost2010PropOp46
 70
     1
102
RTVSPost2010Prop47
 90
       50
102
RTVSPost2010PropOp47
 70
     1
102
RTVSPost2010Prop48
 90
       50
102
RTVSPost2010PropOp48
 70
     1
102
RTVSPost2010Prop49
280
     0
102
RTVSPost2010PropOp49
 70
     1
102
RTVSPost2010Prop50
 90
       50
102
RTVSPost2010PropOp50
 70
     1
102
RTVSPost2010Prop51ColorIndex
 90
      256
102
RTVSPost2010Prop51ColorRGB
 90
-16777216
102
RTVSPost2010PropOp51
 70
     0
102
RTVSPost2010Prop52
140
1.0
102
RTVSPost2010PropOp52
 70
     0
102
RTVSPost2010Prop53
 90
        2
102
RTVSPost2010PropOp53
 70
     1
102
RTVSPost2010Prop54
  1
strokes_ogs.tif
102
RTVSPost2010PropOp54
 70
     1
102
RTVSPost2010Prop55
280
     0
102
RTVSPost2010PropOp55
 70
     1
102
RTVSPost2010Prop56
140
1.0
102
RTVSPost2010PropOp56
 70
     1
102
RTVSPost2010Prop57
140
1.0
102
RTVSPost2010PropOp57
 70
     1
102
RTVSPropertyOp0
 70
     1
102
RTVSPropertyOp1
 70
     1
102
RTVSPropertyOp2
 70
     1
102
RTVSPropertyOp3
 70
     1
102
RTVSPropertyOp4
 70
     1
102
RTVSPropertyOp5
 70
     1
102
RTVSPropertyOp6
 70
     1
102
RTVSPropertyOp7
 70
     1
102
RTVSPropertyOp8
 70
     1
102
RTVSPropertyOp9
 70
     1
102
RTVSPropertyOp10
 70
     1
102
RTVSPropertyOp11
 70
     1
102
RTVSPropertyOp12
 70
     1
102
RTVSPropertyOp13
 70
     1
102
RTVSPropertyOp14
 70
     1
102
RTVSPropertyOp15
 70
     1
102
RTVSPropertyOp16
 70
     1
102
RTVSPropertyOp17
 70
     1
102
RTVSPropertyOp18
 70
     1
102
RTVSPropertyOp19
 70
     1
102
RTVSPropertyOp20
 70
     1
102
RTVSPropertyOp21
 70
     1
102
RTVSPropertyOp22
 70
     1
102
RTVSPropertyOp23
 70
     1
102
RTVSPropertyOp24
 70
     1
102
RTVSPropertyOp25
 70
     1
102
RTVSPropertyOp26
 70
     1
102
RTVSPropertyOp27
 70
     1
102
RTVSPropertyOp28
 70
     1
102
RTVSPropertyOp29
 70
     1
102
RTVSPropertyOp30
 70
     1
102
RTVSPropertyOp31
 70
     1
102
RTVSPropertyOp32
 70
     1
102
RTVSPropertyOp33
 70
     1
102
RTVSPropertyOp34
 70
     1
102
RTVSPropertyOp35
 70
     1
102
RTVSPropertyOp36
 70
     1
102
RTVSPropertyOp37
 70
     1
102
RTVSPropertyOp38
 70
     1
102
RTVSPropertyOp39
 70
     1
102
RTVSPropertyOp40
 70
     1
102
RTVSPropertyOp41
 70
     1
102
RTVSPropertyOp42
 70
     1
102
RTVSPropertyOp43
 70
     1
102
RTVSPropertyOp44
 70
     1
102
RTVSPropertyOp45
 70
     1
102
RTVSPropertyOp46
 70
     1
102
RTVSPropertyOp47
 70
     1
102
RTVSPropertyOp48
 70
     1
102
RTVSPropertyOp49
 70
     1
102
RTVSPropertyOp50
 70
     1
102
RTVSPropertyOp51
 70
     0
102
RTVSPropertyOp52
 70
     0
102
RTVSPropertyOp53
 70
     1
102
RTVSPropertyOp54
 70
     1
102
RTVSPropertyOp55
 70
     1
102
RTVSPropertyOp56
 70
     1
102
RTVSPropertyOp57
 70
     1
102
RTVSPropertyOp58
 70
     1
102
RTVSPropertyOp59
 70
     1
102
RTVSPropertyOp60
 70
     1
102
RTVSPropertyOp61
 70
     1
102
RTVSPropertyOp62
 70
     1
  0
XRECORD
  5
3977
102
{ACAD_REACTORS
330
3976
102
}
330
3976
100
AcDbXrecord
280
     1
102
RTVSPost2010Prop28
280
     0
102
RTVSPost2010PropOp28
 70
     1
102
RTVSPost2010Prop29
280
     1
102
RTVSPost2010PropOp29
 70
     1
102
RTVSPost2010Prop30
280
     1
102
RTVSPost2010PropOp30
 70
     1
102
RTVSPost2010Prop31
280
     0
102
RTVSPost2010PropOp31
 70
     1
102
RTVSPost2010Prop32
280
     0
102
RTVSPost2010PropOp32
 70
     1
102
RTVSPost2010Prop33
280
     0
102
RTVSPost2010PropOp33
 70
     1
102
RTVSPost2010Prop34
280
     0
102
RTVSPost2010PropOp34
 70
     1
102
RTVSPost2010Prop35
280
     0
102
RTVSPost2010PropOp35
 70
     1
102
RTVSPost2010Prop36
280
     0
102
RTVSPost2010PropOp36
 70
     1
102
RTVSPost2010Prop37
 90
       50
102
RTVSPost2010PropOp37
 70
     1
102
RTVSPost2010Prop38
140
0.0
102
RTVSPost2010PropOp38
 70
     1
102
RTVSPost2010Prop39
140
1.0
102
RTVSPost2010PropOp39
 70
     1
102
RTVSPost2010Prop40
 90
        0
102
RTVSPost2010PropOp40
 70
     1
102
RTVSPost2010Prop41ColorIndex
 90
       18
102
RTVSPost2010Prop41ColorRGB
 90
        0
102
RTVSPost2010PropOp41
 70
     1
102
RTVSPost2010Prop42
 90
       50
102
RTVSPost2010PropOp42
 70
     1
102
RTVSPost2010Prop43
 90
        3
102
RTVSPost2010PropOp43
 70
     1
102
RTVSPost2010Prop44ColorIndex
 90
        5
102
RTVSPost2010Prop44ColorRGB
 90
      255
102
RTVSPost2010PropOp44
 70
     1
102
RTVSPost2010Prop45
280
     0
102
RTVSPost2010PropOp45
 70
     1
102
RTVSPost2010Prop46
 90
       50
102
RTVSPost2010PropOp46
 70
     1
102
RTVSPost2010Prop47
 90
       50
102
RTVSPost2010PropOp47
 70
     1
102
RTVSPost2010Prop48
 90
       50
102
RTVSPost2010PropOp48
 70
     1
102
RTVSPost2010Prop49
280
     0
102
RTVSPost2010PropOp49
 70
     1
102
RTVSPost2010Prop50
 90
       50
102
RTVSPost2010PropOp50
 70
     1
102
RTVSPost2010Prop51ColorIndex
 90
      256
102
RTVSPost2010Prop51ColorRGB
 90
-16777216
102
RTVSPost2010PropOp51
 70
     0
102
RTVSPost2010Prop52
140
1.0
102
RTVSPost2010PropOp52
 70
     0
102
RTVSPost2010Prop53
 90
        2
102
RTVSPost2010PropOp53
 70
     1
102
RTVSPost2010Prop54
  1
strokes_ogs.tif
102
RTVSPost2010PropOp54
 70
     1
102
RTVSPost2010Prop55
280
     0
102
RTVSPost2010PropOp55
 70
     1
102
RTVSPost2010Prop56
140
1.0
102
RTVSPost2010PropOp56
 70
     1
102
RTVSPost2010Prop57
140
1.0
102
RTVSPost2010PropOp57
 70
     1
102
RTVSPropertyOp0
 70
     1
102
RTVSPropertyOp1
 70
     1
102
RTVSPropertyOp2
 70
     1
102
RTVSPropertyOp3
 70
     1
102
RTVSPropertyOp4
 70
     1
102
RTVSPropertyOp5
 70
     1
102
RTVSPropertyOp6
 70
     1
102
RTVSPropertyOp7
 70
     1
102
RTVSPropertyOp8
 70
     1
102
RTVSPropertyOp9
 70
     1
102
RTVSPropertyOp10
 70
     1
102
RTVSPropertyOp11
 70
     1
102
RTVSPropertyOp12
 70
     1
102
RTVSPropertyOp13
 70
     1
102
RTVSPropertyOp14
 70
     1
102
RTVSPropertyOp15
 70
     1
102
RTVSPropertyOp16
 70
     1
102
RTVSPropertyOp17
 70
     1
102
RTVSPropertyOp18
 70
     1
102
RTVSPropertyOp19
 70
     1
102
RTVSPropertyOp20
 70
     1
102
RTVSPropertyOp21
 70
     1
102
RTVSPropertyOp22
 70
     1
102
RTVSPropertyOp23
 70
     1
102
RTVSPropertyOp24
 70
     1
102
RTVSPropertyOp25
 70
     1
102
RTVSPropertyOp26
 70
     1
102
RTVSPropertyOp27
 70
     1
102
RTVSPropertyOp28
 70
     1
102
RTVSPropertyOp29
 70
     1
102
RTVSPropertyOp30
 70
     1
102
RTVSPropertyOp31
 70
     1
102
RTVSPropertyOp32
 70
     1
102
RTVSPropertyOp33
 70
     1
102
RTVSPropertyOp34
 70
     1
102
RTVSPropertyOp35
 70
     1
102
RTVSPropertyOp36
 70
     1
102
RTVSPropertyOp37
 70
     1
102
RTVSPropertyOp38
 70
     1
102
RTVSPropertyOp39
 70
     1
102
RTVSPropertyOp40
 70
     1
102
RTVSPropertyOp41
 70
     1
102
RTVSPropertyOp42
 70
     1
102
RTVSPropertyOp43
 70
     1
102
RTVSPropertyOp44
 70
     1
102
RTVSPropertyOp45
 70
     1
102
RTVSPropertyOp46
 70
     1
102
RTVSPropertyOp47
 70
     1
102
RTVSPropertyOp48
 70
     1
102
RTVSPropertyOp49
 70
     1
102
RTVSPropertyOp50
 70
     1
102
RTVSPropertyOp51
 70
     0
102
RTVSPropertyOp52
 70
     0
102
RTVSPropertyOp53
 70
     1
102
RTVSPropertyOp54
 70
     1
102
RTVSPropertyOp55
 70
     1
102
RTVSPropertyOp56
 70
     1
102
RTVSPropertyOp57
 70
     1
102
RTVSPropertyOp58
 70
     1
102
RTVSPropertyOp59
 70
     1
102
RTVSPropertyOp60
 70
     1
102
RTVSPropertyOp61
 70
     1
102
RTVSPropertyOp62
 70
     1
  0
ENDSEC
  0
EOF
