  0
SECTION
  2
HEADER
  9
$ACADVER
  1
AC1015
  9
$ACADMAINTVER
 70
    20
  9
$DWGCODEPAGE
  3
ANSI_932
  9
$INSBASE
 10
0.0
 20
0.0
 30
0.0
  9
$EXTMIN
 10
-0.0866203276364104
 20
-0.0600922027010711
 30
-0.0015258207003583
  9
$EXTMAX
 10
2760.127581124284
 20
1910.086224087623
 30
0.0000000349246037
  9
$LIMMIN
 10
0.0
 20
0.0
  9
$LIMMAX
 10
2840.0
 20
1970.0
  9
$ORTHOMODE
 70
     0
  9
$REGENMODE
 70
     1
  9
$FILLMODE
 70
     1
  9
$QTEXTMODE
 70
     0
  9
$MIRRTEXT
 70
     1
  9
$LTSCALE
 40
1.0
  9
$ATTMODE
 70
     1
  9
$TEXTSIZE
 40
2.5
  9
$TRACEWID
 40
1.0
  9
$TEXTSTYLE
  7
MSゴシック
  9
$CLAYER
  8
sunpo
  9
$CELTYPE
  6
DASHED
  9
$CECOLOR
 62
   256
  9
$CELTSCALE
 40
1.0
  9
$DISPSILH
 70
     0
  9
$DIMSCALE
 40
10.0
  9
$DIMASZ
 40
0.8
  9
$DIMEXO
 40
1.0
  9
$DIMDLI
 40
0.0
  9
$DIMRND
 40
0.0
  9
$DIMDLE
 40
0.0
  9
$DIMEXE
 40
0.0
  9
$DIMTP
 40
0.0
  9
$DIMTM
 40
0.0
  9
$DIMTXT
 40
2.0
  9
$DIMCEN
 40
2.5
  9
$DIMTSZ
 40
0.0
  9
$DIMTOL
 70
     0
  9
$DIMLIM
 70
     0
  9
$DIMTIH
 70
     0
  9
$DIMTOH
 70
     0
  9
$DIMSE1
 70
     0
  9
$DIMSE2
 70
     0
  9
$DIMTAD
 70
     2
  9
$DIMZIN
 70
     8
  9
$DIMBLK
  1

  9
$DIMASO
 70
     1
  9
$DIMSHO
 70
     1
  9
$DIMPOST
  1

  9
$DIMAPOST
  1

  9
$DIMALT
 70
     0
  9
$DIMALTD
 70
     4
  9
$DIMALTF
 40
0.0394
  9
$DIMLFAC
 40
1.0
  9
$DIMTOFL
 70
     1
  9
$DIMTVP
 40
0.0
  9
$DIMTIX
 70
     0
  9
$DIMSOXD
 70
     0
  9
$DIMSAH
 70
     1
  9
$DIMBLK1
  1
DOT
  9
$DIMBLK2
  1
DOT
  9
$DIMSTYLE
  2
STANDARD
  9
$DIMCLRD
 70
     0
  9
$DIMCLRE
 70
     0
  9
$DIMCLRT
 70
     0
  9
$DIMTFAC
 40
1.0
  9
$DIMGAP
 40
0.1
  9
$DIMJUST
 70
     0
  9
$DIMSD1
 70
     0
  9
$DIMSD2
 70
     0
  9
$DIMTOLJ
 70
     1
  9
$DIMTZIN
 70
     0
  9
$DIMALTZ
 70
     0
  9
$DIMALTTZ
 70
     0
  9
$DIMUPT
 70
     0
  9
$DIMDEC
 70
     8
  9
$DIMTDEC
 70
     8
  9
$DIMALTU
 70
     8
  9
$DIMALTTD
 70
     4
  9
$DIMTXSTY
  7
Standard
  9
$DIMAUNIT
 70
     0
  9
$DIMADEC
 70
     0
  9
$DIMALTRND
 40
0.0
  9
$DIMAZIN
 70
     0
  9
$DIMDSEP
 70
    46
  9
$DIMATFIT
 70
     3
  9
$DIMFRAC
 70
     0
  9
$DIMLDRBLK
  1
DOT
  9
$DIMLUNIT
 70
     2
  9
$DIMLWD
 70
    -2
  9
$DIMLWE
 70
    -2
  9
$DIMTMOVE
 70
     1
  9
$LUNITS
 70
     2
  9
$LUPREC
 70
     8
  9
$SKETCHINC
 40
1.0
  9
$FILLETRAD
 40
10.0
  9
$AUNITS
 70
     0
  9
$AUPREC
 70
     8
  9
$MENU
  1
.
  9
$ELEVATION
 40
0.0
  9
$PELEVATION
 40
0.0
  9
$THICKNESS
 40
0.0
  9
$LIMCHECK
 70
     0
  9
$CHAMFERA
 40
20.0
  9
$CHAMFERB
 40
20.0
  9
$CHAMFERC
 40
20.0
  9
$CHAMFERD
 40
0.0
  9
$SKPOLY
 70
     0
  9
$TDCREATE
 40
2453276.413761574
  9
$TDUCREATE
 40
2453276.038766620
  9
$TDUPDATE
 40
2459970.697893519
  9
$TDUUPDATE
 40
2459970.322893519
  9
$TDINDWG
 40
0.3136934375
  9
$TDUSRTIMER
 40
0.3136934375
  9
$USRTIMER
 70
     1
  9
$ANGBASE
 50
0.0
  9
$ANGDIR
 70
     0
  9
$PDMODE
 70
     0
  9
$PDSIZE
 40
0.0
  9
$PLINEWID
 40
0.0
  9
$SPLFRAME
 70
     0
  9
$SPLINETYPE
 70
     6
  9
$SPLINESEGS
 70
     8
  9
$HANDSEED
  5
3581
  9
$SURFTAB1
 70
     6
  9
$SURFTAB2
 70
     6
  9
$SURFTYPE
 70
     6
  9
$SURFU
 70
     6
  9
$SURFV
 70
     6
  9
$UCSBASE
  2

  9
$UCSNAME
  2

  9
$UCSORG
 10
0.0
 20
0.0
 30
0.0
  9
$UCSXDIR
 10
1.0
 20
0.0
 30
0.0
  9
$UCSYDIR
 10
0.0
 20
1.0
 30
0.0
  9
$UCSORTHOREF
  2

  9
$UCSORTHOVIEW
 70
     0
  9
$UCSORGTOP
 10
0.0
 20
0.0
 30
0.0
  9
$UCSORGBOTTOM
 10
0.0
 20
0.0
 30
0.0
  9
$UCSORGLEFT
 10
0.0
 20
0.0
 30
0.0
  9
$UCSORGRIGHT
 10
0.0
 20
0.0
 30
0.0
  9
$UCSORGFRONT
 10
0.0
 20
0.0
 30
0.0
  9
$UCSORGBACK
 10
0.0
 20
0.0
 30
0.0
  9
$PUCSBASE
  2

  9
$PUCSNAME
  2

  9
$PUCSORG
 10
0.0
 20
0.0
 30
0.0
  9
$PUCSXDIR
 10
1.0
 20
0.0
 30
0.0
  9
$PUCSYDIR
 10
0.0
 20
1.0
 30
0.0
  9
$PUCSORTHOREF
  2

  9
$PUCSORTHOVIEW
 70
     0
  9
$PUCSORGTOP
 10
0.0
 20
0.0
 30
0.0
  9
$PUCSORGBOTTOM
 10
0.0
 20
0.0
 30
0.0
  9
$PUCSORGLEFT
 10
0.0
 20
0.0
 30
0.0
  9
$PUCSORGRIGHT
 10
0.0
 20
0.0
 30
0.0
  9
$PUCSORGFRONT
 10
0.0
 20
0.0
 30
0.0
  9
$PUCSORGBACK
 10
0.0
 20
0.0
 30
0.0
  9
$USERI1
 70
     0
  9
$USERI2
 70
     0
  9
$USERI3
 70
     0
  9
$USERI4
 70
     0
  9
$USERI5
 70
     0
  9
$USERR1
 40
0.0
  9
$USERR2
 40
0.0
  9
$USERR3
 40
0.0
  9
$USERR4
 40
0.0
  9
$USERR5
 40
0.0
  9
$WORLDVIEW
 70
     1
  9
$SHADEDGE
 70
     2
  9
$SHADEDIF
 70
    70
  9
$TILEMODE
 70
     1
  9
$MAXACTVP
 70
    64
  9
$PINSBASE
 10
0.0
 20
0.0
 30
0.0
  9
$PLIMCHECK
 70
     0
  9
$PEXTMIN
 10
0.0
 20
0.0
 30
0.0
  9
$PEXTMAX
 10
0.0
 20
0.0
 30
0.0
  9
$PLIMMIN
 10
0.0
 20
0.0
  9
$PLIMMAX
 10
12.0
 20
9.0
  9
$UNITMODE
 70
     0
  9
$VISRETAIN
 70
     1
  9
$PLINEGEN
 70
     0
  9
$PSLTSCALE
 70
     1
  9
$TREEDEPTH
 70
  3020
  9
$CMLSTYLE
  2
Standard
  9
$CMLJUST
 70
     0
  9
$CMLSCALE
 40
20.0
  9
$PROXYGRAPHICS
 70
     1
  9
$MEASUREMENT
 70
     1
  9
$CELWEIGHT
370
    -1
  9
$ENDCAPS
280
     0
  9
$JOINSTYLE
280
     0
  9
$LWDISPLAY
290
     0
  9
$INSUNITS
 70
     4
  9
$HYPERLINKBASE
  1

  9
$STYLESHEET
  1
monochrome.ctb
  9
$XEDIT
290
     1
  9
$CEPSNTYPE
380
     0
  9
$PSTYLEMODE
290
     1
  9
$FINGERPRINTGUID
  2
{B4E61C12-08AD-407D-A83C-7C7812CA1D8B}
  9
$VERSIONGUID
  2
{ECE2D033-9E45-224B-A79B-E4A347AA1EF4}
  9
$EXTNAMES
290
     1
  9
$PSVPSCALE
 40
0.0
  9
$OLESTARTUP
290
     0
  0
ENDSEC
  0
SECTION
  2
CLASSES
  0
CLASS
  1
ACDBDICTIONARYWDFLT
  2
AcDbDictionaryWithDefault
  3
ObjectDBX Classes
 90
        0
280
     0
281
     0
  0
CLASS
  1
ACDBPLACEHOLDER
  2
AcDbPlaceHolder
  3
ObjectDBX Classes
 90
        0
280
     0
281
     0
  0
CLASS
  1
LAYOUT
  2
AcDbLayout
  3
ObjectDBX Classes
 90
        0
280
     0
281
     0
  0
CLASS
  1
DICTIONARYVAR
  2
AcDbDictionaryVar
  3
ObjectDBX Classes
 90
        0
280
     0
281
     0
  0
CLASS
  1
SORTENTSTABLE
  2
AcDbSortentsTable
  3
ObjectDBX Classes
 90
        0
280
     0
281
     0
  0
CLASS
  1
MATERIAL
  2
AcDbMaterial
  3
ObjectDBX Classes
 90
     1153
280
     0
281
     0
  0
CLASS
  1
VISUALSTYLE
  2
AcDbVisualStyle
  3
ObjectDBX Classes
 90
     4095
280
     0
281
     0
  0
CLASS
  1
TABLESTYLE
  2
AcDbTableStyle
  3
ObjectDBX Classes
 90
     4095
280
     0
281
     0
  0
CLASS
  1
SCALE
  2
AcDbScale
  3
ObjectDBX Classes
 90
     1153
280
     0
281
     0
  0
CLASS
  1
MLEADERSTYLE
  2
AcDbMLeaderStyle
  3
ACDB_MLEADERSTYLE_CLASS
 90
     4095
280
     0
281
     0
  0
CLASS
  1
CELLSTYLEMAP
  2
AcDbCellStyleMap
  3
ObjectDBX Classes
 90
     1152
280
     0
281
     0
  0
CLASS
  1
ACDBSECTIONVIEWSTYLE
  2
AcDbSectionViewStyle
  3
ObjectDBX Classes
 90
     1025
280
     0
281
     0
  0
CLASS
  1
ACDBDETAILVIEWSTYLE
  2
AcDbDetailViewStyle
  3
ObjectDBX Classes
 90
     1025
280
     0
281
     0
  0
ENDSEC
  0
SECTION
  2
TABLES
  0
TABLE
  2
VPORT
  5
8
102
{ACAD_XDICTIONARY
360
2B06
102
}
330
0
100
AcDbSymbolTable
 70
     1
  0
VPORT
  5
2924
330
8
100
AcDbSymbolTableRecord
100
AcDbViewportTableRecord
  2
*Active
 70
     0
 10
0.0
 20
0.0
 11
1.0
 21
1.0
 12
1380.020480398324
 22
955.0130659424608
 13
0.0
 23
0.0
 14
10.0
 24
10.0
 15
10.0
 25
10.0
 16
0.0
 26
0.0
 36
1.0
 17
0.0
 27
0.0
 37
0.0
 40
1933.440783562157
 41
2.40122199592668
 42
50.0
 43
0.0
 44
0.0
 50
0.0
 51
0.0
 71
     0
 72
   100
 73
     1
 74
     3
 75
     0
 76
     0
 77
     0
 78
     0
281
     0
 65
     1
110
0.0
120
0.0
130
0.0
111
1.0
121
0.0
131
0.0
112
0.0
122
1.0
132
0.0
 79
     0
146
0.0
1001
ACAD_NAV_VCDISPLAY
1070
     3
  0
ENDTAB
  0
TABLE
  2
LTYPE
  5
5
330
0
100
AcDbSymbolTable
 70
     4
  0
LTYPE
  5
14
330
5
100
AcDbSymbolTableRecord
100
AcDbLinetypeTableRecord
  2
ByBlock
 70
     0
  3

 72
    65
 73
     0
 40
0.0
  0
LTYPE
  5
15
330
5
100
AcDbSymbolTableRecord
100
AcDbLinetypeTableRecord
  2
ByLayer
 70
     0
  3

 72
    65
 73
     0
 40
0.0
  0
LTYPE
  5
16
330
5
100
AcDbSymbolTableRecord
100
AcDbLinetypeTableRecord
  2
Continuous
 70
     0
  3
Solid line
 72
    65
 73
     0
 40
0.0
  0
LTYPE
  5
235D
330
5
100
AcDbSymbolTableRecord
100
AcDbLinetypeTableRecord
  2
DASHED2
 70
     0
  3
Dashed (.5x) _ _ _ _ _ _ _ _ _ _ _ _ _ _ _ _ _
 72
    65
 73
     2
 40
9.524999999999998
 49
6.349999999999999
 74
     0
 49
-3.174999999999999
 74
     0
  0
LTYPE
  5
255D
330
5
100
AcDbSymbolTableRecord
100
AcDbLinetypeTableRecord
  2
DASHED
 70
     0
  3
Dashed __ __ __ __ __ __ __ __ __ __ __ __ __ _
 72
    65
 73
     2
 40
19.05
 49
12.7
 74
     0
 49
-6.349999999999999
 74
     0
  0
ENDTAB
  0
TABLE
  2
LAYER
  5
2
102
{ACAD_XDICTIONARY
360
2D
102
}
330
0
100
AcDbSymbolTable
 70
    12
  0
LAYER
  5
10
102
{ACAD_XDICTIONARY
360
2AEE
102
}
330
2
100
AcDbSymbolTableRecord
100
AcDbLayerTableRecord
  2
0
 70
     0
 62
     7
  6
Continuous
290
     0
370
    -3
390
29
  0
LAYER
  5
2294
102
{ACAD_XDICTIONARY
360
2AF0
102
}
330
2
100
AcDbSymbolTableRecord
100
AcDbLayerTableRecord
  2
HATCH
 70
     0
 62
     9
  6
Continuous
370
    -3
390
29
  0
LAYER
  5
2301
330
2
100
AcDbSymbolTableRecord
100
AcDbLayerTableRecord
  2
Defpoints
 70
     0
 62
     7
  6
Continuous
290
     0
370
    -3
390
F
  0
LAYER
  5
235F
102
{ACAD_XDICTIONARY
360
2AF2
102
}
330
2
100
AcDbSymbolTableRecord
100
AcDbLayerTableRecord
  2
KUTAI
 70
     0
 62
     3
  6
Continuous
370
    -3
390
29
  0
LAYER
  5
2360
102
{ACAD_XDICTIONARY
360
2AF4
102
}
330
2
100
AcDbSymbolTableRecord
100
AcDbLayerTableRecord
  2
BOUSUI
 70
     0
 62
     1
  6
Continuous
370
    -3
390
29
  0
LAYER
  5
2361
102
{ACAD_XDICTIONARY
360
2AF6
102
}
330
2
100
AcDbSymbolTableRecord
100
AcDbLayerTableRecord
  2
MOJI
 70
     0
 62
     7
  6
Continuous
370
    -3
390
29
  0
LAYER
  5
2362
102
{ACAD_XDICTIONARY
360
2AF8
102
}
330
2
100
AcDbSymbolTableRecord
100
AcDbLayerTableRecord
  2
KASAGI
 70
     0
 62
   150
  6
Continuous
370
    -3
390
29
  0
LAYER
  5
2363
102
{ACAD_XDICTIONARY
360
2AFA
102
}
330
2
100
AcDbSymbolTableRecord
100
AcDbLayerTableRecord
  2
sunpo
 70
     0
 62
     7
  6
Continuous
370
    -3
390
29
  0
LAYER
  5
2364
102
{ACAD_XDICTIONARY
360
2AFC
102
}
330
2
100
AcDbSymbolTableRecord
100
AcDbLayerTableRecord
  2
KANAMONO_SCREW
 70
     0
 62
     4
  6
Continuous
370
    -3
390
29
  0
LAYER
  5
2501
102
{ACAD_XDICTIONARY
360
2AFE
102
}
330
2
100
AcDbSymbolTableRecord
100
AcDbLayerTableRecord
  2
dannnetu
 70
     0
 62
     6
  6
Continuous
370
    -3
390
F
  0
LAYER
  5
2734
102
{ACAD_XDICTIONARY
360
2B00
102
}
330
2
100
AcDbSymbolTableRecord
100
AcDbLayerTableRecord
  2
buhin
 70
     0
 62
     2
  6
Continuous
370
    -3
390
F
  0
LAYER
  5
2C06
102
{ACAD_XDICTIONARY
360
2C07
102
}
330
2
100
AcDbSymbolTableRecord
100
AcDbLayerTableRecord
  2
WAKU
 70
     0
 62
     7
  6
Continuous
370
    -3
390
29
  0
ENDTAB
  0
TABLE
  2
STYLE
  5
3
330
0
100
AcDbSymbolTable
 70
     2
  0
STYLE
  5
11
330
3
100
AcDbSymbolTableRecord
100
AcDbTextStyleTableRecord
  2
Standard
 70
     0
 40
0.0
 41
1.0
 50
0.0
 71
     0
 42
2.5
  3

  4

1001
ACAD
1000
MS Gothic
1071
    32817
  0
STYLE
  5
2C08
330
3
100
AcDbSymbolTableRecord
100
AcDbTextStyleTableRecord
  2
MSゴシック
 70
     0
 40
0.0
 41
1.0
 50
0.0
 71
     0
 42
2.5
  3

  4

1001
ACAD
1000
MS Gothic
1071
    32817
  0
ENDTAB
  0
TABLE
  2
VIEW
  5
6
330
0
100
AcDbSymbolTable
 70
     0
  0
ENDTAB
  0
TABLE
  2
UCS
  5
7
330
0
100
AcDbSymbolTable
 70
     0
  0
ENDTAB
  0
TABLE
  2
APPID
  5
9
330
0
100
AcDbSymbolTable
 70
     9
  0
APPID
  5
12
330
9
100
AcDbSymbolTableRecord
100
AcDbRegAppTableRecord
  2
ACAD
 70
     0
  0
APPID
  5
29F9
330
9
100
AcDbSymbolTableRecord
100
AcDbRegAppTableRecord
  2
ACAD_MLEADERVER
 70
     0
  0
APPID
  5
29FA
330
9
100
AcDbSymbolTableRecord
100
AcDbRegAppTableRecord
  2
ACAD_PSEXT
 70
     0
  0
APPID
  5
29FB
330
9
100
AcDbSymbolTableRecord
100
AcDbRegAppTableRecord
  2
ACAD_DSTYLE_DIMJAG
 70
     0
  0
APPID
  5
29FC
330
9
100
AcDbSymbolTableRecord
100
AcDbRegAppTableRecord
  2
ACAD_DSTYLE_DIMTALN
 70
     0
  0
APPID
  5
29FD
330
9
100
AcDbSymbolTableRecord
100
AcDbRegAppTableRecord
  2
ACAD_EXEMPT_FROM_CAD_STANDARDS
 70
     0
  0
APPID
  5
2BBC
330
9
100
AcDbSymbolTableRecord
100
AcDbRegAppTableRecord
  2
ACAD_NAV_VCDISPLAY
 70
     0
  0
APPID
  5
31FC
330
9
100
AcDbSymbolTableRecord
100
AcDbRegAppTableRecord
  2
AcadAnnoPO
 70
     0
  0
APPID
  5
3246
330
9
100
AcDbSymbolTableRecord
100
AcDbRegAppTableRecord
  2
Acad_TC
 70
     0
  0
ENDTAB
  0
TABLE
  2
DIMSTYLE
  5
A
330
0
100
AcDbSymbolTable
 70
     1
100
AcDbDimStyleTable
 71
     1
340
22E4
  0
DIMSTYLE
105
22E4
330
A
100
AcDbSymbolTableRecord
100
AcDbDimStyleTableRecord
  2
STANDARD
 70
     0
 40
10.0
 41
0.8
 42
1.0
 43
0.0
 44
0.0
 73
     0
 74
     0
 77
     2
 78
     8
140
2.0
141
2.5
143
0.0394
147
0.1
171
     4
172
     1
173
     1
271
     8
272
     8
273
     8
274
     4
279
     1
340
11
341
903
343
903
344
903
  0
ENDTAB
  0
TABLE
  2
BLOCK_RECORD
  5
1
330
0
100
AcDbSymbolTable
 70
     7
  0
BLOCK_RECORD
  5
1F
102
{ACAD_XDICTIONARY
360
1C62
102
}
330
1
100
AcDbSymbolTableRecord
100
AcDbBlockTableRecord
  2
*Model_Space
340
22
  0
BLOCK_RECORD
  5
1CD0
330
1
100
AcDbSymbolTableRecord
100
AcDbBlockTableRecord
  2
*Paper_Space
340
1CD1
  0
BLOCK_RECORD
  5
903
330
1
100
AcDbSymbolTableRecord
100
AcDbBlockTableRecord
  2
_DOT
340
0
102
{BLKREFS
331
333B
331
333C
331
3341
331
3342
331
3347
331
3348
331
334F
331
3350
331
3355
331
3356
331
335A
331
335B
331
3284
331
3285
331
328D
331
328E
331
3296
331
3297
331
32A1
331
32A2
331
32AA
331
32AB
331
32B2
331
32B3
102
}
  0
BLOCK_RECORD
  5
257D
330
1
100
AcDbSymbolTableRecord
100
AcDbBlockTableRecord
  2
*D1
340
0
  0
BLOCK_RECORD
  5
25A2
330
1
100
AcDbSymbolTableRecord
100
AcDbBlockTableRecord
  2
*D2
340
0
  0
BLOCK_RECORD
  5
25B1
330
1
100
AcDbSymbolTableRecord
100
AcDbBlockTableRecord
  2
*D3
340
0
  0
BLOCK_RECORD
  5
25BE
330
1
100
AcDbSymbolTableRecord
100
AcDbBlockTableRecord
  2
*D4
340
0
  0
BLOCK_RECORD
  5
25D0
330
1
100
AcDbSymbolTableRecord
100
AcDbBlockTableRecord
  2
*D5
340
0
  0
BLOCK_RECORD
  5
26D4
330
1
100
AcDbSymbolTableRecord
100
AcDbBlockTableRecord
  2
*D6
340
0
  0
ENDTAB
  0
ENDSEC
  0
SECTION
  2
BLOCKS
  0
BLOCK
  5
20
330
1F
100
AcDbEntity
  8
0
100
AcDbBlockBegin
  2
*Model_Space
 70
     0
 10
0.0
 20
0.0
 30
0.0
  3
*Model_Space
  1

  0
ENDBLK
  5
21
330
1F
100
AcDbEntity
  8
0
100
AcDbBlockEnd
  0
BLOCK
  5
1CD2
330
1CD0
100
AcDbEntity
 67
     1
  8
0
100
AcDbBlockBegin
  2
*Paper_Space
 70
     0
 10
0.0
 20
0.0
 30
0.0
  3
*Paper_Space
  1

  0
ENDBLK
  5
1CD3
330
1CD0
100
AcDbEntity
 67
     1
  8
0
100
AcDbBlockEnd
  0
BLOCK
  5
906
330
903
100
AcDbEntity
  8
0
100
AcDbBlockBegin
  2
_DOT
 70
     0
 10
0.0
 20
0.0
 30
0.0
  3
_DOT
  1

  0
LWPOLYLINE
  5
904
330
903
100
AcDbEntity
  8
0
  6
ByBlock
 62
     0
100
AcDbPolyline
 90
        2
 70
     1
 43
0.5
 10
-0.25
 20
0.0
 42
1.0
 10
0.25
 20
0.0
 42
1.0
  0
LINE
  5
905
330
903
100
AcDbEntity
  8
0
  6
ByBlock
 62
     0
100
AcDbLine
 10
-0.5
 20
0.0
 30
0.0
 11
-1.0
 21
0.0
 31
0.0
  0
ENDBLK
  5
907
330
903
100
AcDbEntity
  8
0
100
AcDbBlockEnd
  0
BLOCK
  5
2589
330
257D
100
AcDbEntity
  8
0
100
AcDbBlockBegin
  2
*D1
 70
     1
 10
0.0
 20
0.0
 30
0.0
  3
*D1
  1

  0
LINE
  5
3280
330
257D
100
AcDbEntity
  8
sunpo
 62
     0
370
    -2
100
AcDbLine
 10
760.0000000000004
 20
883.7903539495172
 30
0.0
 11
760.0000000000004
 21
857.4024026202142
 31
0.0
  0
LINE
  5
3281
330
257D
100
AcDbEntity
  8
sunpo
 62
     0
370
    -2
100
AcDbLine
 10
780.0000000000005
 20
883.7903539495172
 30
0.0
 11
780.0000000000005
 21
857.4024026202142
 31
0.0
  0
LINE
  5
3282
330
257D
100
AcDbEntity
  8
sunpo
 62
     0
370
    -2
100
AcDbLine
 10
768.0000000000005
 20
857.4024026202142
 30
0.0
 11
772.0000000000005
 21
857.4024026202142
 31
0.0
  0
MTEXT
  5
3283
330
257D
100
AcDbEntity
  8
sunpo
 62
     0
100
AcDbMText
 10
740.1877749463915
 20
873.2818169543216
 30
0.0
 40
20.0
 41
0.0
 71
     5
 72
     1
  1
\A1;20
  7
MSゴシック
 73
     1
 44
1.0
1001
ACAD
1000
MTEXTBEGIN
1070
    73
1070
     1
1070
    44
1040
1.0
1070
    74
1070
     0
1000
MTEXTEND
  0
INSERT
  5
3284
330
257D
100
AcDbEntity
  8
sunpo
 62
     0
370
    -2
100
AcDbBlockReference
  2
_DOT
 10
760.0000000000004
 20
857.4024026202142
 30
0.0
 41
8.0
 42
8.0
 43
8.0
 50
180.0
  0
INSERT
  5
3285
330
257D
100
AcDbEntity
  8
sunpo
 62
     0
370
    -2
100
AcDbBlockReference
  2
_DOT
 10
780.0000000000005
 20
857.4024026202142
 30
0.0
 41
8.0
 42
8.0
 43
8.0
  0
POINT
  5
3286
330
257D
100
AcDbEntity
  8
Defpoints
 62
     0
100
AcDbPoint
 10
760.0000000000004
 20
888.7903539495173
 30
0.0
  0
POINT
  5
3287
330
257D
100
AcDbEntity
  8
Defpoints
 62
     0
100
AcDbPoint
 10
780.0000000000005
 20
888.7903539495173
 30
0.0
  0
POINT
  5
3288
330
257D
100
AcDbEntity
  8
Defpoints
 62
     0
100
AcDbPoint
 10
780.0000000000005
 20
857.4024026202142
 30
0.0
  0
ENDBLK
  5
258A
330
257D
100
AcDbEntity
  8
0
100
AcDbBlockEnd
  0
BLOCK
  5
25AE
330
25A2
100
AcDbEntity
  8
0
100
AcDbBlockBegin
  2
*D2
 70
     1
 10
0.0
 20
0.0
 30
0.0
  3
*D2
  1

  0
LINE
  5
3289
330
25A2
100
AcDbEntity
  8
sunpo
 62
     0
370
    -2
100
AcDbLine
 10
780.0000000000005
 20
883.7903539495172
 30
0.0
 11
780.0000000000005
 21
857.4024026202142
 31
0.0
  0
LINE
  5
328A
330
25A2
100
AcDbEntity
  8
sunpo
 62
     0
370
    -2
100
AcDbLine
 10
800.0000000000005
 20
879.6809383784815
 30
0.0
 11
800.0000000000005
 21
857.4024026202142
 31
0.0
  0
LINE
  5
328B
330
25A2
100
AcDbEntity
  8
sunpo
 62
     0
370
    -2
100
AcDbLine
 10
788.0000000000004
 20
857.4024026202142
 30
0.0
 11
792.0000000000004
 21
857.4024026202142
 31
0.0
  0
MTEXT
  5
328C
330
25A2
100
AcDbEntity
  8
sunpo
 62
     0
100
AcDbMText
 10
822.0880406737656
 20
873.2818169543216
 30
0.0
 40
20.0
 41
0.0
 71
     5
 72
     1
  1
\A1;20
  7
MSゴシック
 73
     1
 44
1.0
1001
ACAD
1000
MTEXTBEGIN
1070
    73
1070
     1
1070
    44
1040
1.0
1070
    74
1070
     0
1000
MTEXTEND
  0
INSERT
  5
328D
330
25A2
100
AcDbEntity
  8
sunpo
 62
     0
370
    -2
100
AcDbBlockReference
  2
_DOT
 10
780.0000000000005
 20
857.4024026202142
 30
0.0
 41
8.0
 42
8.0
 43
8.0
 50
180.0
  0
INSERT
  5
328E
330
25A2
100
AcDbEntity
  8
sunpo
 62
     0
370
    -2
100
AcDbBlockReference
  2
_DOT
 10
800.0000000000005
 20
857.4024026202142
 30
0.0
 41
8.0
 42
8.0
 43
8.0
  0
POINT
  5
328F
330
25A2
100
AcDbEntity
  8
Defpoints
 62
     0
100
AcDbPoint
 10
780.0000000000005
 20
888.7903539495173
 30
0.0
  0
POINT
  5
3290
330
25A2
100
AcDbEntity
  8
Defpoints
 62
     0
100
AcDbPoint
 10
800.0000000000005
 20
884.6809383784814
 30
0.0
  0
POINT
  5
3291
330
25A2
100
AcDbEntity
  8
Defpoints
 62
     0
100
AcDbPoint
 10
800.0000000000005
 20
857.4024026202142
 30
0.0
  0
ENDBLK
  5
25AF
330
25A2
100
AcDbEntity
  8
0
100
AcDbBlockEnd
  0
BLOCK
  5
25BB
330
25B1
100
AcDbEntity
  8
0
100
AcDbBlockBegin
  2
*D3
 70
     1
 10
0.0
 20
0.0
 30
0.0
  3
*D3
  1

  0
LINE
  5
3292
330
25B1
100
AcDbEntity
  8
sunpo
 62
     0
370
    -2
100
AcDbLine
 10
800.0000000000005
 20
879.6809383784815
 30
0.0
 11
800.0000000000005
 21
857.4024026202142
 31
0.0
  0
LINE
  5
3293
330
25B1
100
AcDbEntity
  8
sunpo
 62
     0
370
    -2
100
AcDbLine
 10
980.0000000000004
 20
879.6809383784815
 30
0.0
 11
980.0000000000004
 21
857.4024026202142
 31
0.0
  0
LINE
  5
3294
330
25B1
100
AcDbEntity
  8
sunpo
 62
     0
370
    -2
100
AcDbLine
 10
808.0000000000005
 20
857.4024026202142
 30
0.0
 11
972.0000000000004
 21
857.4024026202142
 31
0.0
  0
MTEXT
  5
3295
330
25B1
100
AcDbEntity
  8
sunpo
 62
     0
100
AcDbMText
 10
889.4812711233049
 20
873.2818169543216
 30
0.0
 40
20.0
 41
0.0
 71
     5
 72
     1
  1
\A1;≧180
  7
MSゴシック
 73
     1
 44
1.0
1001
ACAD
1000
MTEXTBEGIN
1070
    73
1070
     1
1070
    44
1040
1.0
1070
    74
1070
     0
1000
MTEXTEND
  0
INSERT
  5
3296
330
25B1
100
AcDbEntity
  8
sunpo
 62
     0
370
    -2
100
AcDbBlockReference
  2
_DOT
 10
800.0000000000005
 20
857.4024026202142
 30
0.0
 41
8.0
 42
8.0
 43
8.0
 50
180.0
  0
INSERT
  5
3297
330
25B1
100
AcDbEntity
  8
sunpo
 62
     0
370
    -2
100
AcDbBlockReference
  2
_DOT
 10
980.0000000000004
 20
857.4024026202142
 30
0.0
 41
8.0
 42
8.0
 43
8.0
  0
POINT
  5
3298
330
25B1
100
AcDbEntity
  8
Defpoints
 62
     0
100
AcDbPoint
 10
800.0000000000005
 20
884.6809383784814
 30
0.0
  0
POINT
  5
3299
330
25B1
100
AcDbEntity
  8
Defpoints
 62
     0
100
AcDbPoint
 10
980.0000000000004
 20
884.6809383784814
 30
0.0
  0
POINT
  5
329A
330
25B1
100
AcDbEntity
  8
Defpoints
 62
     0
100
AcDbPoint
 10
980.0000000000004
 20
857.4024026202142
 30
0.0
  0
ENDBLK
  5
25BC
330
25B1
100
AcDbEntity
  8
0
100
AcDbBlockEnd
  0
BLOCK
  5
25CD
330
25BE
100
AcDbEntity
  8
0
100
AcDbBlockBegin
  2
*D4
 70
     1
 10
0.0
 20
0.0
 30
0.0
  3
*D4
  1

  0
LINE
  5
329B
330
25BE
100
AcDbEntity
  8
sunpo
 62
     0
370
    -2
100
AcDbLine
 10
980.0000000000004
 20
879.6809383784815
 30
0.0
 11
980.0000000000004
 21
857.4024026202142
 31
0.0
  0
LINE
  5
329C
330
25BE
100
AcDbEntity
  8
sunpo
 62
     0
370
    -2
100
AcDbLine
 10
990.0000000000003
 20
879.6809383784815
 30
0.0
 11
990.0000000000003
 21
857.4024026202142
 31
0.0
  0
LINE
  5
329D
330
25BE
100
AcDbEntity
  8
sunpo
 62
     0
370
    -2
100
AcDbLine
 10
972.0000000000004
 20
857.4024026202142
 30
0.0
 11
964.0000000000004
 21
857.4024026202142
 31
0.0
  0
LINE
  5
329E
330
25BE
100
AcDbEntity
  8
sunpo
 62
     0
370
    -2
100
AcDbLine
 10
998.0000000000003
 20
857.4024026202142
 30
0.0
 11
1006.0
 21
857.4024026202142
 31
0.0
  0
MTEXT
  5
329F
330
25BE
100
AcDbEntity
  8
sunpo
 62
     0
100
AcDbMText
 10
958.5813232888881
 20
873.2818169543216
 30
0.0
 40
20.0
 41
0.0
 71
     5
 72
     1
  1
\A1;10
  7
MSゴシック
 73
     1
 44
1.0
1001
ACAD
1000
MTEXTBEGIN
1070
    73
1070
     1
1070
    44
1040
1.0
1070
    74
1070
     0
1000
MTEXTEND
  0
LINE
  5
32A0
330
25BE
100
AcDbEntity
  8
sunpo
 62
     0
370
    -2
100
AcDbLine
 10
980.0000000000004
 20
857.4024026202142
 30
0.0
 11
990.0000000000003
 21
857.4024026202142
 31
0.0
  0
INSERT
  5
32A1
330
25BE
100
AcDbEntity
  8
sunpo
 62
     0
370
    -2
100
AcDbBlockReference
  2
_DOT
 10
980.0000000000004
 20
857.4024026202142
 30
0.0
 41
8.0
 42
8.0
 43
8.0
  0
INSERT
  5
32A2
330
25BE
100
AcDbEntity
  8
sunpo
 62
     0
370
    -2
100
AcDbBlockReference
  2
_DOT
 10
990.0000000000003
 20
857.4024026202142
 30
0.0
 41
8.0
 42
8.0
 43
8.0
 50
180.0
  0
POINT
  5
32A3
330
25BE
100
AcDbEntity
  8
Defpoints
 62
     0
100
AcDbPoint
 10
980.0000000000004
 20
884.6809383784814
 30
0.0
  0
POINT
  5
32A4
330
25BE
100
AcDbEntity
  8
Defpoints
 62
     0
100
AcDbPoint
 10
990.0000000000003
 20
884.6809383784814
 30
0.0
  0
POINT
  5
32A5
330
25BE
100
AcDbEntity
  8
Defpoints
 62
     0
100
AcDbPoint
 10
990.0000000000003
 20
857.4024026202142
 30
0.0
  0
ENDBLK
  5
25CE
330
25BE
100
AcDbEntity
  8
0
100
AcDbBlockEnd
  0
BLOCK
  5
25DC
330
25D0
100
AcDbEntity
  8
0
100
AcDbBlockBegin
  2
*D5
 70
     1
 10
0.0
 20
0.0
 30
0.0
  3
*D5
  1

  0
LINE
  5
32A6
330
25D0
100
AcDbEntity
  8
sunpo
 62
     0
370
    -2
100
AcDbLine
 10
990.0000000000003
 20
879.6809383784815
 30
0.0
 11
990.0000000000003
 21
857.4024026202142
 31
0.0
  0
LINE
  5
32A7
330
25D0
100
AcDbEntity
  8
sunpo
 62
     0
370
    -2
100
AcDbLine
 10
1010.0
 20
888.3999760267242
 30
0.0
 11
1010.0
 21
857.4024026202142
 31
0.0
  0
LINE
  5
32A8
330
25D0
100
AcDbEntity
  8
sunpo
 62
     0
370
    -2
100
AcDbLine
 10
998.0000000000003
 20
857.4024026202142
 30
0.0
 11
1002.0
 21
857.4024026202142
 31
0.0
  0
MTEXT
  5
32A9
330
25D0
100
AcDbEntity
  8
sunpo
 62
     0
100
AcDbMText
 10
1033.82561506685
 20
873.2818169543216
 30
0.0
 40
20.0
 41
0.0
 71
     5
 72
     1
  1
\A1;20
  7
MSゴシック
 73
     1
 44
1.0
1001
ACAD
1000
MTEXTBEGIN
1070
    73
1070
     1
1070
    44
1040
1.0
1070
    74
1070
     0
1000
MTEXTEND
  0
INSERT
  5
32AA
330
25D0
100
AcDbEntity
  8
sunpo
 62
     0
370
    -2
100
AcDbBlockReference
  2
_DOT
 10
990.0000000000003
 20
857.4024026202142
 30
0.0
 41
8.0
 42
8.0
 43
8.0
 50
180.0
  0
INSERT
  5
32AB
330
25D0
100
AcDbEntity
  8
sunpo
 62
     0
370
    -2
100
AcDbBlockReference
  2
_DOT
 10
1010.0
 20
857.4024026202142
 30
0.0
 41
8.0
 42
8.0
 43
8.0
  0
POINT
  5
32AC
330
25D0
100
AcDbEntity
  8
Defpoints
 62
     0
100
AcDbPoint
 10
990.0000000000003
 20
884.6809383784814
 30
0.0
  0
POINT
  5
32AD
330
25D0
100
AcDbEntity
  8
Defpoints
 62
     0
100
AcDbPoint
 10
1010.0
 20
893.3999760267242
 30
0.0
  0
POINT
  5
32AE
330
25D0
100
AcDbEntity
  8
Defpoints
 62
     0
100
AcDbPoint
 10
1010.0
 20
857.4024026202142
 30
0.0
  0
ENDBLK
  5
25DD
330
25D0
100
AcDbEntity
  8
0
100
AcDbBlockEnd
  0
BLOCK
  5
26DE
330
26D4
100
AcDbEntity
  8
0
100
AcDbBlockBegin
  2
*D6
 70
     1
 10
0.0
 20
0.0
 30
0.0
  3
*D6
  1

  0
LINE
  5
32AF
330
26D4
100
AcDbEntity
  8
sunpo
 62
     0
 48
0.5
370
    -2
100
AcDbLine
 10
775.0000000000008
 20
655.0000000000003
 30
0.0
 11
666.6455405222069
 21
655.0000000000002
 31
0.0
  0
LINE
  5
32B0
330
26D4
100
AcDbEntity
  8
sunpo
 62
     0
 48
0.5
370
    -2
100
AcDbLine
 10
775.0000000000008
 20
1045.0
 30
0.0
 11
666.6455405222068
 21
1045.0
 31
0.0
  0
LINE
  5
32B1
330
26D4
100
AcDbEntity
  8
sunpo
 62
     0
 48
0.5
370
    -2
100
AcDbLine
 10
666.6455405222069
 20
663.0000000000002
 30
0.0
 11
666.6455405222068
 21
1037.0
 31
0.0
  0
INSERT
  5
32B2
330
26D4
100
AcDbEntity
  8
sunpo
 62
     0
 48
0.5
370
    -2
100
AcDbBlockReference
  2
_DOT
 10
666.6455405222069
 20
655.0000000000002
 30
0.0
 41
8.0
 42
8.0
 43
8.0
 50
270.0
  0
INSERT
  5
32B3
330
26D4
100
AcDbEntity
  8
sunpo
 62
     0
 48
0.5
370
    -2
100
AcDbBlockReference
  2
_DOT
 10
666.6455405222068
 20
1045.0
 30
0.0
 41
8.0
 42
8.0
 43
8.0
 50
90.0
  0
MTEXT
  5
32B4
330
26D4
100
AcDbEntity
  8
sunpo
 62
     0
 48
0.5
100
AcDbMText
 10
654.1734593039328
 20
850.0
 30
0.0
 40
20.0
 41
0.0
 71
     5
 72
     1
  1
\A1;150以上（水上）
  7
MSゴシック
 11
0.0000000000000001
 21
1.0
 31
0.0
 73
     1
 44
1.0
1001
ACAD
1000
MTEXTBEGIN
1070
    73
1070
     1
1070
    44
1040
1.0
1070
    74
1070
     0
1000
MTEXTEND
  0
POINT
  5
32B5
330
26D4
100
AcDbEntity
  8
Defpoints
 62
     0
 48
0.5
100
AcDbPoint
 10
780.0000000000009
 20
655.0000000000003
 30
0.0
  0
POINT
  5
32B6
330
26D4
100
AcDbEntity
  8
Defpoints
 62
     0
 48
0.5
100
AcDbPoint
 10
780.0000000000009
 20
1045.0
 30
0.0
  0
POINT
  5
32B7
330
26D4
100
AcDbEntity
  8
Defpoints
 62
     0
 48
0.5
100
AcDbPoint
 10
666.6455405222068
 20
1045.0
 30
0.0
  0
ENDBLK
  5
26DF
330
26D4
100
AcDbEntity
  8
0
100
AcDbBlockEnd
  0
ENDSEC
  0
SECTION
  2
ENTITIES
  0
LINE
  5
22B8
330
1F
100
AcDbEntity
  8
HATCH
100
AcDbLine
 10
780.0000000000003
 20
729.9999990880088
 30
0.0
 11
980.0000000000004
 21
929.9999990880088
 31
0.0
  0
LINE
  5
22B9
330
1F
100
AcDbEntity
  8
HATCH
100
AcDbLine
 10
780.0000000000003
 20
719.999999088009
 30
0.0
 11
980.0000000000004
 21
919.9999990880089
 31
0.0
  0
LINE
  5
22BA
330
1F
100
AcDbEntity
  8
HATCH
100
AcDbLine
 10
780.0000000000003
 20
709.9999990880089
 30
0.0
 11
980.0000000000004
 21
909.9999990880089
 31
0.0
  0
LINE
  5
22BB
330
1F
100
AcDbEntity
  8
HATCH
100
AcDbLine
 10
845.0000009119913
 20
295.0000000000001
 30
0.0
 11
1195.000000911991
 21
645.0
 31
0.0
  0
LINE
  5
22BC
330
1F
100
AcDbEntity
  8
HATCH
100
AcDbLine
 10
855.0000009119914
 20
295.0000000000001
 30
0.0
 11
1205.000000911991
 21
645.0
 31
0.0
  0
LINE
  5
22BD
330
1F
100
AcDbEntity
  8
HATCH
100
AcDbLine
 10
865.0000009119914
 20
295.0000000000001
 30
0.0
 11
1215.000000911991
 21
645.0
 31
0.0
  0
LINE
  5
22BE
330
1F
100
AcDbEntity
  8
HATCH
100
AcDbLine
 10
1545.000000911991
 20
495.0
 30
0.0
 11
1695.000000911991
 21
645.0
 31
0.0
  0
LINE
  5
22BF
330
1F
100
AcDbEntity
  8
HATCH
100
AcDbLine
 10
1555.000000911991
 20
495.0
 30
0.0
 11
1705.000000911991
 21
645.0
 31
0.0
  0
LINE
  5
22C0
330
1F
100
AcDbEntity
  8
HATCH
100
AcDbLine
 10
1565.000000911991
 20
495.0
 30
0.0
 11
1715.000000911991
 21
645.0
 31
0.0
  0
LINE
  5
22C1
330
1F
100
AcDbEntity
  8
HATCH
100
AcDbLine
 10
2045.000000911992
 20
495.0
 30
0.0
 11
2195.000000911992
 21
645.0
 31
0.0
  0
LINE
  5
22C2
330
1F
100
AcDbEntity
  8
HATCH
100
AcDbLine
 10
2055.000000911991
 20
495.0
 30
0.0
 11
2205.000000911991
 21
645.0
 31
0.0
  0
LINE
  5
22C3
330
1F
100
AcDbEntity
  8
HATCH
100
AcDbLine
 10
2065.000000911991
 20
495.0
 30
0.0
 11
2215.000000911992
 21
645.0
 31
0.0
  0
TEXT
  5
23F3
330
1F
100
AcDbEntity
  8
MOJI
100
AcDbText
 10
1700.804014565155
 20
918.0050299935487
 30
0.0
 40
20.0
  1
アスファルト防水層
  7
MSゴシック
 11
1700.804014565155
 21
928.0050299935487
 31
0.0
100
AcDbText
 73
     2
  0
CIRCLE
  5
23F6
102
{ACAD_REACTORS
330
23F7
102
}
330
1F
100
AcDbEntity
  8
MOJI
100
AcDbCircle
 10
1487.057953332534
 20
649.5846848220714
 30
0.0
 40
4.0
  0
HATCH
  5
23F7
330
1F
100
AcDbEntity
  8
MOJI
100
AcDbHatch
 10
0.0
 20
0.0
 30
0.0
210
0.0
220
0.0
230
1.0
  2
SOLID
 70
     1
 71
     1
 91
        1
 92
        1
 93
        1
 72
     2
 10
1487.057953332534
 20
649.5846848220714
 40
4.0
 50
0.0
 51
360.0
 73
     1
 97
        1
330
23F6
 75
     0
 76
     1
 98
        1
 10
-223.1723321272809
 20
-277.5916889043155
  0
TEXT
  5
23F8
330
1F
100
AcDbEntity
  8
MOJI
100
AcDbText
 10
1417.746568046851
 20
357.0389123756918
 30
0.0
 40
20.0
  1
断熱材
  7
MSゴシック
100
AcDbText
  0
CIRCLE
  5
240A
102
{ACAD_REACTORS
330
240B
102
}
330
1F
100
AcDbEntity
  8
MOJI
100
AcDbCircle
 10
1288.822603099318
 20
475.452355844654
 30
0.0
 40
4.0
  0
HATCH
  5
240B
330
1F
100
AcDbEntity
  8
MOJI
100
AcDbHatch
 10
0.0
 20
0.0
 30
0.0
210
0.0
220
0.0
230
1.0
  2
SOLID
 70
     1
 71
     1
 91
        1
 92
        1
 93
        1
 72
     2
 10
1288.822603099318
 20
475.452355844654
 40
4.0
 50
0.0
 51
360.0
 73
     1
 97
        1
330
240A
 75
     0
 76
     1
 98
        1
 10
-421.4076823604968
 20
-451.7240178817328
  0
TEXT
  5
240C
330
1F
100
AcDbEntity
  8
MOJI
100
AcDbText
 10
479.1337701491995
 20
588.6575373964745
 30
0.0
 40
20.0
  1
コンクリート
  7
MSゴシック
 72
     2
 11
635.0728564436158
 21
598.6575373964744
 31
0.0
100
AcDbText
 73
     2
  0
TEXT
  5
2410
330
1F
100
AcDbEntity
  8
MOJI
100
AcDbText
 10
946.6728195102843
 20
1206.608999068828
 30
0.0
 40
20.0
  1
強力ガムシール
  7
MSゴシック
 11
946.6728195102843
 21
1216.608999068828
 31
0.0
100
AcDbText
 73
     2
  0
CIRCLE
  5
241C
102
{ACAD_REACTORS
330
241D
102
}
330
1F
100
AcDbEntity
  8
MOJI
100
AcDbCircle
 10
788.5155919777036
 20
436.809971853212
 30
0.0
 40
4.0
  0
HATCH
  5
241D
330
1F
100
AcDbEntity
  8
MOJI
100
AcDbHatch
 10
0.0
 20
0.0
 30
0.0
210
0.0
220
0.0
230
1.0
  2
SOLID
 70
     1
 71
     1
 91
        1
 92
        1
 93
        1
 72
     2
 10
788.5155919777036
 20
436.809971853212
 40
4.0
 50
0.0
 51
360.0
 73
     1
 97
        1
330
241C
 75
     0
 76
     1
 98
        1
 10
-921.7146934821116
 20
-490.3664018731746
  0
CIRCLE
  5
241E
102
{ACAD_REACTORS
330
241F
102
}
330
1F
100
AcDbEntity
  8
MOJI
100
AcDbCircle
 10
985.0657125973359
 20
903.1017068877345
 30
0.0
 40
4.0
  0
HATCH
  5
241F
330
1F
100
AcDbEntity
  8
MOJI
100
AcDbHatch
 10
0.0
 20
0.0
 30
0.0
210
0.0
220
0.0
230
1.0
  2
SOLID
 70
     1
 71
     1
 91
        1
 92
        1
 93
        1
 72
     2
 10
985.0657125973359
 20
903.1017068877345
 40
4.0
 50
0.0
 51
360.0
 73
     1
 97
        1
330
241E
 75
     0
 76
     1
 98
        1
 10
-725.1645728624794
 20
-24.07466683865232
  0
TEXT
  5
2420
330
1F
100
AcDbEntity
  8
MOJI
100
AcDbText
 10
479.1337701491995
 20
562.9163032646986
 30
0.0
 40
20.0
  1
　　　打増し
  7
MSゴシック
 72
     2
 11
635.0728564436158
 21
572.9163032646986
 31
0.0
100
AcDbText
 73
     2
  0
CIRCLE
  5
2422
102
{ACAD_REACTORS
330
2423
102
}
330
1F
100
AcDbEntity
  8
MOJI
100
AcDbCircle
 10
800.1001761631735
 20
1054.53642659311
 30
0.0
 40
4.0
  0
HATCH
  5
2423
330
1F
100
AcDbEntity
  8
MOJI
100
AcDbHatch
 10
0.0
 20
0.0
 30
0.0
210
0.0
220
0.0
230
1.0
  2
SOLID
 70
     1
 71
     1
 91
        1
 92
        1
 93
        1
 72
     2
 10
800.1001761631735
 20
1054.53642659311
 40
4.0
 50
0.0
 51
360.0
 73
     1
 97
        1
330
2422
 75
     0
 76
     1
 98
        1
 10
-910.1301092966419
 20
127.3600528667227
  0
CIRCLE
  5
2424
102
{ACAD_REACTORS
330
2425
102
}
330
1F
100
AcDbEntity
  8
MOJI
100
AcDbCircle
 10
877.4768745398759
 20
1074.300925309232
 30
0.0
 40
4.0
  0
HATCH
  5
2425
330
1F
100
AcDbEntity
  8
MOJI
100
AcDbHatch
 10
0.0
 20
0.0
 30
0.0
210
0.0
220
0.0
230
1.0
  2
SOLID
 70
     1
 71
     1
 91
        1
 92
        1
 93
        1
 72
     2
 10
877.4768745398759
 20
1074.300925309232
 40
4.0
 50
0.0
 51
360.0
 73
     1
 97
        1
330
2424
 75
     0
 76
     1
 98
        1
 10
-832.7534109199394
 20
147.1245515828448
  0
CIRCLE
  5
2428
102
{ACAD_REACTORS
330
2429
102
}
330
1F
100
AcDbEntity
  8
MOJI
100
AcDbCircle
 10
1000.445502097177
 20
656.6679609780526
 30
0.0
 40
4.0
  0
HATCH
  5
2429
330
1F
100
AcDbEntity
  8
MOJI
100
AcDbHatch
 10
0.0
 20
0.0
 30
0.0
210
0.0
220
0.0
230
1.0
  2
SOLID
 70
     1
 71
     1
 91
        1
 92
        1
 93
        1
 72
     2
 10
1000.445502097177
 20
656.6679609780526
 40
4.0
 50
0.0
 51
360.0
 73
     1
 97
        1
330
2428
 75
     0
 76
     1
 98
        1
 10
-709.7847833626379
 20
-270.5084127483342
  0
CIRCLE
  5
242A
102
{ACAD_REACTORS
330
242B
102
}
330
1F
100
AcDbEntity
  8
MOJI
100
AcDbCircle
 10
1000.445502097177
 20
656.6679609780526
 30
0.0
 40
4.0
  0
HATCH
  5
242B
330
1F
100
AcDbEntity
  8
MOJI
100
AcDbHatch
 10
0.0
 20
0.0
 30
0.0
210
0.0
220
0.0
230
1.0
  2
SOLID
 70
     1
 71
     1
 91
        1
 92
        1
 93
        1
 72
     2
 10
1000.445502097177
 20
656.6679609780526
 40
4.0
 50
0.0
 51
360.0
 73
     1
 97
        1
330
242A
 75
     0
 76
     1
 98
        1
 10
-709.7847833626379
 20
-270.5084127483342
  0
TEXT
  5
242C
330
1F
100
AcDbEntity
  8
MOJI
100
AcDbText
 10
1140.360628072071
 20
1070.28169784594
 30
0.0
 40
20.0
  1
ベーパス
  7
MSゴシック
 11
1140.360628072071
 21
1080.28169784594
 31
0.0
100
AcDbText
 73
     2
  0
TEXT
  5
242D
330
1F
100
AcDbEntity
  8
MOJI
100
AcDbText
 10
996.1859241053227
 20
1176.882563539109
 30
0.0
 40
20.0
  1
ライナーコーピングS250
  7
MSゴシック
 11
996.1859241053227
 21
1186.882563539109
 31
0.0
100
AcDbText
 73
     2
  0
TEXT
  5
2432
330
1F
100
AcDbEntity
  8
MOJI
100
AcDbText
 10
1827.559376280786
 20
1120.755477071516
 30
0.0
 40
20.0
  1
1/50～1/20
  7
MSゴシック
100
AcDbText
  0
LINE
  5
2433
330
1F
100
AcDbEntity
  8
MOJI
100
AcDbLine
 10
1766.841029158069
 20
1089.704356365873
 30
0.0
 11
1895.219861462451
 21
1089.704356365873
 31
0.0
  0
LINE
  5
2434
330
1F
100
AcDbEntity
  8
MOJI
100
AcDbLine
 10
1895.219861462451
 20
1089.704356365873
 30
0.0
 11
1766.841029158069
 21
1118.210452430601
 31
0.0
  0
TEXT
  5
2435
330
1F
100
AcDbEntity
  8
MOJI
100
AcDbText
 10
1788.226467875629
 20
1059.436765353491
 30
0.0
 40
20.0
  1
水勾配
  7
MSゴシック
100
AcDbText
  0
LINE
  5
2436
330
1F
100
AcDbEntity
  8
MOJI
100
AcDbLine
 10
1766.841029158069
 20
1118.210452430601
 30
0.0
 11
1766.841029158069
 21
1089.704356365873
 31
0.0
  0
LINE
  5
24F1
330
1F
100
AcDbEntity
  8
KUTAI
100
AcDbLine
 10
2280.000000000001
 20
645.0
 30
0.0
 11
980.0000000000004
 21
645.0
 31
0.0
  0
LINE
  5
24F2
330
1F
100
AcDbEntity
  8
KUTAI
100
AcDbLine
 10
980.0000000000004
 20
645.0
 30
0.0
 11
980.0000000000004
 21
1025.0
 31
0.0
  0
LINE
  5
24F3
330
1F
100
AcDbEntity
  8
KUTAI
100
AcDbLine
 10
960.0000000000004
 20
1045.0
 30
0.0
 11
780.0000000000005
 21
1045.0
 31
0.0
  0
LINE
  5
24F4
330
1F
100
AcDbEntity
  8
KUTAI
100
AcDbLine
 10
780.0000000000005
 20
1045.0
 30
0.0
 11
780.0000000000003
 21
295.0
 31
0.0
  0
LINE
  5
24F5
330
1F
100
AcDbEntity
  8
KUTAI
100
AcDbLine
 10
2280.000000000001
 20
495.0
 30
0.0
 11
1180.0
 21
495.0
 31
0.0
  0
LINE
  5
24F7
330
1F
100
AcDbEntity
  8
KUTAI
100
AcDbLine
 10
1180.0
 20
495.0
 30
0.0
 11
1180.0
 21
294.9999999999999
 31
0.0
  0
LINE
  5
24F8
330
1F
100
AcDbEntity
  8
KUTAI
100
AcDbLine
 10
960.0000000000004
 20
1045.0
 30
0.0
 11
980.0000000000004
 21
1025.0
 31
0.0
  0
LINE
  5
24FD
330
1F
100
AcDbEntity
  8
dannnetu
100
AcDbLine
 10
2280.000000000001
 20
460.0
 30
0.0
 11
1215.0
 21
460.0
 31
0.0
  0
LINE
  5
24FE
330
1F
100
AcDbEntity
  8
dannnetu
100
AcDbLine
 10
1215.0
 20
460.0
 30
0.0
 11
1215.0
 21
294.9999999999999
 31
0.0
  0
ARC
  5
2554
330
1F
100
AcDbEntity
  8
BOUSUI
100
AcDbCircle
 10
803.9266094088167
 20
1040.36695295592
 30
0.0
 40
14.67704243157896
100
AcDbArc
 50
41.02090472901294
 51
161.5989602190275
  0
LINE
  5
255A
330
1F
100
AcDbEntity
  8
KUTAI
  6
DASHED
100
AcDbLine
 10
800.0000000000005
 20
1045.0
 30
0.0
 11
800.0000000000003
 21
295.0
 31
0.0
  0
LINE
  5
2731
330
1F
100
AcDbEntity
  8
MOJI
100
AcDbLine
 10
1697.804014565155
 20
928.0050299935487
 30
0.0
 11
1647.804014565155
 21
928.0050299935487
 31
0.0
  0
LINE
  5
2732
330
1F
100
AcDbEntity
  8
MOJI
100
AcDbLine
 10
1647.804014565155
 20
928.0050299935487
 30
0.0
 11
1487.057953332534
 21
649.5846848220714
 31
0.0
  0
LINE
  5
2A23
330
1F
100
AcDbEntity
  8
KANAMONO_SCREW
 48
20.0
100
AcDbLine
 10
935.5129460000012
 20
1014.157919000002
 30
0.0
 11
932.0177430623484
 21
1013.97474313815
 31
0.0
  0
LINE
  5
2A24
330
1F
100
AcDbEntity
  8
KANAMONO_SCREW
 48
20.0
100
AcDbLine
 10
924.4870540000006
 20
1014.157919000002
 30
0.0
 11
927.9822578764747
 21
1013.974743201851
 31
0.0
  0
LINE
  5
2A26
330
1F
100
AcDbEntity
  8
KANAMONO_SCREW
100
AcDbLine
 10
934.0000000000005
 20
1045.935000000002
 30
0.0
 11
934.0000000000005
 21
1050.935000000002
 31
0.0
  0
LINE
  5
2A28
330
1F
100
AcDbEntity
  8
KANAMONO_SCREW
100
AcDbLine
 10
932.5080000000003
 20
1061.991000000001
 30
0.0
 11
932.5080000000003
 21
1050.935000000002
 31
0.0
  0
LINE
  5
2A29
330
1F
100
AcDbEntity
  8
KANAMONO_SCREW
100
AcDbLine
 10
931.5080000000003
 20
1061.991000000001
 30
0.0
 11
931.5080000000003
 21
1050.935000000002
 31
0.0
  0
LINE
  5
2A2A
330
1F
100
AcDbEntity
  8
KANAMONO_SCREW
100
AcDbLine
 10
929.0000000000004
 20
1050.935000000002
 30
0.0
 11
930.0000000000004
 21
1045.935000000002
 31
0.0
  0
LINE
  5
2A2B
330
1F
100
AcDbEntity
  8
KANAMONO_SCREW
100
AcDbLine
 10
926.0000000000005
 20
1045.935000000002
 30
0.0
 11
926.0000000000005
 21
1050.935000000002
 31
0.0
  0
LINE
  5
2A2C
330
1F
100
AcDbEntity
  8
KANAMONO_SCREW
100
AcDbLine
 10
930.0000000000004
 20
1045.935000000002
 30
0.0
 11
930.0000000000004
 21
1050.935000000002
 31
0.0
  0
LINE
  5
2A2E
330
1F
100
AcDbEntity
  8
KANAMONO_SCREW
100
AcDbLine
 10
927.5080000000002
 20
1061.991000000001
 30
0.0
 11
927.5080000000002
 21
1050.935000000002
 31
0.0
  0
LINE
  5
2A2F
330
1F
100
AcDbEntity
  8
KANAMONO_SCREW
100
AcDbLine
 10
928.5080000000002
 20
1061.991000000001
 30
0.0
 11
928.5080000000002
 21
1050.935000000002
 31
0.0
  0
LINE
  5
2A32
330
1F
100
AcDbEntity
  8
KANAMONO_SCREW
100
AcDbLine
 10
931.0000000000004
 20
1050.935000000002
 30
0.0
 11
930.0000000000004
 21
1045.935000000002
 31
0.0
  0
LINE
  5
2A34
330
1F
100
AcDbEntity
  8
KANAMONO_SCREW
 48
20.0
100
AcDbLine
 10
845.5129460000012
 20
1014.157919000002
 30
0.0
 11
842.0177430623484
 21
1013.97474313815
 31
0.0
  0
LINE
  5
2A35
330
1F
100
AcDbEntity
  8
KANAMONO_SCREW
 48
20.0
100
AcDbLine
 10
834.4870540000005
 20
1014.157919000002
 30
0.0
 11
837.9822578764747
 21
1013.974743201851
 31
0.0
  0
LINE
  5
2A37
330
1F
100
AcDbEntity
  8
KANAMONO_SCREW
100
AcDbLine
 10
844.0000000000004
 20
1045.935000000002
 30
0.0
 11
844.0000000000004
 21
1050.935000000002
 31
0.0
  0
LINE
  5
2A39
330
1F
100
AcDbEntity
  8
KANAMONO_SCREW
100
AcDbLine
 10
842.5080000000003
 20
1061.991000000001
 30
0.0
 11
842.5080000000003
 21
1050.935000000002
 31
0.0
  0
LINE
  5
2A3A
330
1F
100
AcDbEntity
  8
KANAMONO_SCREW
100
AcDbLine
 10
841.5080000000003
 20
1061.991000000001
 30
0.0
 11
841.5080000000003
 21
1050.935000000002
 31
0.0
  0
LINE
  5
2A3B
330
1F
100
AcDbEntity
  8
KANAMONO_SCREW
100
AcDbLine
 10
839.0000000000004
 20
1050.935000000002
 30
0.0
 11
840.0000000000003
 21
1045.935000000002
 31
0.0
  0
LINE
  5
2A3C
330
1F
100
AcDbEntity
  8
KANAMONO_SCREW
100
AcDbLine
 10
836.0000000000004
 20
1045.935000000002
 30
0.0
 11
836.0000000000004
 21
1050.935000000002
 31
0.0
  0
LINE
  5
2A3D
330
1F
100
AcDbEntity
  8
KANAMONO_SCREW
100
AcDbLine
 10
840.0000000000003
 20
1045.935000000002
 30
0.0
 11
840.0000000000003
 21
1050.935000000002
 31
0.0
  0
LINE
  5
2A3F
330
1F
100
AcDbEntity
  8
KANAMONO_SCREW
100
AcDbLine
 10
837.5080000000002
 20
1061.991000000001
 30
0.0
 11
837.5080000000002
 21
1050.935000000002
 31
0.0
  0
LINE
  5
2A40
330
1F
100
AcDbEntity
  8
KANAMONO_SCREW
100
AcDbLine
 10
838.5080000000002
 20
1061.991000000001
 30
0.0
 11
838.5080000000002
 21
1050.935000000002
 31
0.0
  0
LINE
  5
2A43
330
1F
100
AcDbEntity
  8
KANAMONO_SCREW
100
AcDbLine
 10
841.0000000000005
 20
1050.935000000002
 30
0.0
 11
840.0000000000003
 21
1045.935000000002
 31
0.0
  0
LINE
  5
2A70
330
1F
100
AcDbEntity
  8
KASAGI
  6
DASHED
100
AcDbLine
 10
945.0000000000004
 20
1055.0
 30
0.0
 11
945.0000000000004
 21
1061.000000000001
 31
0.0
  0
LINE
  5
2A71
330
1F
100
AcDbEntity
  8
KASAGI
  6
DASHED
100
AcDbLine
 10
915.0000000000003
 20
1055.0
 30
0.0
 11
915.0000000000003
 21
1061.000000000001
 31
0.0
  0
LINE
  5
2A72
330
1F
100
AcDbEntity
  8
KASAGI
  6
DASHED
100
AcDbLine
 10
825.0000000000005
 20
1055.0
 30
0.0
 11
825.0000000000005
 21
1061.000000000001
 31
0.0
  0
LINE
  5
2A73
330
1F
100
AcDbEntity
  8
KASAGI
  6
DASHED
100
AcDbLine
 10
855.0000000000004
 20
1055.0
 30
0.0
 11
855.0000000000004
 21
1061.000000000001
 31
0.0
  0
LINE
  5
2C1C
330
1F
100
AcDbEntity
  8
0
100
AcDbLine
 10
0.0
 20
1849.999999999998
 30
0.0
 11
2760.000000000001
 21
1849.999999999995
 31
0.0
  0
TEXT
  5
2C1D
330
1F
100
AcDbEntity
  8
WAKU
100
AcDbText
 10
2608.553299492387
 20
1860.0
 30
0.0
 40
30.0
  1
asr-1-2
  7
MSゴシック
 72
     2
 11
2745.000000000001
 21
1860.0
 31
0.0
100
AcDbText
  0
TEXT
  5
2C1F
330
1F
100
AcDbEntity
  8
WAKU
100
AcDbText
 10
15.0
 20
1860.0
 30
0.0
 40
40.0
  1
アスファルト防水／露出仕上げ
  7
MSゴシック
100
AcDbText
  0
TEXT
  5
2C20
330
1F
100
AcDbEntity
  8
WAKU
100
AcDbText
 10
15.0
 20
1800.000000000004
 30
0.0
 40
30.0
  1
一般部／立上り／アルミ笠木
  7
MSゴシック
100
AcDbText
  0
TEXT
  5
2C21
330
1F
100
AcDbEntity
  8
WAKU
100
AcDbText
 10
2589.060913705585
 20
1800.000000000005
 30
0.0
 40
30.0
  1
1/10(A4)
  7
MSゴシック
 72
     2
 11
2745.000000000001
 21
1800.000000000005
 31
0.0
100
AcDbText
  0
TEXT
  5
2E1F
330
1F
100
AcDbEntity
  8
MOJI
100
AcDbText
 10
1155.665146207131
 20
823.8479519362581
 30
0.0
 40
20.0
  1
ギルキャント
  7
MSゴシック
 11
1155.665146207131
 21
833.847951936258
 31
0.0
100
AcDbText
 73
     2
  0
TEXT
  5
2E80
330
1F
100
AcDbEntity
  8
MOJI
100
AcDbText
 10
479.9999970555582
 20
265.0
 30
0.0
 40
20.0
  1
※こちらの図は熱工法とストライプ工法の場合の形状です。その他の工法については出入隅の形状等一部が異なります。
  7
MSゴシック
 11
479.9999970555582
 21
275.0
 31
0.0
100
AcDbText
 73
     2
  0
LINE
  5
3300
330
1F
100
AcDbEntity
  8
0
100
AcDbLine
 10
480.0000000000002
 20
295.0
 30
0.0
 11
2280.000000000001
 21
295.0
 31
0.0
  0
LINE
  5
3301
330
1F
100
AcDbEntity
  8
0
100
AcDbLine
 10
2280.000000000001
 20
295.0
 30
0.0
 11
2280.000000000001
 21
1495.0
 31
0.0
  0
LINE
  5
3302
330
1F
100
AcDbEntity
  8
0
100
AcDbLine
 10
2280.000000000001
 20
1495.0
 30
0.0
 11
480.0000000000002
 21
1495.0
 31
0.0
  0
LINE
  5
3303
330
1F
100
AcDbEntity
  8
0
100
AcDbLine
 10
480.0000000000002
 20
1495.0
 30
0.0
 11
480.0000000000002
 21
295.0
 31
0.0
  0
LINE
  5
3304
330
1F
100
AcDbEntity
  8
MOJI
100
AcDbLine
 10
1404.296484438398
 20
367.399197119769
 30
0.0
 11
1351.20712337592
 21
367.399197119769
 31
0.0
  0
LINE
  5
3305
330
1F
100
AcDbEntity
  8
MOJI
100
AcDbLine
 10
1351.20712337592
 20
367.399197119769
 30
0.0
 11
1288.822603099318
 21
475.452355844654
 31
0.0
  0
LINE
  5
3306
330
1F
100
AcDbEntity
  8
MOJI
100
AcDbLine
 10
1137.360628072071
 20
1080.28169784594
 30
0.0
 11
1087.360628072071
 21
1080.28169784594
 31
0.0
  0
LINE
  5
3307
330
1F
100
AcDbEntity
  8
MOJI
100
AcDbLine
 10
1087.360628072071
 20
1080.28169784594
 30
0.0
 11
985.0657125973359
 21
903.1017068877345
 31
0.0
  0
LINE
  5
3308
330
1F
100
AcDbEntity
  8
MOJI
100
AcDbLine
 10
993.1859241053228
 20
1186.882563539109
 30
0.0
 11
942.4759136777044
 21
1186.882563539109
 31
0.0
  0
LINE
  5
3309
330
1F
100
AcDbEntity
  8
MOJI
100
AcDbLine
 10
942.4759136777044
 20
1186.882563539109
 30
0.0
 11
877.4768745398759
 21
1074.300925309232
 31
0.0
  0
LINE
  5
330A
330
1F
100
AcDbEntity
  8
MOJI
100
AcDbLine
 10
638.3511993961867
 20
598.6575373964744
 30
0.0
 11
695.0728564436157
 21
598.6575373964744
 31
0.0
  0
LINE
  5
330B
330
1F
100
AcDbEntity
  8
MOJI
100
AcDbLine
 10
695.0728564436157
 20
598.6575373964744
 30
0.0
 11
788.5155919777036
 21
436.809971853212
 31
0.0
  0
LINE
  5
330C
330
1F
100
AcDbEntity
  8
MOJI
100
AcDbLine
 10
943.6728195102844
 20
1216.608999068828
 30
0.0
 11
893.6728195102844
 21
1216.608999068828
 31
0.0
  0
LINE
  5
330D
330
1F
100
AcDbEntity
  8
MOJI
100
AcDbLine
 10
893.6728195102844
 20
1216.608999068828
 30
0.0
 11
800.1001761631735
 21
1054.53642659311
 31
0.0
  0
LINE
  5
330E
330
1F
100
AcDbEntity
  8
MOJI
100
AcDbLine
 10
1152.665146207131
 20
833.847951936258
 30
0.0
 11
1102.740417571913
 21
833.847951936258
 31
0.0
  0
LINE
  5
330F
330
1F
100
AcDbEntity
  8
MOJI
100
AcDbLine
 10
1102.740417571913
 20
833.847951936258
 30
0.0
 11
1000.445502097177
 21
656.6679609780526
 31
0.0
  0
LINE
  5
3310
330
1F
100
AcDbEntity
  8
buhin
  6
DASHED2
100
AcDbLine
 10
980.0000000000004
 20
645.0
 30
0.0
 11
988.0000000000004
 21
645.0
 31
0.0
  0
LINE
  5
3311
330
1F
100
AcDbEntity
  8
buhin
  6
DASHED2
100
AcDbLine
 10
988.0000000000004
 20
645.0
 30
0.0
 11
988.0000000000004
 21
1045.0
 31
0.0
  0
LINE
  5
3312
330
1F
100
AcDbEntity
  8
buhin
  6
DASHED2
100
AcDbLine
 10
988.0000000000004
 20
1045.0
 30
0.0
 11
980.0000000000004
 21
1053.0
 31
0.0
  0
LINE
  5
3313
330
1F
100
AcDbEntity
  8
buhin
  6
DASHED2
100
AcDbLine
 10
980.0000000000004
 20
1053.0
 30
0.0
 11
980.0000000000004
 21
645.0
 31
0.0
  0
LINE
  5
3314
330
1F
100
AcDbEntity
  8
dannnetu
100
AcDbLine
 10
988.0000000000004
 20
694.4974746830582
 30
0.0
 11
1037.497474683058
 21
645.0
 31
0.0
  0
LINE
  5
3315
330
1F
100
AcDbEntity
  8
dannnetu
100
AcDbLine
 10
1037.497474683058
 20
645.0
 30
0.0
 11
1002.142135623731
 21
645.0
 31
0.0
  0
LINE
  5
3316
330
1F
100
AcDbEntity
  8
dannnetu
100
AcDbLine
 10
1002.142135623731
 20
645.0
 30
0.0
 11
988.0000000000004
 21
659.1421356237311
 31
0.0
  0
LINE
  5
3317
330
1F
100
AcDbEntity
  8
dannnetu
100
AcDbLine
 10
988.0000000000004
 20
659.1421356237311
 30
0.0
 11
988.0000000000004
 21
694.4974746830582
 31
0.0
  0
LINE
  5
3318
330
1F
100
AcDbEntity
  8
HATCH
  6
Continuous
100
AcDbLine
 10
988.0000000000007
 20
685.4738530943407
 30
0.0
 11
992.5118107943598
 21
689.9856638886997
 31
0.0
  0
LINE
  5
3319
330
1F
100
AcDbEntity
  8
HATCH
  6
Continuous
100
AcDbLine
 10
988.0000000000006
 20
672.0034689127366
 30
0.0
 11
999.2470028851613
 21
683.2504717978975
 31
0.0
  0
LINE
  5
331A
330
1F
100
AcDbEntity
  8
HATCH
  6
Continuous
100
AcDbLine
 10
988.3045254462997
 20
658.8376101774322
 30
0.0
 11
1005.982194975963
 21
676.5152797070956
 31
0.0
  0
LINE
  5
331B
330
1F
100
AcDbEntity
  8
HATCH
  6
Continuous
100
AcDbLine
 10
995.0397175371014
 20
652.1024180866301
 30
0.0
 11
1012.717387066765
 21
669.7800876162938
 31
0.0
  0
LINE
  5
331C
330
1F
100
AcDbEntity
  8
HATCH
  6
Continuous
100
AcDbLine
 10
1001.774909627903
 20
645.3672259958284
 30
0.0
 11
1019.452579157567
 21
663.0448955254921
 31
0.0
  0
LINE
  5
331D
330
1F
100
AcDbEntity
  8
HATCH
  6
Continuous
100
AcDbLine
 10
1014.878067813679
 20
645.0000000000002
 30
0.0
 11
1026.187771248369
 21
656.3097034346902
 31
0.0
  0
LINE
  5
331E
330
1F
100
AcDbEntity
  8
HATCH
  6
Continuous
100
AcDbLine
 10
1028.348451995283
 20
645.0000000000003
 30
0.0
 11
1032.92296333917
 21
649.5745113438881
 31
0.0
  0
LINE
  5
331F
330
1F
100
AcDbEntity
  8
HATCH
  6
Continuous
100
AcDbLine
 10
1006.501864516504
 20
644.9999999999999
 30
0.0
 11
988.0000000000004
 21
663.5018645165033
 31
0.0
  0
LINE
  5
3320
330
1F
100
AcDbEntity
  8
HATCH
  6
Continuous
100
AcDbLine
 10
1019.972248698107
 20
644.9999999999999
 30
0.0
 11
988.0000000000004
 21
676.972248698107
 31
0.0
  0
LINE
  5
3321
330
1F
100
AcDbEntity
  8
HATCH
  6
Continuous
100
AcDbLine
 10
1033.442632879711
 20
645.0
 30
0.0
 11
988.0000000000004
 21
690.4426328797107
 31
0.0
  0
LINE
  5
3322
330
1F
100
AcDbEntity
  8
BOUSUI
100
AcDbLine
 10
2280.000000000001
 20
655.0
 30
0.0
 11
1041.63961030679
 21
655.0
 31
0.0
  0
LINE
  5
3323
330
1F
100
AcDbEntity
  8
BOUSUI
100
AcDbLine
 10
1041.63961030679
 20
655.0
 30
0.0
 11
990.0000000000007
 21
706.6396103067892
 31
0.0
  0
LINE
  5
3324
330
1F
100
AcDbEntity
  8
BOUSUI
100
AcDbLine
 10
990.0000000000007
 20
706.6396103067892
 30
0.0
 11
990.0000000000003
 21
1029.142135623731
 31
0.0
  0
LINE
  5
3325
330
1F
100
AcDbEntity
  8
BOUSUI
100
AcDbLine
 10
990.0000000000003
 20
1029.142135623731
 30
0.0
 11
964.1421356237314
 21
1055.0
 31
0.0
  0
LINE
  5
3326
330
1F
100
AcDbEntity
  8
BOUSUI
100
AcDbLine
 10
964.1421356237314
 20
1055.0
 30
0.0
 11
828.6602540378449
 21
1055.0
 31
0.0
  0
LINE
  5
3327
330
1F
100
AcDbEntity
  8
BOUSUI
100
AcDbLine
 10
800.0000000000005
 20
1045.0
 30
0.0
 11
800.0000000000005
 21
1050.0
 31
0.0
  0
LINE
  5
3328
330
1F
100
AcDbEntity
  8
BOUSUI
100
AcDbLine
 10
800.0000000000005
 20
1050.0
 30
0.0
 11
820.0000000000002
 21
1050.0
 31
0.0
  0
LINE
  5
3329
330
1F
100
AcDbEntity
  8
BOUSUI
100
AcDbLine
 10
820.0000000000002
 20
1050.0
 30
0.0
 11
828.6602540378449
 21
1055.0
 31
0.0
  0
LINE
  5
332A
330
1F
100
AcDbEntity
  8
HATCH
  6
Continuous
100
AcDbLine
 10
790.1794969314075
 20
1045.508205047758
 30
0.0
 11
798.7853573169789
 21
1054.11406543333
 31
0.0
  0
LINE
  5
332B
330
1F
100
AcDbEntity
  8
HATCH
  6
Continuous
100
AcDbLine
 10
794.1614199441838
 20
1045.0
 30
0.0
 11
804.2028161393007
 21
1055.041396195117
 31
0.0
  0
LINE
  5
332C
330
1F
100
AcDbEntity
  8
HATCH
  6
Continuous
100
AcDbLine
 10
798.6515480047184
 20
1045.0
 30
0.0
 11
800.0000000000005
 21
1046.348451995282
 31
0.0
  0
LINE
  5
332D
330
1F
100
AcDbEntity
  8
HATCH
  6
Continuous
100
AcDbLine
 10
803.6515480047185
 20
1050.0
 30
0.0
 11
808.0920471669582
 21
1054.44049916224
 31
0.0
  0
LINE
  5
332E
330
1F
100
AcDbEntity
  8
HATCH
  6
Continuous
100
AcDbLine
 10
808.1416760652532
 20
1050.0
 30
0.0
 11
811.236060181481
 21
1053.094384116228
 31
0.0
  0
LINE
  5
332F
330
1F
100
AcDbEntity
  8
HATCH
  6
Continuous
100
AcDbLine
 10
812.6318041257876
 20
1050.0
 30
0.0
 11
813.8305451166393
 21
1051.198740990852
 31
0.0
  0
LINE
  5
3330
330
1F
100
AcDbEntity
  8
HATCH
  6
Continuous
100
AcDbLine
 10
791.6760905141451
 20
1044.999999999999
 30
0.0
 11
790.463790517203
 21
1046.212299996942
 31
0.0
  0
LINE
  5
3331
330
1F
100
AcDbEntity
  8
HATCH
  6
Continuous
100
AcDbLine
 10
796.1662185746797
 20
1045.0
 30
0.0
 11
792.1031754564165
 21
1049.063043118263
 31
0.0
  0
LINE
  5
3332
330
1F
100
AcDbEntity
  8
HATCH
  6
Continuous
100
AcDbLine
 10
800.0000000000005
 20
1045.656346635214
 30
0.0
 11
794.2521581681047
 21
1051.404188467109
 31
0.0
  0
LINE
  5
3333
330
1F
100
AcDbEntity
  8
HATCH
  6
Continuous
100
AcDbLine
 10
800.1464746957488
 20
1050.0
 30
0.0
 11
796.8959755586324
 21
1053.250499137116
 31
0.0
  0
LINE
  5
3334
330
1F
100
AcDbEntity
  8
HATCH
  6
Continuous
100
AcDbLine
 10
804.6366027562832
 20
1050.0
 30
0.0
 11
800.1001761631735
 21
1054.53642659311
 31
0.0
  0
LINE
  5
3335
330
1F
100
AcDbEntity
  8
HATCH
  6
Continuous
100
AcDbLine
 10
809.1267308168179
 20
1050.0
 30
0.0
 11
804.08357479588
 21
1055.043156020938
 31
0.0
  0
LINE
  5
3336
330
1F
100
AcDbEntity
  8
HATCH
  6
Continuous
100
AcDbLine
 10
813.6168588773525
 20
1050.0
 30
0.0
 11
809.7987537080648
 21
1053.818105169288
 31
0.0
  0
LINE
  5
3337
330
1F
100
AcDbEntity
  8
sunpo
100
AcDbLine
 10
760.0000000000004
 20
883.7903539495172
 30
0.0
 11
760.0000000000004
 21
857.4024026202142
 31
0.0
  0
LINE
  5
3338
330
1F
100
AcDbEntity
  8
sunpo
100
AcDbLine
 10
780.0000000000005
 20
883.7903539495172
 30
0.0
 11
780.0000000000005
 21
857.4024026202142
 31
0.0
  0
LINE
  5
3339
330
1F
100
AcDbEntity
  8
sunpo
100
AcDbLine
 10
768.0000000000005
 20
857.4024026202142
 30
0.0
 11
772.0000000000005
 21
857.4024026202142
 31
0.0
  0
MTEXT
  5
333A
330
1F
100
AcDbEntity
  8
sunpo
100
AcDbMText
 10
740.1877749463915
 20
873.2818169543216
 30
0.0
 40
20.0
 41
0.0
 71
     5
 72
     1
  1
\A1;20
  7
MSゴシック
 73
     1
 44
1.0
1001
ACAD
1000
MTEXTBEGIN
1070
    73
1070
     1
1070
    44
1040
1.0
1070
    74
1070
     0
1000
MTEXTEND
  0
INSERT
  5
333B
330
1F
100
AcDbEntity
  8
sunpo
100
AcDbBlockReference
  2
_DOT
 10
760.0000000000004
 20
857.4024026202142
 30
0.0
 41
8.0
 42
8.0
 43
8.0
 50
180.0
  0
INSERT
  5
333C
330
1F
100
AcDbEntity
  8
sunpo
100
AcDbBlockReference
  2
_DOT
 10
780.0000000000005
 20
857.4024026202142
 30
0.0
 41
8.0
 42
8.0
 43
8.0
  0
LINE
  5
333D
330
1F
100
AcDbEntity
  8
sunpo
100
AcDbLine
 10
780.0000000000005
 20
883.7903539495172
 30
0.0
 11
780.0000000000005
 21
857.4024026202142
 31
0.0
  0
LINE
  5
333E
330
1F
100
AcDbEntity
  8
sunpo
100
AcDbLine
 10
800.0000000000005
 20
879.6809383784815
 30
0.0
 11
800.0000000000005
 21
857.4024026202142
 31
0.0
  0
LINE
  5
333F
330
1F
100
AcDbEntity
  8
sunpo
100
AcDbLine
 10
788.0000000000004
 20
857.4024026202142
 30
0.0
 11
792.0000000000004
 21
857.4024026202142
 31
0.0
  0
MTEXT
  5
3340
330
1F
100
AcDbEntity
  8
sunpo
100
AcDbMText
 10
822.0880406737656
 20
873.2818169543216
 30
0.0
 40
20.0
 41
0.0
 71
     5
 72
     1
  1
\A1;20
  7
MSゴシック
 73
     1
 44
1.0
1001
ACAD
1000
MTEXTBEGIN
1070
    73
1070
     1
1070
    44
1040
1.0
1070
    74
1070
     0
1000
MTEXTEND
  0
INSERT
  5
3341
330
1F
100
AcDbEntity
  8
sunpo
100
AcDbBlockReference
  2
_DOT
 10
780.0000000000005
 20
857.4024026202142
 30
0.0
 41
8.0
 42
8.0
 43
8.0
 50
180.0
  0
INSERT
  5
3342
330
1F
100
AcDbEntity
  8
sunpo
100
AcDbBlockReference
  2
_DOT
 10
800.0000000000005
 20
857.4024026202142
 30
0.0
 41
8.0
 42
8.0
 43
8.0
  0
LINE
  5
3343
330
1F
100
AcDbEntity
  8
sunpo
100
AcDbLine
 10
800.0000000000005
 20
879.6809383784815
 30
0.0
 11
800.0000000000005
 21
857.4024026202142
 31
0.0
  0
LINE
  5
3344
330
1F
100
AcDbEntity
  8
sunpo
100
AcDbLine
 10
980.0000000000004
 20
879.6809383784815
 30
0.0
 11
980.0000000000004
 21
857.4024026202142
 31
0.0
  0
LINE
  5
3345
330
1F
100
AcDbEntity
  8
sunpo
100
AcDbLine
 10
808.0000000000005
 20
857.4024026202142
 30
0.0
 11
972.0000000000004
 21
857.4024026202142
 31
0.0
  0
MTEXT
  5
3346
330
1F
100
AcDbEntity
  8
sunpo
100
AcDbMText
 10
889.4812711233049
 20
873.2818169543216
 30
0.0
 40
20.0
 41
0.0
 71
     5
 72
     1
  1
\A1;≧180
  7
MSゴシック
 73
     1
 44
1.0
1001
ACAD
1000
MTEXTBEGIN
1070
    73
1070
     1
1070
    44
1040
1.0
1070
    74
1070
     0
1000
MTEXTEND
  0
INSERT
  5
3347
330
1F
100
AcDbEntity
  8
sunpo
100
AcDbBlockReference
  2
_DOT
 10
800.0000000000005
 20
857.4024026202142
 30
0.0
 41
8.0
 42
8.0
 43
8.0
 50
180.0
  0
INSERT
  5
3348
330
1F
100
AcDbEntity
  8
sunpo
100
AcDbBlockReference
  2
_DOT
 10
980.0000000000004
 20
857.4024026202142
 30
0.0
 41
8.0
 42
8.0
 43
8.0
  0
LINE
  5
3349
330
1F
100
AcDbEntity
  8
sunpo
100
AcDbLine
 10
980.0000000000004
 20
879.6809383784815
 30
0.0
 11
980.0000000000004
 21
857.4024026202142
 31
0.0
  0
LINE
  5
334A
330
1F
100
AcDbEntity
  8
sunpo
100
AcDbLine
 10
990.0000000000003
 20
879.6809383784815
 30
0.0
 11
990.0000000000003
 21
857.4024026202142
 31
0.0
  0
LINE
  5
334B
330
1F
100
AcDbEntity
  8
sunpo
100
AcDbLine
 10
972.0000000000004
 20
857.4024026202142
 30
0.0
 11
964.0000000000004
 21
857.4024026202142
 31
0.0
  0
LINE
  5
334C
330
1F
100
AcDbEntity
  8
sunpo
100
AcDbLine
 10
998.0000000000003
 20
857.4024026202142
 30
0.0
 11
1006.0
 21
857.4024026202142
 31
0.0
  0
MTEXT
  5
334D
330
1F
100
AcDbEntity
  8
sunpo
100
AcDbMText
 10
958.5813232888881
 20
873.2818169543216
 30
0.0
 40
20.0
 41
0.0
 71
     5
 72
     1
  1
\A1;10
  7
MSゴシック
 73
     1
 44
1.0
1001
ACAD
1000
MTEXTBEGIN
1070
    73
1070
     1
1070
    44
1040
1.0
1070
    74
1070
     0
1000
MTEXTEND
  0
LINE
  5
334E
330
1F
100
AcDbEntity
  8
sunpo
100
AcDbLine
 10
980.0000000000004
 20
857.4024026202142
 30
0.0
 11
990.0000000000003
 21
857.4024026202142
 31
0.0
  0
INSERT
  5
334F
330
1F
100
AcDbEntity
  8
sunpo
100
AcDbBlockReference
  2
_DOT
 10
980.0000000000004
 20
857.4024026202142
 30
0.0
 41
8.0
 42
8.0
 43
8.0
  0
INSERT
  5
3350
330
1F
100
AcDbEntity
  8
sunpo
100
AcDbBlockReference
  2
_DOT
 10
990.0000000000003
 20
857.4024026202142
 30
0.0
 41
8.0
 42
8.0
 43
8.0
 50
180.0
  0
LINE
  5
3351
330
1F
100
AcDbEntity
  8
sunpo
100
AcDbLine
 10
990.0000000000003
 20
879.6809383784815
 30
0.0
 11
990.0000000000003
 21
857.4024026202142
 31
0.0
  0
LINE
  5
3352
330
1F
100
AcDbEntity
  8
sunpo
100
AcDbLine
 10
1010.0
 20
888.3999760267242
 30
0.0
 11
1010.0
 21
857.4024026202142
 31
0.0
  0
LINE
  5
3353
330
1F
100
AcDbEntity
  8
sunpo
100
AcDbLine
 10
998.0000000000003
 20
857.4024026202142
 30
0.0
 11
1002.0
 21
857.4024026202142
 31
0.0
  0
MTEXT
  5
3354
330
1F
100
AcDbEntity
  8
sunpo
100
AcDbMText
 10
1033.82561506685
 20
873.2818169543216
 30
0.0
 40
20.0
 41
0.0
 71
     5
 72
     1
  1
\A1;20
  7
MSゴシック
 73
     1
 44
1.0
1001
ACAD
1000
MTEXTBEGIN
1070
    73
1070
     1
1070
    44
1040
1.0
1070
    74
1070
     0
1000
MTEXTEND
  0
INSERT
  5
3355
330
1F
100
AcDbEntity
  8
sunpo
100
AcDbBlockReference
  2
_DOT
 10
990.0000000000003
 20
857.4024026202142
 30
0.0
 41
8.0
 42
8.0
 43
8.0
 50
180.0
  0
INSERT
  5
3356
330
1F
100
AcDbEntity
  8
sunpo
100
AcDbBlockReference
  2
_DOT
 10
1010.0
 20
857.4024026202142
 30
0.0
 41
8.0
 42
8.0
 43
8.0
  0
LINE
  5
3357
330
1F
100
AcDbEntity
  8
sunpo
 48
0.5
100
AcDbLine
 10
775.0000000000008
 20
655.0000000000003
 30
0.0
 11
666.6455405222069
 21
655.0000000000002
 31
0.0
  0
LINE
  5
3358
330
1F
100
AcDbEntity
  8
sunpo
 48
0.5
100
AcDbLine
 10
775.0000000000008
 20
1045.0
 30
0.0
 11
666.6455405222068
 21
1045.0
 31
0.0
  0
LINE
  5
3359
330
1F
100
AcDbEntity
  8
sunpo
 48
0.5
100
AcDbLine
 10
666.6455405222069
 20
663.0000000000002
 30
0.0
 11
666.6455405222068
 21
1037.0
 31
0.0
  0
INSERT
  5
335A
330
1F
100
AcDbEntity
  8
sunpo
 48
0.5
100
AcDbBlockReference
  2
_DOT
 10
666.6455405222069
 20
655.0000000000002
 30
0.0
 41
8.0
 42
8.0
 43
8.0
 50
270.0
  0
INSERT
  5
335B
330
1F
100
AcDbEntity
  8
sunpo
 48
0.5
100
AcDbBlockReference
  2
_DOT
 10
666.6455405222068
 20
1045.0
 30
0.0
 41
8.0
 42
8.0
 43
8.0
 50
90.0
  0
MTEXT
  5
335C
330
1F
100
AcDbEntity
  8
sunpo
 48
0.5
100
AcDbMText
 10
654.1734593039328
 20
850.0
 30
0.0
 40
20.0
 41
0.0
 71
     5
 72
     1
  1
\A1;150以上（水上）
  7
MSゴシック
 11
0.0000000000000001
 21
1.0
 31
0.0
 73
     1
 44
1.0
1001
ACAD
1000
MTEXTBEGIN
1070
    73
1070
     1
1070
    44
1040
1.0
1070
    74
1070
     0
1000
MTEXTEND
  0
LINE
  5
335D
330
1F
100
AcDbEntity
  8
HATCH
  6
Continuous
100
AcDbLine
 10
1180.0
 20
483.421559283021
 30
0.0
 11
1191.57844071698
 21
495.0000000000008
 31
0.0
  0
LINE
  5
335E
330
1F
100
AcDbEntity
  8
HATCH
  6
Continuous
100
AcDbLine
 10
1180.0
 20
469.9511751014172
 30
0.0
 11
1205.048824898584
 21
495.0000000000007
 31
0.0
  0
LINE
  5
335F
330
1F
100
AcDbEntity
  8
HATCH
  6
Continuous
100
AcDbLine
 10
1180.0
 20
456.4807909198136
 30
0.0
 11
1218.519209080187
 21
495.0000000000009
 31
0.0
  0
LINE
  5
3360
330
1F
100
AcDbEntity
  8
HATCH
  6
Continuous
100
AcDbLine
 10
1180.0
 20
443.0104067382099
 30
0.0
 11
1231.989593261791
 21
495.0000000000009
 31
0.0
  0
LINE
  5
3361
330
1F
100
AcDbEntity
  8
HATCH
  6
Continuous
100
AcDbLine
 10
1180.0
 20
429.5400225566062
 30
0.0
 11
1245.459977443395
 21
495.0000000000008
 31
0.0
  0
LINE
  5
3362
330
1F
100
AcDbEntity
  8
HATCH
  6
Continuous
100
AcDbLine
 10
1180.0
 20
416.0696383750023
 30
0.0
 11
1215.0
 21
451.0696383750025
 31
0.0
  0
LINE
  5
3363
330
1F
100
AcDbEntity
  8
HATCH
  6
Continuous
100
AcDbLine
 10
1223.930361624998
 20
460.0000000000001
 30
0.0
 11
1258.930361624999
 21
495.0000000000007
 31
0.0
  0
LINE
  5
3364
330
1F
100
AcDbEntity
  8
HATCH
  6
Continuous
100
AcDbLine
 10
1180.0
 20
402.5992541933987
 30
0.0
 11
1215.0
 21
437.5992541933987
 31
0.0
  0
LINE
  5
3365
330
1F
100
AcDbEntity
  8
HATCH
  6
Continuous
100
AcDbLine
 10
1237.400745806602
 20
460.0000000000001
 30
0.0
 11
1272.400745806602
 21
495.0000000000007
 31
0.0
  0
LINE
  5
3366
330
1F
100
AcDbEntity
  8
HATCH
  6
Continuous
100
AcDbLine
 10
1180.0
 20
389.128870011795
 30
0.0
 11
1215.0
 21
424.1288700117949
 31
0.0
  0
LINE
  5
3367
330
1F
100
AcDbEntity
  8
HATCH
  6
Continuous
100
AcDbLine
 10
1250.871129988206
 20
460.0000000000001
 30
0.0
 11
1285.871129988206
 21
495.0000000000006
 31
0.0
  0
LINE
  5
3368
330
1F
100
AcDbEntity
  8
HATCH
  6
Continuous
100
AcDbLine
 10
1180.0
 20
375.6584858301914
 30
0.0
 11
1215.0
 21
410.6584858301913
 31
0.0
  0
LINE
  5
3369
330
1F
100
AcDbEntity
  8
HATCH
  6
Continuous
100
AcDbLine
 10
1264.341514169809
 20
460.0000000000001
 30
0.0
 11
1299.34151416981
 21
495.0000000000008
 31
0.0
  0
LINE
  5
336A
330
1F
100
AcDbEntity
  8
HATCH
  6
Continuous
100
AcDbLine
 10
1180.0
 20
362.1881016485876
 30
0.0
 11
1215.0
 21
397.1881016485875
 31
0.0
  0
LINE
  5
336B
330
1F
100
AcDbEntity
  8
HATCH
  6
Continuous
100
AcDbLine
 10
1277.811898351413
 20
460.0000000000002
 30
0.0
 11
1312.811898351413
 21
495.0000000000005
 31
0.0
  0
LINE
  5
336C
330
1F
100
AcDbEntity
  8
HATCH
  6
Continuous
100
AcDbLine
 10
1180.0
 20
348.7177174669837
 30
0.0
 11
1215.0
 21
383.7177174669839
 31
0.0
  0
LINE
  5
336D
330
1F
100
AcDbEntity
  8
HATCH
  6
Continuous
100
AcDbLine
 10
1291.282282533017
 20
460.0000000000001
 30
0.0
 11
1326.282282533017
 21
495.0000000000007
 31
0.0
  0
LINE
  5
336E
330
1F
100
AcDbEntity
  8
HATCH
  6
Continuous
100
AcDbLine
 10
1180.0
 20
335.2473332853801
 30
0.0
 11
1215.0
 21
370.2473332853801
 31
0.0
  0
LINE
  5
336F
330
1F
100
AcDbEntity
  8
HATCH
  6
Continuous
100
AcDbLine
 10
1304.75266671462
 20
460.0000000000001
 30
0.0
 11
1339.752666714621
 21
495.0000000000007
 31
0.0
  0
LINE
  5
3370
330
1F
100
AcDbEntity
  8
HATCH
  6
Continuous
100
AcDbLine
 10
1180.0
 20
321.7769491037763
 30
0.0
 11
1215.0
 21
356.7769491037763
 31
0.0
  0
LINE
  5
3371
330
1F
100
AcDbEntity
  8
HATCH
  6
Continuous
100
AcDbLine
 10
1318.223050896224
 20
460.0000000000001
 30
0.0
 11
1353.223050896225
 21
495.0000000000006
 31
0.0
  0
LINE
  5
3372
330
1F
100
AcDbEntity
  8
HATCH
  6
Continuous
100
AcDbLine
 10
1180.0
 20
308.3065649221727
 30
0.0
 11
1215.0
 21
343.3065649221727
 31
0.0
  0
LINE
  5
3373
330
1F
100
AcDbEntity
  8
HATCH
  6
Continuous
100
AcDbLine
 10
1331.693435077828
 20
460.0000000000001
 30
0.0
 11
1366.693435077828
 21
495.0000000000005
 31
0.0
  0
LINE
  5
3374
330
1F
100
AcDbEntity
  8
HATCH
  6
Continuous
100
AcDbLine
 10
1180.163819259432
 20
295.0000000000001
 30
0.0
 11
1215.0
 21
329.8361807405688
 31
0.0
  0
LINE
  5
3375
330
1F
100
AcDbEntity
  8
HATCH
  6
Continuous
100
AcDbLine
 10
1345.163819259432
 20
460.0000000000002
 30
0.0
 11
1380.163819259432
 21
495.0000000000005
 31
0.0
  0
LINE
  5
3376
330
1F
100
AcDbEntity
  8
HATCH
  6
Continuous
100
AcDbLine
 10
1193.634203441035
 20
295.0000000000001
 30
0.0
 11
1215.0
 21
316.3657965589653
 31
0.0
  0
LINE
  5
3377
330
1F
100
AcDbEntity
  8
HATCH
  6
Continuous
100
AcDbLine
 10
1358.634203441035
 20
460.0000000000001
 30
0.0
 11
1393.634203441036
 21
495.0000000000007
 31
0.0
  0
LINE
  5
3378
330
1F
100
AcDbEntity
  8
HATCH
  6
Continuous
100
AcDbLine
 10
1207.104587622639
 20
295.0000000000001
 30
0.0
 11
1215.0
 21
302.8954123773615
 31
0.0
  0
LINE
  5
3379
330
1F
100
AcDbEntity
  8
HATCH
  6
Continuous
100
AcDbLine
 10
1372.104587622639
 20
460.0000000000002
 30
0.0
 11
1407.104587622639
 21
495.0000000000004
 31
0.0
  0
LINE
  5
337A
330
1F
100
AcDbEntity
  8
HATCH
  6
Continuous
100
AcDbLine
 10
1385.574971804243
 20
460.0000000000001
 30
0.0
 11
1420.574971804243
 21
495.0000000000004
 31
0.0
  0
LINE
  5
337B
330
1F
100
AcDbEntity
  8
HATCH
  6
Continuous
100
AcDbLine
 10
1399.045355985846
 20
460.0000000000001
 30
0.0
 11
1434.045355985847
 21
495.0000000000004
 31
0.0
  0
LINE
  5
337C
330
1F
100
AcDbEntity
  8
HATCH
  6
Continuous
100
AcDbLine
 10
1412.51574016745
 20
460.0
 30
0.0
 11
1447.515740167451
 21
495.0000000000005
 31
0.0
  0
LINE
  5
337D
330
1F
100
AcDbEntity
  8
HATCH
  6
Continuous
100
AcDbLine
 10
1425.986124349054
 20
460.0000000000001
 30
0.0
 11
1460.986124349054
 21
495.0000000000004
 31
0.0
  0
LINE
  5
337E
330
1F
100
AcDbEntity
  8
HATCH
  6
Continuous
100
AcDbLine
 10
1439.456508530657
 20
460.0
 30
0.0
 11
1474.456508530658
 21
495.0000000000004
 31
0.0
  0
LINE
  5
337F
330
1F
100
AcDbEntity
  8
HATCH
  6
Continuous
100
AcDbLine
 10
1452.926892712262
 20
460.0000000000001
 30
0.0
 11
1487.926892712262
 21
495.0000000000005
 31
0.0
  0
LINE
  5
3380
330
1F
100
AcDbEntity
  8
HATCH
  6
Continuous
100
AcDbLine
 10
1466.397276893865
 20
460.0000000000002
 30
0.0
 11
1501.397276893866
 21
495.0000000000004
 31
0.0
  0
LINE
  5
3381
330
1F
100
AcDbEntity
  8
HATCH
  6
Continuous
100
AcDbLine
 10
1479.867661075469
 20
460.0000000000001
 30
0.0
 11
1514.867661075469
 21
495.0000000000005
 31
0.0
  0
LINE
  5
3382
330
1F
100
AcDbEntity
  8
HATCH
  6
Continuous
100
AcDbLine
 10
1493.338045257073
 20
460.0
 30
0.0
 11
1528.338045257073
 21
495.0000000000004
 31
0.0
  0
LINE
  5
3383
330
1F
100
AcDbEntity
  8
HATCH
  6
Continuous
100
AcDbLine
 10
1506.808429438676
 20
460.0
 30
0.0
 11
1541.808429438676
 21
495.0000000000001
 31
0.0
  0
LINE
  5
3384
330
1F
100
AcDbEntity
  8
HATCH
  6
Continuous
100
AcDbLine
 10
1520.27881362028
 20
460.0000000000001
 30
0.0
 11
1555.27881362028
 21
495.0000000000003
 31
0.0
  0
LINE
  5
3385
330
1F
100
AcDbEntity
  8
HATCH
  6
Continuous
100
AcDbLine
 10
1533.749197801884
 20
460.0000000000002
 30
0.0
 11
1568.749197801884
 21
495.0000000000004
 31
0.0
  0
LINE
  5
3386
330
1F
100
AcDbEntity
  8
HATCH
  6
Continuous
100
AcDbLine
 10
1547.219581983488
 20
460.0000000000001
 30
0.0
 11
1582.219581983488
 21
495.0000000000003
 31
0.0
  0
LINE
  5
3387
330
1F
100
AcDbEntity
  8
HATCH
  6
Continuous
100
AcDbLine
 10
1560.689966165091
 20
460.0
 30
0.0
 11
1595.689966165092
 21
495.0000000000001
 31
0.0
  0
LINE
  5
3388
330
1F
100
AcDbEntity
  8
HATCH
  6
Continuous
100
AcDbLine
 10
1574.160350346695
 20
460.0
 30
0.0
 11
1609.160350346695
 21
495.0000000000001
 31
0.0
  0
LINE
  5
3389
330
1F
100
AcDbEntity
  8
HATCH
  6
Continuous
100
AcDbLine
 10
1587.630734528299
 20
460.0000000000001
 30
0.0
 11
1622.630734528299
 21
495.0000000000001
 31
0.0
  0
LINE
  5
338A
330
1F
100
AcDbEntity
  8
HATCH
  6
Continuous
100
AcDbLine
 10
1601.101118709902
 20
460.0000000000002
 30
0.0
 11
1636.101118709902
 21
495.0
 31
0.0
  0
LINE
  5
338B
330
1F
100
AcDbEntity
  8
HATCH
  6
Continuous
100
AcDbLine
 10
1614.571502891507
 20
460.0000000000001
 30
0.0
 11
1649.571502891506
 21
495.0000000000001
 31
0.0
  0
LINE
  5
338C
330
1F
100
AcDbEntity
  8
HATCH
  6
Continuous
100
AcDbLine
 10
1628.04188707311
 20
460.0000000000001
 30
0.0
 11
1663.04188707311
 21
495.0000000000003
 31
0.0
  0
LINE
  5
338D
330
1F
100
AcDbEntity
  8
HATCH
  6
Continuous
100
AcDbLine
 10
1641.512271254714
 20
460.0
 30
0.0
 11
1676.512271254714
 21
495.0000000000001
 31
0.0
  0
LINE
  5
338E
330
1F
100
AcDbEntity
  8
HATCH
  6
Continuous
100
AcDbLine
 10
1654.982655436317
 20
460.0000000000001
 30
0.0
 11
1689.982655436318
 21
495.0000000000001
 31
0.0
  0
LINE
  5
338F
330
1F
100
AcDbEntity
  8
HATCH
  6
Continuous
100
AcDbLine
 10
1668.453039617921
 20
460.0000000000002
 30
0.0
 11
1703.453039617921
 21
495.0
 31
0.0
  0
LINE
  5
3390
330
1F
100
AcDbEntity
  8
HATCH
  6
Continuous
100
AcDbLine
 10
1681.923423799525
 20
460.0000000000001
 30
0.0
 11
1716.923423799524
 21
494.9999999999999
 31
0.0
  0
LINE
  5
3391
330
1F
100
AcDbEntity
  8
HATCH
  6
Continuous
100
AcDbLine
 10
1695.393807981129
 20
460.0000000000001
 30
0.0
 11
1730.393807981129
 21
495.0000000000001
 31
0.0
  0
LINE
  5
3392
330
1F
100
AcDbEntity
  8
HATCH
  6
Continuous
100
AcDbLine
 10
1708.864192162732
 20
460.0
 30
0.0
 11
1743.864192162732
 21
495.0000000000001
 31
0.0
  0
LINE
  5
3393
330
1F
100
AcDbEntity
  8
HATCH
  6
Continuous
100
AcDbLine
 10
1722.334576344336
 20
459.9999999999998
 30
0.0
 11
1757.334576344336
 21
495.0000000000001
 31
0.0
  0
LINE
  5
3394
330
1F
100
AcDbEntity
  8
HATCH
  6
Continuous
100
AcDbLine
 10
1735.80496052594
 20
460.0000000000002
 30
0.0
 11
1770.804960525939
 21
495.0
 31
0.0
  0
LINE
  5
3395
330
1F
100
AcDbEntity
  8
HATCH
  6
Continuous
100
AcDbLine
 10
1749.275344707544
 20
460.0000000000001
 30
0.0
 11
1784.275344707544
 21
495.0000000000001
 31
0.0
  0
LINE
  5
3396
330
1F
100
AcDbEntity
  8
HATCH
  6
Continuous
100
AcDbLine
 10
1762.745728889147
 20
460.0000000000001
 30
0.0
 11
1797.745728889147
 21
495.0000000000003
 31
0.0
  0
LINE
  5
3397
330
1F
100
AcDbEntity
  8
HATCH
  6
Continuous
100
AcDbLine
 10
1776.21611307075
 20
460.0
 30
0.0
 11
1811.216113070751
 21
495.0000000000001
 31
0.0
  0
LINE
  5
3398
330
1F
100
AcDbEntity
  8
HATCH
  6
Continuous
100
AcDbLine
 10
1789.686497252355
 20
460.0000000000001
 30
0.0
 11
1824.686497252355
 21
495.0000000000001
 31
0.0
  0
LINE
  5
3399
330
1F
100
AcDbEntity
  8
HATCH
  6
Continuous
100
AcDbLine
 10
1803.156881433958
 20
460.0000000000002
 30
0.0
 11
1838.156881433958
 21
495.0
 31
0.0
  0
LINE
  5
339A
330
1F
100
AcDbEntity
  8
HATCH
  6
Continuous
100
AcDbLine
 10
1816.627265615562
 20
460.0000000000001
 30
0.0
 11
1851.627265615562
 21
495.0000000000001
 31
0.0
  0
LINE
  5
339B
330
1F
100
AcDbEntity
  8
HATCH
  6
Continuous
100
AcDbLine
 10
1830.097649797166
 20
460.0000000000001
 30
0.0
 11
1865.097649797166
 21
495.0000000000003
 31
0.0
  0
LINE
  5
339C
330
1F
100
AcDbEntity
  8
HATCH
  6
Continuous
100
AcDbLine
 10
1843.56803397877
 20
460.0000000000002
 30
0.0
 11
1878.56803397877
 21
495.0000000000004
 31
0.0
  0
LINE
  5
339D
330
1F
100
AcDbEntity
  8
HATCH
  6
Continuous
100
AcDbLine
 10
1857.038418160373
 20
460.0000000000003
 30
0.0
 11
1892.038418160374
 21
495.0000000000001
 31
0.0
  0
LINE
  5
339E
330
1F
100
AcDbEntity
  8
HATCH
  6
Continuous
100
AcDbLine
 10
1870.508802341977
 20
460.0000000000002
 30
0.0
 11
1905.508802341977
 21
495.0000000000001
 31
0.0
  0
LINE
  5
339F
330
1F
100
AcDbEntity
  8
HATCH
  6
Continuous
100
AcDbLine
 10
1883.979186523581
 20
460.0000000000002
 30
0.0
 11
1918.979186523581
 21
495.0000000000004
 31
0.0
  0
LINE
  5
33A0
330
1F
100
AcDbEntity
  8
HATCH
  6
Continuous
100
AcDbLine
 10
1897.449570705185
 20
460.0000000000003
 30
0.0
 11
1932.449570705185
 21
495.0000000000003
 31
0.0
  0
LINE
  5
33A1
330
1F
100
AcDbEntity
  8
HATCH
  6
Continuous
100
AcDbLine
 10
1910.919954886789
 20
460.0000000000004
 30
0.0
 11
1945.919954886788
 21
495.0000000000004
 31
0.0
  0
LINE
  5
33A2
330
1F
100
AcDbEntity
  8
HATCH
  6
Continuous
100
AcDbLine
 10
1924.390339068392
 20
460.0000000000003
 30
0.0
 11
1959.390339068392
 21
495.0000000000001
 31
0.0
  0
LINE
  5
33A3
330
1F
100
AcDbEntity
  8
HATCH
  6
Continuous
100
AcDbLine
 10
1937.860723249996
 20
460.0000000000002
 30
0.0
 11
1972.860723249996
 21
495.0000000000001
 31
0.0
  0
LINE
  5
33A4
330
1F
100
AcDbEntity
  8
HATCH
  6
Continuous
100
AcDbLine
 10
1951.3311074316
 20
460.0000000000006
 30
0.0
 11
1986.3311074316
 21
495.0000000000004
 31
0.0
  0
LINE
  5
33A5
330
1F
100
AcDbEntity
  8
HATCH
  6
Continuous
100
AcDbLine
 10
1964.801491613204
 20
460.0000000000005
 30
0.0
 11
1999.801491613204
 21
495.0000000000005
 31
0.0
  0
LINE
  5
33A6
330
1F
100
AcDbEntity
  8
HATCH
  6
Continuous
100
AcDbLine
 10
1978.271875794807
 20
460.0000000000004
 30
0.0
 11
2013.271875794807
 21
495.0000000000004
 31
0.0
  0
LINE
  5
33A7
330
1F
100
AcDbEntity
  8
HATCH
  6
Continuous
100
AcDbLine
 10
1991.742259976411
 20
460.0000000000003
 30
0.0
 11
2026.742259976411
 21
495.0000000000003
 31
0.0
  0
LINE
  5
33A8
330
1F
100
AcDbEntity
  8
HATCH
  6
Continuous
100
AcDbLine
 10
2005.212644158016
 20
460.0000000000006
 30
0.0
 11
2040.212644158015
 21
495.0000000000001
 31
0.0
  0
LINE
  5
33A9
330
1F
100
AcDbEntity
  8
HATCH
  6
Continuous
100
AcDbLine
 10
2018.683028339619
 20
460.0000000000006
 30
0.0
 11
2053.683028339619
 21
495.0000000000004
 31
0.0
  0
LINE
  5
33AA
330
1F
100
AcDbEntity
  8
HATCH
  6
Continuous
100
AcDbLine
 10
2032.153412521223
 20
460.0000000000005
 30
0.0
 11
2067.153412521222
 21
495.0000000000003
 31
0.0
  0
LINE
  5
33AB
330
1F
100
AcDbEntity
  8
HATCH
  6
Continuous
100
AcDbLine
 10
2045.623796702826
 20
460.0000000000004
 30
0.0
 11
2080.623796702826
 21
495.0000000000004
 31
0.0
  0
LINE
  5
33AC
330
1F
100
AcDbEntity
  8
HATCH
  6
Continuous
100
AcDbLine
 10
2059.09418088443
 20
460.0000000000007
 30
0.0
 11
2094.09418088443
 21
495.0000000000003
 31
0.0
  0
LINE
  5
33AD
330
1F
100
AcDbEntity
  8
HATCH
  6
Continuous
100
AcDbLine
 10
2072.564565066034
 20
460.0000000000006
 30
0.0
 11
2107.564565066033
 21
495.0000000000001
 31
0.0
  0
LINE
  5
33AE
330
1F
100
AcDbEntity
  8
HATCH
  6
Continuous
100
AcDbLine
 10
2086.034949247637
 20
460.0000000000006
 30
0.0
 11
2121.034949247637
 21
495.0000000000004
 31
0.0
  0
LINE
  5
33AF
330
1F
100
AcDbEntity
  8
HATCH
  6
Continuous
100
AcDbLine
 10
2099.505333429241
 20
460.0000000000005
 30
0.0
 11
2134.50533342924
 21
495.0000000000003
 31
0.0
  0
LINE
  5
33B0
330
1F
100
AcDbEntity
  8
HATCH
  6
Continuous
100
AcDbLine
 10
2112.975717610845
 20
460.0000000000009
 30
0.0
 11
2147.975717610845
 21
495.0000000000004
 31
0.0
  0
LINE
  5
33B1
330
1F
100
AcDbEntity
  8
HATCH
  6
Continuous
100
AcDbLine
 10
2126.446101792449
 20
460.0000000000007
 30
0.0
 11
2161.446101792448
 21
495.0000000000003
 31
0.0
  0
LINE
  5
33B2
330
1F
100
AcDbEntity
  8
HATCH
  6
Continuous
100
AcDbLine
 10
2139.916485974052
 20
460.0000000000007
 30
0.0
 11
2174.916485974052
 21
495.0000000000003
 31
0.0
  0
LINE
  5
33B3
330
1F
100
AcDbEntity
  8
HATCH
  6
Continuous
100
AcDbLine
 10
2153.386870155656
 20
460.0000000000006
 30
0.0
 11
2188.386870155656
 21
495.0000000000004
 31
0.0
  0
LINE
  5
33B4
330
1F
100
AcDbEntity
  8
HATCH
  6
Continuous
100
AcDbLine
 10
2166.85725433726
 20
460.000000000001
 30
0.0
 11
2201.857254337259
 21
495.0000000000003
 31
0.0
  0
LINE
  5
33B5
330
1F
100
AcDbEntity
  8
HATCH
  6
Continuous
100
AcDbLine
 10
2180.327638518864
 20
460.0000000000009
 30
0.0
 11
2215.327638518863
 21
495.0000000000004
 31
0.0
  0
LINE
  5
33B6
330
1F
100
AcDbEntity
  8
HATCH
  6
Continuous
100
AcDbLine
 10
2193.798022700467
 20
460.0000000000007
 30
0.0
 11
2228.798022700467
 21
495.0000000000003
 31
0.0
  0
LINE
  5
33B7
330
1F
100
AcDbEntity
  8
HATCH
  6
Continuous
100
AcDbLine
 10
2207.268406882071
 20
460.0000000000007
 30
0.0
 11
2242.26840688207
 21
495.0000000000003
 31
0.0
  0
LINE
  5
33B8
330
1F
100
AcDbEntity
  8
HATCH
  6
Continuous
100
AcDbLine
 10
2220.738791063675
 20
460.0000000000011
 30
0.0
 11
2255.738791063675
 21
495.0000000000004
 31
0.0
  0
LINE
  5
33B9
330
1F
100
AcDbEntity
  8
HATCH
  6
Continuous
100
AcDbLine
 10
2234.209175245279
 20
460.000000000001
 30
0.0
 11
2269.209175245278
 21
495.0000000000003
 31
0.0
  0
LINE
  5
33BA
330
1F
100
AcDbEntity
  8
HATCH
  6
Continuous
100
AcDbLine
 10
2247.679559426883
 20
460.0000000000011
 30
0.0
 11
2280.000000000001
 21
492.3204405731191
 31
0.0
  0
LINE
  5
33BB
330
1F
100
AcDbEntity
  8
HATCH
  6
Continuous
100
AcDbLine
 10
2261.149943608486
 20
460.0000000000007
 30
0.0
 11
2280.000000000001
 21
478.8500563915152
 31
0.0
  0
LINE
  5
33BC
330
1F
100
AcDbEntity
  8
HATCH
  6
Continuous
100
AcDbLine
 10
2274.62032779009
 20
460.0000000000012
 30
0.0
 11
2280.000000000001
 21
465.3796722099115
 31
0.0
  0
LINE
  5
33BD
330
1F
100
AcDbEntity
  8
HATCH
  6
Continuous
100
AcDbLine
 10
1191.446101792448
 20
295.0000000000001
 30
0.0
 11
1180.0
 21
306.4461017924474
 31
0.0
  0
LINE
  5
33BE
330
1F
100
AcDbEntity
  8
HATCH
  6
Continuous
100
AcDbLine
 10
1204.916485974051
 20
295.0000000000001
 30
0.0
 11
1180.0
 21
319.9164859740511
 31
0.0
  0
LINE
  5
33BF
330
1F
100
AcDbEntity
  8
HATCH
  6
Continuous
100
AcDbLine
 10
1215.0
 20
298.3868701556548
 30
0.0
 11
1180.0
 21
333.3868701556548
 31
0.0
  0
LINE
  5
33C0
330
1F
100
AcDbEntity
  8
HATCH
  6
Continuous
100
AcDbLine
 10
1215.0
 20
311.8572543372585
 30
0.0
 11
1180.0
 21
346.8572543372586
 31
0.0
  0
LINE
  5
33C1
330
1F
100
AcDbEntity
  8
HATCH
  6
Continuous
100
AcDbLine
 10
1215.0
 20
325.3276385188623
 30
0.0
 11
1180.0
 21
360.3276385188623
 31
0.0
  0
LINE
  5
33C2
330
1F
100
AcDbEntity
  8
HATCH
  6
Continuous
100
AcDbLine
 10
1215.0
 20
338.7980227004661
 30
0.0
 11
1180.0
 21
373.7980227004661
 31
0.0
  0
LINE
  5
33C3
330
1F
100
AcDbEntity
  8
HATCH
  6
Continuous
100
AcDbLine
 10
1215.0
 20
352.2684068820697
 30
0.0
 11
1180.0
 21
387.2684068820698
 31
0.0
  0
LINE
  5
33C4
330
1F
100
AcDbEntity
  8
HATCH
  6
Continuous
100
AcDbLine
 10
1215.0
 20
365.7387910636734
 30
0.0
 11
1180.0
 21
400.7387910636735
 31
0.0
  0
LINE
  5
33C5
330
1F
100
AcDbEntity
  8
HATCH
  6
Continuous
100
AcDbLine
 10
1215.0
 20
379.2091752452773
 30
0.0
 11
1180.0
 21
414.2091752452772
 31
0.0
  0
LINE
  5
33C6
330
1F
100
AcDbEntity
  8
HATCH
  6
Continuous
100
AcDbLine
 10
1215.0
 20
392.6795594268811
 30
0.0
 11
1180.0
 21
427.679559426881
 31
0.0
  0
LINE
  5
33C7
330
1F
100
AcDbEntity
  8
HATCH
  6
Continuous
100
AcDbLine
 10
1215.0
 20
406.1499436084848
 30
0.0
 11
1180.0
 21
441.1499436084848
 31
0.0
  0
LINE
  5
33C8
330
1F
100
AcDbEntity
  8
HATCH
  6
Continuous
100
AcDbLine
 10
1215.0
 20
419.6203277900884
 30
0.0
 11
1180.0
 21
454.6203277900884
 31
0.0
  0
LINE
  5
33C9
330
1F
100
AcDbEntity
  8
HATCH
  6
Continuous
100
AcDbLine
 10
1215.0
 20
433.0907119716922
 30
0.0
 11
1180.0
 21
468.0907119716922
 31
0.0
  0
LINE
  5
33CA
330
1F
100
AcDbEntity
  8
HATCH
  6
Continuous
100
AcDbLine
 10
1215.0
 20
446.5610961532959
 30
0.0
 11
1180.0
 21
481.561096153296
 31
0.0
  0
LINE
  5
33CB
330
1F
100
AcDbEntity
  8
HATCH
  6
Continuous
100
AcDbLine
 10
1215.0314803349
 20
459.9999999999998
 30
0.0
 11
1180.031480334901
 21
494.9999999999993
 31
0.0
  0
LINE
  5
33CC
330
1F
100
AcDbEntity
  8
HATCH
  6
Continuous
100
AcDbLine
 10
1228.501864516504
 20
459.9999999999996
 30
0.0
 11
1193.501864516504
 21
494.9999999999993
 31
0.0
  0
LINE
  5
33CD
330
1F
100
AcDbEntity
  8
HATCH
  6
Continuous
100
AcDbLine
 10
1241.972248698107
 20
459.9999999999997
 30
0.0
 11
1206.972248698108
 21
494.9999999999993
 31
0.0
  0
LINE
  5
33CE
330
1F
100
AcDbEntity
  8
HATCH
  6
Continuous
100
AcDbLine
 10
1255.442632879711
 20
459.9999999999998
 30
0.0
 11
1220.442632879711
 21
494.9999999999993
 31
0.0
  0
LINE
  5
33CF
330
1F
100
AcDbEntity
  8
HATCH
  6
Continuous
100
AcDbLine
 10
1268.913017061315
 20
459.9999999999998
 30
0.0
 11
1233.913017061315
 21
494.9999999999993
 31
0.0
  0
LINE
  5
33D0
330
1F
100
AcDbEntity
  8
HATCH
  6
Continuous
100
AcDbLine
 10
1282.383401242919
 20
459.9999999999997
 30
0.0
 11
1247.383401242919
 21
494.9999999999993
 31
0.0
  0
LINE
  5
33D1
330
1F
100
AcDbEntity
  8
HATCH
  6
Continuous
100
AcDbLine
 10
1295.853785424522
 20
459.9999999999996
 30
0.0
 11
1260.853785424522
 21
494.9999999999993
 31
0.0
  0
LINE
  5
33D2
330
1F
100
AcDbEntity
  8
HATCH
  6
Continuous
100
AcDbLine
 10
1309.324169606126
 20
459.9999999999997
 30
0.0
 11
1274.324169606126
 21
494.9999999999993
 31
0.0
  0
LINE
  5
33D3
330
1F
100
AcDbEntity
  8
HATCH
  6
Continuous
100
AcDbLine
 10
1322.79455378773
 20
459.9999999999998
 30
0.0
 11
1287.79455378773
 21
494.9999999999993
 31
0.0
  0
LINE
  5
33D4
330
1F
100
AcDbEntity
  8
HATCH
  6
Continuous
100
AcDbLine
 10
1336.264937969334
 20
459.9999999999998
 30
0.0
 11
1301.264937969334
 21
494.9999999999993
 31
0.0
  0
LINE
  5
33D5
330
1F
100
AcDbEntity
  8
HATCH
  6
Continuous
100
AcDbLine
 10
1349.735322150937
 20
459.9999999999996
 30
0.0
 11
1314.735322150938
 21
494.9999999999993
 31
0.0
  0
LINE
  5
33D6
330
1F
100
AcDbEntity
  8
HATCH
  6
Continuous
100
AcDbLine
 10
1363.205706332541
 20
459.9999999999997
 30
0.0
 11
1328.205706332541
 21
494.9999999999994
 31
0.0
  0
LINE
  5
33D7
330
1F
100
AcDbEntity
  8
HATCH
  6
Continuous
100
AcDbLine
 10
1376.676090514145
 20
459.9999999999997
 30
0.0
 11
1341.676090514145
 21
494.9999999999993
 31
0.0
  0
LINE
  5
33D8
330
1F
100
AcDbEntity
  8
HATCH
  6
Continuous
100
AcDbLine
 10
1390.146474695749
 20
459.9999999999998
 30
0.0
 11
1355.146474695749
 21
494.9999999999994
 31
0.0
  0
LINE
  5
33D9
330
1F
100
AcDbEntity
  8
HATCH
  6
Continuous
100
AcDbLine
 10
1403.616858877352
 20
459.9999999999998
 30
0.0
 11
1368.616858877352
 21
494.9999999999995
 31
0.0
  0
LINE
  5
33DA
330
1F
100
AcDbEntity
  8
HATCH
  6
Continuous
100
AcDbLine
 10
1417.087243058956
 20
459.9999999999998
 30
0.0
 11
1382.087243058956
 21
494.9999999999994
 31
0.0
  0
LINE
  5
33DB
330
1F
100
AcDbEntity
  8
HATCH
  6
Continuous
100
AcDbLine
 10
1430.55762724056
 20
459.9999999999997
 30
0.0
 11
1395.55762724056
 21
494.9999999999994
 31
0.0
  0
LINE
  5
33DC
330
1F
100
AcDbEntity
  8
HATCH
  6
Continuous
100
AcDbLine
 10
1444.028011422163
 20
459.9999999999997
 30
0.0
 11
1409.028011422164
 21
494.9999999999995
 31
0.0
  0
LINE
  5
33DD
330
1F
100
AcDbEntity
  8
HATCH
  6
Continuous
100
AcDbLine
 10
1457.498395603767
 20
459.9999999999996
 30
0.0
 11
1422.498395603767
 21
494.9999999999996
 31
0.0
  0
LINE
  5
33DE
330
1F
100
AcDbEntity
  8
HATCH
  6
Continuous
100
AcDbLine
 10
1470.96877978537
 20
459.9999999999998
 30
0.0
 11
1435.968779785371
 21
494.9999999999995
 31
0.0
  0
LINE
  5
33DF
330
1F
100
AcDbEntity
  8
HATCH
  6
Continuous
100
AcDbLine
 10
1484.439163966975
 20
459.9999999999998
 30
0.0
 11
1449.439163966975
 21
494.9999999999996
 31
0.0
  0
LINE
  5
33E0
330
1F
100
AcDbEntity
  8
HATCH
  6
Continuous
100
AcDbLine
 10
1497.909548148578
 20
459.9999999999998
 30
0.0
 11
1462.909548148578
 21
494.9999999999997
 31
0.0
  0
LINE
  5
33E1
330
1F
100
AcDbEntity
  8
HATCH
  6
Continuous
100
AcDbLine
 10
1511.379932330182
 20
459.9999999999997
 30
0.0
 11
1476.379932330182
 21
494.9999999999995
 31
0.0
  0
LINE
  5
33E2
330
1F
100
AcDbEntity
  8
HATCH
  6
Continuous
100
AcDbLine
 10
1524.850316511786
 20
459.9999999999997
 30
0.0
 11
1489.850316511786
 21
494.9999999999995
 31
0.0
  0
LINE
  5
33E3
330
1F
100
AcDbEntity
  8
HATCH
  6
Continuous
100
AcDbLine
 10
1538.320700693389
 20
459.9999999999997
 30
0.0
 11
1503.320700693389
 21
494.9999999999997
 31
0.0
  0
LINE
  5
33E4
330
1F
100
AcDbEntity
  8
HATCH
  6
Continuous
100
AcDbLine
 10
1551.791084874993
 20
459.9999999999997
 30
0.0
 11
1516.791084874993
 21
494.9999999999995
 31
0.0
  0
LINE
  5
33E5
330
1F
100
AcDbEntity
  8
HATCH
  6
Continuous
100
AcDbLine
 10
1565.261469056597
 20
459.9999999999996
 30
0.0
 11
1530.261469056597
 21
494.9999999999996
 31
0.0
  0
LINE
  5
33E6
330
1F
100
AcDbEntity
  8
HATCH
  6
Continuous
100
AcDbLine
 10
1578.731853238201
 20
459.9999999999997
 30
0.0
 11
1543.731853238201
 21
494.9999999999999
 31
0.0
  0
LINE
  5
33E7
330
1F
100
AcDbEntity
  8
HATCH
  6
Continuous
100
AcDbLine
 10
1592.202237419804
 20
459.9999999999997
 30
0.0
 11
1557.202237419804
 21
494.9999999999997
 31
0.0
  0
LINE
  5
33E8
330
1F
100
AcDbEntity
  8
HATCH
  6
Continuous
100
AcDbLine
 10
1605.672621601408
 20
459.9999999999997
 30
0.0
 11
1570.672621601408
 21
494.9999999999997
 31
0.0
  0
LINE
  5
33E9
330
1F
100
AcDbEntity
  8
HATCH
  6
Continuous
100
AcDbLine
 10
1619.143005783012
 20
459.9999999999997
 30
0.0
 11
1584.143005783012
 21
494.9999999999997
 31
0.0
  0
LINE
  5
33EA
330
1F
100
AcDbEntity
  8
HATCH
  6
Continuous
100
AcDbLine
 10
1632.613389964615
 20
459.9999999999996
 30
0.0
 11
1597.613389964616
 21
494.9999999999997
 31
0.0
  0
LINE
  5
33EB
330
1F
100
AcDbEntity
  8
HATCH
  6
Continuous
100
AcDbLine
 10
1646.083774146219
 20
459.9999999999997
 30
0.0
 11
1611.083774146219
 21
494.9999999999999
 31
0.0
  0
LINE
  5
33EC
330
1F
100
AcDbEntity
  8
HATCH
  6
Continuous
100
AcDbLine
 10
1659.554158327823
 20
459.9999999999997
 30
0.0
 11
1624.554158327823
 21
494.9999999999999
 31
0.0
  0
LINE
  5
33ED
330
1F
100
AcDbEntity
  8
HATCH
  6
Continuous
100
AcDbLine
 10
1673.024542509427
 20
459.9999999999997
 30
0.0
 11
1638.024542509426
 21
495.0
 31
0.0
  0
LINE
  5
33EE
330
1F
100
AcDbEntity
  8
HATCH
  6
Continuous
100
AcDbLine
 10
1686.494926691031
 20
459.9999999999997
 30
0.0
 11
1651.494926691031
 21
494.9999999999997
 31
0.0
  0
LINE
  5
33EF
330
1F
100
AcDbEntity
  8
HATCH
  6
Continuous
100
AcDbLine
 10
1699.965310872634
 20
459.9999999999998
 30
0.0
 11
1664.965310872634
 21
494.9999999999997
 31
0.0
  0
LINE
  5
33F0
330
1F
100
AcDbEntity
  8
HATCH
  6
Continuous
100
AcDbLine
 10
1713.435695054238
 20
459.9999999999998
 30
0.0
 11
1678.435695054238
 21
495.0
 31
0.0
  0
LINE
  5
33F1
330
1F
100
AcDbEntity
  8
HATCH
  6
Continuous
100
AcDbLine
 10
1726.906079235842
 20
459.9999999999997
 30
0.0
 11
1691.906079235841
 21
494.9999999999999
 31
0.0
  0
LINE
  5
33F2
330
1F
100
AcDbEntity
  8
HATCH
  6
Continuous
100
AcDbLine
 10
1740.376463417445
 20
460.0
 30
0.0
 11
1705.376463417445
 21
495.0000000000001
 31
0.0
  0
LINE
  5
33F3
330
1F
100
AcDbEntity
  8
HATCH
  6
Continuous
100
AcDbLine
 10
1753.846847599049
 20
459.9999999999997
 30
0.0
 11
1718.846847599049
 21
495.0000000000001
 31
0.0
  0
LINE
  5
33F4
330
1F
100
AcDbEntity
  8
HATCH
  6
Continuous
100
AcDbLine
 10
1767.317231780653
 20
459.9999999999998
 30
0.0
 11
1732.317231780653
 21
494.9999999999997
 31
0.0
  0
LINE
  5
33F5
330
1F
100
AcDbEntity
  8
HATCH
  6
Continuous
100
AcDbLine
 10
1780.787615962256
 20
459.9999999999997
 30
0.0
 11
1745.787615962256
 21
495.0
 31
0.0
  0
LINE
  5
33F6
330
1F
100
AcDbEntity
  8
HATCH
  6
Continuous
100
AcDbLine
 10
1794.258000143861
 20
459.9999999999997
 30
0.0
 11
1759.25800014386
 21
495.0
 31
0.0
  0
LINE
  5
33F7
330
1F
100
AcDbEntity
  8
HATCH
  6
Continuous
100
AcDbLine
 10
1807.728384325464
 20
459.9999999999997
 30
0.0
 11
1772.728384325464
 21
495.0000000000001
 31
0.0
  0
LINE
  5
33F8
330
1F
100
AcDbEntity
  8
HATCH
  6
Continuous
100
AcDbLine
 10
1821.198768507068
 20
459.9999999999997
 30
0.0
 11
1786.198768507068
 21
495.0
 31
0.0
  0
LINE
  5
33F9
330
1F
100
AcDbEntity
  8
HATCH
  6
Continuous
100
AcDbLine
 10
1834.669152688671
 20
459.9999999999995
 30
0.0
 11
1799.669152688672
 21
494.9999999999997
 31
0.0
  0
LINE
  5
33FA
330
1F
100
AcDbEntity
  8
HATCH
  6
Continuous
100
AcDbLine
 10
1848.139536870275
 20
459.9999999999997
 30
0.0
 11
1813.139536870275
 21
495.0
 31
0.0
  0
LINE
  5
33FB
330
1F
100
AcDbEntity
  8
HATCH
  6
Continuous
100
AcDbLine
 10
1861.609921051879
 20
459.9999999999995
 30
0.0
 11
1826.609921051879
 21
494.9999999999999
 31
0.0
  0
LINE
  5
33FC
330
1F
100
AcDbEntity
  8
HATCH
  6
Continuous
100
AcDbLine
 10
1875.080305233483
 20
459.9999999999995
 30
0.0
 11
1840.080305233482
 21
494.9999999999999
 31
0.0
  0
LINE
  5
33FD
330
1F
100
AcDbEntity
  8
HATCH
  6
Continuous
100
AcDbLine
 10
1888.550689415087
 20
459.9999999999995
 30
0.0
 11
1853.550689415087
 21
494.9999999999997
 31
0.0
  0
LINE
  5
33FE
330
1F
100
AcDbEntity
  8
HATCH
  6
Continuous
100
AcDbLine
 10
1902.02107359669
 20
459.9999999999995
 30
0.0
 11
1867.02107359669
 21
494.9999999999997
 31
0.0
  0
LINE
  5
33FF
330
1F
100
AcDbEntity
  8
HATCH
  6
Continuous
100
AcDbLine
 10
1915.491457778294
 20
459.9999999999995
 30
0.0
 11
1880.491457778294
 21
495.0
 31
0.0
  0
LINE
  5
3400
330
1F
100
AcDbEntity
  8
HATCH
  6
Continuous
100
AcDbLine
 10
1928.961841959898
 20
459.9999999999995
 30
0.0
 11
1893.961841959897
 21
494.9999999999999
 31
0.0
  0
LINE
  5
3401
330
1F
100
AcDbEntity
  8
HATCH
  6
Continuous
100
AcDbLine
 10
1942.432226141502
 20
459.9999999999993
 30
0.0
 11
1907.432226141501
 21
494.9999999999997
 31
0.0
  0
LINE
  5
3402
330
1F
100
AcDbEntity
  8
HATCH
  6
Continuous
100
AcDbLine
 10
1955.902610323105
 20
459.9999999999995
 30
0.0
 11
1920.902610323105
 21
494.9999999999997
 31
0.0
  0
LINE
  5
3403
330
1F
100
AcDbEntity
  8
HATCH
  6
Continuous
100
AcDbLine
 10
1969.372994504709
 20
459.9999999999993
 30
0.0
 11
1934.372994504709
 21
494.9999999999997
 31
0.0
  0
LINE
  5
3404
330
1F
100
AcDbEntity
  8
HATCH
  6
Continuous
100
AcDbLine
 10
1982.843378686313
 20
459.9999999999995
 30
0.0
 11
1947.843378686312
 21
494.9999999999999
 31
0.0
  0
LINE
  5
3405
330
1F
100
AcDbEntity
  8
HATCH
  6
Continuous
100
AcDbLine
 10
1996.313762867917
 20
459.9999999999993
 30
0.0
 11
1961.313762867916
 21
494.9999999999999
 31
0.0
  0
LINE
  5
3406
330
1F
100
AcDbEntity
  8
HATCH
  6
Continuous
100
AcDbLine
 10
2009.78414704952
 20
459.9999999999993
 30
0.0
 11
1974.78414704952
 21
494.9999999999995
 31
0.0
  0
LINE
  5
3407
330
1F
100
AcDbEntity
  8
HATCH
  6
Continuous
100
AcDbLine
 10
2023.254531231124
 20
459.9999999999993
 30
0.0
 11
1988.254531231124
 21
494.9999999999997
 31
0.0
  0
LINE
  5
3408
330
1F
100
AcDbEntity
  8
HATCH
  6
Continuous
100
AcDbLine
 10
2036.724915412728
 20
459.9999999999989
 30
0.0
 11
2001.724915412728
 21
494.9999999999997
 31
0.0
  0
LINE
  5
3409
330
1F
100
AcDbEntity
  8
HATCH
  6
Continuous
100
AcDbLine
 10
2050.195299594331
 20
459.9999999999992
 30
0.0
 11
2015.195299594331
 21
494.9999999999999
 31
0.0
  0
LINE
  5
340A
330
1F
100
AcDbEntity
  8
HATCH
  6
Continuous
100
AcDbLine
 10
2063.665683775936
 20
459.999999999999
 30
0.0
 11
2028.665683775935
 21
494.9999999999999
 31
0.0
  0
LINE
  5
340B
330
1F
100
AcDbEntity
  8
HATCH
  6
Continuous
100
AcDbLine
 10
2077.136067957539
 20
459.999999999999
 30
0.0
 11
2042.136067957539
 21
494.9999999999999
 31
0.0
  0
LINE
  5
340C
330
1F
100
AcDbEntity
  8
HATCH
  6
Continuous
100
AcDbLine
 10
2090.606452139143
 20
459.9999999999993
 30
0.0
 11
2055.606452139143
 21
494.9999999999997
 31
0.0
  0
LINE
  5
340D
330
1F
100
AcDbEntity
  8
HATCH
  6
Continuous
100
AcDbLine
 10
2104.076836320746
 20
459.9999999999989
 30
0.0
 11
2069.076836320746
 21
494.9999999999997
 31
0.0
  0
LINE
  5
340E
330
1F
100
AcDbEntity
  8
HATCH
  6
Continuous
100
AcDbLine
 10
2117.547220502351
 20
459.999999999999
 30
0.0
 11
2082.54722050235
 21
494.9999999999999
 31
0.0
  0
LINE
  5
340F
330
1F
100
AcDbEntity
  8
HATCH
  6
Continuous
100
AcDbLine
 10
2131.017604683954
 20
459.999999999999
 30
0.0
 11
2096.017604683953
 21
494.9999999999999
 31
0.0
  0
LINE
  5
3410
330
1F
100
AcDbEntity
  8
HATCH
  6
Continuous
100
AcDbLine
 10
2144.487988865558
 20
459.999999999999
 30
0.0
 11
2109.487988865557
 21
494.9999999999995
 31
0.0
  0
LINE
  5
3411
330
1F
100
AcDbEntity
  8
HATCH
  6
Continuous
100
AcDbLine
 10
2157.958373047161
 20
459.9999999999992
 30
0.0
 11
2122.958373047161
 21
494.9999999999997
 31
0.0
  0
LINE
  5
3412
330
1F
100
AcDbEntity
  8
HATCH
  6
Continuous
100
AcDbLine
 10
2171.428757228766
 20
459.9999999999988
 30
0.0
 11
2136.428757228765
 21
494.9999999999997
 31
0.0
  0
LINE
  5
3413
330
1F
100
AcDbEntity
  8
HATCH
  6
Continuous
100
AcDbLine
 10
2184.899141410369
 20
459.9999999999988
 30
0.0
 11
2149.899141410369
 21
494.9999999999996
 31
0.0
  0
LINE
  5
3414
330
1F
100
AcDbEntity
  8
HATCH
  6
Continuous
100
AcDbLine
 10
2198.369525591973
 20
459.999999999999
 30
0.0
 11
2163.369525591972
 21
494.9999999999999
 31
0.0
  0
LINE
  5
3415
330
1F
100
AcDbEntity
  8
HATCH
  6
Continuous
100
AcDbLine
 10
2211.839909773576
 20
459.9999999999989
 30
0.0
 11
2176.839909773576
 21
494.9999999999999
 31
0.0
  0
LINE
  5
3416
330
1F
100
AcDbEntity
  8
HATCH
  6
Continuous
100
AcDbLine
 10
2225.31029395518
 20
459.9999999999988
 30
0.0
 11
2190.31029395518
 21
494.9999999999997
 31
0.0
  0
LINE
  5
3417
330
1F
100
AcDbEntity
  8
HATCH
  6
Continuous
100
AcDbLine
 10
2238.780678136785
 20
459.9999999999988
 30
0.0
 11
2203.780678136784
 21
494.9999999999997
 31
0.0
  0
LINE
  5
3418
330
1F
100
AcDbEntity
  8
HATCH
  6
Continuous
100
AcDbLine
 10
2252.251062318388
 20
459.9999999999988
 30
0.0
 11
2217.251062318387
 21
494.9999999999996
 31
0.0
  0
LINE
  5
3419
330
1F
100
AcDbEntity
  8
HATCH
  6
Continuous
100
AcDbLine
 10
2265.721446499992
 20
459.9999999999989
 30
0.0
 11
2230.721446499991
 21
494.9999999999999
 31
0.0
  0
LINE
  5
341A
330
1F
100
AcDbEntity
  8
HATCH
  6
Continuous
100
AcDbLine
 10
2279.191830681595
 20
459.9999999999986
 30
0.0
 11
2244.191830681594
 21
494.9999999999999
 31
0.0
  0
LINE
  5
341B
330
1F
100
AcDbEntity
  8
HATCH
  6
Continuous
100
AcDbLine
 10
2280.0
 20
472.6622148631981
 30
0.0
 11
2257.662214863199
 21
494.9999999999997
 31
0.0
  0
LINE
  5
341C
330
1F
100
AcDbEntity
  8
HATCH
  6
Continuous
100
AcDbLine
 10
2280.0
 20
486.1325990448015
 30
0.0
 11
2271.132599044802
 21
494.9999999999997
 31
0.0
  0
LINE
  5
341D
330
1F
100
AcDbEntity
  8
KANAMONO_SCREW
100
AcDbLine
 10
931.8694440000003
 20
1016.804444000002
 30
0.0
 11
930.0000000000004
 21
1014.994306000001
 31
0.0
  0
LINE
  5
341E
330
1F
100
AcDbEntity
  8
KANAMONO_SCREW
100
AcDbLine
 10
930.0000000000004
 20
1014.994306000001
 30
0.0
 11
928.1305560000005
 21
1016.804444000002
 31
0.0
  0
LINE
  5
341F
330
1F
100
AcDbEntity
  8
KANAMONO_SCREW
100
AcDbLine
 10
934.6232350000013
 20
1031.134621000002
 30
0.0
 11
936.1199910000008
 21
1036.134621000002
 31
0.0
  0
LINE
  5
3420
330
1F
100
AcDbEntity
  8
KANAMONO_SCREW
100
AcDbLine
 10
936.1199910000008
 20
1036.134621000002
 30
0.0
 11
937.0103910910625
 21
1041.477025546369
 31
0.0
  0
ARC
  5
3421
330
1F
100
AcDbEntity
  8
KANAMONO_SCREW
100
AcDbCircle
 10
936.517194074735
 20
1041.559224948404
 30
0.0
 40
0.5000000386091744
100
AcDbArc
 50
350.5376891728314
 51
170.5376784293662
  0
LINE
  5
3422
330
1F
100
AcDbEntity
  8
KANAMONO_SCREW
100
AcDbLine
 10
936.0239970738208
 20
1041.641424442917
 30
0.0
 11
935.1061970000014
 21
1036.134621000002
 31
0.0
  0
LINE
  5
3423
330
1F
100
AcDbEntity
  8
KANAMONO_SCREW
100
AcDbLine
 10
935.1061970000014
 20
1036.134621000002
 30
0.0
 11
933.5605160000008
 21
1031.078926000001
 31
0.0
  0
LINE
  5
3424
330
1F
100
AcDbEntity
  8
KANAMONO_SCREW
100
AcDbLine
 10
925.3767650000012
 20
1031.134621000002
 30
0.0
 11
923.8800090000008
 21
1036.134621000002
 31
0.0
  0
LINE
  5
3425
330
1F
100
AcDbEntity
  8
KANAMONO_SCREW
100
AcDbLine
 10
923.8800090000008
 20
1036.134621000002
 30
0.0
 11
922.9896089089402
 21
1041.477025546369
 31
0.0
  0
ARC
  5
3426
330
1F
100
AcDbEntity
  8
KANAMONO_SCREW
100
AcDbCircle
 10
923.4828059252677
 20
1041.559224948404
 30
0.0
 40
0.5000000386091744
100
AcDbArc
 50
9.462321570633747
 51
189.4623108271685
  0
LINE
  5
3427
330
1F
100
AcDbEntity
  8
KANAMONO_SCREW
100
AcDbLine
 10
923.976002926182
 20
1041.641424442917
 30
0.0
 11
924.8938030000013
 21
1036.134621000002
 31
0.0
  0
LINE
  5
3428
330
1F
100
AcDbEntity
  8
KANAMONO_SCREW
100
AcDbLine
 10
924.8938030000013
 20
1036.134621000002
 30
0.0
 11
926.4394840000008
 21
1031.078926000001
 31
0.0
  0
LINE
  5
3429
330
1F
100
AcDbEntity
  8
KANAMONO_SCREW
100
AcDbLine
 10
924.7487340000011
 20
1019.151067000001
 30
0.0
 11
926.6936570000002
 21
1018.047765000002
 31
0.0
  0
LINE
  5
342A
330
1F
100
AcDbEntity
  8
KANAMONO_SCREW
100
AcDbLine
 10
926.6936570000002
 20
1018.047765000002
 30
0.0
 11
926.5889850000007
 21
1016.050506000002
 31
0.0
  0
LINE
  5
342B
330
1F
100
AcDbEntity
  8
KANAMONO_SCREW
100
AcDbLine
 10
926.5889850000007
 20
1016.050506000002
 30
0.0
 11
924.5917260000011
 21
1016.155178000001
 31
0.0
  0
LINE
  5
342C
330
1F
100
AcDbEntity
  8
KANAMONO_SCREW
100
AcDbLine
 10
924.5917260000011
 20
1016.155178000001
 30
0.0
 11
924.4870540000015
 21
1014.157919000002
 31
0.0
  0
LINE
  5
342D
330
1F
100
AcDbEntity
  8
KANAMONO_SCREW
100
AcDbLine
 10
924.4870540000015
 20
1014.157919000002
 30
0.0
 11
926.379641000001
 21
1012.055988000001
 31
0.0
  0
LINE
  5
342E
330
1F
100
AcDbEntity
  8
KANAMONO_SCREW
100
AcDbLine
 10
926.379641000001
 20
1012.055988000001
 30
0.0
 11
927.877586000001
 21
1011.977484000001
 31
0.0
  0
LINE
  5
342F
330
1F
100
AcDbEntity
  8
KANAMONO_SCREW
100
AcDbLine
 10
927.877586000001
 20
1011.977484000001
 30
0.0
 11
929.5000000000005
 21
1042.935000000002
 31
0.0
  0
LINE
  5
3430
330
1F
100
AcDbEntity
  8
KANAMONO_SCREW
100
AcDbLine
 10
929.5000000000005
 20
1042.935000000002
 30
0.0
 11
930.0000000000004
 21
1042.935000000002
 31
0.0
  0
LINE
  5
3431
330
1F
100
AcDbEntity
  8
KANAMONO_SCREW
100
AcDbLine
 10
930.0000000000004
 20
1042.935000000002
 30
0.0
 11
930.5000000000005
 21
1042.935000000002
 31
0.0
  0
LINE
  5
3432
330
1F
100
AcDbEntity
  8
KANAMONO_SCREW
100
AcDbLine
 10
930.5000000000005
 20
1042.935000000002
 30
0.0
 11
932.1224150000002
 21
1011.977484000001
 31
0.0
  0
LINE
  5
3433
330
1F
100
AcDbEntity
  8
KANAMONO_SCREW
100
AcDbLine
 10
932.1224150000002
 20
1011.977484000001
 30
0.0
 11
933.6203590000009
 21
1012.055988000001
 31
0.0
  0
LINE
  5
3434
330
1F
100
AcDbEntity
  8
KANAMONO_SCREW
100
AcDbLine
 10
933.6203590000009
 20
1012.055988000001
 30
0.0
 11
935.5129460000012
 21
1014.157919000002
 31
0.0
  0
LINE
  5
3435
330
1F
100
AcDbEntity
  8
KANAMONO_SCREW
100
AcDbLine
 10
935.5129460000012
 20
1014.157919000002
 30
0.0
 11
935.4082750000001
 21
1016.155178000001
 31
0.0
  0
LINE
  5
3436
330
1F
100
AcDbEntity
  8
KANAMONO_SCREW
100
AcDbLine
 10
935.4082750000001
 20
1016.155178000001
 30
0.0
 11
933.4110160000005
 21
1016.050506000002
 31
0.0
  0
LINE
  5
3437
330
1F
100
AcDbEntity
  8
KANAMONO_SCREW
100
AcDbLine
 10
933.4110160000005
 20
1016.050506000002
 30
0.0
 11
933.306344000001
 21
1018.047765000002
 31
0.0
  0
LINE
  5
3438
330
1F
100
AcDbEntity
  8
KANAMONO_SCREW
100
AcDbLine
 10
933.306344000001
 20
1018.047765000002
 30
0.0
 11
935.251267000001
 21
1019.151067000001
 31
0.0
  0
LINE
  5
3439
330
1F
100
AcDbEntity
  8
KANAMONO_SCREW
100
AcDbLine
 10
935.251267000001
 20
1019.151067000001
 30
0.0
 11
935.1465950000006
 21
1021.148326000001
 31
0.0
  0
LINE
  5
343A
330
1F
100
AcDbEntity
  8
KANAMONO_SCREW
100
AcDbLine
 10
935.1465950000006
 20
1021.148326000001
 30
0.0
 11
933.1493360000008
 21
1021.043654000002
 31
0.0
  0
LINE
  5
343B
330
1F
100
AcDbEntity
  8
KANAMONO_SCREW
100
AcDbLine
 10
933.1493360000008
 20
1021.043654000002
 30
0.0
 11
933.0446640000014
 21
1023.040913000001
 31
0.0
  0
LINE
  5
343C
330
1F
100
AcDbEntity
  8
KANAMONO_SCREW
100
AcDbLine
 10
933.0446640000014
 20
1023.040913000001
 30
0.0
 11
934.9895870000004
 21
1024.144214000001
 31
0.0
  0
LINE
  5
343D
330
1F
100
AcDbEntity
  8
KANAMONO_SCREW
100
AcDbLine
 10
934.9895870000004
 20
1024.144214000001
 30
0.0
 11
934.884915000001
 21
1026.141473000002
 31
0.0
  0
LINE
  5
343E
330
1F
100
AcDbEntity
  8
KANAMONO_SCREW
100
AcDbLine
 10
934.884915000001
 20
1026.141473000002
 30
0.0
 11
932.8876560000011
 21
1026.036801000001
 31
0.0
  0
LINE
  5
343F
330
1F
100
AcDbEntity
  8
KANAMONO_SCREW
100
AcDbLine
 10
932.8876560000011
 20
1026.036801000001
 30
0.0
 11
932.7829840000008
 21
1028.034060000001
 31
0.0
  0
LINE
  5
3440
330
1F
100
AcDbEntity
  8
KANAMONO_SCREW
100
AcDbLine
 10
932.7829840000008
 20
1028.034060000001
 30
0.0
 11
934.7279070000009
 21
1029.137362000002
 31
0.0
  0
LINE
  5
3441
330
1F
100
AcDbEntity
  8
KANAMONO_SCREW
100
AcDbLine
 10
934.7279070000009
 20
1029.137362000002
 30
0.0
 11
934.6232350000013
 21
1031.134621000002
 31
0.0
  0
LINE
  5
3442
330
1F
100
AcDbEntity
  8
KANAMONO_SCREW
100
AcDbLine
 10
934.6232350000013
 20
1031.134621000002
 30
0.0
 11
932.6259760000016
 21
1031.029949000002
 31
0.0
  0
LINE
  5
3443
330
1F
100
AcDbEntity
  8
KANAMONO_SCREW
100
AcDbLine
 10
932.6259760000016
 20
1031.029949000002
 30
0.0
 11
932.5213040000003
 21
1033.027208000002
 31
0.0
  0
LINE
  5
3444
330
1F
100
AcDbEntity
  8
KANAMONO_SCREW
100
AcDbLine
 10
932.5213040000003
 20
1033.027208000002
 30
0.0
 11
934.4662270000013
 21
1034.130510000002
 31
0.0
  0
LINE
  5
3445
330
1F
100
AcDbEntity
  8
KANAMONO_SCREW
100
AcDbLine
 10
934.4662270000013
 20
1034.130510000002
 30
0.0
 11
934.3615550000007
 21
1036.127769000001
 31
0.0
  0
LINE
  5
3446
330
1F
100
AcDbEntity
  8
KANAMONO_SCREW
100
AcDbLine
 10
934.3615550000007
 20
1036.127769000001
 30
0.0
 11
932.3642960000011
 21
1036.023097000002
 31
0.0
  0
LINE
  5
3447
330
1F
100
AcDbEntity
  8
KANAMONO_SCREW
100
AcDbLine
 10
932.3642960000011
 20
1036.023097000002
 30
0.0
 11
932.2596240000008
 21
1038.020356000002
 31
0.0
  0
LINE
  5
3448
330
1F
100
AcDbEntity
  8
KANAMONO_SCREW
100
AcDbLine
 10
932.2596240000008
 20
1038.020356000002
 30
0.0
 11
934.0000000000005
 21
1038.935000000002
 31
0.0
  0
LINE
  5
3449
330
1F
100
AcDbEntity
  8
KANAMONO_SCREW
100
AcDbLine
 10
934.0000000000005
 20
1038.935000000002
 30
0.0
 11
934.0000000000005
 21
1042.935000000002
 31
0.0
  0
LINE
  5
344A
330
1F
100
AcDbEntity
  8
KANAMONO_SCREW
100
AcDbLine
 10
934.0000000000005
 20
1042.935000000002
 30
0.0
 11
934.0000000000005
 21
1045.935000000002
 31
0.0
  0
LINE
  5
344B
330
1F
100
AcDbEntity
  8
KANAMONO_SCREW
100
AcDbLine
 10
934.0000000000005
 20
1045.935000000002
 30
0.0
 11
935.0000000000004
 21
1050.935000000002
 31
0.0
  0
LINE
  5
344C
330
1F
100
AcDbEntity
  8
KANAMONO_SCREW
100
AcDbLine
 10
935.0000000000004
 20
1050.935000000002
 30
0.0
 11
930.0000000000004
 21
1050.935000000002
 31
0.0
  0
LINE
  5
344D
330
1F
100
AcDbEntity
  8
KANAMONO_SCREW
100
AcDbLine
 10
930.0000000000004
 20
1050.935000000002
 30
0.0
 11
925.0000000000005
 21
1050.935000000002
 31
0.0
  0
LINE
  5
344E
330
1F
100
AcDbEntity
  8
KANAMONO_SCREW
100
AcDbLine
 10
925.0000000000005
 20
1050.935000000002
 30
0.0
 11
926.0000000000005
 21
1045.935000000002
 31
0.0
  0
LINE
  5
344F
330
1F
100
AcDbEntity
  8
KANAMONO_SCREW
100
AcDbLine
 10
926.0000000000005
 20
1045.935000000002
 30
0.0
 11
926.0000000000005
 21
1042.935000000002
 31
0.0
  0
LINE
  5
3450
330
1F
100
AcDbEntity
  8
KANAMONO_SCREW
100
AcDbLine
 10
926.0000000000005
 20
1042.935000000002
 30
0.0
 11
926.0000000000005
 21
1038.935000000002
 31
0.0
  0
LINE
  5
3451
330
1F
100
AcDbEntity
  8
KANAMONO_SCREW
100
AcDbLine
 10
926.0000000000005
 20
1038.935000000002
 30
0.0
 11
927.740376000001
 21
1038.020356000002
 31
0.0
  0
LINE
  5
3452
330
1F
100
AcDbEntity
  8
KANAMONO_SCREW
100
AcDbLine
 10
927.740376000001
 20
1038.020356000002
 30
0.0
 11
927.6357040000007
 21
1036.023097000002
 31
0.0
  0
LINE
  5
3453
330
1F
100
AcDbEntity
  8
KANAMONO_SCREW
100
AcDbLine
 10
927.6357040000007
 20
1036.023097000002
 30
0.0
 11
925.6384450000009
 21
1036.127769000001
 31
0.0
  0
LINE
  5
3454
330
1F
100
AcDbEntity
  8
KANAMONO_SCREW
100
AcDbLine
 10
925.6384450000009
 20
1036.127769000001
 30
0.0
 11
925.5337730000015
 21
1034.130510000002
 31
0.0
  0
LINE
  5
3455
330
1F
100
AcDbEntity
  8
KANAMONO_SCREW
100
AcDbLine
 10
925.5337730000015
 20
1034.130510000002
 30
0.0
 11
927.4786970000009
 21
1033.027208000002
 31
0.0
  0
LINE
  5
3456
330
1F
100
AcDbEntity
  8
KANAMONO_SCREW
100
AcDbLine
 10
927.4786970000009
 20
1033.027208000002
 30
0.0
 11
927.3740250000015
 21
1031.029949000002
 31
0.0
  0
LINE
  5
3457
330
1F
100
AcDbEntity
  8
KANAMONO_SCREW
100
AcDbLine
 10
927.3740250000015
 20
1031.029949000002
 30
0.0
 11
925.3767660000017
 21
1031.134621000002
 31
0.0
  0
LINE
  5
3458
330
1F
100
AcDbEntity
  8
KANAMONO_SCREW
100
AcDbLine
 10
925.3767660000017
 20
1031.134621000002
 30
0.0
 11
925.2720940000003
 21
1029.137362000002
 31
0.0
  0
LINE
  5
3459
330
1F
100
AcDbEntity
  8
KANAMONO_SCREW
100
AcDbLine
 10
925.2720940000003
 20
1029.137362000002
 30
0.0
 11
927.2170170000013
 21
1028.034060000001
 31
0.0
  0
LINE
  5
345A
330
1F
100
AcDbEntity
  8
KANAMONO_SCREW
100
AcDbLine
 10
927.2170170000013
 20
1028.034060000001
 30
0.0
 11
927.1123450000009
 21
1026.036801000001
 31
0.0
  0
LINE
  5
345B
330
1F
100
AcDbEntity
  8
KANAMONO_SCREW
100
AcDbLine
 10
927.1123450000009
 20
1026.036801000001
 30
0.0
 11
925.1150860000002
 21
1026.141473000002
 31
0.0
  0
LINE
  5
345C
330
1F
100
AcDbEntity
  8
KANAMONO_SCREW
100
AcDbLine
 10
925.1150860000002
 20
1026.141473000002
 30
0.0
 11
925.0104140000008
 21
1024.144214000001
 31
0.0
  0
LINE
  5
345D
330
1F
100
AcDbEntity
  8
KANAMONO_SCREW
100
AcDbLine
 10
925.0104140000008
 20
1024.144214000001
 30
0.0
 11
926.9553370000016
 21
1023.040913000001
 31
0.0
  0
LINE
  5
345E
330
1F
100
AcDbEntity
  8
KANAMONO_SCREW
100
AcDbLine
 10
926.9553370000016
 20
1023.040913000001
 30
0.0
 11
926.8506650000004
 21
1021.043654000002
 31
0.0
  0
LINE
  5
345F
330
1F
100
AcDbEntity
  8
KANAMONO_SCREW
100
AcDbLine
 10
926.8506650000004
 20
1021.043654000002
 30
0.0
 11
924.8534060000006
 21
1021.148326000001
 31
0.0
  0
LINE
  5
3460
330
1F
100
AcDbEntity
  8
KANAMONO_SCREW
100
AcDbLine
 10
924.8534060000006
 20
1021.148326000001
 30
0.0
 11
924.7487340000011
 21
1019.151067000001
 31
0.0
  0
LINE
  5
3461
330
1F
100
AcDbEntity
  8
KANAMONO_SCREW
 48
20.0
100
AcDbLine
 10
917.5000000000004
 20
1062.000000000001
 30
0.0
 11
942.5000000000004
 21
1062.000000000001
 31
0.0
  0
LINE
  5
3462
330
1F
100
AcDbEntity
  8
KANAMONO_SCREW
 48
20.0
100
AcDbLine
 10
942.5000000000004
 20
1062.000000000001
 30
0.0
 11
942.5000000000004
 21
1061.000000000001
 31
0.0
  0
LINE
  5
3463
330
1F
100
AcDbEntity
  8
KANAMONO_SCREW
 48
20.0
100
AcDbLine
 10
942.5000000000004
 20
1061.000000000001
 30
0.0
 11
917.5000000000004
 21
1061.000000000001
 31
0.0
  0
LINE
  5
3464
330
1F
100
AcDbEntity
  8
KANAMONO_SCREW
 48
20.0
100
AcDbLine
 10
917.5000000000004
 20
1061.000000000001
 30
0.0
 11
917.5000000000004
 21
1062.000000000001
 31
0.0
  0
ARC
  5
3465
330
1F
100
AcDbEntity
  8
KANAMONO_SCREW
 48
20.0
100
AcDbCircle
 10
931.5027664403512
 20
1061.871290901952
 30
0.0
 40
2.99999652412171
100
AcDbArc
 50
2.458911608832552
 51
51.38541751255259
  0
ARC
  5
3466
330
1F
100
AcDbEntity
  8
KANAMONO_SCREW
 48
20.0
100
AcDbCircle
 10
930.0000000000013
 20
1060.000002492843
 30
0.0
 40
5.3999975071579
100
AcDbArc
 50
51.31779516688157
 51
128.6822048331184
  0
ARC
  5
3467
330
1F
100
AcDbEntity
  8
KANAMONO_SCREW
 48
20.0
100
AcDbCircle
 10
928.4972335596515
 20
1061.871290901952
 30
0.0
 40
2.999996524121734
100
AcDbArc
 50
128.6145824874474
 51
177.5410883911675
  0
LINE
  5
3468
330
1F
100
AcDbEntity
  8
KANAMONO_SCREW
100
AcDbLine
 10
841.8694440000004
 20
1016.804444000002
 30
0.0
 11
840.0000000000003
 21
1014.994306000001
 31
0.0
  0
LINE
  5
3469
330
1F
100
AcDbEntity
  8
KANAMONO_SCREW
100
AcDbLine
 10
840.0000000000003
 20
1014.994306000001
 30
0.0
 11
838.1305560000004
 21
1016.804444000002
 31
0.0
  0
LINE
  5
346A
330
1F
100
AcDbEntity
  8
KANAMONO_SCREW
100
AcDbLine
 10
844.6232350000013
 20
1031.134621000002
 30
0.0
 11
846.119991000001
 21
1036.134621000002
 31
0.0
  0
LINE
  5
346B
330
1F
100
AcDbEntity
  8
KANAMONO_SCREW
100
AcDbLine
 10
846.119991000001
 20
1036.134621000002
 30
0.0
 11
847.0103910910625
 21
1041.477025546369
 31
0.0
  0
ARC
  5
346C
330
1F
100
AcDbEntity
  8
KANAMONO_SCREW
100
AcDbCircle
 10
846.517194074735
 20
1041.559224948404
 30
0.0
 40
0.5000000386091744
100
AcDbArc
 50
350.5376891728314
 51
170.5376784293662
  0
LINE
  5
346D
330
1F
100
AcDbEntity
  8
KANAMONO_SCREW
100
AcDbLine
 10
846.0239970738207
 20
1041.641424442917
 30
0.0
 11
845.1061970000013
 21
1036.134621000002
 31
0.0
  0
LINE
  5
346E
330
1F
100
AcDbEntity
  8
KANAMONO_SCREW
100
AcDbLine
 10
845.1061970000013
 20
1036.134621000002
 30
0.0
 11
843.5605160000008
 21
1031.078926000001
 31
0.0
  0
LINE
  5
346F
330
1F
100
AcDbEntity
  8
KANAMONO_SCREW
100
AcDbLine
 10
835.3767650000014
 20
1031.134621000002
 30
0.0
 11
833.8800090000008
 21
1036.134621000002
 31
0.0
  0
LINE
  5
3470
330
1F
100
AcDbEntity
  8
KANAMONO_SCREW
100
AcDbLine
 10
833.8800090000008
 20
1036.134621000002
 30
0.0
 11
832.9896089089402
 21
1041.477025546369
 31
0.0
  0
ARC
  5
3471
330
1F
100
AcDbEntity
  8
KANAMONO_SCREW
100
AcDbCircle
 10
833.4828059252677
 20
1041.559224948404
 30
0.0
 40
0.5000000386091744
100
AcDbArc
 50
9.462321570633747
 51
189.4623108271685
  0
LINE
  5
3472
330
1F
100
AcDbEntity
  8
KANAMONO_SCREW
100
AcDbLine
 10
833.9760029261819
 20
1041.641424442917
 30
0.0
 11
834.8938030000013
 21
1036.134621000002
 31
0.0
  0
LINE
  5
3473
330
1F
100
AcDbEntity
  8
KANAMONO_SCREW
100
AcDbLine
 10
834.8938030000013
 20
1036.134621000002
 30
0.0
 11
836.4394840000009
 21
1031.078926000001
 31
0.0
  0
LINE
  5
3474
330
1F
100
AcDbEntity
  8
KANAMONO_SCREW
100
AcDbLine
 10
834.7487340000011
 20
1019.151067000001
 30
0.0
 11
836.6936570000003
 21
1018.047765000002
 31
0.0
  0
LINE
  5
3475
330
1F
100
AcDbEntity
  8
KANAMONO_SCREW
100
AcDbLine
 10
836.6936570000003
 20
1018.047765000002
 30
0.0
 11
836.5889850000007
 21
1016.050506000002
 31
0.0
  0
LINE
  5
3476
330
1F
100
AcDbEntity
  8
KANAMONO_SCREW
100
AcDbLine
 10
836.5889850000007
 20
1016.050506000002
 30
0.0
 11
834.591726000001
 21
1016.155178000001
 31
0.0
  0
LINE
  5
3477
330
1F
100
AcDbEntity
  8
KANAMONO_SCREW
100
AcDbLine
 10
834.591726000001
 20
1016.155178000001
 30
0.0
 11
834.4870540000014
 21
1014.157919000002
 31
0.0
  0
LINE
  5
3478
330
1F
100
AcDbEntity
  8
KANAMONO_SCREW
100
AcDbLine
 10
834.4870540000014
 20
1014.157919000002
 30
0.0
 11
836.3796410000009
 21
1012.055988000001
 31
0.0
  0
LINE
  5
3479
330
1F
100
AcDbEntity
  8
KANAMONO_SCREW
100
AcDbLine
 10
836.3796410000009
 20
1012.055988000001
 30
0.0
 11
837.8775860000009
 21
1011.977484000001
 31
0.0
  0
LINE
  5
347A
330
1F
100
AcDbEntity
  8
KANAMONO_SCREW
100
AcDbLine
 10
837.8775860000009
 20
1011.977484000001
 30
0.0
 11
839.5000000000004
 21
1042.935000000002
 31
0.0
  0
LINE
  5
347B
330
1F
100
AcDbEntity
  8
KANAMONO_SCREW
100
AcDbLine
 10
839.5000000000004
 20
1042.935000000002
 30
0.0
 11
840.0000000000003
 21
1042.935000000002
 31
0.0
  0
LINE
  5
347C
330
1F
100
AcDbEntity
  8
KANAMONO_SCREW
100
AcDbLine
 10
840.0000000000003
 20
1042.935000000002
 30
0.0
 11
840.5000000000004
 21
1042.935000000002
 31
0.0
  0
LINE
  5
347D
330
1F
100
AcDbEntity
  8
KANAMONO_SCREW
100
AcDbLine
 10
840.5000000000004
 20
1042.935000000002
 30
0.0
 11
842.1224150000002
 21
1011.977484000001
 31
0.0
  0
LINE
  5
347E
330
1F
100
AcDbEntity
  8
KANAMONO_SCREW
100
AcDbLine
 10
842.1224150000002
 20
1011.977484000001
 30
0.0
 11
843.6203590000008
 21
1012.055988000001
 31
0.0
  0
LINE
  5
347F
330
1F
100
AcDbEntity
  8
KANAMONO_SCREW
100
AcDbLine
 10
843.6203590000008
 20
1012.055988000001
 30
0.0
 11
845.5129460000012
 21
1014.157919000002
 31
0.0
  0
LINE
  5
3480
330
1F
100
AcDbEntity
  8
KANAMONO_SCREW
100
AcDbLine
 10
845.5129460000012
 20
1014.157919000002
 30
0.0
 11
845.4082750000003
 21
1016.155178000001
 31
0.0
  0
LINE
  5
3481
330
1F
100
AcDbEntity
  8
KANAMONO_SCREW
100
AcDbLine
 10
845.4082750000003
 20
1016.155178000001
 30
0.0
 11
843.4110160000004
 21
1016.050506000002
 31
0.0
  0
LINE
  5
3482
330
1F
100
AcDbEntity
  8
KANAMONO_SCREW
100
AcDbLine
 10
843.4110160000004
 20
1016.050506000002
 30
0.0
 11
843.306344000001
 21
1018.047765000002
 31
0.0
  0
LINE
  5
3483
330
1F
100
AcDbEntity
  8
KANAMONO_SCREW
100
AcDbLine
 10
843.306344000001
 20
1018.047765000002
 30
0.0
 11
845.2512670000009
 21
1019.151067000001
 31
0.0
  0
LINE
  5
3484
330
1F
100
AcDbEntity
  8
KANAMONO_SCREW
100
AcDbLine
 10
845.2512670000009
 20
1019.151067000001
 30
0.0
 11
845.1465950000006
 21
1021.148326000001
 31
0.0
  0
LINE
  5
3485
330
1F
100
AcDbEntity
  8
KANAMONO_SCREW
100
AcDbLine
 10
845.1465950000006
 20
1021.148326000001
 30
0.0
 11
843.1493360000008
 21
1021.043654000002
 31
0.0
  0
LINE
  5
3486
330
1F
100
AcDbEntity
  8
KANAMONO_SCREW
100
AcDbLine
 10
843.1493360000008
 20
1021.043654000002
 30
0.0
 11
843.0446640000013
 21
1023.040913000001
 31
0.0
  0
LINE
  5
3487
330
1F
100
AcDbEntity
  8
KANAMONO_SCREW
100
AcDbLine
 10
843.0446640000013
 20
1023.040913000001
 30
0.0
 11
844.9895870000004
 21
1024.144214000001
 31
0.0
  0
LINE
  5
3488
330
1F
100
AcDbEntity
  8
KANAMONO_SCREW
100
AcDbLine
 10
844.9895870000004
 20
1024.144214000001
 30
0.0
 11
844.8849150000009
 21
1026.141473000002
 31
0.0
  0
LINE
  5
3489
330
1F
100
AcDbEntity
  8
KANAMONO_SCREW
100
AcDbLine
 10
844.8849150000009
 20
1026.141473000002
 30
0.0
 11
842.8876560000013
 21
1026.036801000001
 31
0.0
  0
LINE
  5
348A
330
1F
100
AcDbEntity
  8
KANAMONO_SCREW
100
AcDbLine
 10
842.8876560000013
 20
1026.036801000001
 30
0.0
 11
842.7829840000008
 21
1028.034060000001
 31
0.0
  0
LINE
  5
348B
330
1F
100
AcDbEntity
  8
KANAMONO_SCREW
100
AcDbLine
 10
842.7829840000008
 20
1028.034060000001
 30
0.0
 11
844.7279070000009
 21
1029.137362000002
 31
0.0
  0
LINE
  5
348C
330
1F
100
AcDbEntity
  8
KANAMONO_SCREW
100
AcDbLine
 10
844.7279070000009
 20
1029.137362000002
 30
0.0
 11
844.6232350000013
 21
1031.134621000002
 31
0.0
  0
LINE
  5
348D
330
1F
100
AcDbEntity
  8
KANAMONO_SCREW
100
AcDbLine
 10
844.6232350000013
 20
1031.134621000002
 30
0.0
 11
842.6259760000016
 21
1031.029949000002
 31
0.0
  0
LINE
  5
348E
330
1F
100
AcDbEntity
  8
KANAMONO_SCREW
100
AcDbLine
 10
842.6259760000016
 20
1031.029949000002
 30
0.0
 11
842.5213040000002
 21
1033.027208000002
 31
0.0
  0
LINE
  5
348F
330
1F
100
AcDbEntity
  8
KANAMONO_SCREW
100
AcDbLine
 10
842.5213040000002
 20
1033.027208000002
 30
0.0
 11
844.4662270000012
 21
1034.130510000002
 31
0.0
  0
LINE
  5
3490
330
1F
100
AcDbEntity
  8
KANAMONO_SCREW
100
AcDbLine
 10
844.4662270000012
 20
1034.130510000002
 30
0.0
 11
844.3615550000009
 21
1036.127769000001
 31
0.0
  0
LINE
  5
3491
330
1F
100
AcDbEntity
  8
KANAMONO_SCREW
100
AcDbLine
 10
844.3615550000009
 20
1036.127769000001
 30
0.0
 11
842.3642960000011
 21
1036.023097000002
 31
0.0
  0
LINE
  5
3492
330
1F
100
AcDbEntity
  8
KANAMONO_SCREW
100
AcDbLine
 10
842.3642960000011
 20
1036.023097000002
 30
0.0
 11
842.2596240000007
 21
1038.020356000002
 31
0.0
  0
LINE
  5
3493
330
1F
100
AcDbEntity
  8
KANAMONO_SCREW
100
AcDbLine
 10
842.2596240000007
 20
1038.020356000002
 30
0.0
 11
844.0000000000004
 21
1038.935000000002
 31
0.0
  0
LINE
  5
3494
330
1F
100
AcDbEntity
  8
KANAMONO_SCREW
100
AcDbLine
 10
844.0000000000004
 20
1038.935000000002
 30
0.0
 11
844.0000000000004
 21
1042.935000000002
 31
0.0
  0
LINE
  5
3495
330
1F
100
AcDbEntity
  8
KANAMONO_SCREW
100
AcDbLine
 10
844.0000000000004
 20
1042.935000000002
 30
0.0
 11
844.0000000000004
 21
1045.935000000002
 31
0.0
  0
LINE
  5
3496
330
1F
100
AcDbEntity
  8
KANAMONO_SCREW
100
AcDbLine
 10
844.0000000000004
 20
1045.935000000002
 30
0.0
 11
845.0000000000004
 21
1050.935000000002
 31
0.0
  0
LINE
  5
3497
330
1F
100
AcDbEntity
  8
KANAMONO_SCREW
100
AcDbLine
 10
845.0000000000004
 20
1050.935000000002
 30
0.0
 11
840.0000000000003
 21
1050.935000000002
 31
0.0
  0
LINE
  5
3498
330
1F
100
AcDbEntity
  8
KANAMONO_SCREW
100
AcDbLine
 10
840.0000000000003
 20
1050.935000000002
 30
0.0
 11
835.0000000000004
 21
1050.935000000002
 31
0.0
  0
LINE
  5
3499
330
1F
100
AcDbEntity
  8
KANAMONO_SCREW
100
AcDbLine
 10
835.0000000000004
 20
1050.935000000002
 30
0.0
 11
836.0000000000004
 21
1045.935000000002
 31
0.0
  0
LINE
  5
349A
330
1F
100
AcDbEntity
  8
KANAMONO_SCREW
100
AcDbLine
 10
836.0000000000004
 20
1045.935000000002
 30
0.0
 11
836.0000000000004
 21
1042.935000000002
 31
0.0
  0
LINE
  5
349B
330
1F
100
AcDbEntity
  8
KANAMONO_SCREW
100
AcDbLine
 10
836.0000000000004
 20
1042.935000000002
 30
0.0
 11
836.0000000000004
 21
1038.935000000002
 31
0.0
  0
LINE
  5
349C
330
1F
100
AcDbEntity
  8
KANAMONO_SCREW
100
AcDbLine
 10
836.0000000000004
 20
1038.935000000002
 30
0.0
 11
837.740376000001
 21
1038.020356000002
 31
0.0
  0
LINE
  5
349D
330
1F
100
AcDbEntity
  8
KANAMONO_SCREW
100
AcDbLine
 10
837.740376000001
 20
1038.020356000002
 30
0.0
 11
837.6357040000007
 21
1036.023097000002
 31
0.0
  0
LINE
  5
349E
330
1F
100
AcDbEntity
  8
KANAMONO_SCREW
100
AcDbLine
 10
837.6357040000007
 20
1036.023097000002
 30
0.0
 11
835.6384450000009
 21
1036.127769000001
 31
0.0
  0
LINE
  5
349F
330
1F
100
AcDbEntity
  8
KANAMONO_SCREW
100
AcDbLine
 10
835.6384450000009
 20
1036.127769000001
 30
0.0
 11
835.5337730000014
 21
1034.130510000002
 31
0.0
  0
LINE
  5
34A0
330
1F
100
AcDbEntity
  8
KANAMONO_SCREW
100
AcDbLine
 10
835.5337730000014
 20
1034.130510000002
 30
0.0
 11
837.4786970000009
 21
1033.027208000002
 31
0.0
  0
LINE
  5
34A1
330
1F
100
AcDbEntity
  8
KANAMONO_SCREW
100
AcDbLine
 10
837.4786970000009
 20
1033.027208000002
 30
0.0
 11
837.3740250000015
 21
1031.029949000002
 31
0.0
  0
LINE
  5
34A2
330
1F
100
AcDbEntity
  8
KANAMONO_SCREW
100
AcDbLine
 10
837.3740250000015
 20
1031.029949000002
 30
0.0
 11
835.3767660000016
 21
1031.134621000002
 31
0.0
  0
LINE
  5
34A3
330
1F
100
AcDbEntity
  8
KANAMONO_SCREW
100
AcDbLine
 10
835.3767660000016
 20
1031.134621000002
 30
0.0
 11
835.2720940000004
 21
1029.137362000002
 31
0.0
  0
LINE
  5
34A4
330
1F
100
AcDbEntity
  8
KANAMONO_SCREW
100
AcDbLine
 10
835.2720940000004
 20
1029.137362000002
 30
0.0
 11
837.2170170000012
 21
1028.034060000001
 31
0.0
  0
LINE
  5
34A5
330
1F
100
AcDbEntity
  8
KANAMONO_SCREW
100
AcDbLine
 10
837.2170170000012
 20
1028.034060000001
 30
0.0
 11
837.1123450000009
 21
1026.036801000001
 31
0.0
  0
LINE
  5
34A6
330
1F
100
AcDbEntity
  8
KANAMONO_SCREW
100
AcDbLine
 10
837.1123450000009
 20
1026.036801000001
 30
0.0
 11
835.1150860000002
 21
1026.141473000002
 31
0.0
  0
LINE
  5
34A7
330
1F
100
AcDbEntity
  8
KANAMONO_SCREW
100
AcDbLine
 10
835.1150860000002
 20
1026.141473000002
 30
0.0
 11
835.0104140000008
 21
1024.144214000001
 31
0.0
  0
LINE
  5
34A8
330
1F
100
AcDbEntity
  8
KANAMONO_SCREW
100
AcDbLine
 10
835.0104140000008
 20
1024.144214000001
 30
0.0
 11
836.9553370000016
 21
1023.040913000001
 31
0.0
  0
LINE
  5
34A9
330
1F
100
AcDbEntity
  8
KANAMONO_SCREW
100
AcDbLine
 10
836.9553370000016
 20
1023.040913000001
 30
0.0
 11
836.8506650000004
 21
1021.043654000002
 31
0.0
  0
LINE
  5
34AA
330
1F
100
AcDbEntity
  8
KANAMONO_SCREW
100
AcDbLine
 10
836.8506650000004
 20
1021.043654000002
 30
0.0
 11
834.8534060000005
 21
1021.148326000001
 31
0.0
  0
LINE
  5
34AB
330
1F
100
AcDbEntity
  8
KANAMONO_SCREW
100
AcDbLine
 10
834.8534060000005
 20
1021.148326000001
 30
0.0
 11
834.7487340000011
 21
1019.151067000001
 31
0.0
  0
LINE
  5
34AC
330
1F
100
AcDbEntity
  8
KANAMONO_SCREW
 48
20.0
100
AcDbLine
 10
827.5000000000003
 20
1062.000000000001
 30
0.0
 11
852.5000000000003
 21
1062.000000000001
 31
0.0
  0
LINE
  5
34AD
330
1F
100
AcDbEntity
  8
KANAMONO_SCREW
 48
20.0
100
AcDbLine
 10
852.5000000000003
 20
1062.000000000001
 30
0.0
 11
852.5000000000003
 21
1061.000000000001
 31
0.0
  0
LINE
  5
34AE
330
1F
100
AcDbEntity
  8
KANAMONO_SCREW
 48
20.0
100
AcDbLine
 10
852.5000000000003
 20
1061.000000000001
 30
0.0
 11
827.5000000000003
 21
1061.000000000001
 31
0.0
  0
LINE
  5
34AF
330
1F
100
AcDbEntity
  8
KANAMONO_SCREW
 48
20.0
100
AcDbLine
 10
827.5000000000003
 20
1061.000000000001
 30
0.0
 11
827.5000000000003
 21
1062.000000000001
 31
0.0
  0
ARC
  5
34B0
330
1F
100
AcDbEntity
  8
KANAMONO_SCREW
 48
20.0
100
AcDbCircle
 10
841.5027664403512
 20
1061.871290901952
 30
0.0
 40
2.99999652412171
100
AcDbArc
 50
2.458911608832552
 51
51.38541751255259
  0
ARC
  5
34B1
330
1F
100
AcDbEntity
  8
KANAMONO_SCREW
 48
20.0
100
AcDbCircle
 10
840.0000000000014
 20
1060.000002492843
 30
0.0
 40
5.3999975071579
100
AcDbArc
 50
51.31779516688157
 51
128.6822048331184
  0
ARC
  5
34B2
330
1F
100
AcDbEntity
  8
KANAMONO_SCREW
 48
20.0
100
AcDbCircle
 10
838.4972335596515
 20
1061.871290901952
 30
0.0
 40
2.999996524121734
100
AcDbArc
 50
128.6145824874474
 51
177.5410883911675
  0
LINE
  5
34B3
330
1F
100
AcDbEntity
  8
KASAGI
  6
Continuous
100
AcDbLine
 10
812.0000000000004
 20
1061.000000000001
 30
0.0
 11
869.0000000000004
 21
1061.000000000001
 31
0.0
  0
LINE
  5
34B4
330
1F
100
AcDbEntity
  8
KASAGI
  6
Continuous
100
AcDbLine
 10
869.0000000000004
 20
1061.000000000001
 30
0.0
 11
870.0000000000004
 21
1060.000000000001
 31
0.0
  0
LINE
  5
34B5
330
1F
100
AcDbEntity
  8
KASAGI
  6
Continuous
100
AcDbLine
 10
870.0000000000004
 20
1060.000000000001
 30
0.0
 11
884.5000000000004
 21
1060.000000000001
 31
0.0
  0
LINE
  5
34B6
330
1F
100
AcDbEntity
  8
KASAGI
  6
Continuous
100
AcDbLine
 10
884.5000000000004
 20
1060.000000000001
 30
0.0
 11
885.0000000000004
 21
1059.500000000001
 31
0.0
  0
LINE
  5
34B7
330
1F
100
AcDbEntity
  8
KASAGI
  6
Continuous
100
AcDbLine
 10
885.0000000000004
 20
1059.500000000001
 30
0.0
 11
885.5000000000003
 21
1060.000000000001
 31
0.0
  0
LINE
  5
34B8
330
1F
100
AcDbEntity
  8
KASAGI
  6
Continuous
100
AcDbLine
 10
885.5000000000003
 20
1060.000000000001
 30
0.0
 11
900.0000000000005
 21
1060.000000000001
 31
0.0
  0
LINE
  5
34B9
330
1F
100
AcDbEntity
  8
KASAGI
  6
Continuous
100
AcDbLine
 10
900.0000000000005
 20
1060.000000000001
 30
0.0
 11
901.0000000000005
 21
1061.000000000001
 31
0.0
  0
LINE
  5
34BA
330
1F
100
AcDbEntity
  8
KASAGI
  6
Continuous
100
AcDbLine
 10
901.0000000000005
 20
1061.000000000001
 30
0.0
 11
958.0000000000005
 21
1061.000000000001
 31
0.0
  0
LINE
  5
34BB
330
1F
100
AcDbEntity
  8
KASAGI
  6
Continuous
100
AcDbLine
 10
958.0000000000005
 20
1061.000000000001
 30
0.0
 11
960.0000000000004
 21
1059.000000000001
 31
0.0
  0
LINE
  5
34BC
330
1F
100
AcDbEntity
  8
KASAGI
  6
Continuous
100
AcDbLine
 10
960.0000000000004
 20
1059.000000000001
 30
0.0
 11
975.0999999999999
 21
1059.0
 31
0.0
  0
ARC
  5
34BD
330
1F
100
AcDbEntity
  8
KASAGI
  6
Continuous
100
AcDbCircle
 10
975.0999999999994
 20
1060.0
 30
0.0
 40
1.000000000000454
100
AcDbArc
 50
270.000000000026
 51
0.0
  0
LINE
  5
34BE
330
1F
100
AcDbEntity
  8
KASAGI
  6
Continuous
100
AcDbLine
 10
976.0999999999999
 20
1060.0
 30
0.0
 11
976.0999999999999
 21
1061.9
 31
0.0
  0
ARC
  5
34BF
330
1F
100
AcDbEntity
  8
KASAGI
  6
Continuous
100
AcDbCircle
 10
975.0999999999999
 20
1061.9
 30
0.0
 40
1.0
100
AcDbArc
 50
0.0
 51
90.0
  0
LINE
  5
34C0
330
1F
100
AcDbEntity
  8
KASAGI
  6
Continuous
100
AcDbLine
 10
975.0999999999999
 20
1062.9
 30
0.0
 11
972.1
 21
1062.9
 31
0.0
  0
ARC
  5
34C1
330
1F
100
AcDbEntity
  8
KASAGI
  6
Continuous
100
AcDbCircle
 10
972.1
 20
1063.4
 30
0.0
 40
0.5
100
AcDbArc
 50
180.0
 51
270.0
  0
LINE
  5
34C2
330
1F
100
AcDbEntity
  8
KASAGI
  6
Continuous
100
AcDbLine
 10
971.5999999999999
 20
1063.4
 30
0.0
 11
971.5999999999999
 21
1064.9
 31
0.0
  0
ARC
  5
34C3
330
1F
100
AcDbEntity
  8
KASAGI
  6
Continuous
100
AcDbCircle
 10
972.1
 20
1064.9
 30
0.0
 40
0.5
100
AcDbArc
 50
90.0
 51
180.0
  0
LINE
  5
34C4
330
1F
100
AcDbEntity
  8
KASAGI
  6
Continuous
100
AcDbLine
 10
972.1
 20
1065.4
 30
0.0
 11
983.0999999999999
 21
1065.4
 31
0.0
  0
ARC
  5
34C5
330
1F
100
AcDbEntity
  8
KASAGI
  6
Continuous
100
AcDbCircle
 10
983.0999999999999
 20
1064.9
 30
0.0
 40
0.5
100
AcDbArc
 50
0.0
 51
90.0
  0
LINE
  5
34C6
330
1F
100
AcDbEntity
  8
KASAGI
  6
Continuous
100
AcDbLine
 10
983.5999999999998
 20
1064.9
 30
0.0
 11
983.5999999999998
 21
1063.4
 31
0.0
  0
ARC
  5
34C7
330
1F
100
AcDbEntity
  8
KASAGI
  6
Continuous
100
AcDbCircle
 10
983.0999999999999
 20
1063.4
 30
0.0
 40
0.5
100
AcDbArc
 50
270.0
 51
0.0
  0
LINE
  5
34C8
330
1F
100
AcDbEntity
  8
KASAGI
  6
Continuous
100
AcDbLine
 10
983.0999999999999
 20
1062.9
 30
0.0
 11
980.1
 21
1062.9
 31
0.0
  0
ARC
  5
34C9
330
1F
100
AcDbEntity
  8
KASAGI
  6
Continuous
100
AcDbCircle
 10
980.1000000000001
 20
1061.9
 30
0.0
 40
1.000000000000227
100
AcDbArc
 50
90.00000000001303
 51
180.000000000013
  0
LINE
  5
34CA
330
1F
100
AcDbEntity
  8
KASAGI
  6
Continuous
100
AcDbLine
 10
979.0999999999998
 20
1061.899999999999
 30
0.0
 11
979.0999999999998
 21
1060.0
 31
0.0
  0
ARC
  5
34CB
330
1F
100
AcDbEntity
  8
KASAGI
  6
Continuous
100
AcDbCircle
 10
980.1000000000003
 20
1060.0
 30
0.0
 40
1.000000000000454
100
AcDbArc
 50
180.0
 51
269.9999999999739
  0
LINE
  5
34CC
330
1F
100
AcDbEntity
  8
KASAGI
  6
Continuous
100
AcDbLine
 10
980.1
 20
1059.0
 30
0.0
 11
996.500980486407
 21
1059.0
 31
0.0
  0
ARC
  5
34CD
330
1F
100
AcDbEntity
  8
KASAGI
  6
Continuous
100
AcDbCircle
 10
996.500980486407
 20
1054.0
 30
0.0
 40
5.0
100
AcDbArc
 50
11.3099324740243
 51
90.0
  0
LINE
  5
34CE
330
1F
100
AcDbEntity
  8
KASAGI
  6
Continuous
100
AcDbLine
 10
1001.403883864862
 20
1054.980580675691
 30
0.0
 11
1007.6
 21
1024.0
 31
0.0
  0
LINE
  5
34CF
330
1F
100
AcDbEntity
  8
KASAGI
  6
Continuous
100
AcDbLine
 10
1007.6
 20
1024.0
 30
0.0
 11
1007.6
 21
1019.536184355013
 31
0.0
  0
ARC
  5
34D0
330
1F
100
AcDbEntity
  8
KASAGI
  6
Continuous
100
AcDbCircle
 10
1007.1
 20
1019.536184355013
 30
0.0
 40
0.5
100
AcDbArc
 50
266.0000000000165
 51
0.0
  0
LINE
  5
34D1
330
1F
100
AcDbEntity
  8
KASAGI
  6
Continuous
100
AcDbLine
 10
1007.065121763128
 20
1019.037402329883
 30
0.0
 11
1004.994243897089
 21
1019.182212216979
 31
0.0
  0
LINE
  5
34D2
330
1F
100
AcDbEntity
  8
KASAGI
  6
Continuous
100
AcDbLine
 10
1004.994243897089
 20
1019.182212216979
 30
0.0
 11
998.2326282729159
 21
1052.990290337845
 31
0.0
  0
ARC
  5
34D3
330
1F
100
AcDbEntity
  8
KASAGI
  6
Continuous
100
AcDbCircle
 10
995.7811765836902
 20
1052.5
 30
0.0
 40
2.499999999998398
100
AcDbArc
 50
11.30993247402634
 51
90.00000000000522
  0
LINE
  5
34D4
330
1F
100
AcDbEntity
  8
KASAGI
  6
Continuous
100
AcDbLine
 10
995.78117658369
 20
1054.999999999998
 30
0.0
 11
774.2188234163108
 21
1055.0
 31
0.0
  0
ARC
  5
34D5
330
1F
100
AcDbEntity
  8
KASAGI
  6
Continuous
100
AcDbCircle
 10
774.2188234163104
 20
1052.5
 30
0.0
 40
2.5
100
AcDbArc
 50
89.99999999998959
 51
168.6900675259757
  0
LINE
  5
34D6
330
1F
100
AcDbEntity
  8
KASAGI
  6
Continuous
100
AcDbLine
 10
771.7673717270831
 20
1052.990290337845
 30
0.0
 11
765.0057561029102
 21
1019.182212216979
 31
0.0
  0
LINE
  5
34D7
330
1F
100
AcDbEntity
  8
KASAGI
  6
Continuous
100
AcDbLine
 10
765.0057561029102
 20
1019.182212216979
 30
0.0
 11
762.934878236872
 21
1019.037402329883
 31
0.0
  0
ARC
  5
34D8
330
1F
100
AcDbEntity
  8
KASAGI
  6
Continuous
100
AcDbCircle
 10
762.8999999999998
 20
1019.536184355012
 30
0.0
 40
0.4999999999997796
100
AcDbArc
 50
179.9999999999739
 51
274.0000000000114
  0
LINE
  5
34D9
330
1F
100
AcDbEntity
  8
KASAGI
  6
Continuous
100
AcDbLine
 10
762.4000000000001
 20
1019.536184355013
 30
0.0
 11
762.4000000000001
 21
1024.0
 31
0.0
  0
LINE
  5
34DA
330
1F
100
AcDbEntity
  8
KASAGI
  6
Continuous
100
AcDbLine
 10
762.4000000000001
 20
1024.0
 30
0.0
 11
768.5961161351383
 21
1054.980580675691
 31
0.0
  0
ARC
  5
34DB
330
1F
100
AcDbEntity
  8
KASAGI
  6
Continuous
100
AcDbCircle
 10
773.4990195135917
 20
1054.0
 30
0.0
 40
4.999999999998848
100
AcDbArc
 50
89.99999999998697
 51
168.6900675259757
  0
LINE
  5
34DC
330
1F
100
AcDbEntity
  8
KASAGI
  6
Continuous
100
AcDbLine
 10
773.4990195135929
 20
1058.999999999999
 30
0.0
 11
789.9
 21
1059.0
 31
0.0
  0
ARC
  5
34DD
330
1F
100
AcDbEntity
  8
KASAGI
  6
Continuous
100
AcDbCircle
 10
789.9
 20
1060.0
 30
0.0
 40
1.0
100
AcDbArc
 50
270.0
 51
0.0
  0
LINE
  5
34DE
330
1F
100
AcDbEntity
  8
KASAGI
  6
Continuous
100
AcDbLine
 10
790.9
 20
1060.0
 30
0.0
 11
790.9
 21
1069.3
 31
0.0
  0
ARC
  5
34DF
330
1F
100
AcDbEntity
  8
KASAGI
  6
Continuous
100
AcDbCircle
 10
789.9000000000009
 20
1069.3
 30
0.0
 40
0.9999999999990905
100
AcDbArc
 50
0.0
 51
90.0
  0
LINE
  5
34E0
330
1F
100
AcDbEntity
  8
KASAGI
  6
Continuous
100
AcDbLine
 10
789.9000000000009
 20
1070.299999999999
 30
0.0
 11
786.900000000001
 21
1070.299999999999
 31
0.0
  0
ARC
  5
34E1
330
1F
100
AcDbEntity
  8
KASAGI
  6
Continuous
100
AcDbCircle
 10
786.900000000001
 20
1070.799999999999
 30
0.0
 40
0.5
100
AcDbArc
 50
180.0
 51
270.0
  0
LINE
  5
34E2
330
1F
100
AcDbEntity
  8
KASAGI
  6
Continuous
100
AcDbLine
 10
786.400000000001
 20
1070.799999999999
 30
0.0
 11
786.400000000001
 21
1072.299999999999
 31
0.0
  0
ARC
  5
34E3
330
1F
100
AcDbEntity
  8
KASAGI
  6
Continuous
100
AcDbCircle
 10
786.900000000001
 20
1072.299999999999
 30
0.0
 40
0.5
100
AcDbArc
 50
90.0
 51
180.0
  0
LINE
  5
34E4
330
1F
100
AcDbEntity
  8
KASAGI
  6
Continuous
100
AcDbLine
 10
786.900000000001
 20
1072.799999999999
 30
0.0
 11
797.9000000000009
 21
1072.799999999999
 31
0.0
  0
ARC
  5
34E5
330
1F
100
AcDbEntity
  8
KASAGI
  6
Continuous
100
AcDbCircle
 10
797.9000000000009
 20
1072.299999999999
 30
0.0
 40
0.5
100
AcDbArc
 50
0.0
 51
90.0
  0
LINE
  5
34E6
330
1F
100
AcDbEntity
  8
KASAGI
  6
Continuous
100
AcDbLine
 10
798.4000000000009
 20
1072.299999999999
 30
0.0
 11
798.4000000000009
 21
1070.799999999999
 31
0.0
  0
ARC
  5
34E7
330
1F
100
AcDbEntity
  8
KASAGI
  6
Continuous
100
AcDbCircle
 10
797.9000000000009
 20
1070.799999999999
 30
0.0
 40
0.5
100
AcDbArc
 50
270.0
 51
0.0
  0
LINE
  5
34E8
330
1F
100
AcDbEntity
  8
KASAGI
  6
Continuous
100
AcDbLine
 10
797.9000000000009
 20
1070.299999999999
 30
0.0
 11
794.900000000001
 21
1070.299999999999
 31
0.0
  0
ARC
  5
34E9
330
1F
100
AcDbEntity
  8
KASAGI
  6
Continuous
100
AcDbCircle
 10
794.900000000001
 20
1069.299999999999
 30
0.0
 40
1.0
100
AcDbArc
 50
90.0
 51
180.0
  0
LINE
  5
34EA
330
1F
100
AcDbEntity
  8
KASAGI
  6
Continuous
100
AcDbLine
 10
793.9000000000009
 20
1069.299999999999
 30
0.0
 11
793.9
 21
1060.0
 31
0.0
  0
ARC
  5
34EB
330
1F
100
AcDbEntity
  8
KASAGI
  6
Continuous
100
AcDbCircle
 10
794.9000000000006
 20
1060.0
 30
0.0
 40
1.000000000000454
100
AcDbArc
 50
180.0
 51
269.9999999999739
  0
LINE
  5
34EC
330
1F
100
AcDbEntity
  8
KASAGI
  6
Continuous
100
AcDbLine
 10
794.9
 20
1059.0
 30
0.0
 11
810.0000000000004
 21
1059.0
 31
0.0
  0
LINE
  5
34ED
330
1F
100
AcDbEntity
  8
KASAGI
  6
Continuous
100
AcDbLine
 10
810.0000000000004
 20
1059.0
 30
0.0
 11
812.0000000000004
 21
1061.000000000001
 31
0.0
  0
LINE
  5
34EE
330
1F
100
AcDbEntity
  8
KASAGI
100
AcDbLine
 10
787.400000000001
 20
1076.00207629275
 30
0.0
 11
787.400000000001
 21
1072.799999999999
 31
0.0
  0
LINE
  5
34EF
330
1F
100
AcDbEntity
  8
KASAGI
100
AcDbLine
 10
787.400000000001
 20
1072.799999999999
 30
0.0
 11
797.4000000000009
 21
1072.799999999999
 31
0.0
  0
LINE
  5
34F0
330
1F
100
AcDbEntity
  8
KASAGI
100
AcDbLine
 10
797.4000000000009
 20
1072.799999999999
 30
0.0
 11
797.4000000000009
 21
1075.702560627668
 31
0.0
  0
LINE
  5
34F1
330
1F
100
AcDbEntity
  8
KASAGI
100
AcDbLine
 10
797.4000000000009
 20
1075.702560627668
 30
0.0
 11
790.0000000000004
 21
1075.99856060559
 31
0.0
  0
LINE
  5
34F2
330
1F
100
AcDbEntity
  8
KASAGI
100
AcDbLine
 10
790.0000000000004
 20
1075.99856060559
 30
0.0
 11
787.400000000001
 21
1076.00207629275
 31
0.0
  0
LINE
  5
34F3
330
1F
100
AcDbEntity
  8
KASAGI
100
AcDbLine
 10
972.5999999999999
 20
1068.694561150386
 30
0.0
 11
972.5999999999999
 21
1065.4
 31
0.0
  0
LINE
  5
34F4
330
1F
100
AcDbEntity
  8
KASAGI
100
AcDbLine
 10
972.5999999999999
 20
1065.4
 30
0.0
 11
982.5999999999998
 21
1065.4
 31
0.0
  0
LINE
  5
34F5
330
1F
100
AcDbEntity
  8
KASAGI
100
AcDbLine
 10
982.5999999999998
 20
1065.4
 30
0.0
 11
982.5999999999998
 21
1068.294561180221
 31
0.0
  0
LINE
  5
34F6
330
1F
100
AcDbEntity
  8
KASAGI
100
AcDbLine
 10
982.5999999999998
 20
1068.294561180221
 30
0.0
 11
972.5999999999999
 21
1068.694561150386
 31
0.0
  0
LINE
  5
34F7
330
1F
100
AcDbEntity
  8
KASAGI
  6
Continuous
100
AcDbLine
 10
972.6000000000007
 20
1067.892879136048
 30
0.0
 11
973.3708480929221
 21
1068.663727228969
 31
0.0
  0
LINE
  5
34F8
330
1F
100
AcDbEntity
  8
KASAGI
  6
Continuous
100
AcDbLine
 10
972.5999999999999
 20
1066.545840717887
 30
0.0
 11
974.6660773448688
 21
1068.611918062756
 31
0.0
  0
LINE
  5
34F9
330
1F
100
AcDbEntity
  8
KASAGI
  6
Continuous
100
AcDbLine
 10
972.8011977002744
 20
1065.4
 30
0.0
 11
975.9613065968169
 21
1068.560108896543
 31
0.0
  0
LINE
  5
34FA
330
1F
100
AcDbEntity
  8
KASAGI
  6
Continuous
100
AcDbLine
 10
974.1482361184344
 20
1065.4
 30
0.0
 11
977.2565358487627
 21
1068.508299730329
 31
0.0
  0
LINE
  5
34FB
330
1F
100
AcDbEntity
  8
KASAGI
  6
Continuous
100
AcDbLine
 10
975.4952745365953
 20
1065.400000000001
 30
0.0
 11
978.5517651007094
 21
1068.456490564115
 31
0.0
  0
LINE
  5
34FC
330
1F
100
AcDbEntity
  8
KASAGI
  6
Continuous
100
AcDbLine
 10
976.8423129547558
 20
1065.400000000001
 30
0.0
 11
979.8469943526566
 21
1068.404681397901
 31
0.0
  0
LINE
  5
34FD
330
1F
100
AcDbEntity
  8
KASAGI
  6
Continuous
100
AcDbLine
 10
978.189351372916
 20
1065.400000000001
 30
0.0
 11
981.1422236046032
 21
1068.352872231688
 31
0.0
  0
LINE
  5
34FE
330
1F
100
AcDbEntity
  8
KASAGI
  6
Continuous
100
AcDbLine
 10
979.536389791076
 20
1065.400000000001
 30
0.0
 11
982.4374528565499
 21
1068.301063065475
 31
0.0
  0
LINE
  5
34FF
330
1F
100
AcDbEntity
  8
KASAGI
  6
Continuous
100
AcDbLine
 10
980.8834282092361
 20
1065.400000000001
 30
0.0
 11
982.5999999999998
 21
1067.116571790765
 31
0.0
  0
LINE
  5
3500
330
1F
100
AcDbEntity
  8
KASAGI
  6
Continuous
100
AcDbLine
 10
982.2304666273966
 20
1065.4
 30
0.0
 11
982.6000000000004
 21
1065.769533372604
 31
0.0
  0
LINE
  5
3501
330
1F
100
AcDbEntity
  8
KASAGI
  6
Continuous
100
AcDbLine
 10
787.4000000000019
 20
1075.319372932983
 30
0.0
 11
788.0817814634861
 21
1076.001154396467
 31
0.0
  0
LINE
  5
3502
330
1F
100
AcDbEntity
  8
KASAGI
  6
Continuous
100
AcDbLine
 10
787.4000000000019
 20
1073.972334514823
 30
0.0
 11
789.4270008929265
 21
1075.999335407747
 31
0.0
  0
LINE
  5
3503
330
1F
100
AcDbEntity
  8
KASAGI
  6
Continuous
100
AcDbLine
 10
787.5747039033403
 20
1072.8
 30
0.0
 11
790.7435235684133
 21
1075.968819665073
 31
0.0
  0
LINE
  5
3504
330
1F
100
AcDbEntity
  8
KASAGI
  6
Continuous
100
AcDbLine
 10
788.9217423215004
 20
1072.8
 30
0.0
 11
792.03875282036
 21
1075.91701049886
 31
0.0
  0
LINE
  5
3505
330
1F
100
AcDbEntity
  8
KASAGI
  6
Continuous
100
AcDbLine
 10
790.2687807396605
 20
1072.8
 30
0.0
 11
793.3339820723067
 21
1075.865201332646
 31
0.0
  0
LINE
  5
3506
330
1F
100
AcDbEntity
  8
KASAGI
  6
Continuous
100
AcDbLine
 10
791.615819157822
 20
1072.8
 30
0.0
 11
794.6292113242539
 21
1075.813392166432
 31
0.0
  0
LINE
  5
3507
330
1F
100
AcDbEntity
  8
KASAGI
  6
Continuous
100
AcDbLine
 10
792.9628575759811
 20
1072.799999999999
 30
0.0
 11
795.9244405761997
 21
1075.761583000218
 31
0.0
  0
LINE
  5
3508
330
1F
100
AcDbEntity
  8
KASAGI
  6
Continuous
100
AcDbLine
 10
794.3098959941421
 20
1072.8
 30
0.0
 11
797.2196698281472
 21
1075.709773834006
 31
0.0
  0
LINE
  5
3509
330
1F
100
AcDbEntity
  8
KASAGI
  6
Continuous
100
AcDbLine
 10
795.6569344123018
 20
1072.799999999999
 30
0.0
 11
797.4000000000024
 21
1074.5430655877
 31
0.0
  0
LINE
  5
350A
330
1F
100
AcDbEntity
  8
KASAGI
  6
Continuous
100
AcDbLine
 10
797.0039728304628
 20
1072.8
 30
0.0
 11
797.4000000000014
 21
1073.196027169539
 31
0.0
  0
LINE
  5
350B
330
1F
100
AcDbEntity
  8
KASAGI
100
AcDbLine
 10
760.5000000000004
 20
1009.0
 30
0.0
 11
762.0000000000004
 21
1009.0
 31
0.0
  0
ARC
  5
350C
330
1F
100
AcDbEntity
  8
KASAGI
100
AcDbCircle
 10
762.0000000000004
 20
1009.5
 30
0.0
 40
0.5
100
AcDbArc
 50
270.0
 51
0.0
  0
LINE
  5
350D
330
1F
100
AcDbEntity
  8
KASAGI
100
AcDbLine
 10
762.5000000000004
 20
1009.5
 30
0.0
 11
762.5000000000004
 21
1016.0
 31
0.0
  0
LINE
  5
350E
330
1F
100
AcDbEntity
  8
KASAGI
100
AcDbLine
 10
762.5000000000004
 20
1016.0
 30
0.0
 11
766.2983202392938
 21
1017.04619231932
 31
0.0
  0
ARC
  5
350F
330
1F
100
AcDbEntity
  8
KASAGI
100
AcDbCircle
 10
765.9000000000019
 20
1018.492339264471
 30
0.0
 40
1.500000000000032
100
AcDbArc
 50
285.3994478231927
 51
0.0000000001867282
  0
LINE
  5
3510
330
1F
100
AcDbEntity
  8
KASAGI
100
AcDbLine
 10
767.4000000000019
 20
1018.492339264476
 30
0.0
 11
767.4000000000001
 21
1018.813449704706
 31
0.0
  0
ARC
  5
3511
330
1F
100
AcDbEntity
  8
KASAGI
100
AcDbCircle
 10
766.899999999999
 20
1018.813449704704
 30
0.0
 40
0.5000000000010232
100
AcDbArc
 50
0.0000000002214684
 51
93.99999999996236
  0
LINE
  5
3512
330
1F
100
AcDbEntity
  8
KASAGI
100
AcDbLine
 10
766.8651217631272
 20
1019.312231729835
 30
0.0
 11
762.9348782368729
 21
1019.037402329881
 31
0.0
  0
ARC
  5
3513
330
1F
100
AcDbEntity
  8
KASAGI
100
AcDbCircle
 10
762.9000000000018
 20
1019.536184355013
 30
0.0
 40
0.5000000000017496
100
AcDbArc
 50
180.0
 51
273.999999999878
  0
LINE
  5
3514
330
1F
100
AcDbEntity
  8
KASAGI
100
AcDbLine
 10
762.4000000000001
 20
1019.536184355013
 30
0.0
 11
762.4000000000001
 21
1024.0
 31
0.0
  0
LINE
  5
3515
330
1F
100
AcDbEntity
  8
KASAGI
100
AcDbLine
 10
762.4000000000001
 20
1024.0
 30
0.0
 11
761.7999999999997
 21
1024.0
 31
0.0
  0
LINE
  5
3516
330
1F
100
AcDbEntity
  8
KASAGI
100
AcDbLine
 10
761.7999999999997
 20
1024.0
 30
0.0
 11
761.7999999999997
 21
1067.0
 31
0.0
  0
LINE
  5
3517
330
1F
100
AcDbEntity
  8
KASAGI
100
AcDbLine
 10
761.7999999999997
 20
1067.0
 30
0.0
 11
762.0976605831788
 21
1075.773724808988
 31
0.0
  0
ARC
  5
3518
330
1F
100
AcDbEntity
  8
KASAGI
100
AcDbCircle
 10
765.0959355748662
 20
1075.672004239676
 30
0.0
 40
2.999999999999952
100
AcDbArc
 50
87.70938995736694
 51
178.056907787505
  0
LINE
  5
3519
330
1F
100
AcDbEntity
  8
KASAGI
100
AcDbLine
 10
765.2158396899126
 20
1078.669607115841
 30
0.0
 11
776.8859265201467
 21
1078.202803642632
 31
0.0
  0
LINE
  5
351A
330
1F
100
AcDbEntity
  8
KASAGI
100
AcDbLine
 10
776.8859265201467
 20
1078.202803642632
 30
0.0
 11
779.0525931868146
 21
1076.036136975964
 31
0.0
  0
LINE
  5
351B
330
1F
100
AcDbEntity
  8
KASAGI
100
AcDbLine
 10
779.0525931868146
 20
1076.036136975964
 30
0.0
 11
790.0000000000004
 21
1075.998560575539
 31
0.0
  0
LINE
  5
351C
330
1F
100
AcDbEntity
  8
KASAGI
100
AcDbLine
 10
790.0000000000004
 20
1075.998560575539
 30
0.0
 11
997.916666666692
 21
1067.681893908873
 31
0.0
  0
LINE
  5
351D
330
1F
100
AcDbEntity
  8
KASAGI
100
AcDbLine
 10
997.916666666692
 20
1067.681893908873
 30
0.0
 11
1005.150640033258
 21
1067.099526209328
 31
0.0
  0
ARC
  5
351E
330
1F
100
AcDbEntity
  8
KASAGI
100
AcDbCircle
 10
1004.909905251622
 20
1064.109200681077
 30
0.0
 40
3.000000000000201
100
AcDbArc
 50
2.316939142545757
 51
85.39735570645493
  0
LINE
  5
351F
330
1F
100
AcDbEntity
  8
KASAGI
100
AcDbLine
 10
1007.907452711816
 20
1064.230482270313
 30
0.0
 11
1008.200000000001
 21
1057.0
 31
0.0
  0
LINE
  5
3520
330
1F
100
AcDbEntity
  8
KASAGI
100
AcDbLine
 10
1008.200000000001
 20
1057.0
 30
0.0
 11
1008.200000000001
 21
1024.0
 31
0.0
  0
LINE
  5
3521
330
1F
100
AcDbEntity
  8
KASAGI
100
AcDbLine
 10
1008.200000000001
 20
1024.0
 30
0.0
 11
1007.6
 21
1024.0
 31
0.0
  0
LINE
  5
3522
330
1F
100
AcDbEntity
  8
KASAGI
100
AcDbLine
 10
1007.6
 20
1024.0
 30
0.0
 11
1007.6
 21
1019.536184355013
 31
0.0
  0
ARC
  5
3523
330
1F
100
AcDbEntity
  8
KASAGI
100
AcDbCircle
 10
1007.099999999999
 20
1019.536184355013
 30
0.0
 40
0.5000000000017053
100
AcDbArc
 50
266.000000000122
 51
0.0
  0
LINE
  5
3524
330
1F
100
AcDbEntity
  8
KASAGI
100
AcDbLine
 10
1007.065121763128
 20
1019.037402329881
 30
0.0
 11
1003.134878236873
 21
1019.312231729835
 31
0.0
  0
ARC
  5
3525
330
1F
100
AcDbEntity
  8
KASAGI
100
AcDbCircle
 10
1003.100000000001
 20
1018.813449704704
 30
0.0
 40
0.5000000000005814
100
AcDbArc
 50
85.99999999998203
 51
179.9999999998306
  0
LINE
  5
3526
330
1F
100
AcDbEntity
  8
KASAGI
100
AcDbLine
 10
1002.600000000001
 20
1018.813449704706
 30
0.0
 11
1002.599999999999
 21
1018.492339264476
 31
0.0
  0
ARC
  5
3527
330
1F
100
AcDbEntity
  8
KASAGI
100
AcDbCircle
 10
1004.099999999999
 20
1018.49233926447
 30
0.0
 40
1.500000000000227
100
AcDbArc
 50
179.9999999997872
 51
254.6005521768013
  0
LINE
  5
3528
330
1F
100
AcDbEntity
  8
KASAGI
100
AcDbLine
 10
1003.701679760707
 20
1017.046192319319
 30
0.0
 11
1007.5
 21
1016.0
 31
0.0
  0
LINE
  5
3529
330
1F
100
AcDbEntity
  8
KASAGI
100
AcDbLine
 10
1007.5
 20
1016.0
 30
0.0
 11
1007.5
 21
1009.5
 31
0.0
  0
ARC
  5
352A
330
1F
100
AcDbEntity
  8
KASAGI
100
AcDbCircle
 10
1008.0
 20
1009.5
 30
0.0
 40
0.5
100
AcDbArc
 50
180.0
 51
270.0
  0
LINE
  5
352B
330
1F
100
AcDbEntity
  8
KASAGI
100
AcDbLine
 10
1008.0
 20
1009.0
 30
0.0
 11
1009.5
 21
1009.0
 31
0.0
  0
ARC
  5
352C
330
1F
100
AcDbEntity
  8
KASAGI
100
AcDbCircle
 10
1009.5
 20
1009.5
 30
0.0
 40
0.5
100
AcDbArc
 50
270.0
 51
0.0
  0
LINE
  5
352D
330
1F
100
AcDbEntity
  8
KASAGI
100
AcDbLine
 10
1010.0
 20
1009.5
 30
0.0
 11
1010.0
 21
1067.000000000001
 31
0.0
  0
LINE
  5
352E
330
1F
100
AcDbEntity
  8
KASAGI
100
AcDbLine
 10
1010.0
 20
1067.000000000001
 30
0.0
 11
1007.91666666667
 21
1069.083333333333
 31
0.0
  0
LINE
  5
352F
330
1F
100
AcDbEntity
  8
KASAGI
100
AcDbLine
 10
1007.91666666667
 20
1069.083333333333
 30
0.0
 11
780.0000000000005
 21
1078.2
 31
0.0
  0
LINE
  5
3530
330
1F
100
AcDbEntity
  8
KASAGI
100
AcDbLine
 10
780.0000000000005
 20
1078.2
 30
0.0
 11
777.8333333333326
 21
1080.366666666668
 31
0.0
  0
LINE
  5
3531
330
1F
100
AcDbEntity
  8
KASAGI
100
AcDbLine
 10
777.8333333333326
 20
1080.366666666668
 30
0.0
 11
762.0000000000004
 21
1081.0
 31
0.0
  0
LINE
  5
3532
330
1F
100
AcDbEntity
  8
KASAGI
100
AcDbLine
 10
762.0000000000004
 20
1081.0
 30
0.0
 11
760.0000000000004
 21
1079.0
 31
0.0
  0
LINE
  5
3533
330
1F
100
AcDbEntity
  8
KASAGI
100
AcDbLine
 10
760.0000000000004
 20
1079.0
 30
0.0
 11
760.0000000000004
 21
1009.5
 31
0.0
  0
ARC
  5
3534
330
1F
100
AcDbEntity
  8
KASAGI
100
AcDbCircle
 10
760.5000000000004
 20
1009.5
 30
0.0
 40
0.5
100
AcDbArc
 50
180.0
 51
270.0
  0
LINE
  5
3535
330
1F
100
AcDbEntity
  8
WAKU
100
AcDbLine
 10
0.0
 20
0.0
 30
0.0
 11
2760.000000000001
 21
0.0
 31
0.0
  0
LINE
  5
3536
330
1F
100
AcDbEntity
  8
WAKU
100
AcDbLine
 10
2760.000000000001
 20
0.0
 30
0.0
 11
2760.000000000001
 21
1910.0
 31
0.0
  0
LINE
  5
3537
330
1F
100
AcDbEntity
  8
WAKU
100
AcDbLine
 10
2760.000000000001
 20
1910.0
 30
0.0
 11
0.0
 21
1910.0
 31
0.0
  0
LINE
  5
3538
330
1F
100
AcDbEntity
  8
WAKU
100
AcDbLine
 10
0.0
 20
1910.0
 30
0.0
 11
0.0
 21
0.0
 31
0.0
  0
LINE
  5
3539
330
1F
100
AcDbEntity
  8
WAKU
100
AcDbLine
 10
2760.000000000001
 20
1790.0
 30
0.0
 11
0.0
 21
1790.0
 31
0.0
  0
LINE
  5
353A
330
1F
100
AcDbEntity
  8
WAKU
100
AcDbLine
 10
0.0
 20
1790.0
 30
0.0
 11
0.0
 21
1910.0
 31
0.0
  0
LINE
  5
353B
330
1F
100
AcDbEntity
  8
WAKU
100
AcDbLine
 10
0.0
 20
1910.0
 30
0.0
 11
2760.000000000001
 21
1910.0
 31
0.0
  0
LINE
  5
353C
330
1F
100
AcDbEntity
  8
WAKU
100
AcDbLine
 10
2760.000000000001
 20
1910.0
 30
0.0
 11
2760.000000000001
 21
1790.0
 31
0.0
  0
ENDSEC
  0
SECTION
  2
OBJECTS
  0
DICTIONARY
  5
C
330
0
100
AcDbDictionary
281
     1
  3
ACAD_CIP_PREVIOUS_PRODUCT_INFO
350
2BBA
  3
ACAD_COLOR
350
2953
  3
ACAD_DETAILVIEWSTYLE
350
2BB5
  3
ACAD_GROUP
350
D
  3
ACAD_LAYOUT
350
1A
  3
ACAD_MATERIAL
350
2926
  3
ACAD_MLEADERSTYLE
350
2968
  3
ACAD_MLINESTYLE
350
17
  3
ACAD_PLOTSETTINGS
350
19
  3
ACAD_PLOTSTYLENAME
350
E
  3
ACAD_SCALELIST
350
2956
  3
ACAD_SECTIONVIEWSTYLE
350
2BB3
  3
ACAD_TABLESTYLE
350
2954
  3
ACAD_VISUALSTYLE
350
293F
  3
ACDB_RECOMPOSE_DATA
350
353F
  3
AcDbVariableDictionary
350
1835
  3
AEC_PROPERTY_SET_DEFS
350
2C18
  3
DWGPROPS
350
3540
  0
DICTIONARY
  5
2B06
330
8
100
AcDbDictionary
280
     1
281
     1
  0
DICTIONARY
  5
2D
330
2
100
AcDbDictionary
280
     1
281
     1
  3
ACAD_LAYERFILTERS
360
2E
  3
ACAD_LAYERSTATES
360
918
  0
DICTIONARY
  5
2AEE
330
10
100
AcDbDictionary
280
     1
281
     1
  3
ADSK_XREC_LAYER_RECONCILED
360
2AEF
  0
DICTIONARY
  5
2AF0
330
2294
100
AcDbDictionary
280
     1
281
     1
  3
ADSK_XREC_LAYER_RECONCILED
360
2AF1
  0
DICTIONARY
  5
2AF2
330
235F
100
AcDbDictionary
280
     1
281
     1
  3
ADSK_XREC_LAYER_RECONCILED
360
2AF3
  0
DICTIONARY
  5
2AF4
330
2360
100
AcDbDictionary
280
     1
281
     1
  3
ADSK_XREC_LAYER_RECONCILED
360
2AF5
  0
DICTIONARY
  5
2AF6
330
2361
100
AcDbDictionary
280
     1
281
     1
  3
ADSK_XREC_LAYER_RECONCILED
360
2AF7
  0
DICTIONARY
  5
2AF8
330
2362
100
AcDbDictionary
280
     1
281
     1
  3
ADSK_XREC_LAYER_RECONCILED
360
2AF9
  0
DICTIONARY
  5
2AFA
330
2363
100
AcDbDictionary
280
     1
281
     1
  3
ADSK_XREC_LAYER_RECONCILED
360
2AFB
  0
DICTIONARY
  5
2AFC
330
2364
100
AcDbDictionary
280
     1
281
     1
  3
ADSK_XREC_LAYER_RECONCILED
360
2AFD
  0
DICTIONARY
  5
2AFE
330
2501
100
AcDbDictionary
280
     1
281
     1
  3
ADSK_XREC_LAYER_RECONCILED
360
2AFF
  0
DICTIONARY
  5
2B00
330
2734
100
AcDbDictionary
280
     1
281
     1
  3
ADSK_XREC_LAYER_RECONCILED
360
2B01
  0
DICTIONARY
  5
2C07
330
2C06
100
AcDbDictionary
280
     1
281
     1
  0
DICTIONARY
  5
1C62
330
1F
100
AcDbDictionary
280
     1
281
     1
  3
ACAD_SORTENTS
360
1C63
  0
XRECORD
  5
2BBA
102
{ACAD_REACTORS
330
C
102
}
330
C
100
AcDbXrecord
280
     1
300
ACD
300
2022
300

  0
DICTIONARY
  5
2953
102
{ACAD_REACTORS
330
C
102
}
330
C
100
AcDbDictionary
281
     1
  0
DICTIONARY
  5
2BB5
102
{ACAD_REACTORS
330
C
102
}
330
C
100
AcDbDictionary
281
     1
  3
Metric50
350
2BB6
  0
DICTIONARY
  5
D
102
{ACAD_REACTORS
330
C
102
}
330
C
100
AcDbDictionary
281
     1
  0
DICTIONARY
  5
1A
102
{ACAD_REACTORS
330
C
102
}
330
C
100
AcDbDictionary
281
     1
  3
Model
350
22
  3
\U+FF9A\U+FF72\U+FF71\U+FF73\U+FF841
350
1CD1
  0
DICTIONARY
  5
2926
102
{ACAD_REACTORS
330
C
102
}
330
C
100
AcDbDictionary
281
     1
  3
ByBlock
350
292F
  3
ByLayer
350
2927
  3
Global
350
2937
  0
DICTIONARY
  5
2968
102
{ACAD_REACTORS
330
C
102
}
330
C
100
AcDbDictionary
281
     1
  3
Standard
350
2969
  0
DICTIONARY
  5
17
102
{ACAD_REACTORS
330
C
102
}
330
C
100
AcDbDictionary
281
     1
  3
Standard
350
18
  0
DICTIONARY
  5
19
102
{ACAD_REACTORS
330
C
102
}
330
C
100
AcDbDictionary
281
     1
  0
ACDBDICTIONARYWDFLT
  5
E
102
{ACAD_REACTORS
330
C
102
}
330
C
100
AcDbDictionary
281
     1
  3
Normal
350
F
  3
通常
350
29
100
AcDbDictionaryWithDefault
340
F
  0
DICTIONARY
  5
2956
102
{ACAD_REACTORS
330
C
102
}
330
C
100
AcDbDictionary
281
     1
  3
A0
350
2957
  3
A1
350
2958
  3
A2
350
2959
  3
A3
350
295A
  3
A4
350
295B
  3
A5
350
295C
  3
A6
350
295D
  3
A7
350
295E
  3
A8
350
295F
  3
A9
350
2960
  3
B0
350
2961
  3
B1
350
2962
  3
B2
350
2963
  3
B3
350
2964
  3
B4
350
2965
  3
B5
350
2966
  3
B6
350
2967
  0
DICTIONARY
  5
2BB3
102
{ACAD_REACTORS
330
C
102
}
330
C
100
AcDbDictionary
281
     1
  3
Metric50
350
2BB4
  0
DICTIONARY
  5
2954
102
{ACAD_REACTORS
330
C
102
}
330
C
100
AcDbDictionary
281
     1
  3
Standard
350
2955
  0
DICTIONARY
  5
293F
102
{ACAD_REACTORS
330
C
102
}
330
C
100
AcDbDictionary
281
     1
  3
2dWireframe
350
2945
  3
3D Hidden
350
2947
  3
3dWireframe
350
2946
  3
Basic
350
2944
  3
Brighten
350
294B
  3
ColorChange
350
294F
  3
Conceptual
350
2948
  3
Dim
350
294A
  3
EdgeColorOff
350
2952
  3
Facepattern
350
294E
  3
Flat
350
2940
  3
FlatWithEdges
350
2941
  3
Gouraud
350
2942
  3
GouraudWithEdges
350
2943
  3
Hidden
350
2BAD
  3
JitterOff
350
2950
  3
Linepattern
350
294D
  3
OverhangOff
350
2951
  3
Realistic
350
2949
  3
Shaded
350
2BB2
  3
Shaded with edges
350
2BB1
  3
Shades of Gray
350
2BAE
  3
Sketchy
350
2BAF
  3
Thicken
350
294C
  3
Wireframe
350
2BAC
  3
X-Ray
350
2BB0
  0
XRECORD
  5
353F
102
{ACAD_REACTORS
330
C
102
}
330
C
100
AcDbXrecord
280
     1
 90
        1
330
2955
  0
DICTIONARY
  5
1835
102
{ACAD_REACTORS
330
C
102
}
330
C
100
AcDbDictionary
281
     1
  3
CANNOSCALE
350
2B38
  3
CMLEADERSTYLE
350
2B37
  3
CTABLESTYLE
350
2B36
  3
CVIEWDETAILSTYLE
350
2BFF
  3
CVIEWSECTIONSTYLE
350
2C00
  3
DIMASSOC
350
2B3A
  3
INDEXCTL
350
2B39
  3
SORTENTS
350
1836
  3
XCLIPFRAME
350
353D
  0
DICTIONARY
  5
2C18
102
{ACAD_REACTORS
330
C
102
}
330
C
100
AcDbDictionary
281
     1
  0
XRECORD
  5
3540
102
{ACAD_REACTORS
330
C
102
}
330
C
100
AcDbXrecord
280
     1
  1
DWGPROPS COOKIE
  2

  3

  4

  6

  7

  8
2020009
  9

300
=
301
=
302
=
303
=
304
=
305
=
306
=
307
=
308
=
309
=
 40
0.3136934375
 41
2453276.413761574
 42
2459970.697893519
  1

 90
        0
  0
DICTIONARY
  5
2E
102
{ACAD_REACTORS
330
2D
102
}
330
2D
100
AcDbDictionary
280
     1
281
     1
  0
DICTIONARY
  5
918
102
{ACAD_REACTORS
330
2D
102
}
330
2D
100
AcDbDictionary
281
     1
  0
XRECORD
  5
2AEF
102
{ACAD_REACTORS
330
2AEE
102
}
330
2AEE
100
AcDbXrecord
280
     1
290
     1
  0
XRECORD
  5
2AF1
102
{ACAD_REACTORS
330
2AF0
102
}
330
2AF0
100
AcDbXrecord
280
     1
290
     1
  0
XRECORD
  5
2AF3
102
{ACAD_REACTORS
330
2AF2
102
}
330
2AF2
100
AcDbXrecord
280
     1
290
     1
  0
XRECORD
  5
2AF5
102
{ACAD_REACTORS
330
2AF4
102
}
330
2AF4
100
AcDbXrecord
280
     1
290
     1
  0
XRECORD
  5
2AF7
102
{ACAD_REACTORS
330
2AF6
102
}
330
2AF6
100
AcDbXrecord
280
     1
290
     1
  0
XRECORD
  5
2AF9
102
{ACAD_REACTORS
330
2AF8
102
}
330
2AF8
100
AcDbXrecord
280
     1
290
     1
  0
XRECORD
  5
2AFB
102
{ACAD_REACTORS
330
2AFA
102
}
330
2AFA
100
AcDbXrecord
280
     1
290
     1
  0
XRECORD
  5
2AFD
102
{ACAD_REACTORS
330
2AFC
102
}
330
2AFC
100
AcDbXrecord
280
     1
290
     1
  0
XRECORD
  5
2AFF
102
{ACAD_REACTORS
330
2AFE
102
}
330
2AFE
100
AcDbXrecord
280
     1
290
     1
  0
XRECORD
  5
2B01
102
{ACAD_REACTORS
330
2B00
102
}
330
2B00
100
AcDbXrecord
280
     1
290
     1
  0
SORTENTSTABLE
  5
1C63
102
{ACAD_REACTORS
330
1C62
102
}
330
1C62
100
AcDbSortentsTable
330
1F
331
22B8
  5
22BC
331
22B9
  5
22BD
331
22BA
  5
22BE
331
22BB
  5
22BF
331
22BC
  5
22C0
331
22BD
  5
22C1
331
22BE
  5
22C2
331
22BF
  5
22C3
331
22C0
  5
23F3
331
22C1
  5
23F6
331
22C2
  5
23F8
331
22C3
  5
240A
331
23F3
  5
240C
331
23F6
  5
2410
331
23F8
  5
241C
331
240A
  5
2422
331
240C
  5
2424
331
2410
  5
2432
331
241C
  5
2435
331
241E
  5
2436
331
2420
  5
24F1
331
2422
  5
24F4
331
2424
  5
24F5
331
2428
  5
24FD
331
242A
  5
24FE
331
242C
  5
2554
331
242D
  5
255A
331
2432
  5
2731
331
2433
  5
2732
331
2434
  5
2A23
331
2435
  5
2A24
331
2436
  5
2A26
331
24F1
  5
2A28
331
24F2
  5
2A29
331
24F3
  5
2A2A
331
24F4
  5
2A2B
331
24F5
  5
2A2C
331
24F7
  5
2A2E
331
24F8
  5
2A2F
331
24FD
  5
2A32
331
24FE
  5
2A34
331
2554
  5
3305
331
255A
  5
3313
331
2731
  5
333A
331
2732
  5
333B
331
2A23
  5
33FC
331
2A24
  5
33FD
331
2A26
  5
3400
331
2A28
  5
3406
331
2A29
  5
3407
331
2A2A
  5
3408
331
2A2B
  5
3409
331
2A2C
  5
340A
331
2A2E
  5
3410
331
2A2F
  5
3411
331
2A32
  5
344E
331
2A34
  5
3452
331
2A35
  5
3453
331
2A37
  5
3456
331
2A39
  5
345C
331
2A3A
  5
345D
331
2A3B
  5
345E
331
2A3C
  5
345F
331
2A3D
  5
3460
331
2A3F
  5
3466
331
2A40
  5
3467
331
2A43
  5
34A4
331
2A70
  5
34A8
331
2A71
  5
34A9
331
2A72
  5
34AA
331
2A73
  5
34AB
331
2C1C
  5
3536
331
2C1D
  5
3537
331
2C1F
  5
3538
331
2C20
  5
3539
331
2C21
  5
353A
331
2E1F
  5
353B
331
2E80
  5
353C
331
3300
  5
22B8
331
3301
  5
22B9
331
3302
  5
22BA
331
3303
  5
22BB
331
3304
  5
241E
331
3305
  5
2420
331
3306
  5
2428
331
3307
  5
242A
331
3308
  5
242C
331
3309
  5
242D
331
330A
  5
2433
331
330B
  5
2434
331
330C
  5
24F2
331
330D
  5
24F3
331
330E
  5
24F7
331
330F
  5
24F8
331
3310
  5
2A35
331
3311
  5
2A37
331
3312
  5
2A39
331
3313
  5
2A3A
331
3314
  5
2A3B
331
3315
  5
2A3C
331
3316
  5
2A3D
331
3317
  5
2A3F
331
3318
  5
2A40
331
3319
  5
2A43
331
331A
  5
2A70
331
331B
  5
2A71
331
331C
  5
2A72
331
331D
  5
2A73
331
331E
  5
2C1C
331
331F
  5
2C1D
331
3320
  5
2C1F
331
3321
  5
2C20
331
3322
  5
2C21
331
3323
  5
2E1F
331
3324
  5
2E80
331
3325
  5
3300
331
3326
  5
3301
331
3327
  5
3302
331
3328
  5
3303
331
3329
  5
3304
331
332A
  5
3306
331
332B
  5
3307
331
332C
  5
3308
331
332D
  5
3309
331
332E
  5
330A
331
332F
  5
330B
331
3330
  5
330C
331
3331
  5
330D
331
3332
  5
330E
331
3333
  5
330F
331
3334
  5
3310
331
3335
  5
3311
331
3336
  5
3312
331
3337
  5
3314
331
3338
  5
3315
331
3339
  5
3316
331
333A
  5
3317
331
333B
  5
3318
331
333C
  5
3319
331
333D
  5
331A
331
333E
  5
331B
331
333F
  5
331C
331
3340
  5
331D
331
3341
  5
331E
331
3342
  5
331F
331
3343
  5
3320
331
3344
  5
3321
331
3345
  5
3322
331
3346
  5
3323
331
3347
  5
3324
331
3348
  5
3325
331
3349
  5
3326
331
334A
  5
3327
331
334B
  5
3328
331
334C
  5
3329
331
334D
  5
332A
331
334E
  5
332B
331
334F
  5
332C
331
3350
  5
332D
331
3351
  5
332E
331
3352
  5
332F
331
3353
  5
3330
331
3354
  5
3331
331
3355
  5
3332
331
3356
  5
3333
331
3357
  5
3334
331
3358
  5
3335
331
3359
  5
3336
331
335A
  5
3337
331
335B
  5
3338
331
335C
  5
3339
331
335D
  5
333C
331
335E
  5
333D
331
335F
  5
333E
331
3360
  5
333F
331
3361
  5
3340
331
3362
  5
3341
331
3363
  5
3342
331
3364
  5
3343
331
3365
  5
3344
331
3366
  5
3345
331
3367
  5
3346
331
3368
  5
3347
331
3369
  5
3348
331
336A
  5
3349
331
336B
  5
334A
331
336C
  5
334B
331
336D
  5
334C
331
336E
  5
334D
331
336F
  5
334E
331
3370
  5
334F
331
3371
  5
3350
331
3372
  5
3351
331
3373
  5
3352
331
3374
  5
3353
331
3375
  5
3354
331
3376
  5
3355
331
3377
  5
3356
331
3378
  5
3357
331
3379
  5
3358
331
337A
  5
3359
331
337B
  5
335A
331
337C
  5
335B
331
337D
  5
335C
331
337E
  5
335D
331
337F
  5
335E
331
3380
  5
335F
331
3381
  5
3360
331
3382
  5
3361
331
3383
  5
3362
331
3384
  5
3363
331
3385
  5
3364
331
3386
  5
3365
331
3387
  5
3366
331
3388
  5
3367
331
3389
  5
3368
331
338A
  5
3369
331
338B
  5
336A
331
338C
  5
336B
331
338D
  5
336C
331
338E
  5
336D
331
338F
  5
336E
331
3390
  5
336F
331
3391
  5
3370
331
3392
  5
3371
331
3393
  5
3372
331
3394
  5
3373
331
3395
  5
3374
331
3396
  5
3375
331
3397
  5
3376
331
3398
  5
3377
331
3399
  5
3378
331
339A
  5
3379
331
339B
  5
337A
331
339C
  5
337B
331
339D
  5
337C
331
339E
  5
337D
331
339F
  5
337E
331
33A0
  5
337F
331
33A1
  5
3380
331
33A2
  5
3381
331
33A3
  5
3382
331
33A4
  5
3383
331
33A5
  5
3384
331
33A6
  5
3385
331
33A7
  5
3386
331
33A8
  5
3387
331
33A9
  5
3388
331
33AA
  5
3389
331
33AB
  5
338A
331
33AC
  5
338B
331
33AD
  5
338C
331
33AE
  5
338D
331
33AF
  5
338E
331
33B0
  5
338F
331
33B1
  5
3390
331
33B2
  5
3391
331
33B3
  5
3392
331
33B4
  5
3393
331
33B5
  5
3394
331
33B6
  5
3395
331
33B7
  5
3396
331
33B8
  5
3397
331
33B9
  5
3398
331
33BA
  5
3399
331
33BB
  5
339A
331
33BC
  5
339B
331
33BD
  5
339C
331
33BE
  5
339D
331
33BF
  5
339E
331
33C0
  5
339F
331
33C1
  5
33A0
331
33C2
  5
33A1
331
33C3
  5
33A2
331
33C4
  5
33A3
331
33C5
  5
33A4
331
33C6
  5
33A5
331
33C7
  5
33A6
331
33C8
  5
33A7
331
33C9
  5
33A8
331
33CA
  5
33A9
331
33CB
  5
33AA
331
33CC
  5
33AB
331
33CD
  5
33AC
331
33CE
  5
33AD
331
33CF
  5
33AE
331
33D0
  5
33AF
331
33D1
  5
33B0
331
33D2
  5
33B1
331
33D3
  5
33B2
331
33D4
  5
33B3
331
33D5
  5
33B4
331
33D6
  5
33B5
331
33D7
  5
33B6
331
33D8
  5
33B7
331
33D9
  5
33B8
331
33DA
  5
33B9
331
33DB
  5
33BA
331
33DC
  5
33BB
331
33DD
  5
33BC
331
33DE
  5
33BD
331
33DF
  5
33BE
331
33E0
  5
33BF
331
33E1
  5
33C0
331
33E2
  5
33C1
331
33E3
  5
33C2
331
33E4
  5
33C3
331
33E5
  5
33C4
331
33E6
  5
33C5
331
33E7
  5
33C6
331
33E8
  5
33C7
331
33E9
  5
33C8
331
33EA
  5
33C9
331
33EB
  5
33CA
331
33EC
  5
33CB
331
33ED
  5
33CC
331
33EE
  5
33CD
331
33EF
  5
33CE
331
33F0
  5
33CF
331
33F1
  5
33D0
331
33F2
  5
33D1
331
33F3
  5
33D2
331
33F4
  5
33D3
331
33F5
  5
33D4
331
33F6
  5
33D5
331
33F7
  5
33D6
331
33F8
  5
33D7
331
33F9
  5
33D8
331
33FA
  5
33D9
331
33FB
  5
33DA
331
33FC
  5
33DB
331
33FD
  5
33DC
331
33FE
  5
33DD
331
33FF
  5
33DE
331
3400
  5
33DF
331
3401
  5
33E0
331
3402
  5
33E1
331
3403
  5
33E2
331
3404
  5
33E3
331
3405
  5
33E4
331
3406
  5
33E5
331
3407
  5
33E6
331
3408
  5
33E7
331
3409
  5
33E8
331
340A
  5
33E9
331
340B
  5
33EA
331
340C
  5
33EB
331
340D
  5
33EC
331
340E
  5
33ED
331
340F
  5
33EE
331
3410
  5
33EF
331
3411
  5
33F0
331
3412
  5
33F1
331
3413
  5
33F2
331
3414
  5
33F3
331
3415
  5
33F4
331
3416
  5
33F5
331
3417
  5
33F6
331
3418
  5
33F7
331
3419
  5
33F8
331
341A
  5
33F9
331
341B
  5
33FA
331
341C
  5
33FB
331
341D
  5
33FE
331
341E
  5
33FF
331
341F
  5
3401
331
3420
  5
3402
331
3421
  5
3403
331
3422
  5
3404
331
3423
  5
3405
331
3424
  5
340B
331
3425
  5
340C
331
3426
  5
340D
331
3427
  5
340E
331
3428
  5
340F
331
3429
  5
3412
331
342A
  5
3413
331
342B
  5
3414
331
342C
  5
3415
331
342D
  5
3416
331
342E
  5
3417
331
342F
  5
3418
331
3430
  5
3419
331
3431
  5
341A
331
3432
  5
341B
331
3433
  5
341C
331
3434
  5
341D
331
3435
  5
341E
331
3436
  5
341F
331
3437
  5
3420
331
3438
  5
3421
331
3439
  5
3422
331
343A
  5
3423
331
343B
  5
3424
331
343C
  5
3425
331
343D
  5
3426
331
343E
  5
3427
331
343F
  5
3428
331
3440
  5
3429
331
3441
  5
342A
331
3442
  5
342B
331
3443
  5
342C
331
3444
  5
342D
331
3445
  5
342E
331
3446
  5
342F
331
3447
  5
3430
331
3448
  5
3431
331
3449
  5
3432
331
344A
  5
3433
331
344B
  5
3434
331
344C
  5
3435
331
344D
  5
3436
331
344E
  5
3437
331
344F
  5
3438
331
3450
  5
3439
331
3451
  5
343A
331
3452
  5
343B
331
3453
  5
343C
331
3454
  5
343D
331
3455
  5
343E
331
3456
  5
343F
331
3457
  5
3440
331
3458
  5
3441
331
3459
  5
3442
331
345A
  5
3443
331
345B
  5
3444
331
345C
  5
3445
331
345D
  5
3446
331
345E
  5
3447
331
345F
  5
3448
331
3460
  5
3449
331
3461
  5
344A
331
3462
  5
344B
331
3463
  5
344C
331
3464
  5
344D
331
3465
  5
344F
331
3466
  5
3450
331
3467
  5
3451
331
3468
  5
3454
331
3469
  5
3455
331
346A
  5
3457
331
346B
  5
3458
331
346C
  5
3459
331
346D
  5
345A
331
346E
  5
345B
331
346F
  5
3461
331
3470
  5
3462
331
3471
  5
3463
331
3472
  5
3464
331
3473
  5
3465
331
3474
  5
3468
331
3475
  5
3469
331
3476
  5
346A
331
3477
  5
346B
331
3478
  5
346C
331
3479
  5
346D
331
347A
  5
346E
331
347B
  5
346F
331
347C
  5
3470
331
347D
  5
3471
331
347E
  5
3472
331
347F
  5
3473
331
3480
  5
3474
331
3481
  5
3475
331
3482
  5
3476
331
3483
  5
3477
331
3484
  5
3478
331
3485
  5
3479
331
3486
  5
347A
331
3487
  5
347B
331
3488
  5
347C
331
3489
  5
347D
331
348A
  5
347E
331
348B
  5
347F
331
348C
  5
3480
331
348D
  5
3481
331
348E
  5
3482
331
348F
  5
3483
331
3490
  5
3484
331
3491
  5
3485
331
3492
  5
3486
331
3493
  5
3487
331
3494
  5
3488
331
3495
  5
3489
331
3496
  5
348A
331
3497
  5
348B
331
3498
  5
348C
331
3499
  5
348D
331
349A
  5
348E
331
349B
  5
348F
331
349C
  5
3490
331
349D
  5
3491
331
349E
  5
3492
331
349F
  5
3493
331
34A0
  5
3494
331
34A1
  5
3495
331
34A2
  5
3496
331
34A3
  5
3497
331
34A4
  5
3498
331
34A5
  5
3499
331
34A6
  5
349A
331
34A7
  5
349B
331
34A8
  5
349C
331
34A9
  5
349D
331
34AA
  5
349E
331
34AB
  5
349F
331
34AC
  5
34A0
331
34AD
  5
34A1
331
34AE
  5
34A2
331
34AF
  5
34A3
331
34B0
  5
34A5
331
34B1
  5
34A6
331
34B2
  5
34A7
331
34B3
  5
34AC
331
34B4
  5
34AD
331
34B5
  5
34AE
331
34B6
  5
34AF
331
34B7
  5
34B0
331
34B8
  5
34B1
331
34B9
  5
34B2
331
34BA
  5
34B3
331
34BB
  5
34B4
331
34BC
  5
34B5
331
34BD
  5
34B6
331
34BE
  5
34B7
331
34BF
  5
34B8
331
34C0
  5
34B9
331
34C1
  5
34BA
331
34C2
  5
34BB
331
34C3
  5
34BC
331
34C4
  5
34BD
331
34C5
  5
34BE
331
34C6
  5
34BF
331
34C7
  5
34C0
331
34C8
  5
34C1
331
34C9
  5
34C2
331
34CA
  5
34C3
331
34CB
  5
34C4
331
34CC
  5
34C5
331
34CD
  5
34C6
331
34CE
  5
34C7
331
34CF
  5
34C8
331
34D0
  5
34C9
331
34D1
  5
34CA
331
34D2
  5
34CB
331
34D3
  5
34CC
331
34D4
  5
34CD
331
34D5
  5
34CE
331
34D6
  5
34CF
331
34D7
  5
34D0
331
34D8
  5
34D1
331
34D9
  5
34D2
331
34DA
  5
34D3
331
34DB
  5
34D4
331
34DC
  5
34D5
331
34DD
  5
34D6
331
34DE
  5
34D7
331
34DF
  5
34D8
331
34E0
  5
34D9
331
34E1
  5
34DA
331
34E2
  5
34DB
331
34E3
  5
34DC
331
34E4
  5
34DD
331
34E5
  5
34DE
331
34E6
  5
34DF
331
34E7
  5
34E0
331
34E8
  5
34E1
331
34E9
  5
34E2
331
34EA
  5
34E3
331
34EB
  5
34E4
331
34EC
  5
34E5
331
34ED
  5
34E6
331
34EE
  5
34E7
331
34EF
  5
34E8
331
34F0
  5
34E9
331
34F1
  5
34EA
331
34F2
  5
34EB
331
34F3
  5
34EC
331
34F4
  5
34ED
331
34F5
  5
34EE
331
34F6
  5
34EF
331
34F7
  5
34F0
331
34F8
  5
34F1
331
34F9
  5
34F2
331
34FA
  5
34F3
331
34FB
  5
34F4
331
34FC
  5
34F5
331
34FD
  5
34F6
331
34FE
  5
34F7
331
34FF
  5
34F8
331
3500
  5
34F9
331
3501
  5
34FA
331
3502
  5
34FB
331
3503
  5
34FC
331
3504
  5
34FD
331
3505
  5
34FE
331
3506
  5
34FF
331
3507
  5
3500
331
3508
  5
3501
331
3509
  5
3502
331
350A
  5
3503
331
350B
  5
3504
331
350C
  5
3505
331
350D
  5
3506
331
350E
  5
3507
331
350F
  5
3508
331
3510
  5
3509
331
3511
  5
350A
331
3512
  5
350B
331
3513
  5
350C
331
3514
  5
350D
331
3515
  5
350E
331
3516
  5
350F
331
3517
  5
3510
331
3518
  5
3511
331
3519
  5
3512
331
351A
  5
3513
331
351B
  5
3514
331
351C
  5
3515
331
351D
  5
3516
331
351E
  5
3517
331
351F
  5
3518
331
3520
  5
3519
331
3521
  5
351A
331
3522
  5
351B
331
3523
  5
351C
331
3524
  5
351D
331
3525
  5
351E
331
3526
  5
351F
331
3527
  5
3520
331
3528
  5
3521
331
3529
  5
3522
331
352A
  5
3523
331
352B
  5
3524
331
352C
  5
3525
331
352D
  5
3526
331
352E
  5
3527
331
352F
  5
3528
331
3530
  5
3529
331
3531
  5
352A
331
3532
  5
352B
331
3533
  5
352C
331
3534
  5
352D
331
3535
  5
352E
331
3536
  5
352F
331
3537
  5
3530
331
3538
  5
3531
331
3539
  5
3532
331
353A
  5
3533
331
353B
  5
3534
331
353C
  5
3535
  0
ACDBDETAILVIEWSTYLE
  5
2BB6
102
{ACAD_XDICTIONARY
360
357F
102
}
102
{ACAD_REACTORS
330
2BB5
102
}
330
2BB5
100
AcDbModelDocViewStyle
 70
     0
  3
Metric50
290
     0
100
AcDbDetailViewStyle
 70
     0
 71
     0
 90
        3
 71
     1
340
11
 40
5.0
340
0
 40
5.0
300

 40
0.0
280
     1
 71
     2
340
16
 90
       25
 71
     3
340
11
 40
5.0
 90
        0
 40
15.0
 90
        1
300
%<\AcVar ViewDetailId>% (%<\AcVar ViewScale \f "%sn">%)
 71
     4
340
16
 90
       25
340
16
 90
       25
280
     0
1001
ACAD
1000
AcRTDxfName
1000
ACDBDETAILVIEWSTYLE
1000
AcRTDxfName
1000
ACDBDETAILVIEWSTYLE
1000
AcRTDxfName
1000
ACDBDETAILVIEWSTYLE
1000
AcRTDxfName
1000
ACDBDETAILVIEWSTYLE
1000
AcRTDxfName
1000
ACDBDETAILVIEWSTYLE
  0
LAYOUT
  5
22
102
{ACAD_XDICTIONARY
360
3541
102
}
102
{ACAD_REACTORS
330
1A
102
}
330
1A
100
AcDbPlotSettings
  1

  2
DWG To PDF.pc3
  4
ISO_full_bleed_A4_(297.00_x_210.00_MM)
  6

 40
0.7937499880790711
 41
0.7937499880790711
 42
0.79376220703125
 43
0.7937469482421875
 44
297.0
 45
210.0
 46
9.706243902444782
 47
8.70625153183937
 48
0.0
 49
-0.0000069752186391
140
2760.000000000001
141
1909.999993024781
142
1.0
143
10.0
 70
 11940
 72
     1
 73
     0
 74
     4
  7
monochrome.ctb
 75
     0
147
0.1070335100742354
148
0.0
149
0.0000069752186391
100
AcDbLayout
  1
Model
 70
     1
 71
     0
 10
0.0
 20
0.0
 11
12.0
 21
9.0
 12
0.0
 22
0.0
 32
0.0
 14
0.0
 24
0.0
 34
0.0
 15
0.0
 25
0.0
 35
0.0
146
0.0
 13
0.0
 23
0.0
 33
0.0
 16
1.0
 26
0.0
 36
0.0
 17
0.0
 27
1.0
 37
0.0
 76
     0
330
1F
331
2924
1001
ACAD_PSEXT
1000
DWG To PDF.pc3
1000
DWG To PDF
1000
ファイル
1000

1070
     0
  0
LAYOUT
  5
1CD1
102
{ACAD_XDICTIONARY
360
3543
102
}
102
{ACAD_REACTORS
330
1A
102
}
330
1A
100
AcDbPlotSettings
  1

  2
\\ek_srv\Canon LBP-880 LIPS4
  4

  6

 40
0.0
 41
0.0
 42
0.0
 43
0.0
 44
0.0
 45
0.0
 46
0.0
 47
0.0
 48
0.0
 49
0.0
140
0.0
141
0.0
142
1.0
143
1.0
 70
   688
 72
     0
 73
     0
 74
     5
  7
monochrome.ctb
 75
    16
147
1.0
148
0.0
149
0.0
100
AcDbLayout
  1
\U+FF9A\U+FF72\U+FF71\U+FF73\U+FF841
 70
     1
 71
     1
 10
0.0
 20
0.0
 11
12.0
 21
9.0
 12
0.0
 22
0.0
 32
0.0
 14
0.0
 24
0.0
 34
0.0
 15
0.0
 25
0.0
 35
0.0
146
0.0
 13
0.0
 23
0.0
 33
0.0
 16
1.0
 26
0.0
 36
0.0
 17
0.0
 27
1.0
 37
0.0
 76
     0
330
1CD0
  0
MATERIAL
  5
292F
102
{ACAD_XDICTIONARY
360
2930
102
}
102
{ACAD_REACTORS
330
2926
102
}
330
2926
100
AcDbMaterial
  1
ByBlock
 72
     0
 43
0.0008202099737533
 43
0.0
 43
0.0
 43
0.0
 43
0.0
 43
0.0008202099737533
 43
0.0
 43
0.0
 43
0.0
 43
0.0
 43
1.0
 43
0.0
 43
0.0
 43
0.0
 43
0.0
 43
1.0
 77
     0
 47
0.0008202099737533
 47
0.0
 47
0.0
 47
0.0
 47
0.0
 47
0.0008202099737533
 47
0.0
 47
0.0
 47
0.0
 47
0.0
 47
1.0
 47
0.0
 47
0.0
 47
0.0
 47
0.0
 47
1.0
171
     0
 49
0.0008202099737533
 49
0.0
 49
0.0
 49
0.0
 49
0.0
 49
0.0008202099737533
 49
0.0
 49
0.0
 49
0.0
 49
0.0
 49
1.0
 49
0.0
 49
0.0
 49
0.0
 49
0.0
 49
1.0
175
     0
142
0.0008202099737533
142
0.0
142
0.0
142
0.0
142
0.0
142
0.0008202099737533
142
0.0
142
0.0
142
0.0
142
0.0
142
1.0
142
0.0
142
0.0
142
0.0
142
0.0
142
1.0
179
     0
144
0.0008202099737533
144
0.0
144
0.0
144
0.0
144
0.0
144
0.0008202099737533
144
0.0
144
0.0
144
0.0
144
0.0
144
1.0
144
0.0
144
0.0
144
0.0
144
0.0
144
1.0
147
0.0008202099737533
147
0.0
147
0.0
147
0.0
147
0.0
147
0.0008202099737533
147
0.0
147
0.0
147
0.0
147
0.0
147
1.0
147
0.0
147
0.0
147
0.0
147
0.0
147
1.0
  0
MATERIAL
  5
2927
102
{ACAD_XDICTIONARY
360
2928
102
}
102
{ACAD_REACTORS
330
2926
102
}
330
2926
100
AcDbMaterial
  1
ByLayer
 72
     0
 43
0.0008202099737533
 43
0.0
 43
0.0
 43
0.0
 43
0.0
 43
0.0008202099737533
 43
0.0
 43
0.0
 43
0.0
 43
0.0
 43
1.0
 43
0.0
 43
0.0
 43
0.0
 43
0.0
 43
1.0
 77
     0
 47
0.0008202099737533
 47
0.0
 47
0.0
 47
0.0
 47
0.0
 47
0.0008202099737533
 47
0.0
 47
0.0
 47
0.0
 47
0.0
 47
1.0
 47
0.0
 47
0.0
 47
0.0
 47
0.0
 47
1.0
171
     0
 49
0.0008202099737533
 49
0.0
 49
0.0
 49
0.0
 49
0.0
 49
0.0008202099737533
 49
0.0
 49
0.0
 49
0.0
 49
0.0
 49
1.0
 49
0.0
 49
0.0
 49
0.0
 49
0.0
 49
1.0
175
     0
142
0.0008202099737533
142
0.0
142
0.0
142
0.0
142
0.0
142
0.0008202099737533
142
0.0
142
0.0
142
0.0
142
0.0
142
1.0
142
0.0
142
0.0
142
0.0
142
0.0
142
1.0
179
     0
144
0.0008202099737533
144
0.0
144
0.0
144
0.0
144
0.0
144
0.0008202099737533
144
0.0
144
0.0
144
0.0
144
0.0
144
1.0
144
0.0
144
0.0
144
0.0
144
0.0
144
1.0
147
0.0008202099737533
147
0.0
147
0.0
147
0.0
147
0.0
147
0.0008202099737533
147
0.0
147
0.0
147
0.0
147
0.0
147
1.0
147
0.0
147
0.0
147
0.0
147
0.0
147
1.0
  0
MATERIAL
  5
2937
102
{ACAD_XDICTIONARY
360
2938
102
}
102
{ACAD_REACTORS
330
2926
102
}
330
2926
100
AcDbMaterial
  1
Global
 72
     0
 43
0.0008202099737533
 43
0.0
 43
0.0
 43
0.0
 43
0.0
 43
0.0008202099737533
 43
0.0
 43
0.0
 43
0.0
 43
0.0
 43
1.0
 43
0.0
 43
0.0
 43
0.0
 43
0.0
 43
1.0
 77
     0
 47
0.0008202099737533
 47
0.0
 47
0.0
 47
0.0
 47
0.0
 47
0.0008202099737533
 47
0.0
 47
0.0
 47
0.0
 47
0.0
 47
1.0
 47
0.0
 47
0.0
 47
0.0
 47
0.0
 47
1.0
171
     0
 49
0.0008202099737533
 49
0.0
 49
0.0
 49
0.0
 49
0.0
 49
0.0008202099737533
 49
0.0
 49
0.0
 49
0.0
 49
0.0
 49
1.0
 49
0.0
 49
0.0
 49
0.0
 49
0.0
 49
1.0
175
     0
142
0.0008202099737533
142
0.0
142
0.0
142
0.0
142
0.0
142
0.0008202099737533
142
0.0
142
0.0
142
0.0
142
0.0
142
1.0
142
0.0
142
0.0
142
0.0
142
0.0
142
1.0
179
     0
144
0.0008202099737533
144
0.0
144
0.0
144
0.0
144
0.0
144
0.0008202099737533
144
0.0
144
0.0
144
0.0
144
0.0
144
1.0
144
0.0
144
0.0
144
0.0
144
0.0
144
1.0
147
0.0008202099737533
147
0.0
147
0.0
147
0.0
147
0.0
147
0.0008202099737533
147
0.0
147
0.0
147
0.0
147
0.0
147
1.0
147
0.0
147
0.0
147
0.0
147
0.0
147
1.0
  0
MLEADERSTYLE
  5
2969
102
{ACAD_REACTORS
330
2968
102
}
330
2968
100
AcDbMLeaderStyle
170
     2
171
     1
172
     0
 90
        2
 40
0.0
 41
0.0
173
     1
 91
-1056964608
340
14
 92
       -2
290
     1
 42
2.0
291
     1
 43
0.36
  3
Standard
 44
4.0
300

342
11
174
     1
178
     6
175
     1
176
     0
 93
-1056964608
 45
4.0
292
     0
297
     0
 46
4.0
 94
-1056964608
 47
1.0
 49
1.0
140
1.0
293
     1
141
0.0
294
     1
177
     0
142
1.0
295
     0
296
     0
143
0.125
1001
ACAD_MLEADERVER
1070
     2
  0
MLINESTYLE
  5
18
102
{ACAD_REACTORS
330
17
102
}
330
17
100
AcDbMlineStyle
  2
STANDARD
 70
     0
  3

 62
   256
 51
90.0
 52
90.0
 71
     2
 49
0.5
 62
   256
  6
BYLAYER
 49
-0.5
 62
   256
  6
BYLAYER
  0
ACDBPLACEHOLDER
  5
F
102
{ACAD_REACTORS
330
E
102
}
330
E
  0
ACDBPLACEHOLDER
  5
29
102
{ACAD_REACTORS
330
E
102
}
330
E
  0
SCALE
  5
2957
102
{ACAD_REACTORS
330
2956
102
}
330
2956
100
AcDbScale
 70
     0
300
1:1
140
1.0
141
1.0
290
     1
  0
SCALE
  5
2958
102
{ACAD_REACTORS
330
2956
102
}
330
2956
100
AcDbScale
 70
     0
300
1:2
140
1.0
141
2.0
290
     0
  0
SCALE
  5
2959
102
{ACAD_REACTORS
330
2956
102
}
330
2956
100
AcDbScale
 70
     0
300
1:4
140
1.0
141
4.0
290
     0
  0
SCALE
  5
295A
102
{ACAD_REACTORS
330
2956
102
}
330
2956
100
AcDbScale
 70
     0
300
1:5
140
1.0
141
5.0
290
     0
  0
SCALE
  5
295B
102
{ACAD_REACTORS
330
2956
102
}
330
2956
100
AcDbScale
 70
     0
300
1:8
140
1.0
141
8.0
290
     0
  0
SCALE
  5
295C
102
{ACAD_REACTORS
330
2956
102
}
330
2956
100
AcDbScale
 70
     0
300
1:10
140
1.0
141
10.0
290
     0
  0
SCALE
  5
295D
102
{ACAD_REACTORS
330
2956
102
}
330
2956
100
AcDbScale
 70
     0
300
1:16
140
1.0
141
16.0
290
     0
  0
SCALE
  5
295E
102
{ACAD_REACTORS
330
2956
102
}
330
2956
100
AcDbScale
 70
     0
300
1:20
140
1.0
141
20.0
290
     0
  0
SCALE
  5
295F
102
{ACAD_REACTORS
330
2956
102
}
330
2956
100
AcDbScale
 70
     0
300
1:30
140
1.0
141
30.0
290
     0
  0
SCALE
  5
2960
102
{ACAD_REACTORS
330
2956
102
}
330
2956
100
AcDbScale
 70
     0
300
1:40
140
1.0
141
40.0
290
     0
  0
SCALE
  5
2961
102
{ACAD_REACTORS
330
2956
102
}
330
2956
100
AcDbScale
 70
     0
300
1:50
140
1.0
141
50.0
290
     0
  0
SCALE
  5
2962
102
{ACAD_REACTORS
330
2956
102
}
330
2956
100
AcDbScale
 70
     0
300
1:100
140
1.0
141
100.0
290
     0
  0
SCALE
  5
2963
102
{ACAD_REACTORS
330
2956
102
}
330
2956
100
AcDbScale
 70
     0
300
2:1
140
2.0
141
1.0
290
     0
  0
SCALE
  5
2964
102
{ACAD_REACTORS
330
2956
102
}
330
2956
100
AcDbScale
 70
     0
300
4:1
140
4.0
141
1.0
290
     0
  0
SCALE
  5
2965
102
{ACAD_REACTORS
330
2956
102
}
330
2956
100
AcDbScale
 70
     0
300
8:1
140
8.0
141
1.0
290
     0
  0
SCALE
  5
2966
102
{ACAD_REACTORS
330
2956
102
}
330
2956
100
AcDbScale
 70
     0
300
10:1
140
10.0
141
1.0
290
     0
  0
SCALE
  5
2967
102
{ACAD_REACTORS
330
2956
102
}
330
2956
100
AcDbScale
 70
     0
300
100:1
140
100.0
141
1.0
290
     0
  0
ACDBSECTIONVIEWSTYLE
  5
2BB4
102
{ACAD_XDICTIONARY
360
357D
102
}
102
{ACAD_REACTORS
330
2BB3
102
}
330
2BB3
100
AcDbModelDocViewStyle
 70
     0
  3
Metric50
290
     0
100
AcDbSectionViewStyle
 70
     0
 71
     0
 90
      102
 71
     1
340
11
 40
5.0
340
0
340
0
 40
5.0
300
I, O, Q, S, X, Z
 40
10.0
 90
        0
 40
2.5
 90
        0
 71
     2
340
16
 90
       25
340
16
 90
       50
 40
5.0
 40
2.5
 40
5.0
 71
     3
340
11
 40
5.0
 90
        0
 40
15.0
 90
        1
300
%<\AcVar ViewSectionStartId>%-%<\AcVar ViewSectionEndId>% (%<\AcVar ViewScale \f "%sn">%)
 71
     4
300
ANSI31
 40
1.0
 90
        0
290
     0
290
     0
 90
        6
 40
0.0
 40
1.570796326794896
 40
0.2617993877991494
 40
1.308996938995747
 40
-0.2617993877991494
 40
1.832595714594046
1001
ACAD
1000
AcRTDxfName
1000
ACDBSECTIONVIEWSTYLE
1000
AcRTDxfName
1000
ACDBSECTIONVIEWSTYLE
1000
AcRTDxfName
1000
ACDBSECTIONVIEWSTYLE
1000
AcRTDxfName
1000
ACDBSECTIONVIEWSTYLE
1000
AcRTDxfName
1000
ACDBSECTIONVIEWSTYLE
  0
TABLESTYLE
  5
2955
102
{ACAD_XDICTIONARY
360
2B02
102
}
102
{ACAD_REACTORS
330
2954
102
}
330
2954
100
AcDbTableStyle
  3
Standard
 70
     0
 71
     0
 40
1.5
 41
1.5
280
     0
281
     0
  7
Standard
140
4.5
170
     2
 62
     0
 63
     7
283
     0
274
    -2
284
     1
 64
     0
275
    -2
285
     1
 65
     0
276
    -2
286
     1
 66
     0
277
    -2
287
     1
 67
     0
278
    -2
288
     1
 68
     0
279
    -2
289
     1
 69
     0
  7
Standard
140
6.0
170
     5
 62
     0
 63
     7
283
     0
274
    -2
284
     1
 64
     0
275
    -2
285
     1
 65
     0
276
    -2
286
     1
 66
     0
277
    -2
287
     1
 67
     0
278
    -2
288
     1
 68
     0
279
    -2
289
     1
 69
     0
  7
Standard
140
4.5
170
     5
 62
     0
 63
     7
283
     0
274
    -2
284
     1
 64
     0
275
    -2
285
     1
 65
     0
276
    -2
286
     1
 66
     0
277
    -2
287
     1
 67
     0
278
    -2
288
     1
 68
     0
279
    -2
289
     1
 69
     0
  0
VISUALSTYLE
  5
2945
102
{ACAD_XDICTIONARY
360
3552
102
}
102
{ACAD_REACTORS
330
293F
102
}
330
293F
100
AcDbVisualStyle
  2
2dWireframe
 70
     4
 71
     0
 72
     2
 73
     0
 90
        0
 40
-0.6
 41
-30.0
 62
     5
 63
     7
 74
     1
 91
        4
 64
     7
 65
   257
 75
     1
175
     1
 42
1.0
 92
        0
 66
   257
 43
1.0
 76
     1
 77
     6
 78
     2
 67
     7
 79
     5
170
     0
171
     0
290
     0
174
     0
 93
        1
 44
0.0
173
     0
291
     0
 45
0.0
1001
ACAD
1000
AcDbSavedByObjectVersion
1070
     0
  0
VISUALSTYLE
  5
2947
102
{ACAD_XDICTIONARY
360
3556
102
}
102
{ACAD_REACTORS
330
293F
102
}
330
293F
100
AcDbVisualStyle
  2
3D Hidden
 70
     6
 71
     1
 72
     2
 73
     2
 90
        0
 40
-0.6
 41
-30.0
 62
     5
 63
     7
 74
     2
 91
        2
 64
     7
 65
   257
 75
     2
175
     1
 42
179.0
 92
        0
 66
   257
 43
1.0
 76
     1
 77
     6
 78
     2
 67
     7
 79
     3
170
     0
171
     0
290
     0
174
     0
 93
        1
 44
0.0
173
     0
291
     0
 45
0.0
1001
ACAD
1000
AcDbSavedByObjectVersion
1070
     0
  0
VISUALSTYLE
  5
2946
102
{ACAD_XDICTIONARY
360
3554
102
}
102
{ACAD_REACTORS
330
293F
102
}
330
293F
100
AcDbVisualStyle
  2
3dWireframe
 70
     5
 71
     0
 72
     2
 73
     0
 90
        0
 40
-0.6
 41
-30.0
 62
     5
 63
     7
 74
     1
 91
        4
 64
     7
 65
   257
 75
     1
175
     1
 42
1.0
 92
        0
 66
   257
 43
1.0
 76
     1
 77
     6
 78
     2
 67
     7
 79
     5
170
     0
171
     0
290
     0
174
     0
 93
        1
 44
0.0
173
     0
291
     0
 45
0.0
1001
ACAD
1000
AcDbSavedByObjectVersion
1070
     0
  0
VISUALSTYLE
  5
2944
102
{ACAD_XDICTIONARY
360
3550
102
}
102
{ACAD_REACTORS
330
293F
102
}
330
293F
100
AcDbVisualStyle
  2
Basic
 70
     7
 71
     1
 72
     0
 73
     1
 90
        0
 40
-0.6
 41
-30.0
 62
     5
 63
     7
 74
     0
 91
        4
 64
     7
 65
   257
 75
     1
175
     1
 42
1.0
 92
        8
 66
     7
 43
1.0
 76
     1
 77
     6
 78
     2
 67
     7
 79
     5
170
     0
171
     0
290
     0
174
     0
 93
        1
 44
0.0
173
     0
291
     1
 45
0.0
1001
ACAD
1000
AcDbSavedByObjectVersion
1070
     0
  0
VISUALSTYLE
  5
294B
102
{ACAD_XDICTIONARY
360
355E
102
}
102
{ACAD_REACTORS
330
293F
102
}
330
293F
100
AcDbVisualStyle
  2
Brighten
 70
    12
 71
     2
 72
     2
 73
     0
 90
        0
 40
-0.6
 41
-30.0
 62
     5
 63
     7
 74
     1
 91
        4
 64
     7
 65
   257
 75
     1
175
     1
 42
1.0
 92
        8
 66
     7
 43
1.0
 76
     1
 77
     6
 78
     2
 67
     7
 79
     5
170
     0
171
     0
290
     0
174
     0
 93
        1
 44
50.0
173
     0
291
     1
 45
0.0
1001
ACAD
1000
AcDbSavedByObjectVersion
1070
     0
  0
VISUALSTYLE
  5
294F
102
{ACAD_XDICTIONARY
360
3566
102
}
102
{ACAD_REACTORS
330
293F
102
}
330
293F
100
AcDbVisualStyle
  2
ColorChange
 70
    16
 71
     2
 72
     2
 73
     3
 90
        0
 40
-0.6
 41
-30.0
 62
     5
 63
     8
 74
     1
 91
        4
 64
     7
 65
   257
 75
     1
175
     1
 42
1.0
 92
        8
 66
     8
 43
1.0
 76
     1
 77
     6
 78
     2
 67
     7
 79
     5
170
     0
171
     0
290
     0
174
     0
 93
        1
 44
0.0
173
     0
291
     1
 45
0.0
1001
ACAD
1000
AcDbSavedByObjectVersion
1070
     0
  0
VISUALSTYLE
  5
2948
102
{ACAD_XDICTIONARY
360
3558
102
}
102
{ACAD_REACTORS
330
293F
102
}
330
293F
100
AcDbVisualStyle
  2
Conceptual
 70
     9
 71
     3
 72
     2
 73
     0
 90
        0
 40
-0.6
 41
-30.0
 62
     5
 63
     7
 74
     2
 91
        2
 64
     7
 65
   257
 75
     1
175
     1
 42
179.0
 92
        8
 66
     7
 43
1.0
 76
     1
 77
     6
 78
     2
 67
     7
 79
     3
170
     0
171
     0
290
     0
174
     0
 93
        1
 44
0.0
173
     0
291
     0
 45
0.0
1001
ACAD
1000
AcDbSavedByObjectVersion
1070
     0
  0
VISUALSTYLE
  5
294A
102
{ACAD_XDICTIONARY
360
355C
102
}
102
{ACAD_REACTORS
330
293F
102
}
330
293F
100
AcDbVisualStyle
  2
Dim
 70
    11
 71
     2
 72
     2
 73
     0
 90
        0
 40
-0.6
 41
-30.0
 62
     5
 63
     7
 74
     1
 91
        4
 64
     7
 65
   257
 75
     1
175
     1
 42
1.0
 92
        8
 66
     7
 43
1.0
 76
     1
 77
     6
 78
     2
 67
     7
 79
     5
170
     0
171
     0
290
     0
174
     0
 93
        1
 44
-50.0
173
     0
291
     1
 45
0.0
1001
ACAD
1000
AcDbSavedByObjectVersion
1070
     0
  0
VISUALSTYLE
  5
2952
102
{ACAD_XDICTIONARY
360
356C
102
}
102
{ACAD_REACTORS
330
293F
102
}
330
293F
100
AcDbVisualStyle
  2
EdgeColorOff
 70
    22
 71
     2
 72
     2
 73
     0
 90
        0
 40
-0.6
 41
-30.0
 62
     5
 63
     7
 74
     1
 91
        4
 64
     7
 65
   257
 75
     1
175
     1
 42
1.0
 92
        8
 66
     7
 43
1.0
 76
     1
 77
     6
 78
     2
 67
     7
 79
     5
170
     0
171
     0
290
     0
174
     0
 93
        1
 44
0.0
173
     0
291
     1
 45
0.0
1001
ACAD
1000
AcDbSavedByObjectVersion
1070
     0
  0
VISUALSTYLE
  5
294E
102
{ACAD_XDICTIONARY
360
3564
102
}
102
{ACAD_REACTORS
330
293F
102
}
330
293F
100
AcDbVisualStyle
  2
Facepattern
 70
    15
 71
     2
 72
     2
 73
     0
 90
        0
 40
-0.6
 41
-30.0
 62
     5
 63
     7
 74
     1
 91
        4
 64
     7
 65
   257
 75
     1
175
     1
 42
1.0
 92
        8
 66
     7
 43
1.0
 76
     1
 77
     6
 78
     2
 67
     7
 79
     5
170
     0
171
     0
290
     0
174
     0
 93
        1
 44
0.0
173
     0
291
     1
 45
0.0
1001
ACAD
1000
AcDbSavedByObjectVersion
1070
     0
  0
VISUALSTYLE
  5
2940
102
{ACAD_XDICTIONARY
360
3548
102
}
102
{ACAD_REACTORS
330
293F
102
}
330
293F
100
AcDbVisualStyle
  2
Flat
 70
     0
 71
     2
 72
     1
 73
     1
 90
        2
 40
-0.6
 41
30.0
 62
     5
 63
     7
 74
     0
 91
        4
 64
     7
 65
   257
 75
     1
175
     1
 42
1.0
 92
        8
 66
     7
 43
1.0
 76
     1
 77
     6
 78
     2
 67
     7
 79
     5
170
     0
171
     0
290
     0
174
     0
 93
       13
 44
0.0
173
     0
291
     1
 45
0.0
1001
ACAD
1000
AcDbSavedByObjectVersion
1070
     0
  0
VISUALSTYLE
  5
2941
102
{ACAD_XDICTIONARY
360
354A
102
}
102
{ACAD_REACTORS
330
293F
102
}
330
293F
100
AcDbVisualStyle
  2
FlatWithEdges
 70
     1
 71
     2
 72
     1
 73
     1
 90
        2
 40
-0.6
 41
30.0
 62
     5
 63
     7
 74
     1
 91
        4
 64
     7
 65
   257
 75
     1
175
     1
 42
1.0
 92
        0
 66
   257
 43
1.0
 76
     1
 77
     6
 78
     2
 67
     7
 79
     5
170
     0
171
     0
290
     0
174
     0
 93
       13
 44
0.0
173
     0
291
     1
 45
0.0
1001
ACAD
1000
AcDbSavedByObjectVersion
1070
     0
  0
VISUALSTYLE
  5
2942
102
{ACAD_XDICTIONARY
360
354C
102
}
102
{ACAD_REACTORS
330
293F
102
}
330
293F
100
AcDbVisualStyle
  2
Gouraud
 70
     2
 71
     2
 72
     2
 73
     1
 90
        2
 40
-0.6
 41
30.0
 62
     5
 63
     7
 74
     0
 91
        4
 64
     7
 65
   257
 75
     1
175
     1
 42
1.0
 92
        0
 66
     7
 43
1.0
 76
     1
 77
     6
 78
     2
 67
     7
 79
     5
170
     0
171
     0
290
     0
174
     0
 93
       13
 44
0.0
173
     0
291
     1
 45
0.0
1001
ACAD
1000
AcDbSavedByObjectVersion
1070
     0
  0
VISUALSTYLE
  5
2943
102
{ACAD_XDICTIONARY
360
354E
102
}
102
{ACAD_REACTORS
330
293F
102
}
330
293F
100
AcDbVisualStyle
  2
GouraudWithEdges
 70
     3
 71
     2
 72
     2
 73
     1
 90
        2
 40
-0.6
 41
30.0
 62
     5
 63
     7
 74
     1
 91
        4
 64
     7
 65
   257
 75
     1
175
     1
 42
1.0
 92
        0
 66
   257
 43
1.0
 76
     1
 77
     6
 78
     2
 67
     7
 79
     5
170
     0
171
     0
290
     0
174
     0
 93
       13
 44
0.0
173
     0
291
     1
 45
0.0
1001
ACAD
1000
AcDbSavedByObjectVersion
1070
     0
  0
VISUALSTYLE
  5
2BAD
102
{ACAD_XDICTIONARY
360
3571
102
}
102
{ACAD_REACTORS
330
293F
102
}
330
293F
100
AcDbVisualStyle
  2
Hidden
 70
     6
 71
     1
 72
     2
 73
     2
 90
        0
 40
-0.6
 41
-30.0
 62
     5
 63
     7
 74
     2
 91
        2
 64
     7
 65
   257
 75
     2
175
     1
 42
40.0
 92
        0
 66
   257
 43
1.0
 76
     1
 77
     6
 78
     2
 67
     7
 79
     3
170
     0
171
     0
290
     0
174
     0
 93
        1
 44
0.0
173
     0
291
     0
 45
0.0
1001
ACAD
1000
AcDbSavedByObjectVersion
1070
     0
  0
VISUALSTYLE
  5
2950
102
{ACAD_XDICTIONARY
360
3568
102
}
102
{ACAD_REACTORS
330
293F
102
}
330
293F
100
AcDbVisualStyle
  2
JitterOff
 70
    20
 71
     2
 72
     2
 73
     0
 90
        0
 40
-0.6
 41
-30.0
 62
     5
 63
     7
 74
     1
 91
        4
 64
     7
 65
   257
 75
     1
175
     1
 42
1.0
 92
       10
 66
     7
 43
1.0
 76
     1
 77
     6
 78
     2
 67
     7
 79
     5
170
     0
171
     0
290
     0
174
     0
 93
        1
 44
0.0
173
     0
291
     1
 45
0.0
1001
ACAD
1000
AcDbSavedByObjectVersion
1070
     0
  0
VISUALSTYLE
  5
294D
102
{ACAD_XDICTIONARY
360
3562
102
}
102
{ACAD_REACTORS
330
293F
102
}
330
293F
100
AcDbVisualStyle
  2
Linepattern
 70
    14
 71
     2
 72
     2
 73
     0
 90
        0
 40
-0.6
 41
-30.0
 62
     5
 63
     7
 74
     1
 91
        4
 64
     7
 65
   257
 75
     7
175
     7
 42
1.0
 92
        8
 66
     7
 43
1.0
 76
     1
 77
     6
 78
     2
 67
     7
 79
     5
170
     0
171
     0
290
     0
174
     0
 93
        1
 44
0.0
173
     0
291
     1
 45
0.0
1001
ACAD
1000
AcDbSavedByObjectVersion
1070
     0
  0
VISUALSTYLE
  5
2951
102
{ACAD_XDICTIONARY
360
356A
102
}
102
{ACAD_REACTORS
330
293F
102
}
330
293F
100
AcDbVisualStyle
  2
OverhangOff
 70
    21
 71
     2
 72
     2
 73
     0
 90
        0
 40
-0.6
 41
-30.0
 62
     5
 63
     7
 74
     1
 91
        4
 64
     7
 65
   257
 75
     1
175
     1
 42
1.0
 92
        9
 66
     7
 43
1.0
 76
     1
 77
     6
 78
     2
 67
     7
 79
     5
170
     0
171
     0
290
     0
174
     0
 93
        1
 44
0.0
173
     0
291
     1
 45
0.0
1001
ACAD
1000
AcDbSavedByObjectVersion
1070
     0
  0
VISUALSTYLE
  5
2949
102
{ACAD_XDICTIONARY
360
355A
102
}
102
{ACAD_REACTORS
330
293F
102
}
330
293F
100
AcDbVisualStyle
  2
Realistic
 70
     8
 71
     2
 72
     2
 73
     0
 90
        0
 40
-0.6
 41
-30.0
 62
     5
 63
     7
 74
     1
 91
        0
 64
     7
 65
   257
 75
     1
175
     1
 42
1.0
 92
        8
 66
     8
 43
1.0
 76
     1
 77
     6
 78
     2
 67
     7
 79
     5
170
     0
171
     0
290
     0
174
     0
 93
       13
 44
0.0
173
     0
291
     0
 45
0.0
1001
ACAD
1000
AcDbSavedByObjectVersion
1070
     0
  0
VISUALSTYLE
  5
2BB2
102
{ACAD_XDICTIONARY
360
357B
102
}
102
{ACAD_REACTORS
330
293F
102
}
330
293F
100
AcDbVisualStyle
  2
Shaded
 70
    27
 71
     2
 72
     2
 73
     1
 90
        2
 40
-0.6
 41
30.0
 62
     5
 63
     7
 74
     0
 91
        4
 64
     7
 65
   257
 75
     1
175
     1
 42
1.0
 92
        8
 66
   257
 43
1.0
 76
     1
 77
     6
 78
     2
 67
     8
 79
     3
170
     0
171
     0
290
     0
174
     0
 93
        5
 44
0.0
173
     0
291
     0
 45
0.0
1001
ACAD
1000
AcDbSavedByObjectVersion
1070
     0
  0
VISUALSTYLE
  5
2BB1
102
{ACAD_XDICTIONARY
360
3579
102
}
102
{ACAD_REACTORS
330
293F
102
}
330
293F
100
AcDbVisualStyle
  2
Shaded with edges
 70
    26
 71
     2
 72
     2
 73
     1
 90
        2
 40
-0.6
 41
30.0
 62
     5
 63
     7
 74
     1
 91
        2
 64
     7
 65
   257
 75
     2
175
     1
 42
1.0
 92
        8
 66
   257
 43
1.0
 76
     1
 77
     6
 78
     2
 67
     7
 79
     3
170
     0
171
     0
290
     0
174
     0
 93
        5
 44
0.0
173
     0
291
     0
 45
0.0
1001
ACAD
1000
AcDbSavedByObjectVersion
1070
     0
  0
VISUALSTYLE
  5
2BAE
102
{ACAD_XDICTIONARY
360
3573
102
}
102
{ACAD_REACTORS
330
293F
102
}
330
293F
100
AcDbVisualStyle
  2
Shades of Gray
 70
    23
 71
     2
 72
     2
 73
     3
 90
        0
 40
-0.6
 41
-30.0
 62
     5
 63
     7
 74
     2
 91
        2
 64
     7
 65
     7
 75
     1
175
     1
 42
40.0
 92
        8
 66
     7
 43
1.0
 76
     1
 77
     6
 78
     2
 67
     7
 79
     3
170
     0
171
     0
290
     0
174
     0
 93
        1
 44
0.0
173
     0
291
     0
 45
0.0
1001
ACAD
1000
AcDbSavedByObjectVersion
1070
     0
  0
VISUALSTYLE
  5
2BAF
102
{ACAD_XDICTIONARY
360
3575
102
}
102
{ACAD_REACTORS
330
293F
102
}
330
293F
100
AcDbVisualStyle
  2
Sketchy
 70
    24
 71
     1
 72
     2
 73
     2
 90
        0
 40
-0.6
 41
-30.0
 62
     5
 63
     7
 74
     2
 91
        2
 64
     7
 65
     7
 75
     1
175
     1
 42
40.0
 92
       11
 66
     7
 43
1.0
 76
     1
 77
     6
 78
     2
 67
     7
 79
     6
170
     0
171
     0
290
     0
174
     0
 93
        1
 44
0.0
173
     0
291
     0
 45
0.0
1001
ACAD
1000
AcDbSavedByObjectVersion
1070
     0
  0
VISUALSTYLE
  5
294C
102
{ACAD_XDICTIONARY
360
3560
102
}
102
{ACAD_REACTORS
330
293F
102
}
330
293F
100
AcDbVisualStyle
  2
Thicken
 70
    13
 71
     2
 72
     2
 73
     0
 90
        0
 40
-0.6
 41
-30.0
 62
     5
 63
     7
 74
     1
 91
        4
 64
     7
 65
   257
 75
     1
175
     1
 42
1.0
 92
       12
 66
     7
 43
1.0
 76
     1
 77
     6
 78
     2
 67
     7
 79
     5
170
     0
171
     0
290
     0
174
     0
 93
        1
 44
0.0
173
     0
291
     1
 45
0.0
1001
ACAD
1000
AcDbSavedByObjectVersion
1070
     0
  0
VISUALSTYLE
  5
2BAC
102
{ACAD_XDICTIONARY
360
356F
102
}
102
{ACAD_REACTORS
330
293F
102
}
330
293F
100
AcDbVisualStyle
  2
Wireframe
 70
     5
 71
     0
 72
     2
 73
     0
 90
        0
 40
-0.6
 41
-30.0
 62
     5
 63
     7
 74
     1
 91
        4
 64
     7
 65
   257
 75
     1
175
     1
 42
1.0
 92
        0
 66
   257
 43
1.0
 76
     1
 77
     6
 78
     2
 67
     7
 79
     3
170
     0
171
     0
290
     0
174
     0
 93
        1
 44
0.0
173
     0
291
     0
 45
0.0
1001
ACAD
1000
AcDbSavedByObjectVersion
1070
     0
  0
VISUALSTYLE
  5
2BB0
102
{ACAD_XDICTIONARY
360
3577
102
}
102
{ACAD_REACTORS
330
293F
102
}
330
293F
100
AcDbVisualStyle
  2
X-Ray
 70
    25
 71
     2
 72
     2
 73
     1
 90
        1
 40
0.5
 41
-30.0
 62
     5
 63
     7
 74
     1
 91
        0
 64
     7
 65
   257
 75
     1
175
     1
 42
1.0
 92
        8
 66
     7
 43
1.0
 76
     1
 77
     6
 78
     2
 67
     7
 79
     3
170
     0
171
     0
290
     0
174
     0
 93
       13
 44
0.0
173
     0
291
     0
 45
0.0
1001
ACAD
1000
AcDbSavedByObjectVersion
1070
     0
  0
DICTIONARYVAR
  5
2B38
102
{ACAD_REACTORS
330
1835
102
}
330
1835
100
DictionaryVariables
280
     0
  1
1:1
  0
DICTIONARYVAR
  5
2B37
102
{ACAD_REACTORS
330
1835
102
}
330
1835
100
DictionaryVariables
280
     0
  1
STANDARD
  0
DICTIONARYVAR
  5
2B36
102
{ACAD_REACTORS
330
1835
102
}
330
1835
100
DictionaryVariables
280
     0
  1
STANDARD
  0
DICTIONARYVAR
  5
2BFF
102
{ACAD_REACTORS
330
1835
102
}
330
1835
100
DictionaryVariables
280
     0
  1
Metric50
  0
DICTIONARYVAR
  5
2C00
102
{ACAD_REACTORS
330
1835
102
}
330
1835
100
DictionaryVariables
280
     0
  1
Metric50
  0
DICTIONARYVAR
  5
2B3A
102
{ACAD_REACTORS
330
1835
102
}
330
1835
100
DictionaryVariables
280
     0
  1
1
  0
DICTIONARYVAR
  5
2B39
102
{ACAD_REACTORS
330
1835
102
}
330
1835
100
DictionaryVariables
280
     0
  1
0
  0
DICTIONARYVAR
  5
1836
102
{ACAD_REACTORS
330
1835
102
}
330
1835
100
DictionaryVariables
280
     0
  1
127
  0
DICTIONARYVAR
  5
353D
102
{ACAD_REACTORS
330
1835
102
}
330
1835
100
DictionaryVariables
280
     0
  1
2
  0
DICTIONARY
  5
357F
330
2BB6
100
AcDbDictionary
280
     1
281
     1
  3
ACAD_XREC_ROUNDTRIP
360
3580
  0
DICTIONARY
  5
3541
330
22
100
AcDbDictionary
280
     1
281
     1
  3
ACAD_XREC_ROUNDTRIP
360
3542
  0
DICTIONARY
  5
3543
330
1CD1
100
AcDbDictionary
280
     1
281
     1
  3
ACAD_XREC_ROUNDTRIP
360
3544
  0
DICTIONARY
  5
2930
330
292F
100
AcDbDictionary
280
     1
281
     1
  3
ACAD_XREC_ROUNDTRIP
360
3546
  3
BUMPTILE
360
2932
  3
DIFFUSETILE
360
2931
  3
OPACITYTILE
360
2935
  3
REFLECTIONTILE
360
2934
  3
REFRACTIONTILE
360
2936
  3
SPECULARTILE
360
2933
  0
DICTIONARY
  5
2928
330
2927
100
AcDbDictionary
280
     1
281
     1
  3
ACAD_XREC_ROUNDTRIP
360
3545
  3
BUMPTILE
360
292A
  3
DIFFUSETILE
360
2929
  3
OPACITYTILE
360
292D
  3
REFLECTIONTILE
360
292C
  3
REFRACTIONTILE
360
292E
  3
SPECULARTILE
360
292B
  0
DICTIONARY
  5
2938
330
2937
100
AcDbDictionary
280
     1
281
     1
  3
ACAD_XREC_ROUNDTRIP
360
3547
  3
BUMPTILE
360
293A
  3
DIFFUSETILE
360
2939
  3
OPACITYTILE
360
293D
  3
REFLECTIONTILE
360
293C
  3
REFRACTIONTILE
360
293E
  3
SPECULARTILE
360
293B
  0
DICTIONARY
  5
357D
330
2BB4
100
AcDbDictionary
280
     1
281
     1
  3
ACAD_XREC_ROUNDTRIP
360
357E
  0
DICTIONARY
  5
2B02
330
2955
100
AcDbDictionary
280
     1
281
     1
  3
ACAD_ROUNDTRIP_2008_TABLESTYLE_CELLSTYLEMAP
360
353E
  3
ACAD_XREC_ROUNDTRIP
360
356E
  0
DICTIONARY
  5
3552
330
2945
100
AcDbDictionary
280
     1
281
     1
  3
ACAD_XREC_ROUNDTRIP
360
3553
  0
DICTIONARY
  5
3556
330
2947
100
AcDbDictionary
280
     1
281
     1
  3
ACAD_XREC_ROUNDTRIP
360
3557
  0
DICTIONARY
  5
3554
330
2946
100
AcDbDictionary
280
     1
281
     1
  3
ACAD_XREC_ROUNDTRIP
360
3555
  0
DICTIONARY
  5
3550
330
2944
100
AcDbDictionary
280
     1
281
     1
  3
ACAD_XREC_ROUNDTRIP
360
3551
  0
DICTIONARY
  5
355E
330
294B
100
AcDbDictionary
280
     1
281
     1
  3
ACAD_XREC_ROUNDTRIP
360
355F
  0
DICTIONARY
  5
3566
330
294F
100
AcDbDictionary
280
     1
281
     1
  3
ACAD_XREC_ROUNDTRIP
360
3567
  0
DICTIONARY
  5
3558
330
2948
100
AcDbDictionary
280
     1
281
     1
  3
ACAD_XREC_ROUNDTRIP
360
3559
  0
DICTIONARY
  5
355C
330
294A
100
AcDbDictionary
280
     1
281
     1
  3
ACAD_XREC_ROUNDTRIP
360
355D
  0
DICTIONARY
  5
356C
330
2952
100
AcDbDictionary
280
     1
281
     1
  3
ACAD_XREC_ROUNDTRIP
360
356D
  0
DICTIONARY
  5
3564
330
294E
100
AcDbDictionary
280
     1
281
     1
  3
ACAD_XREC_ROUNDTRIP
360
3565
  0
DICTIONARY
  5
3548
330
2940
100
AcDbDictionary
280
     1
281
     1
  3
ACAD_XREC_ROUNDTRIP
360
3549
  0
DICTIONARY
  5
354A
330
2941
100
AcDbDictionary
280
     1
281
     1
  3
ACAD_XREC_ROUNDTRIP
360
354B
  0
DICTIONARY
  5
354C
330
2942
100
AcDbDictionary
280
     1
281
     1
  3
ACAD_XREC_ROUNDTRIP
360
354D
  0
DICTIONARY
  5
354E
330
2943
100
AcDbDictionary
280
     1
281
     1
  3
ACAD_XREC_ROUNDTRIP
360
354F
  0
DICTIONARY
  5
3571
330
2BAD
100
AcDbDictionary
280
     1
281
     1
  3
ACAD_XREC_ROUNDTRIP
360
3572
  0
DICTIONARY
  5
3568
330
2950
100
AcDbDictionary
280
     1
281
     1
  3
ACAD_XREC_ROUNDTRIP
360
3569
  0
DICTIONARY
  5
3562
330
294D
100
AcDbDictionary
280
     1
281
     1
  3
ACAD_XREC_ROUNDTRIP
360
3563
  0
DICTIONARY
  5
356A
330
2951
100
AcDbDictionary
280
     1
281
     1
  3
ACAD_XREC_ROUNDTRIP
360
356B
  0
DICTIONARY
  5
355A
330
2949
100
AcDbDictionary
280
     1
281
     1
  3
ACAD_XREC_ROUNDTRIP
360
355B
  0
DICTIONARY
  5
357B
330
2BB2
100
AcDbDictionary
280
     1
281
     1
  3
ACAD_XREC_ROUNDTRIP
360
357C
  0
DICTIONARY
  5
3579
330
2BB1
100
AcDbDictionary
280
     1
281
     1
  3
ACAD_XREC_ROUNDTRIP
360
357A
  0
DICTIONARY
  5
3573
330
2BAE
100
AcDbDictionary
280
     1
281
     1
  3
ACAD_XREC_ROUNDTRIP
360
3574
  0
DICTIONARY
  5
3575
330
2BAF
100
AcDbDictionary
280
     1
281
     1
  3
ACAD_XREC_ROUNDTRIP
360
3576
  0
DICTIONARY
  5
3560
330
294C
100
AcDbDictionary
280
     1
281
     1
  3
ACAD_XREC_ROUNDTRIP
360
3561
  0
DICTIONARY
  5
356F
330
2BAC
100
AcDbDictionary
280
     1
281
     1
  3
ACAD_XREC_ROUNDTRIP
360
3570
  0
DICTIONARY
  5
3577
330
2BB0
100
AcDbDictionary
280
     1
281
     1
  3
ACAD_XREC_ROUNDTRIP
360
3578
  0
XRECORD
  5
3580
102
{ACAD_REACTORS
330
357F
102
}
330
357F
100
AcDbXrecord
280
     1
102
DISPLAYNAME
  1
Metric50
102
FLAGS
 90
        0
  0
XRECORD
  5
3542
102
{ACAD_REACTORS
330
3541
102
}
330
3541
100
AcDbXrecord
280
     1
102
SHADEPLOT
 70
     0
102
SHADEPLOTRESLEVEL
 70
     2
102
SHADEPLOTCUSTOMDPI
 70
   300
  0
XRECORD
  5
3544
102
{ACAD_REACTORS
330
3543
102
}
330
3543
100
AcDbXrecord
280
     1
102
SHADEPLOT
 70
     0
102
SHADEPLOTRESLEVEL
 70
     2
102
SHADEPLOTCUSTOMDPI
 70
   300
  0
XRECORD
  5
3546
102
{ACAD_REACTORS
330
2930
102
}
330
2930
100
AcDbXrecord
280
     1
102
MATERIAL
148
0.0
149
0.0
149
0.0
 93
        0
 94
      127
282
     0
 72
     0
 77
     0
171
     0
175
     0
179
     0
273
     0
  0
XRECORD
  5
2932
102
{ACAD_REACTORS
330
2930
102
}
330
2930
100
AcDbXrecord
280
     1
270
     1
271
     1
  0
XRECORD
  5
2931
102
{ACAD_REACTORS
330
2930
102
}
330
2930
100
AcDbXrecord
280
     1
270
     1
271
     1
  0
XRECORD
  5
2935
102
{ACAD_REACTORS
330
2930
102
}
330
2930
100
AcDbXrecord
280
     1
270
     1
271
     1
  0
XRECORD
  5
2934
102
{ACAD_REACTORS
330
2930
102
}
330
2930
100
AcDbXrecord
280
     1
270
     1
271
     1
  0
XRECORD
  5
2936
102
{ACAD_REACTORS
330
2930
102
}
330
2930
100
AcDbXrecord
280
     1
270
     1
271
     1
  0
XRECORD
  5
2933
102
{ACAD_REACTORS
330
2930
102
}
330
2930
100
AcDbXrecord
280
     1
270
     1
271
     1
  0
XRECORD
  5
3545
102
{ACAD_REACTORS
330
2928
102
}
330
2928
100
AcDbXrecord
280
     1
102
MATERIAL
148
0.0
149
0.0
149
0.0
 93
        0
 94
      127
282
     0
 72
     0
 77
     0
171
     0
175
     0
179
     0
273
     0
  0
XRECORD
  5
292A
102
{ACAD_REACTORS
330
2928
102
}
330
2928
100
AcDbXrecord
280
     1
270
     1
271
     1
  0
XRECORD
  5
2929
102
{ACAD_REACTORS
330
2928
102
}
330
2928
100
AcDbXrecord
280
     1
270
     1
271
     1
  0
XRECORD
  5
292D
102
{ACAD_REACTORS
330
2928
102
}
330
2928
100
AcDbXrecord
280
     1
270
     1
271
     1
  0
XRECORD
  5
292C
102
{ACAD_REACTORS
330
2928
102
}
330
2928
100
AcDbXrecord
280
     1
270
     1
271
     1
  0
XRECORD
  5
292E
102
{ACAD_REACTORS
330
2928
102
}
330
2928
100
AcDbXrecord
280
     1
270
     1
271
     1
  0
XRECORD
  5
292B
102
{ACAD_REACTORS
330
2928
102
}
330
2928
100
AcDbXrecord
280
     1
270
     1
271
     1
  0
XRECORD
  5
3547
102
{ACAD_REACTORS
330
2938
102
}
330
2938
100
AcDbXrecord
280
     1
102
MATERIAL
148
0.0
149
0.0
149
0.0
 93
        0
 94
      127
282
     0
 72
     0
 77
     0
171
     0
175
     0
179
     0
273
     0
  0
XRECORD
  5
293A
102
{ACAD_REACTORS
330
2938
102
}
330
2938
100
AcDbXrecord
280
     1
270
     1
271
     1
  0
XRECORD
  5
2939
102
{ACAD_REACTORS
330
2938
102
}
330
2938
100
AcDbXrecord
280
     1
270
     1
271
     1
  0
XRECORD
  5
293D
102
{ACAD_REACTORS
330
2938
102
}
330
2938
100
AcDbXrecord
280
     1
270
     1
271
     1
  0
XRECORD
  5
293C
102
{ACAD_REACTORS
330
2938
102
}
330
2938
100
AcDbXrecord
280
     1
270
     1
271
     1
  0
XRECORD
  5
293E
102
{ACAD_REACTORS
330
2938
102
}
330
2938
100
AcDbXrecord
280
     1
270
     1
271
     1
  0
XRECORD
  5
293B
102
{ACAD_REACTORS
330
2938
102
}
330
2938
100
AcDbXrecord
280
     1
270
     1
271
     1
  0
XRECORD
  5
357E
102
{ACAD_REACTORS
330
357D
102
}
330
357D
100
AcDbXrecord
280
     1
102
DISPLAYNAME
  1
Metric50
102
FLAGS
 90
        0
  0
CELLSTYLEMAP
  5
353E
102
{ACAD_REACTORS
330
2B02
102
}
330
2B02
100
AcDbCellStyleMap
 90
        3
300
CELLSTYLE
  1
TABLEFORMAT_BEGIN
 90
        5
170
     1
 91
        0
 92
    32768
 62
   257
 93
        1
300
CONTENTFORMAT
  1
CONTENTFORMAT_BEGIN
 90
        0
 91
        0
 92
      512
 93
        0
300

 40
0.0
140
1.0
 94
        5
 62
     0
340
11
144
6.0
309
CONTENTFORMAT_END
171
     1
301
MARGIN
  1
CELLMARGIN_BEGIN
 40
1.5
 40
1.5
 40
1.5
 40
1.5
 40
4.5
 40
4.5
309
CELLMARGIN_END
 94
        6
 95
        1
302
GRIDFORMAT
  1
GRIDFORMAT_BEGIN
 90
        0
 91
        1
 62
     0
 92
       -2
340
0
 93
        0
 40
1.125
309
GRIDFORMAT_END
 95
        2
302
GRIDFORMAT
  1
GRIDFORMAT_BEGIN
 90
        0
 91
        1
 62
     0
 92
       -2
340
0
 93
        0
 40
1.125
309
GRIDFORMAT_END
 95
        4
302
GRIDFORMAT
  1
GRIDFORMAT_BEGIN
 90
        0
 91
        1
 62
     0
 92
       -2
340
0
 93
        0
 40
1.125
309
GRIDFORMAT_END
 95
        8
302
GRIDFORMAT
  1
GRIDFORMAT_BEGIN
 90
        0
 91
        1
 62
     0
 92
       -2
340
0
 93
        0
 40
1.125
309
GRIDFORMAT_END
 95
       16
302
GRIDFORMAT
  1
GRIDFORMAT_BEGIN
 90
        0
 91
        1
 62
     0
 92
       -2
340
0
 93
        0
 40
1.125
309
GRIDFORMAT_END
 95
       32
302
GRIDFORMAT
  1
GRIDFORMAT_BEGIN
 90
        0
 91
        1
 62
     0
 92
       -2
340
0
 93
        0
 40
1.125
309
GRIDFORMAT_END
309
TABLEFORMAT_END
  1
CELLSTYLE_BEGIN
 90
        1
 91
        1
300
_TITLE
309
CELLSTYLE_END
300
CELLSTYLE
  1
TABLEFORMAT_BEGIN
 90
        5
170
     1
 91
        0
 92
        0
 62
   257
 93
        1
300
CONTENTFORMAT
  1
CONTENTFORMAT_BEGIN
 90
        0
 91
        0
 92
      512
 93
        0
300

 40
0.0
140
1.0
 94
        5
 62
     0
340
11
144
4.5
309
CONTENTFORMAT_END
171
     1
301
MARGIN
  1
CELLMARGIN_BEGIN
 40
1.5
 40
1.5
 40
1.5
 40
1.5
 40
4.5
 40
4.5
309
CELLMARGIN_END
 94
        6
 95
        1
302
GRIDFORMAT
  1
GRIDFORMAT_BEGIN
 90
        0
 91
        1
 62
     0
 92
       -2
340
0
 93
        0
 40
1.125
309
GRIDFORMAT_END
 95
        2
302
GRIDFORMAT
  1
GRIDFORMAT_BEGIN
 90
        0
 91
        1
 62
     0
 92
       -2
340
0
 93
        0
 40
1.125
309
GRIDFORMAT_END
 95
        4
302
GRIDFORMAT
  1
GRIDFORMAT_BEGIN
 90
        0
 91
        1
 62
     0
 92
       -2
340
0
 93
        0
 40
1.125
309
GRIDFORMAT_END
 95
        8
302
GRIDFORMAT
  1
GRIDFORMAT_BEGIN
 90
        0
 91
        1
 62
     0
 92
       -2
340
0
 93
        0
 40
1.125
309
GRIDFORMAT_END
 95
       16
302
GRIDFORMAT
  1
GRIDFORMAT_BEGIN
 90
        0
 91
        1
 62
     0
 92
       -2
340
0
 93
        0
 40
1.125
309
GRIDFORMAT_END
 95
       32
302
GRIDFORMAT
  1
GRIDFORMAT_BEGIN
 90
        0
 91
        1
 62
     0
 92
       -2
340
0
 93
        0
 40
1.125
309
GRIDFORMAT_END
309
TABLEFORMAT_END
  1
CELLSTYLE_BEGIN
 90
        2
 91
        1
300
_HEADER
309
CELLSTYLE_END
300
CELLSTYLE
  1
TABLEFORMAT_BEGIN
 90
        5
170
     1
 91
        0
 92
        0
 62
   257
 93
        1
300
CONTENTFORMAT
  1
CONTENTFORMAT_BEGIN
 90
        0
 91
        0
 92
      512
 93
        0
300

 40
0.0
140
1.0
 94
        2
 62
     0
340
11
144
4.5
309
CONTENTFORMAT_END
171
     1
301
MARGIN
  1
CELLMARGIN_BEGIN
 40
1.5
 40
1.5
 40
1.5
 40
1.5
 40
4.5
 40
4.5
309
CELLMARGIN_END
 94
        6
 95
        1
302
GRIDFORMAT
  1
GRIDFORMAT_BEGIN
 90
        0
 91
        1
 62
     0
 92
       -2
340
0
 93
        0
 40
1.125
309
GRIDFORMAT_END
 95
        2
302
GRIDFORMAT
  1
GRIDFORMAT_BEGIN
 90
        0
 91
        1
 62
     0
 92
       -2
340
0
 93
        0
 40
1.125
309
GRIDFORMAT_END
 95
        4
302
GRIDFORMAT
  1
GRIDFORMAT_BEGIN
 90
        0
 91
        1
 62
     0
 92
       -2
340
0
 93
        0
 40
1.125
309
GRIDFORMAT_END
 95
        8
302
GRIDFORMAT
  1
GRIDFORMAT_BEGIN
 90
        0
 91
        1
 62
     0
 92
       -2
340
0
 93
        0
 40
1.125
309
GRIDFORMAT_END
 95
       16
302
GRIDFORMAT
  1
GRIDFORMAT_BEGIN
 90
        0
 91
        1
 62
     0
 92
       -2
340
0
 93
        0
 40
1.125
309
GRIDFORMAT_END
 95
       32
302
GRIDFORMAT
  1
GRIDFORMAT_BEGIN
 90
        0
 91
        1
 62
     0
 92
       -2
340
0
 93
        0
 40
1.125
309
GRIDFORMAT_END
309
TABLEFORMAT_END
  1
CELLSTYLE_BEGIN
 90
        3
 91
        2
300
_DATA
309
CELLSTYLE_END
  0
XRECORD
  5
356E
102
{ACAD_REACTORS
330
2B02
102
}
330
2B02
100
AcDbXrecord
280
     1
102
ACAD_ROUNDTRIP_PRE2007_TABLESTYLE
 90
      512
 91
        0
  1

 92
      512
 93
        0
  2

 94
      512
 95
        0
  3

  0
XRECORD
  5
3553
102
{ACAD_REACTORS
330
3552
102
}
330
3552
100
AcDbXrecord
280
     1
102
RTVSPost2010Prop28
280
     1
102
RTVSPost2010PropOp28
 70
     1
102
RTVSPost2010Prop29
280
     1
102
RTVSPost2010PropOp29
 70
     1
102
RTVSPost2010Prop30
280
     0
102
RTVSPost2010PropOp30
 70
     1
102
RTVSPost2010Prop31
280
     0
102
RTVSPost2010PropOp31
 70
     1
102
RTVSPost2010Prop32
280
     0
102
RTVSPost2010PropOp32
 70
     1
102
RTVSPost2010Prop33
280
     0
102
RTVSPost2010PropOp33
 70
     1
102
RTVSPost2010Prop34
280
     0
102
RTVSPost2010PropOp34
 70
     1
102
RTVSPost2010Prop35
280
     0
102
RTVSPost2010PropOp35
 70
     1
102
RTVSPost2010Prop36
280
     0
102
RTVSPost2010PropOp36
 70
     1
102
RTVSPost2010Prop37
 90
       50
102
RTVSPost2010PropOp37
 70
     1
102
RTVSPost2010Prop38
140
0.0
102
RTVSPost2010PropOp38
 70
     1
102
RTVSPost2010Prop39
140
1.0
102
RTVSPost2010PropOp39
 70
     1
102
RTVSPost2010Prop40
 90
        0
102
RTVSPost2010PropOp40
 70
     1
102
RTVSPost2010Prop41ColorIndex
 90
       18
102
RTVSPost2010Prop41ColorRGB
 90
        0
102
RTVSPost2010PropOp41
 70
     1
102
RTVSPost2010Prop42
 90
       50
102
RTVSPost2010PropOp42
 70
     1
102
RTVSPost2010Prop43
 90
        3
102
RTVSPost2010PropOp43
 70
     1
102
RTVSPost2010Prop44ColorIndex
 90
        5
102
RTVSPost2010Prop44ColorRGB
 90
      255
102
RTVSPost2010PropOp44
 70
     1
102
RTVSPost2010Prop45
280
     0
102
RTVSPost2010PropOp45
 70
     1
102
RTVSPost2010Prop46
 90
       50
102
RTVSPost2010PropOp46
 70
     1
102
RTVSPost2010Prop47
 90
       50
102
RTVSPost2010PropOp47
 70
     1
102
RTVSPost2010Prop48
 90
       50
102
RTVSPost2010PropOp48
 70
     1
102
RTVSPost2010Prop49
280
     0
102
RTVSPost2010PropOp49
 70
     1
102
RTVSPost2010Prop50
 90
       50
102
RTVSPost2010PropOp50
 70
     1
102
RTVSPost2010Prop51ColorIndex
 90
      256
102
RTVSPost2010Prop51ColorRGB
 90
-16777216
102
RTVSPost2010PropOp51
 70
     0
102
RTVSPost2010Prop52
140
1.0
102
RTVSPost2010PropOp52
 70
     0
102
RTVSPost2010Prop53
 90
        2
102
RTVSPost2010PropOp53
 70
     1
102
RTVSPost2010Prop54
  1
strokes_ogs.tif
102
RTVSPost2010PropOp54
 70
     1
102
RTVSPost2010Prop55
280
     0
102
RTVSPost2010PropOp55
 70
     1
102
RTVSPost2010Prop56
140
1.0
102
RTVSPost2010PropOp56
 70
     1
102
RTVSPost2010Prop57
140
1.0
102
RTVSPost2010PropOp57
 70
     1
102
RTVSPropertyOp0
 70
     1
102
RTVSPropertyOp1
 70
     1
102
RTVSPropertyOp2
 70
     1
102
RTVSPropertyOp3
 70
     1
102
RTVSPropertyOp4
 70
     1
102
RTVSPropertyOp5
 70
     1
102
RTVSPropertyOp6
 70
     1
102
RTVSPropertyOp7
 70
     1
102
RTVSPropertyOp8
 70
     1
102
RTVSPropertyOp9
 70
     1
102
RTVSPropertyOp10
 70
     1
102
RTVSPropertyOp11
 70
     1
102
RTVSPropertyOp12
 70
     1
102
RTVSPropertyOp13
 70
     1
102
RTVSPropertyOp14
 70
     1
102
RTVSPropertyOp15
 70
     1
102
RTVSPropertyOp16
 70
     1
102
RTVSPropertyOp17
 70
     1
102
RTVSPropertyOp18
 70
     1
102
RTVSPropertyOp19
 70
     1
102
RTVSPropertyOp20
 70
     1
102
RTVSPropertyOp21
 70
     1
102
RTVSPropertyOp22
 70
     1
102
RTVSPropertyOp23
 70
     1
102
RTVSPropertyOp24
 70
     1
102
RTVSPropertyOp25
 70
     1
102
RTVSPropertyOp26
 70
     1
102
RTVSPropertyOp27
 70
     1
102
RTVSPropertyOp28
 70
     1
102
RTVSPropertyOp29
 70
     1
102
RTVSPropertyOp30
 70
     1
102
RTVSPropertyOp31
 70
     1
102
RTVSPropertyOp32
 70
     1
102
RTVSPropertyOp33
 70
     1
102
RTVSPropertyOp34
 70
     1
102
RTVSPropertyOp35
 70
     1
102
RTVSPropertyOp36
 70
     1
102
RTVSPropertyOp37
 70
     1
102
RTVSPropertyOp38
 70
     1
102
RTVSPropertyOp39
 70
     1
102
RTVSPropertyOp40
 70
     1
102
RTVSPropertyOp41
 70
     1
102
RTVSPropertyOp42
 70
     1
102
RTVSPropertyOp43
 70
     1
102
RTVSPropertyOp44
 70
     1
102
RTVSPropertyOp45
 70
     1
102
RTVSPropertyOp46
 70
     1
102
RTVSPropertyOp47
 70
     1
102
RTVSPropertyOp48
 70
     1
102
RTVSPropertyOp49
 70
     1
102
RTVSPropertyOp50
 70
     1
102
RTVSPropertyOp51
 70
     0
102
RTVSPropertyOp52
 70
     0
102
RTVSPropertyOp53
 70
     1
102
RTVSPropertyOp54
 70
     1
102
RTVSPropertyOp55
 70
     1
102
RTVSPropertyOp56
 70
     1
102
RTVSPropertyOp57
 70
     1
102
RTVSPropertyOp58
 70
     1
102
RTVSPropertyOp59
 70
     1
102
RTVSPropertyOp60
 70
     1
102
RTVSPropertyOp61
 70
     1
102
RTVSPropertyOp62
 70
     1
  0
XRECORD
  5
3557
102
{ACAD_REACTORS
330
3556
102
}
330
3556
100
AcDbXrecord
280
     1
102
RTVSPost2010Prop28
280
     0
102
RTVSPost2010PropOp28
 70
     1
102
RTVSPost2010Prop29
280
     1
102
RTVSPost2010PropOp29
 70
     1
102
RTVSPost2010Prop30
280
     1
102
RTVSPost2010PropOp30
 70
     1
102
RTVSPost2010Prop31
280
     0
102
RTVSPost2010PropOp31
 70
     1
102
RTVSPost2010Prop32
280
     0
102
RTVSPost2010PropOp32
 70
     1
102
RTVSPost2010Prop33
280
     0
102
RTVSPost2010PropOp33
 70
     1
102
RTVSPost2010Prop34
280
     0
102
RTVSPost2010PropOp34
 70
     1
102
RTVSPost2010Prop35
280
     0
102
RTVSPost2010PropOp35
 70
     1
102
RTVSPost2010Prop36
280
     0
102
RTVSPost2010PropOp36
 70
     1
102
RTVSPost2010Prop37
 90
       50
102
RTVSPost2010PropOp37
 70
     1
102
RTVSPost2010Prop38
140
0.0
102
RTVSPost2010PropOp38
 70
     1
102
RTVSPost2010Prop39
140
1.0
102
RTVSPost2010PropOp39
 70
     1
102
RTVSPost2010Prop40
 90
        0
102
RTVSPost2010PropOp40
 70
     1
102
RTVSPost2010Prop41ColorIndex
 90
       18
102
RTVSPost2010Prop41ColorRGB
 90
        0
102
RTVSPost2010PropOp41
 70
     1
102
RTVSPost2010Prop42
 90
       50
102
RTVSPost2010PropOp42
 70
     1
102
RTVSPost2010Prop43
 90
        3
102
RTVSPost2010PropOp43
 70
     1
102
RTVSPost2010Prop44ColorIndex
 90
        5
102
RTVSPost2010Prop44ColorRGB
 90
      255
102
RTVSPost2010PropOp44
 70
     1
102
RTVSPost2010Prop45
280
     0
102
RTVSPost2010PropOp45
 70
     1
102
RTVSPost2010Prop46
 90
       50
102
RTVSPost2010PropOp46
 70
     1
102
RTVSPost2010Prop47
 90
       50
102
RTVSPost2010PropOp47
 70
     1
102
RTVSPost2010Prop48
 90
       50
102
RTVSPost2010PropOp48
 70
     1
102
RTVSPost2010Prop49
280
     0
102
RTVSPost2010PropOp49
 70
     1
102
RTVSPost2010Prop50
 90
       50
102
RTVSPost2010PropOp50
 70
     1
102
RTVSPost2010Prop51ColorIndex
 90
      256
102
RTVSPost2010Prop51ColorRGB
 90
-16777216
102
RTVSPost2010PropOp51
 70
     0
102
RTVSPost2010Prop52
140
1.0
102
RTVSPost2010PropOp52
 70
     0
102
RTVSPost2010Prop53
 90
        2
102
RTVSPost2010PropOp53
 70
     1
102
RTVSPost2010Prop54
  1
strokes_ogs.tif
102
RTVSPost2010PropOp54
 70
     1
102
RTVSPost2010Prop55
280
     0
102
RTVSPost2010PropOp55
 70
     1
102
RTVSPost2010Prop56
140
1.0
102
RTVSPost2010PropOp56
 70
     1
102
RTVSPost2010Prop57
140
1.0
102
RTVSPost2010PropOp57
 70
     1
102
RTVSPropertyOp0
 70
     1
102
RTVSPropertyOp1
 70
     1
102
RTVSPropertyOp2
 70
     1
102
RTVSPropertyOp3
 70
     1
102
RTVSPropertyOp4
 70
     1
102
RTVSPropertyOp5
 70
     1
102
RTVSPropertyOp6
 70
     1
102
RTVSPropertyOp7
 70
     1
102
RTVSPropertyOp8
 70
     1
102
RTVSPropertyOp9
 70
     1
102
RTVSPropertyOp10
 70
     1
102
RTVSPropertyOp11
 70
     1
102
RTVSPropertyOp12
 70
     1
102
RTVSPropertyOp13
 70
     1
102
RTVSPropertyOp14
 70
     1
102
RTVSPropertyOp15
 70
     1
102
RTVSPropertyOp16
 70
     1
102
RTVSPropertyOp17
 70
     1
102
RTVSPropertyOp18
 70
     1
102
RTVSPropertyOp19
 70
     1
102
RTVSPropertyOp20
 70
     1
102
RTVSPropertyOp21
 70
     1
102
RTVSPropertyOp22
 70
     1
102
RTVSPropertyOp23
 70
     1
102
RTVSPropertyOp24
 70
     1
102
RTVSPropertyOp25
 70
     1
102
RTVSPropertyOp26
 70
     1
102
RTVSPropertyOp27
 70
     1
102
RTVSPropertyOp28
 70
     1
102
RTVSPropertyOp29
 70
     1
102
RTVSPropertyOp30
 70
     1
102
RTVSPropertyOp31
 70
     1
102
RTVSPropertyOp32
 70
     1
102
RTVSPropertyOp33
 70
     1
102
RTVSPropertyOp34
 70
     1
102
RTVSPropertyOp35
 70
     1
102
RTVSPropertyOp36
 70
     1
102
RTVSPropertyOp37
 70
     1
102
RTVSPropertyOp38
 70
     1
102
RTVSPropertyOp39
 70
     1
102
RTVSPropertyOp40
 70
     1
102
RTVSPropertyOp41
 70
     1
102
RTVSPropertyOp42
 70
     1
102
RTVSPropertyOp43
 70
     1
102
RTVSPropertyOp44
 70
     1
102
RTVSPropertyOp45
 70
     1
102
RTVSPropertyOp46
 70
     1
102
RTVSPropertyOp47
 70
     1
102
RTVSPropertyOp48
 70
     1
102
RTVSPropertyOp49
 70
     1
102
RTVSPropertyOp50
 70
     1
102
RTVSPropertyOp51
 70
     0
102
RTVSPropertyOp52
 70
     0
102
RTVSPropertyOp53
 70
     1
102
RTVSPropertyOp54
 70
     1
102
RTVSPropertyOp55
 70
     1
102
RTVSPropertyOp56
 70
     1
102
RTVSPropertyOp57
 70
     1
102
RTVSPropertyOp58
 70
     1
102
RTVSPropertyOp59
 70
     1
102
RTVSPropertyOp60
 70
     1
102
RTVSPropertyOp61
 70
     1
102
RTVSPropertyOp62
 70
     1
  0
XRECORD
  5
3555
102
{ACAD_REACTORS
330
3554
102
}
330
3554
100
AcDbXrecord
280
     1
102
RTVSPost2010Prop28
280
     0
102
RTVSPost2010PropOp28
 70
     1
102
RTVSPost2010Prop29
280
     1
102
RTVSPost2010PropOp29
 70
     1
102
RTVSPost2010Prop30
280
     1
102
RTVSPost2010PropOp30
 70
     1
102
RTVSPost2010Prop31
280
     0
102
RTVSPost2010PropOp31
 70
     1
102
RTVSPost2010Prop32
280
     0
102
RTVSPost2010PropOp32
 70
     1
102
RTVSPost2010Prop33
280
     0
102
RTVSPost2010PropOp33
 70
     1
102
RTVSPost2010Prop34
280
     0
102
RTVSPost2010PropOp34
 70
     1
102
RTVSPost2010Prop35
280
     0
102
RTVSPost2010PropOp35
 70
     1
102
RTVSPost2010Prop36
280
     0
102
RTVSPost2010PropOp36
 70
     1
102
RTVSPost2010Prop37
 90
       50
102
RTVSPost2010PropOp37
 70
     1
102
RTVSPost2010Prop38
140
0.0
102
RTVSPost2010PropOp38
 70
     1
102
RTVSPost2010Prop39
140
1.0
102
RTVSPost2010PropOp39
 70
     1
102
RTVSPost2010Prop40
 90
        0
102
RTVSPost2010PropOp40
 70
     1
102
RTVSPost2010Prop41ColorIndex
 90
       18
102
RTVSPost2010Prop41ColorRGB
 90
        0
102
RTVSPost2010PropOp41
 70
     1
102
RTVSPost2010Prop42
 90
       50
102
RTVSPost2010PropOp42
 70
     1
102
RTVSPost2010Prop43
 90
        3
102
RTVSPost2010PropOp43
 70
     1
102
RTVSPost2010Prop44ColorIndex
 90
        5
102
RTVSPost2010Prop44ColorRGB
 90
      255
102
RTVSPost2010PropOp44
 70
     1
102
RTVSPost2010Prop45
280
     0
102
RTVSPost2010PropOp45
 70
     1
102
RTVSPost2010Prop46
 90
       50
102
RTVSPost2010PropOp46
 70
     1
102
RTVSPost2010Prop47
 90
       50
102
RTVSPost2010PropOp47
 70
     1
102
RTVSPost2010Prop48
 90
       50
102
RTVSPost2010PropOp48
 70
     1
102
RTVSPost2010Prop49
280
     0
102
RTVSPost2010PropOp49
 70
     1
102
RTVSPost2010Prop50
 90
       50
102
RTVSPost2010PropOp50
 70
     1
102
RTVSPost2010Prop51ColorIndex
 90
      256
102
RTVSPost2010Prop51ColorRGB
 90
-16777216
102
RTVSPost2010PropOp51
 70
     0
102
RTVSPost2010Prop52
140
1.0
102
RTVSPost2010PropOp52
 70
     0
102
RTVSPost2010Prop53
 90
        2
102
RTVSPost2010PropOp53
 70
     1
102
RTVSPost2010Prop54
  1
strokes_ogs.tif
102
RTVSPost2010PropOp54
 70
     1
102
RTVSPost2010Prop55
280
     0
102
RTVSPost2010PropOp55
 70
     1
102
RTVSPost2010Prop56
140
1.0
102
RTVSPost2010PropOp56
 70
     1
102
RTVSPost2010Prop57
140
1.0
102
RTVSPost2010PropOp57
 70
     1
102
RTVSPropertyOp0
 70
     1
102
RTVSPropertyOp1
 70
     1
102
RTVSPropertyOp2
 70
     1
102
RTVSPropertyOp3
 70
     1
102
RTVSPropertyOp4
 70
     1
102
RTVSPropertyOp5
 70
     1
102
RTVSPropertyOp6
 70
     1
102
RTVSPropertyOp7
 70
     1
102
RTVSPropertyOp8
 70
     1
102
RTVSPropertyOp9
 70
     1
102
RTVSPropertyOp10
 70
     1
102
RTVSPropertyOp11
 70
     1
102
RTVSPropertyOp12
 70
     1
102
RTVSPropertyOp13
 70
     1
102
RTVSPropertyOp14
 70
     1
102
RTVSPropertyOp15
 70
     1
102
RTVSPropertyOp16
 70
     1
102
RTVSPropertyOp17
 70
     1
102
RTVSPropertyOp18
 70
     1
102
RTVSPropertyOp19
 70
     1
102
RTVSPropertyOp20
 70
     1
102
RTVSPropertyOp21
 70
     1
102
RTVSPropertyOp22
 70
     1
102
RTVSPropertyOp23
 70
     1
102
RTVSPropertyOp24
 70
     1
102
RTVSPropertyOp25
 70
     1
102
RTVSPropertyOp26
 70
     1
102
RTVSPropertyOp27
 70
     1
102
RTVSPropertyOp28
 70
     1
102
RTVSPropertyOp29
 70
     1
102
RTVSPropertyOp30
 70
     1
102
RTVSPropertyOp31
 70
     1
102
RTVSPropertyOp32
 70
     1
102
RTVSPropertyOp33
 70
     1
102
RTVSPropertyOp34
 70
     1
102
RTVSPropertyOp35
 70
     1
102
RTVSPropertyOp36
 70
     1
102
RTVSPropertyOp37
 70
     1
102
RTVSPropertyOp38
 70
     1
102
RTVSPropertyOp39
 70
     1
102
RTVSPropertyOp40
 70
     1
102
RTVSPropertyOp41
 70
     1
102
RTVSPropertyOp42
 70
     1
102
RTVSPropertyOp43
 70
     1
102
RTVSPropertyOp44
 70
     1
102
RTVSPropertyOp45
 70
     1
102
RTVSPropertyOp46
 70
     1
102
RTVSPropertyOp47
 70
     1
102
RTVSPropertyOp48
 70
     1
102
RTVSPropertyOp49
 70
     1
102
RTVSPropertyOp50
 70
     1
102
RTVSPropertyOp51
 70
     0
102
RTVSPropertyOp52
 70
     0
102
RTVSPropertyOp53
 70
     1
102
RTVSPropertyOp54
 70
     1
102
RTVSPropertyOp55
 70
     1
102
RTVSPropertyOp56
 70
     1
102
RTVSPropertyOp57
 70
     1
102
RTVSPropertyOp58
 70
     1
102
RTVSPropertyOp59
 70
     1
102
RTVSPropertyOp60
 70
     1
102
RTVSPropertyOp61
 70
     1
102
RTVSPropertyOp62
 70
     1
  0
XRECORD
  5
3551
102
{ACAD_REACTORS
330
3550
102
}
330
3550
100
AcDbXrecord
280
     1
102
RTVSPost2010Prop28
280
     0
102
RTVSPost2010PropOp28
 70
     1
102
RTVSPost2010Prop29
280
     1
102
RTVSPost2010PropOp29
 70
     1
102
RTVSPost2010Prop30
280
     1
102
RTVSPost2010PropOp30
 70
     1
102
RTVSPost2010Prop31
280
     0
102
RTVSPost2010PropOp31
 70
     1
102
RTVSPost2010Prop32
280
     0
102
RTVSPost2010PropOp32
 70
     1
102
RTVSPost2010Prop33
280
     0
102
RTVSPost2010PropOp33
 70
     1
102
RTVSPost2010Prop34
280
     0
102
RTVSPost2010PropOp34
 70
     1
102
RTVSPost2010Prop35
280
     0
102
RTVSPost2010PropOp35
 70
     1
102
RTVSPost2010Prop36
280
     0
102
RTVSPost2010PropOp36
 70
     1
102
RTVSPost2010Prop37
 90
       50
102
RTVSPost2010PropOp37
 70
     1
102
RTVSPost2010Prop38
140
0.0
102
RTVSPost2010PropOp38
 70
     1
102
RTVSPost2010Prop39
140
1.0
102
RTVSPost2010PropOp39
 70
     1
102
RTVSPost2010Prop40
 90
        0
102
RTVSPost2010PropOp40
 70
     1
102
RTVSPost2010Prop41ColorIndex
 90
       18
102
RTVSPost2010Prop41ColorRGB
 90
        0
102
RTVSPost2010PropOp41
 70
     1
102
RTVSPost2010Prop42
 90
       50
102
RTVSPost2010PropOp42
 70
     1
102
RTVSPost2010Prop43
 90
        3
102
RTVSPost2010PropOp43
 70
     1
102
RTVSPost2010Prop44ColorIndex
 90
        5
102
RTVSPost2010Prop44ColorRGB
 90
      255
102
RTVSPost2010PropOp44
 70
     1
102
RTVSPost2010Prop45
280
     0
102
RTVSPost2010PropOp45
 70
     1
102
RTVSPost2010Prop46
 90
       50
102
RTVSPost2010PropOp46
 70
     1
102
RTVSPost2010Prop47
 90
       50
102
RTVSPost2010PropOp47
 70
     1
102
RTVSPost2010Prop48
 90
       50
102
RTVSPost2010PropOp48
 70
     1
102
RTVSPost2010Prop49
280
     0
102
RTVSPost2010PropOp49
 70
     1
102
RTVSPost2010Prop50
 90
       50
102
RTVSPost2010PropOp50
 70
     1
102
RTVSPost2010Prop51ColorIndex
 90
      256
102
RTVSPost2010Prop51ColorRGB
 90
-16777216
102
RTVSPost2010PropOp51
 70
     0
102
RTVSPost2010Prop52
140
1.0
102
RTVSPost2010PropOp52
 70
     0
102
RTVSPost2010Prop53
 90
        2
102
RTVSPost2010PropOp53
 70
     1
102
RTVSPost2010Prop54
  1
strokes_ogs.tif
102
RTVSPost2010PropOp54
 70
     1
102
RTVSPost2010Prop55
280
     0
102
RTVSPost2010PropOp55
 70
     1
102
RTVSPost2010Prop56
140
1.0
102
RTVSPost2010PropOp56
 70
     1
102
RTVSPost2010Prop57
140
1.0
102
RTVSPost2010PropOp57
 70
     1
102
RTVSPropertyOp0
 70
     1
102
RTVSPropertyOp1
 70
     1
102
RTVSPropertyOp2
 70
     1
102
RTVSPropertyOp3
 70
     1
102
RTVSPropertyOp4
 70
     1
102
RTVSPropertyOp5
 70
     1
102
RTVSPropertyOp6
 70
     1
102
RTVSPropertyOp7
 70
     1
102
RTVSPropertyOp8
 70
     1
102
RTVSPropertyOp9
 70
     1
102
RTVSPropertyOp10
 70
     1
102
RTVSPropertyOp11
 70
     1
102
RTVSPropertyOp12
 70
     1
102
RTVSPropertyOp13
 70
     1
102
RTVSPropertyOp14
 70
     1
102
RTVSPropertyOp15
 70
     1
102
RTVSPropertyOp16
 70
     1
102
RTVSPropertyOp17
 70
     1
102
RTVSPropertyOp18
 70
     1
102
RTVSPropertyOp19
 70
     1
102
RTVSPropertyOp20
 70
     1
102
RTVSPropertyOp21
 70
     1
102
RTVSPropertyOp22
 70
     1
102
RTVSPropertyOp23
 70
     1
102
RTVSPropertyOp24
 70
     1
102
RTVSPropertyOp25
 70
     1
102
RTVSPropertyOp26
 70
     1
102
RTVSPropertyOp27
 70
     1
102
RTVSPropertyOp28
 70
     1
102
RTVSPropertyOp29
 70
     1
102
RTVSPropertyOp30
 70
     1
102
RTVSPropertyOp31
 70
     1
102
RTVSPropertyOp32
 70
     1
102
RTVSPropertyOp33
 70
     1
102
RTVSPropertyOp34
 70
     1
102
RTVSPropertyOp35
 70
     1
102
RTVSPropertyOp36
 70
     1
102
RTVSPropertyOp37
 70
     1
102
RTVSPropertyOp38
 70
     1
102
RTVSPropertyOp39
 70
     1
102
RTVSPropertyOp40
 70
     1
102
RTVSPropertyOp41
 70
     1
102
RTVSPropertyOp42
 70
     1
102
RTVSPropertyOp43
 70
     1
102
RTVSPropertyOp44
 70
     1
102
RTVSPropertyOp45
 70
     1
102
RTVSPropertyOp46
 70
     1
102
RTVSPropertyOp47
 70
     1
102
RTVSPropertyOp48
 70
     1
102
RTVSPropertyOp49
 70
     1
102
RTVSPropertyOp50
 70
     1
102
RTVSPropertyOp51
 70
     0
102
RTVSPropertyOp52
 70
     0
102
RTVSPropertyOp53
 70
     1
102
RTVSPropertyOp54
 70
     1
102
RTVSPropertyOp55
 70
     1
102
RTVSPropertyOp56
 70
     1
102
RTVSPropertyOp57
 70
     1
102
RTVSPropertyOp58
 70
     1
102
RTVSPropertyOp59
 70
     1
102
RTVSPropertyOp60
 70
     1
102
RTVSPropertyOp61
 70
     1
102
RTVSPropertyOp62
 70
     1
  0
XRECORD
  5
355F
102
{ACAD_REACTORS
330
355E
102
}
330
355E
100
AcDbXrecord
280
     1
102
RTVSPost2010Prop28
280
     0
102
RTVSPost2010PropOp28
 70
     1
102
RTVSPost2010Prop29
280
     1
102
RTVSPost2010PropOp29
 70
     1
102
RTVSPost2010Prop30
280
     1
102
RTVSPost2010PropOp30
 70
     1
102
RTVSPost2010Prop31
280
     0
102
RTVSPost2010PropOp31
 70
     1
102
RTVSPost2010Prop32
280
     0
102
RTVSPost2010PropOp32
 70
     1
102
RTVSPost2010Prop33
280
     0
102
RTVSPost2010PropOp33
 70
     1
102
RTVSPost2010Prop34
280
     0
102
RTVSPost2010PropOp34
 70
     1
102
RTVSPost2010Prop35
280
     0
102
RTVSPost2010PropOp35
 70
     1
102
RTVSPost2010Prop36
280
     0
102
RTVSPost2010PropOp36
 70
     1
102
RTVSPost2010Prop37
 90
       50
102
RTVSPost2010PropOp37
 70
     1
102
RTVSPost2010Prop38
140
0.0
102
RTVSPost2010PropOp38
 70
     1
102
RTVSPost2010Prop39
140
1.0
102
RTVSPost2010PropOp39
 70
     1
102
RTVSPost2010Prop40
 90
        0
102
RTVSPost2010PropOp40
 70
     1
102
RTVSPost2010Prop41ColorIndex
 90
       18
102
RTVSPost2010Prop41ColorRGB
 90
        0
102
RTVSPost2010PropOp41
 70
     1
102
RTVSPost2010Prop42
 90
       50
102
RTVSPost2010PropOp42
 70
     1
102
RTVSPost2010Prop43
 90
        3
102
RTVSPost2010PropOp43
 70
     1
102
RTVSPost2010Prop44ColorIndex
 90
        5
102
RTVSPost2010Prop44ColorRGB
 90
      255
102
RTVSPost2010PropOp44
 70
     1
102
RTVSPost2010Prop45
280
     0
102
RTVSPost2010PropOp45
 70
     1
102
RTVSPost2010Prop46
 90
       50
102
RTVSPost2010PropOp46
 70
     1
102
RTVSPost2010Prop47
 90
       50
102
RTVSPost2010PropOp47
 70
     1
102
RTVSPost2010Prop48
 90
       50
102
RTVSPost2010PropOp48
 70
     1
102
RTVSPost2010Prop49
280
     0
102
RTVSPost2010PropOp49
 70
     1
102
RTVSPost2010Prop50
 90
       50
102
RTVSPost2010PropOp50
 70
     1
102
RTVSPost2010Prop51ColorIndex
 90
      256
102
RTVSPost2010Prop51ColorRGB
 90
-16777216
102
RTVSPost2010PropOp51
 70
     0
102
RTVSPost2010Prop52
140
1.0
102
RTVSPost2010PropOp52
 70
     0
102
RTVSPost2010Prop53
 90
        2
102
RTVSPost2010PropOp53
 70
     1
102
RTVSPost2010Prop54
  1
strokes_ogs.tif
102
RTVSPost2010PropOp54
 70
     1
102
RTVSPost2010Prop55
280
     0
102
RTVSPost2010PropOp55
 70
     1
102
RTVSPost2010Prop56
140
1.0
102
RTVSPost2010PropOp56
 70
     1
102
RTVSPost2010Prop57
140
1.0
102
RTVSPost2010PropOp57
 70
     1
102
RTVSPropertyOp0
 70
     1
102
RTVSPropertyOp1
 70
     1
102
RTVSPropertyOp2
 70
     1
102
RTVSPropertyOp3
 70
     1
102
RTVSPropertyOp4
 70
     1
102
RTVSPropertyOp5
 70
     1
102
RTVSPropertyOp6
 70
     1
102
RTVSPropertyOp7
 70
     1
102
RTVSPropertyOp8
 70
     1
102
RTVSPropertyOp9
 70
     1
102
RTVSPropertyOp10
 70
     1
102
RTVSPropertyOp11
 70
     1
102
RTVSPropertyOp12
 70
     1
102
RTVSPropertyOp13
 70
     1
102
RTVSPropertyOp14
 70
     1
102
RTVSPropertyOp15
 70
     1
102
RTVSPropertyOp16
 70
     1
102
RTVSPropertyOp17
 70
     1
102
RTVSPropertyOp18
 70
     1
102
RTVSPropertyOp19
 70
     1
102
RTVSPropertyOp20
 70
     1
102
RTVSPropertyOp21
 70
     1
102
RTVSPropertyOp22
 70
     1
102
RTVSPropertyOp23
 70
     1
102
RTVSPropertyOp24
 70
     1
102
RTVSPropertyOp25
 70
     1
102
RTVSPropertyOp26
 70
     1
102
RTVSPropertyOp27
 70
     1
102
RTVSPropertyOp28
 70
     1
102
RTVSPropertyOp29
 70
     1
102
RTVSPropertyOp30
 70
     1
102
RTVSPropertyOp31
 70
     1
102
RTVSPropertyOp32
 70
     1
102
RTVSPropertyOp33
 70
     1
102
RTVSPropertyOp34
 70
     1
102
RTVSPropertyOp35
 70
     1
102
RTVSPropertyOp36
 70
     1
102
RTVSPropertyOp37
 70
     1
102
RTVSPropertyOp38
 70
     1
102
RTVSPropertyOp39
 70
     1
102
RTVSPropertyOp40
 70
     1
102
RTVSPropertyOp41
 70
     1
102
RTVSPropertyOp42
 70
     1
102
RTVSPropertyOp43
 70
     1
102
RTVSPropertyOp44
 70
     1
102
RTVSPropertyOp45
 70
     1
102
RTVSPropertyOp46
 70
     1
102
RTVSPropertyOp47
 70
     1
102
RTVSPropertyOp48
 70
     1
102
RTVSPropertyOp49
 70
     1
102
RTVSPropertyOp50
 70
     1
102
RTVSPropertyOp51
 70
     0
102
RTVSPropertyOp52
 70
     0
102
RTVSPropertyOp53
 70
     1
102
RTVSPropertyOp54
 70
     1
102
RTVSPropertyOp55
 70
     1
102
RTVSPropertyOp56
 70
     1
102
RTVSPropertyOp57
 70
     1
102
RTVSPropertyOp58
 70
     1
102
RTVSPropertyOp59
 70
     1
102
RTVSPropertyOp60
 70
     1
102
RTVSPropertyOp61
 70
     1
102
RTVSPropertyOp62
 70
     1
  0
XRECORD
  5
3567
102
{ACAD_REACTORS
330
3566
102
}
330
3566
100
AcDbXrecord
280
     1
102
RTVSPost2010Prop28
280
     0
102
RTVSPost2010PropOp28
 70
     1
102
RTVSPost2010Prop29
280
     1
102
RTVSPost2010PropOp29
 70
     1
102
RTVSPost2010Prop30
280
     1
102
RTVSPost2010PropOp30
 70
     1
102
RTVSPost2010Prop31
280
     0
102
RTVSPost2010PropOp31
 70
     1
102
RTVSPost2010Prop32
280
     0
102
RTVSPost2010PropOp32
 70
     1
102
RTVSPost2010Prop33
280
     0
102
RTVSPost2010PropOp33
 70
     1
102
RTVSPost2010Prop34
280
     0
102
RTVSPost2010PropOp34
 70
     1
102
RTVSPost2010Prop35
280
     0
102
RTVSPost2010PropOp35
 70
     1
102
RTVSPost2010Prop36
280
     0
102
RTVSPost2010PropOp36
 70
     1
102
RTVSPost2010Prop37
 90
       50
102
RTVSPost2010PropOp37
 70
     1
102
RTVSPost2010Prop38
140
0.0
102
RTVSPost2010PropOp38
 70
     1
102
RTVSPost2010Prop39
140
1.0
102
RTVSPost2010PropOp39
 70
     1
102
RTVSPost2010Prop40
 90
        0
102
RTVSPost2010PropOp40
 70
     1
102
RTVSPost2010Prop41ColorIndex
 90
       18
102
RTVSPost2010Prop41ColorRGB
 90
        0
102
RTVSPost2010PropOp41
 70
     1
102
RTVSPost2010Prop42
 90
       50
102
RTVSPost2010PropOp42
 70
     1
102
RTVSPost2010Prop43
 90
        3
102
RTVSPost2010PropOp43
 70
     1
102
RTVSPost2010Prop44ColorIndex
 90
        5
102
RTVSPost2010Prop44ColorRGB
 90
      255
102
RTVSPost2010PropOp44
 70
     1
102
RTVSPost2010Prop45
280
     0
102
RTVSPost2010PropOp45
 70
     1
102
RTVSPost2010Prop46
 90
       50
102
RTVSPost2010PropOp46
 70
     1
102
RTVSPost2010Prop47
 90
       50
102
RTVSPost2010PropOp47
 70
     1
102
RTVSPost2010Prop48
 90
       50
102
RTVSPost2010PropOp48
 70
     1
102
RTVSPost2010Prop49
280
     0
102
RTVSPost2010PropOp49
 70
     1
102
RTVSPost2010Prop50
 90
       50
102
RTVSPost2010PropOp50
 70
     1
102
RTVSPost2010Prop51ColorIndex
 90
      256
102
RTVSPost2010Prop51ColorRGB
 90
-16777216
102
RTVSPost2010PropOp51
 70
     0
102
RTVSPost2010Prop52
140
1.0
102
RTVSPost2010PropOp52
 70
     0
102
RTVSPost2010Prop53
 90
        2
102
RTVSPost2010PropOp53
 70
     1
102
RTVSPost2010Prop54
  1
strokes_ogs.tif
102
RTVSPost2010PropOp54
 70
     1
102
RTVSPost2010Prop55
280
     0
102
RTVSPost2010PropOp55
 70
     1
102
RTVSPost2010Prop56
140
1.0
102
RTVSPost2010PropOp56
 70
     1
102
RTVSPost2010Prop57
140
1.0
102
RTVSPost2010PropOp57
 70
     1
102
RTVSPropertyOp0
 70
     1
102
RTVSPropertyOp1
 70
     1
102
RTVSPropertyOp2
 70
     1
102
RTVSPropertyOp3
 70
     1
102
RTVSPropertyOp4
 70
     1
102
RTVSPropertyOp5
 70
     1
102
RTVSPropertyOp6
 70
     1
102
RTVSPropertyOp7
 70
     1
102
RTVSPropertyOp8
 70
     1
102
RTVSPropertyOp9
 70
     1
102
RTVSPropertyOp10
 70
     1
102
RTVSPropertyOp11
 70
     1
102
RTVSPropertyOp12
 70
     1
102
RTVSPropertyOp13
 70
     1
102
RTVSPropertyOp14
 70
     1
102
RTVSPropertyOp15
 70
     1
102
RTVSPropertyOp16
 70
     1
102
RTVSPropertyOp17
 70
     1
102
RTVSPropertyOp18
 70
     1
102
RTVSPropertyOp19
 70
     1
102
RTVSPropertyOp20
 70
     1
102
RTVSPropertyOp21
 70
     1
102
RTVSPropertyOp22
 70
     1
102
RTVSPropertyOp23
 70
     1
102
RTVSPropertyOp24
 70
     1
102
RTVSPropertyOp25
 70
     1
102
RTVSPropertyOp26
 70
     1
102
RTVSPropertyOp27
 70
     1
102
RTVSPropertyOp28
 70
     1
102
RTVSPropertyOp29
 70
     1
102
RTVSPropertyOp30
 70
     1
102
RTVSPropertyOp31
 70
     1
102
RTVSPropertyOp32
 70
     1
102
RTVSPropertyOp33
 70
     1
102
RTVSPropertyOp34
 70
     1
102
RTVSPropertyOp35
 70
     1
102
RTVSPropertyOp36
 70
     1
102
RTVSPropertyOp37
 70
     1
102
RTVSPropertyOp38
 70
     1
102
RTVSPropertyOp39
 70
     1
102
RTVSPropertyOp40
 70
     1
102
RTVSPropertyOp41
 70
     1
102
RTVSPropertyOp42
 70
     1
102
RTVSPropertyOp43
 70
     1
102
RTVSPropertyOp44
 70
     1
102
RTVSPropertyOp45
 70
     1
102
RTVSPropertyOp46
 70
     1
102
RTVSPropertyOp47
 70
     1
102
RTVSPropertyOp48
 70
     1
102
RTVSPropertyOp49
 70
     1
102
RTVSPropertyOp50
 70
     1
102
RTVSPropertyOp51
 70
     0
102
RTVSPropertyOp52
 70
     0
102
RTVSPropertyOp53
 70
     1
102
RTVSPropertyOp54
 70
     1
102
RTVSPropertyOp55
 70
     1
102
RTVSPropertyOp56
 70
     1
102
RTVSPropertyOp57
 70
     1
102
RTVSPropertyOp58
 70
     1
102
RTVSPropertyOp59
 70
     1
102
RTVSPropertyOp60
 70
     1
102
RTVSPropertyOp61
 70
     1
102
RTVSPropertyOp62
 70
     1
  0
XRECORD
  5
3559
102
{ACAD_REACTORS
330
3558
102
}
330
3558
100
AcDbXrecord
280
     1
102
RTVSPost2010Prop28
280
     0
102
RTVSPost2010PropOp28
 70
     1
102
RTVSPost2010Prop29
280
     1
102
RTVSPost2010PropOp29
 70
     1
102
RTVSPost2010Prop30
280
     1
102
RTVSPost2010PropOp30
 70
     1
102
RTVSPost2010Prop31
280
     0
102
RTVSPost2010PropOp31
 70
     1
102
RTVSPost2010Prop32
280
     0
102
RTVSPost2010PropOp32
 70
     1
102
RTVSPost2010Prop33
280
     0
102
RTVSPost2010PropOp33
 70
     1
102
RTVSPost2010Prop34
280
     0
102
RTVSPost2010PropOp34
 70
     1
102
RTVSPost2010Prop35
280
     0
102
RTVSPost2010PropOp35
 70
     1
102
RTVSPost2010Prop36
280
     0
102
RTVSPost2010PropOp36
 70
     1
102
RTVSPost2010Prop37
 90
       50
102
RTVSPost2010PropOp37
 70
     1
102
RTVSPost2010Prop38
140
0.0
102
RTVSPost2010PropOp38
 70
     1
102
RTVSPost2010Prop39
140
1.0
102
RTVSPost2010PropOp39
 70
     1
102
RTVSPost2010Prop40
 90
        0
102
RTVSPost2010PropOp40
 70
     1
102
RTVSPost2010Prop41ColorIndex
 90
       18
102
RTVSPost2010Prop41ColorRGB
 90
        0
102
RTVSPost2010PropOp41
 70
     1
102
RTVSPost2010Prop42
 90
       50
102
RTVSPost2010PropOp42
 70
     1
102
RTVSPost2010Prop43
 90
        3
102
RTVSPost2010PropOp43
 70
     1
102
RTVSPost2010Prop44ColorIndex
 90
        5
102
RTVSPost2010Prop44ColorRGB
 90
      255
102
RTVSPost2010PropOp44
 70
     1
102
RTVSPost2010Prop45
280
     0
102
RTVSPost2010PropOp45
 70
     1
102
RTVSPost2010Prop46
 90
       50
102
RTVSPost2010PropOp46
 70
     1
102
RTVSPost2010Prop47
 90
       50
102
RTVSPost2010PropOp47
 70
     1
102
RTVSPost2010Prop48
 90
       50
102
RTVSPost2010PropOp48
 70
     1
102
RTVSPost2010Prop49
280
     0
102
RTVSPost2010PropOp49
 70
     1
102
RTVSPost2010Prop50
 90
       50
102
RTVSPost2010PropOp50
 70
     1
102
RTVSPost2010Prop51ColorIndex
 90
      256
102
RTVSPost2010Prop51ColorRGB
 90
-16777216
102
RTVSPost2010PropOp51
 70
     0
102
RTVSPost2010Prop52
140
1.0
102
RTVSPost2010PropOp52
 70
     0
102
RTVSPost2010Prop53
 90
        2
102
RTVSPost2010PropOp53
 70
     1
102
RTVSPost2010Prop54
  1
strokes_ogs.tif
102
RTVSPost2010PropOp54
 70
     1
102
RTVSPost2010Prop55
280
     0
102
RTVSPost2010PropOp55
 70
     1
102
RTVSPost2010Prop56
140
1.0
102
RTVSPost2010PropOp56
 70
     1
102
RTVSPost2010Prop57
140
1.0
102
RTVSPost2010PropOp57
 70
     1
102
RTVSPropertyOp0
 70
     1
102
RTVSPropertyOp1
 70
     1
102
RTVSPropertyOp2
 70
     1
102
RTVSPropertyOp3
 70
     1
102
RTVSPropertyOp4
 70
     1
102
RTVSPropertyOp5
 70
     1
102
RTVSPropertyOp6
 70
     1
102
RTVSPropertyOp7
 70
     1
102
RTVSPropertyOp8
 70
     1
102
RTVSPropertyOp9
 70
     1
102
RTVSPropertyOp10
 70
     1
102
RTVSPropertyOp11
 70
     1
102
RTVSPropertyOp12
 70
     1
102
RTVSPropertyOp13
 70
     1
102
RTVSPropertyOp14
 70
     1
102
RTVSPropertyOp15
 70
     1
102
RTVSPropertyOp16
 70
     1
102
RTVSPropertyOp17
 70
     1
102
RTVSPropertyOp18
 70
     1
102
RTVSPropertyOp19
 70
     1
102
RTVSPropertyOp20
 70
     1
102
RTVSPropertyOp21
 70
     1
102
RTVSPropertyOp22
 70
     1
102
RTVSPropertyOp23
 70
     1
102
RTVSPropertyOp24
 70
     1
102
RTVSPropertyOp25
 70
     1
102
RTVSPropertyOp26
 70
     1
102
RTVSPropertyOp27
 70
     1
102
RTVSPropertyOp28
 70
     1
102
RTVSPropertyOp29
 70
     1
102
RTVSPropertyOp30
 70
     1
102
RTVSPropertyOp31
 70
     1
102
RTVSPropertyOp32
 70
     1
102
RTVSPropertyOp33
 70
     1
102
RTVSPropertyOp34
 70
     1
102
RTVSPropertyOp35
 70
     1
102
RTVSPropertyOp36
 70
     1
102
RTVSPropertyOp37
 70
     1
102
RTVSPropertyOp38
 70
     1
102
RTVSPropertyOp39
 70
     1
102
RTVSPropertyOp40
 70
     1
102
RTVSPropertyOp41
 70
     1
102
RTVSPropertyOp42
 70
     1
102
RTVSPropertyOp43
 70
     1
102
RTVSPropertyOp44
 70
     1
102
RTVSPropertyOp45
 70
     1
102
RTVSPropertyOp46
 70
     1
102
RTVSPropertyOp47
 70
     1
102
RTVSPropertyOp48
 70
     1
102
RTVSPropertyOp49
 70
     1
102
RTVSPropertyOp50
 70
     1
102
RTVSPropertyOp51
 70
     0
102
RTVSPropertyOp52
 70
     0
102
RTVSPropertyOp53
 70
     1
102
RTVSPropertyOp54
 70
     1
102
RTVSPropertyOp55
 70
     1
102
RTVSPropertyOp56
 70
     1
102
RTVSPropertyOp57
 70
     1
102
RTVSPropertyOp58
 70
     1
102
RTVSPropertyOp59
 70
     1
102
RTVSPropertyOp60
 70
     1
102
RTVSPropertyOp61
 70
     1
102
RTVSPropertyOp62
 70
     1
  0
XRECORD
  5
355D
102
{ACAD_REACTORS
330
355C
102
}
330
355C
100
AcDbXrecord
280
     1
102
RTVSPost2010Prop28
280
     0
102
RTVSPost2010PropOp28
 70
     1
102
RTVSPost2010Prop29
280
     1
102
RTVSPost2010PropOp29
 70
     1
102
RTVSPost2010Prop30
280
     1
102
RTVSPost2010PropOp30
 70
     1
102
RTVSPost2010Prop31
280
     0
102
RTVSPost2010PropOp31
 70
     1
102
RTVSPost2010Prop32
280
     0
102
RTVSPost2010PropOp32
 70
     1
102
RTVSPost2010Prop33
280
     0
102
RTVSPost2010PropOp33
 70
     1
102
RTVSPost2010Prop34
280
     0
102
RTVSPost2010PropOp34
 70
     1
102
RTVSPost2010Prop35
280
     0
102
RTVSPost2010PropOp35
 70
     1
102
RTVSPost2010Prop36
280
     0
102
RTVSPost2010PropOp36
 70
     1
102
RTVSPost2010Prop37
 90
       50
102
RTVSPost2010PropOp37
 70
     1
102
RTVSPost2010Prop38
140
0.0
102
RTVSPost2010PropOp38
 70
     1
102
RTVSPost2010Prop39
140
1.0
102
RTVSPost2010PropOp39
 70
     1
102
RTVSPost2010Prop40
 90
        0
102
RTVSPost2010PropOp40
 70
     1
102
RTVSPost2010Prop41ColorIndex
 90
       18
102
RTVSPost2010Prop41ColorRGB
 90
        0
102
RTVSPost2010PropOp41
 70
     1
102
RTVSPost2010Prop42
 90
       50
102
RTVSPost2010PropOp42
 70
     1
102
RTVSPost2010Prop43
 90
        3
102
RTVSPost2010PropOp43
 70
     1
102
RTVSPost2010Prop44ColorIndex
 90
        5
102
RTVSPost2010Prop44ColorRGB
 90
      255
102
RTVSPost2010PropOp44
 70
     1
102
RTVSPost2010Prop45
280
     0
102
RTVSPost2010PropOp45
 70
     1
102
RTVSPost2010Prop46
 90
       50
102
RTVSPost2010PropOp46
 70
     1
102
RTVSPost2010Prop47
 90
       50
102
RTVSPost2010PropOp47
 70
     1
102
RTVSPost2010Prop48
 90
       50
102
RTVSPost2010PropOp48
 70
     1
102
RTVSPost2010Prop49
280
     0
102
RTVSPost2010PropOp49
 70
     1
102
RTVSPost2010Prop50
 90
       50
102
RTVSPost2010PropOp50
 70
     1
102
RTVSPost2010Prop51ColorIndex
 90
      256
102
RTVSPost2010Prop51ColorRGB
 90
-16777216
102
RTVSPost2010PropOp51
 70
     0
102
RTVSPost2010Prop52
140
1.0
102
RTVSPost2010PropOp52
 70
     0
102
RTVSPost2010Prop53
 90
        2
102
RTVSPost2010PropOp53
 70
     1
102
RTVSPost2010Prop54
  1
strokes_ogs.tif
102
RTVSPost2010PropOp54
 70
     1
102
RTVSPost2010Prop55
280
     0
102
RTVSPost2010PropOp55
 70
     1
102
RTVSPost2010Prop56
140
1.0
102
RTVSPost2010PropOp56
 70
     1
102
RTVSPost2010Prop57
140
1.0
102
RTVSPost2010PropOp57
 70
     1
102
RTVSPropertyOp0
 70
     1
102
RTVSPropertyOp1
 70
     1
102
RTVSPropertyOp2
 70
     1
102
RTVSPropertyOp3
 70
     1
102
RTVSPropertyOp4
 70
     1
102
RTVSPropertyOp5
 70
     1
102
RTVSPropertyOp6
 70
     1
102
RTVSPropertyOp7
 70
     1
102
RTVSPropertyOp8
 70
     1
102
RTVSPropertyOp9
 70
     1
102
RTVSPropertyOp10
 70
     1
102
RTVSPropertyOp11
 70
     1
102
RTVSPropertyOp12
 70
     1
102
RTVSPropertyOp13
 70
     1
102
RTVSPropertyOp14
 70
     1
102
RTVSPropertyOp15
 70
     1
102
RTVSPropertyOp16
 70
     1
102
RTVSPropertyOp17
 70
     1
102
RTVSPropertyOp18
 70
     1
102
RTVSPropertyOp19
 70
     1
102
RTVSPropertyOp20
 70
     1
102
RTVSPropertyOp21
 70
     1
102
RTVSPropertyOp22
 70
     1
102
RTVSPropertyOp23
 70
     1
102
RTVSPropertyOp24
 70
     1
102
RTVSPropertyOp25
 70
     1
102
RTVSPropertyOp26
 70
     1
102
RTVSPropertyOp27
 70
     1
102
RTVSPropertyOp28
 70
     1
102
RTVSPropertyOp29
 70
     1
102
RTVSPropertyOp30
 70
     1
102
RTVSPropertyOp31
 70
     1
102
RTVSPropertyOp32
 70
     1
102
RTVSPropertyOp33
 70
     1
102
RTVSPropertyOp34
 70
     1
102
RTVSPropertyOp35
 70
     1
102
RTVSPropertyOp36
 70
     1
102
RTVSPropertyOp37
 70
     1
102
RTVSPropertyOp38
 70
     1
102
RTVSPropertyOp39
 70
     1
102
RTVSPropertyOp40
 70
     1
102
RTVSPropertyOp41
 70
     1
102
RTVSPropertyOp42
 70
     1
102
RTVSPropertyOp43
 70
     1
102
RTVSPropertyOp44
 70
     1
102
RTVSPropertyOp45
 70
     1
102
RTVSPropertyOp46
 70
     1
102
RTVSPropertyOp47
 70
     1
102
RTVSPropertyOp48
 70
     1
102
RTVSPropertyOp49
 70
     1
102
RTVSPropertyOp50
 70
     1
102
RTVSPropertyOp51
 70
     0
102
RTVSPropertyOp52
 70
     0
102
RTVSPropertyOp53
 70
     1
102
RTVSPropertyOp54
 70
     1
102
RTVSPropertyOp55
 70
     1
102
RTVSPropertyOp56
 70
     1
102
RTVSPropertyOp57
 70
     1
102
RTVSPropertyOp58
 70
     1
102
RTVSPropertyOp59
 70
     1
102
RTVSPropertyOp60
 70
     1
102
RTVSPropertyOp61
 70
     1
102
RTVSPropertyOp62
 70
     1
  0
XRECORD
  5
356D
102
{ACAD_REACTORS
330
356C
102
}
330
356C
100
AcDbXrecord
280
     1
102
RTVSPost2010Prop28
280
     0
102
RTVSPost2010PropOp28
 70
     1
102
RTVSPost2010Prop29
280
     1
102
RTVSPost2010PropOp29
 70
     1
102
RTVSPost2010Prop30
280
     1
102
RTVSPost2010PropOp30
 70
     1
102
RTVSPost2010Prop31
280
     0
102
RTVSPost2010PropOp31
 70
     1
102
RTVSPost2010Prop32
280
     0
102
RTVSPost2010PropOp32
 70
     1
102
RTVSPost2010Prop33
280
     0
102
RTVSPost2010PropOp33
 70
     1
102
RTVSPost2010Prop34
280
     0
102
RTVSPost2010PropOp34
 70
     1
102
RTVSPost2010Prop35
280
     0
102
RTVSPost2010PropOp35
 70
     1
102
RTVSPost2010Prop36
280
     0
102
RTVSPost2010PropOp36
 70
     1
102
RTVSPost2010Prop37
 90
       50
102
RTVSPost2010PropOp37
 70
     1
102
RTVSPost2010Prop38
140
0.0
102
RTVSPost2010PropOp38
 70
     1
102
RTVSPost2010Prop39
140
1.0
102
RTVSPost2010PropOp39
 70
     1
102
RTVSPost2010Prop40
 90
        0
102
RTVSPost2010PropOp40
 70
     1
102
RTVSPost2010Prop41ColorIndex
 90
       18
102
RTVSPost2010Prop41ColorRGB
 90
        0
102
RTVSPost2010PropOp41
 70
     1
102
RTVSPost2010Prop42
 90
       50
102
RTVSPost2010PropOp42
 70
     1
102
RTVSPost2010Prop43
 90
        3
102
RTVSPost2010PropOp43
 70
     1
102
RTVSPost2010Prop44ColorIndex
 90
        5
102
RTVSPost2010Prop44ColorRGB
 90
      255
102
RTVSPost2010PropOp44
 70
     1
102
RTVSPost2010Prop45
280
     0
102
RTVSPost2010PropOp45
 70
     1
102
RTVSPost2010Prop46
 90
       50
102
RTVSPost2010PropOp46
 70
     1
102
RTVSPost2010Prop47
 90
       50
102
RTVSPost2010PropOp47
 70
     1
102
RTVSPost2010Prop48
 90
       50
102
RTVSPost2010PropOp48
 70
     1
102
RTVSPost2010Prop49
280
     0
102
RTVSPost2010PropOp49
 70
     1
102
RTVSPost2010Prop50
 90
       50
102
RTVSPost2010PropOp50
 70
     1
102
RTVSPost2010Prop51ColorIndex
 90
      256
102
RTVSPost2010Prop51ColorRGB
 90
-16777216
102
RTVSPost2010PropOp51
 70
     0
102
RTVSPost2010Prop52
140
1.0
102
RTVSPost2010PropOp52
 70
     0
102
RTVSPost2010Prop53
 90
        2
102
RTVSPost2010PropOp53
 70
     1
102
RTVSPost2010Prop54
  1
strokes_ogs.tif
102
RTVSPost2010PropOp54
 70
     1
102
RTVSPost2010Prop55
280
     0
102
RTVSPost2010PropOp55
 70
     1
102
RTVSPost2010Prop56
140
1.0
102
RTVSPost2010PropOp56
 70
     1
102
RTVSPost2010Prop57
140
1.0
102
RTVSPost2010PropOp57
 70
     1
102
RTVSPropertyOp0
 70
     0
102
RTVSPropertyOp1
 70
     0
102
RTVSPropertyOp2
 70
     0
102
RTVSPropertyOp3
 70
     0
102
RTVSPropertyOp4
 70
     0
102
RTVSPropertyOp5
 70
     0
102
RTVSPropertyOp6
 70
     0
102
RTVSPropertyOp7
 70
     0
102
RTVSPropertyOp8
 70
     0
102
RTVSPropertyOp9
 70
     0
102
RTVSPropertyOp10
 70
     0
102
RTVSPropertyOp11
 70
     0
102
RTVSPropertyOp12
 70
     0
102
RTVSPropertyOp13
 70
     0
102
RTVSPropertyOp14
 70
     2
102
RTVSPropertyOp15
 70
     0
102
RTVSPropertyOp16
 70
     0
102
RTVSPropertyOp17
 70
     0
102
RTVSPropertyOp18
 70
     0
102
RTVSPropertyOp19
 70
     0
102
RTVSPropertyOp20
 70
     0
102
RTVSPropertyOp21
 70
     0
102
RTVSPropertyOp22
 70
     0
102
RTVSPropertyOp23
 70
     0
102
RTVSPropertyOp24
 70
     0
102
RTVSPropertyOp25
 70
     0
102
RTVSPropertyOp26
 70
     0
102
RTVSPropertyOp27
 70
     0
102
RTVSPropertyOp28
 70
     1
102
RTVSPropertyOp29
 70
     1
102
RTVSPropertyOp30
 70
     1
102
RTVSPropertyOp31
 70
     1
102
RTVSPropertyOp32
 70
     1
102
RTVSPropertyOp33
 70
     1
102
RTVSPropertyOp34
 70
     1
102
RTVSPropertyOp35
 70
     1
102
RTVSPropertyOp36
 70
     1
102
RTVSPropertyOp37
 70
     1
102
RTVSPropertyOp38
 70
     1
102
RTVSPropertyOp39
 70
     1
102
RTVSPropertyOp40
 70
     1
102
RTVSPropertyOp41
 70
     1
102
RTVSPropertyOp42
 70
     1
102
RTVSPropertyOp43
 70
     1
102
RTVSPropertyOp44
 70
     1
102
RTVSPropertyOp45
 70
     1
102
RTVSPropertyOp46
 70
     1
102
RTVSPropertyOp47
 70
     1
102
RTVSPropertyOp48
 70
     1
102
RTVSPropertyOp49
 70
     1
102
RTVSPropertyOp50
 70
     1
102
RTVSPropertyOp51
 70
     0
102
RTVSPropertyOp52
 70
     0
102
RTVSPropertyOp53
 70
     1
102
RTVSPropertyOp54
 70
     1
102
RTVSPropertyOp55
 70
     1
102
RTVSPropertyOp56
 70
     1
102
RTVSPropertyOp57
 70
     1
102
RTVSPropertyOp58
 70
     1
102
RTVSPropertyOp59
 70
     1
102
RTVSPropertyOp60
 70
     1
102
RTVSPropertyOp61
 70
     1
102
RTVSPropertyOp62
 70
     1
  0
XRECORD
  5
3565
102
{ACAD_REACTORS
330
3564
102
}
330
3564
100
AcDbXrecord
280
     1
102
RTVSPost2010Prop28
280
     0
102
RTVSPost2010PropOp28
 70
     1
102
RTVSPost2010Prop29
280
     1
102
RTVSPost2010PropOp29
 70
     1
102
RTVSPost2010Prop30
280
     1
102
RTVSPost2010PropOp30
 70
     1
102
RTVSPost2010Prop31
280
     0
102
RTVSPost2010PropOp31
 70
     1
102
RTVSPost2010Prop32
280
     0
102
RTVSPost2010PropOp32
 70
     1
102
RTVSPost2010Prop33
280
     0
102
RTVSPost2010PropOp33
 70
     1
102
RTVSPost2010Prop34
280
     0
102
RTVSPost2010PropOp34
 70
     1
102
RTVSPost2010Prop35
280
     0
102
RTVSPost2010PropOp35
 70
     1
102
RTVSPost2010Prop36
280
     0
102
RTVSPost2010PropOp36
 70
     1
102
RTVSPost2010Prop37
 90
       50
102
RTVSPost2010PropOp37
 70
     1
102
RTVSPost2010Prop38
140
0.0
102
RTVSPost2010PropOp38
 70
     1
102
RTVSPost2010Prop39
140
1.0
102
RTVSPost2010PropOp39
 70
     1
102
RTVSPost2010Prop40
 90
        0
102
RTVSPost2010PropOp40
 70
     1
102
RTVSPost2010Prop41ColorIndex
 90
       18
102
RTVSPost2010Prop41ColorRGB
 90
        0
102
RTVSPost2010PropOp41
 70
     1
102
RTVSPost2010Prop42
 90
       50
102
RTVSPost2010PropOp42
 70
     1
102
RTVSPost2010Prop43
 90
        3
102
RTVSPost2010PropOp43
 70
     1
102
RTVSPost2010Prop44ColorIndex
 90
        5
102
RTVSPost2010Prop44ColorRGB
 90
      255
102
RTVSPost2010PropOp44
 70
     1
102
RTVSPost2010Prop45
280
     0
102
RTVSPost2010PropOp45
 70
     1
102
RTVSPost2010Prop46
 90
       50
102
RTVSPost2010PropOp46
 70
     1
102
RTVSPost2010Prop47
 90
       50
102
RTVSPost2010PropOp47
 70
     1
102
RTVSPost2010Prop48
 90
       50
102
RTVSPost2010PropOp48
 70
     1
102
RTVSPost2010Prop49
280
     0
102
RTVSPost2010PropOp49
 70
     1
102
RTVSPost2010Prop50
 90
       50
102
RTVSPost2010PropOp50
 70
     1
102
RTVSPost2010Prop51ColorIndex
 90
      256
102
RTVSPost2010Prop51ColorRGB
 90
-16777216
102
RTVSPost2010PropOp51
 70
     0
102
RTVSPost2010Prop52
140
1.0
102
RTVSPost2010PropOp52
 70
     0
102
RTVSPost2010Prop53
 90
        2
102
RTVSPost2010PropOp53
 70
     1
102
RTVSPost2010Prop54
  1
strokes_ogs.tif
102
RTVSPost2010PropOp54
 70
     1
102
RTVSPost2010Prop55
280
     0
102
RTVSPost2010PropOp55
 70
     1
102
RTVSPost2010Prop56
140
1.0
102
RTVSPost2010PropOp56
 70
     1
102
RTVSPost2010Prop57
140
1.0
102
RTVSPost2010PropOp57
 70
     1
102
RTVSPropertyOp0
 70
     1
102
RTVSPropertyOp1
 70
     1
102
RTVSPropertyOp2
 70
     1
102
RTVSPropertyOp3
 70
     1
102
RTVSPropertyOp4
 70
     1
102
RTVSPropertyOp5
 70
     1
102
RTVSPropertyOp6
 70
     1
102
RTVSPropertyOp7
 70
     1
102
RTVSPropertyOp8
 70
     1
102
RTVSPropertyOp9
 70
     1
102
RTVSPropertyOp10
 70
     1
102
RTVSPropertyOp11
 70
     1
102
RTVSPropertyOp12
 70
     1
102
RTVSPropertyOp13
 70
     1
102
RTVSPropertyOp14
 70
     1
102
RTVSPropertyOp15
 70
     1
102
RTVSPropertyOp16
 70
     1
102
RTVSPropertyOp17
 70
     1
102
RTVSPropertyOp18
 70
     1
102
RTVSPropertyOp19
 70
     1
102
RTVSPropertyOp20
 70
     1
102
RTVSPropertyOp21
 70
     1
102
RTVSPropertyOp22
 70
     1
102
RTVSPropertyOp23
 70
     1
102
RTVSPropertyOp24
 70
     1
102
RTVSPropertyOp25
 70
     1
102
RTVSPropertyOp26
 70
     1
102
RTVSPropertyOp27
 70
     1
102
RTVSPropertyOp28
 70
     1
102
RTVSPropertyOp29
 70
     1
102
RTVSPropertyOp30
 70
     1
102
RTVSPropertyOp31
 70
     1
102
RTVSPropertyOp32
 70
     1
102
RTVSPropertyOp33
 70
     1
102
RTVSPropertyOp34
 70
     1
102
RTVSPropertyOp35
 70
     1
102
RTVSPropertyOp36
 70
     1
102
RTVSPropertyOp37
 70
     1
102
RTVSPropertyOp38
 70
     1
102
RTVSPropertyOp39
 70
     1
102
RTVSPropertyOp40
 70
     1
102
RTVSPropertyOp41
 70
     1
102
RTVSPropertyOp42
 70
     1
102
RTVSPropertyOp43
 70
     1
102
RTVSPropertyOp44
 70
     1
102
RTVSPropertyOp45
 70
     1
102
RTVSPropertyOp46
 70
     1
102
RTVSPropertyOp47
 70
     1
102
RTVSPropertyOp48
 70
     1
102
RTVSPropertyOp49
 70
     1
102
RTVSPropertyOp50
 70
     1
102
RTVSPropertyOp51
 70
     0
102
RTVSPropertyOp52
 70
     0
102
RTVSPropertyOp53
 70
     1
102
RTVSPropertyOp54
 70
     1
102
RTVSPropertyOp55
 70
     1
102
RTVSPropertyOp56
 70
     1
102
RTVSPropertyOp57
 70
     1
102
RTVSPropertyOp58
 70
     1
102
RTVSPropertyOp59
 70
     1
102
RTVSPropertyOp60
 70
     1
102
RTVSPropertyOp61
 70
     1
102
RTVSPropertyOp62
 70
     1
  0
XRECORD
  5
3549
102
{ACAD_REACTORS
330
3548
102
}
330
3548
100
AcDbXrecord
280
     1
102
RTVSPost2010Prop28
280
     0
102
RTVSPost2010PropOp28
 70
     1
102
RTVSPost2010Prop29
280
     1
102
RTVSPost2010PropOp29
 70
     1
102
RTVSPost2010Prop30
280
     1
102
RTVSPost2010PropOp30
 70
     1
102
RTVSPost2010Prop31
280
     0
102
RTVSPost2010PropOp31
 70
     1
102
RTVSPost2010Prop32
280
     0
102
RTVSPost2010PropOp32
 70
     1
102
RTVSPost2010Prop33
280
     0
102
RTVSPost2010PropOp33
 70
     1
102
RTVSPost2010Prop34
280
     0
102
RTVSPost2010PropOp34
 70
     1
102
RTVSPost2010Prop35
280
     0
102
RTVSPost2010PropOp35
 70
     1
102
RTVSPost2010Prop36
280
     0
102
RTVSPost2010PropOp36
 70
     1
102
RTVSPost2010Prop37
 90
       50
102
RTVSPost2010PropOp37
 70
     1
102
RTVSPost2010Prop38
140
0.0
102
RTVSPost2010PropOp38
 70
     1
102
RTVSPost2010Prop39
140
1.0
102
RTVSPost2010PropOp39
 70
     1
102
RTVSPost2010Prop40
 90
        0
102
RTVSPost2010PropOp40
 70
     1
102
RTVSPost2010Prop41ColorIndex
 90
       18
102
RTVSPost2010Prop41ColorRGB
 90
        0
102
RTVSPost2010PropOp41
 70
     1
102
RTVSPost2010Prop42
 90
       50
102
RTVSPost2010PropOp42
 70
     1
102
RTVSPost2010Prop43
 90
        3
102
RTVSPost2010PropOp43
 70
     1
102
RTVSPost2010Prop44ColorIndex
 90
        5
102
RTVSPost2010Prop44ColorRGB
 90
      255
102
RTVSPost2010PropOp44
 70
     1
102
RTVSPost2010Prop45
280
     0
102
RTVSPost2010PropOp45
 70
     1
102
RTVSPost2010Prop46
 90
       50
102
RTVSPost2010PropOp46
 70
     1
102
RTVSPost2010Prop47
 90
       50
102
RTVSPost2010PropOp47
 70
     1
102
RTVSPost2010Prop48
 90
       50
102
RTVSPost2010PropOp48
 70
     1
102
RTVSPost2010Prop49
280
     0
102
RTVSPost2010PropOp49
 70
     1
102
RTVSPost2010Prop50
 90
       50
102
RTVSPost2010PropOp50
 70
     1
102
RTVSPost2010Prop51ColorIndex
 90
      256
102
RTVSPost2010Prop51ColorRGB
 90
-16777216
102
RTVSPost2010PropOp51
 70
     0
102
RTVSPost2010Prop52
140
1.0
102
RTVSPost2010PropOp52
 70
     0
102
RTVSPost2010Prop53
 90
        2
102
RTVSPost2010PropOp53
 70
     1
102
RTVSPost2010Prop54
  1
strokes_ogs.tif
102
RTVSPost2010PropOp54
 70
     1
102
RTVSPost2010Prop55
280
     0
102
RTVSPost2010PropOp55
 70
     1
102
RTVSPost2010Prop56
140
1.0
102
RTVSPost2010PropOp56
 70
     1
102
RTVSPost2010Prop57
140
1.0
102
RTVSPost2010PropOp57
 70
     1
102
RTVSPropertyOp0
 70
     1
102
RTVSPropertyOp1
 70
     1
102
RTVSPropertyOp2
 70
     1
102
RTVSPropertyOp3
 70
     1
102
RTVSPropertyOp4
 70
     1
102
RTVSPropertyOp5
 70
     1
102
RTVSPropertyOp6
 70
     1
102
RTVSPropertyOp7
 70
     1
102
RTVSPropertyOp8
 70
     1
102
RTVSPropertyOp9
 70
     1
102
RTVSPropertyOp10
 70
     1
102
RTVSPropertyOp11
 70
     1
102
RTVSPropertyOp12
 70
     1
102
RTVSPropertyOp13
 70
     1
102
RTVSPropertyOp14
 70
     1
102
RTVSPropertyOp15
 70
     1
102
RTVSPropertyOp16
 70
     1
102
RTVSPropertyOp17
 70
     1
102
RTVSPropertyOp18
 70
     1
102
RTVSPropertyOp19
 70
     1
102
RTVSPropertyOp20
 70
     1
102
RTVSPropertyOp21
 70
     1
102
RTVSPropertyOp22
 70
     1
102
RTVSPropertyOp23
 70
     1
102
RTVSPropertyOp24
 70
     1
102
RTVSPropertyOp25
 70
     1
102
RTVSPropertyOp26
 70
     1
102
RTVSPropertyOp27
 70
     1
102
RTVSPropertyOp28
 70
     1
102
RTVSPropertyOp29
 70
     1
102
RTVSPropertyOp30
 70
     1
102
RTVSPropertyOp31
 70
     1
102
RTVSPropertyOp32
 70
     1
102
RTVSPropertyOp33
 70
     1
102
RTVSPropertyOp34
 70
     1
102
RTVSPropertyOp35
 70
     1
102
RTVSPropertyOp36
 70
     1
102
RTVSPropertyOp37
 70
     1
102
RTVSPropertyOp38
 70
     1
102
RTVSPropertyOp39
 70
     1
102
RTVSPropertyOp40
 70
     1
102
RTVSPropertyOp41
 70
     1
102
RTVSPropertyOp42
 70
     1
102
RTVSPropertyOp43
 70
     1
102
RTVSPropertyOp44
 70
     1
102
RTVSPropertyOp45
 70
     1
102
RTVSPropertyOp46
 70
     1
102
RTVSPropertyOp47
 70
     1
102
RTVSPropertyOp48
 70
     1
102
RTVSPropertyOp49
 70
     1
102
RTVSPropertyOp50
 70
     1
102
RTVSPropertyOp51
 70
     0
102
RTVSPropertyOp52
 70
     0
102
RTVSPropertyOp53
 70
     1
102
RTVSPropertyOp54
 70
     1
102
RTVSPropertyOp55
 70
     1
102
RTVSPropertyOp56
 70
     1
102
RTVSPropertyOp57
 70
     1
102
RTVSPropertyOp58
 70
     1
102
RTVSPropertyOp59
 70
     1
102
RTVSPropertyOp60
 70
     1
102
RTVSPropertyOp61
 70
     1
102
RTVSPropertyOp62
 70
     1
  0
XRECORD
  5
354B
102
{ACAD_REACTORS
330
354A
102
}
330
354A
100
AcDbXrecord
280
     1
102
RTVSPost2010Prop28
280
     0
102
RTVSPost2010PropOp28
 70
     1
102
RTVSPost2010Prop29
280
     1
102
RTVSPost2010PropOp29
 70
     1
102
RTVSPost2010Prop30
280
     1
102
RTVSPost2010PropOp30
 70
     1
102
RTVSPost2010Prop31
280
     0
102
RTVSPost2010PropOp31
 70
     1
102
RTVSPost2010Prop32
280
     0
102
RTVSPost2010PropOp32
 70
     1
102
RTVSPost2010Prop33
280
     0
102
RTVSPost2010PropOp33
 70
     1
102
RTVSPost2010Prop34
280
     0
102
RTVSPost2010PropOp34
 70
     1
102
RTVSPost2010Prop35
280
     0
102
RTVSPost2010PropOp35
 70
     1
102
RTVSPost2010Prop36
280
     0
102
RTVSPost2010PropOp36
 70
     1
102
RTVSPost2010Prop37
 90
       50
102
RTVSPost2010PropOp37
 70
     1
102
RTVSPost2010Prop38
140
0.0
102
RTVSPost2010PropOp38
 70
     1
102
RTVSPost2010Prop39
140
1.0
102
RTVSPost2010PropOp39
 70
     1
102
RTVSPost2010Prop40
 90
        0
102
RTVSPost2010PropOp40
 70
     1
102
RTVSPost2010Prop41ColorIndex
 90
       18
102
RTVSPost2010Prop41ColorRGB
 90
        0
102
RTVSPost2010PropOp41
 70
     1
102
RTVSPost2010Prop42
 90
       50
102
RTVSPost2010PropOp42
 70
     1
102
RTVSPost2010Prop43
 90
        3
102
RTVSPost2010PropOp43
 70
     1
102
RTVSPost2010Prop44ColorIndex
 90
        5
102
RTVSPost2010Prop44ColorRGB
 90
      255
102
RTVSPost2010PropOp44
 70
     1
102
RTVSPost2010Prop45
280
     0
102
RTVSPost2010PropOp45
 70
     1
102
RTVSPost2010Prop46
 90
       50
102
RTVSPost2010PropOp46
 70
     1
102
RTVSPost2010Prop47
 90
       50
102
RTVSPost2010PropOp47
 70
     1
102
RTVSPost2010Prop48
 90
       50
102
RTVSPost2010PropOp48
 70
     1
102
RTVSPost2010Prop49
280
     0
102
RTVSPost2010PropOp49
 70
     1
102
RTVSPost2010Prop50
 90
       50
102
RTVSPost2010PropOp50
 70
     1
102
RTVSPost2010Prop51ColorIndex
 90
      256
102
RTVSPost2010Prop51ColorRGB
 90
-16777216
102
RTVSPost2010PropOp51
 70
     0
102
RTVSPost2010Prop52
140
1.0
102
RTVSPost2010PropOp52
 70
     0
102
RTVSPost2010Prop53
 90
        2
102
RTVSPost2010PropOp53
 70
     1
102
RTVSPost2010Prop54
  1
strokes_ogs.tif
102
RTVSPost2010PropOp54
 70
     1
102
RTVSPost2010Prop55
280
     0
102
RTVSPost2010PropOp55
 70
     1
102
RTVSPost2010Prop56
140
1.0
102
RTVSPost2010PropOp56
 70
     1
102
RTVSPost2010Prop57
140
1.0
102
RTVSPost2010PropOp57
 70
     1
102
RTVSPropertyOp0
 70
     1
102
RTVSPropertyOp1
 70
     1
102
RTVSPropertyOp2
 70
     1
102
RTVSPropertyOp3
 70
     1
102
RTVSPropertyOp4
 70
     1
102
RTVSPropertyOp5
 70
     1
102
RTVSPropertyOp6
 70
     1
102
RTVSPropertyOp7
 70
     1
102
RTVSPropertyOp8
 70
     1
102
RTVSPropertyOp9
 70
     1
102
RTVSPropertyOp10
 70
     1
102
RTVSPropertyOp11
 70
     1
102
RTVSPropertyOp12
 70
     1
102
RTVSPropertyOp13
 70
     1
102
RTVSPropertyOp14
 70
     1
102
RTVSPropertyOp15
 70
     1
102
RTVSPropertyOp16
 70
     1
102
RTVSPropertyOp17
 70
     1
102
RTVSPropertyOp18
 70
     1
102
RTVSPropertyOp19
 70
     1
102
RTVSPropertyOp20
 70
     1
102
RTVSPropertyOp21
 70
     1
102
RTVSPropertyOp22
 70
     1
102
RTVSPropertyOp23
 70
     1
102
RTVSPropertyOp24
 70
     1
102
RTVSPropertyOp25
 70
     1
102
RTVSPropertyOp26
 70
     1
102
RTVSPropertyOp27
 70
     1
102
RTVSPropertyOp28
 70
     1
102
RTVSPropertyOp29
 70
     1
102
RTVSPropertyOp30
 70
     1
102
RTVSPropertyOp31
 70
     1
102
RTVSPropertyOp32
 70
     1
102
RTVSPropertyOp33
 70
     1
102
RTVSPropertyOp34
 70
     1
102
RTVSPropertyOp35
 70
     1
102
RTVSPropertyOp36
 70
     1
102
RTVSPropertyOp37
 70
     1
102
RTVSPropertyOp38
 70
     1
102
RTVSPropertyOp39
 70
     1
102
RTVSPropertyOp40
 70
     1
102
RTVSPropertyOp41
 70
     1
102
RTVSPropertyOp42
 70
     1
102
RTVSPropertyOp43
 70
     1
102
RTVSPropertyOp44
 70
     1
102
RTVSPropertyOp45
 70
     1
102
RTVSPropertyOp46
 70
     1
102
RTVSPropertyOp47
 70
     1
102
RTVSPropertyOp48
 70
     1
102
RTVSPropertyOp49
 70
     1
102
RTVSPropertyOp50
 70
     1
102
RTVSPropertyOp51
 70
     0
102
RTVSPropertyOp52
 70
     0
102
RTVSPropertyOp53
 70
     1
102
RTVSPropertyOp54
 70
     1
102
RTVSPropertyOp55
 70
     1
102
RTVSPropertyOp56
 70
     1
102
RTVSPropertyOp57
 70
     1
102
RTVSPropertyOp58
 70
     1
102
RTVSPropertyOp59
 70
     1
102
RTVSPropertyOp60
 70
     1
102
RTVSPropertyOp61
 70
     1
102
RTVSPropertyOp62
 70
     1
  0
XRECORD
  5
354D
102
{ACAD_REACTORS
330
354C
102
}
330
354C
100
AcDbXrecord
280
     1
102
RTVSPost2010Prop28
280
     0
102
RTVSPost2010PropOp28
 70
     1
102
RTVSPost2010Prop29
280
     1
102
RTVSPost2010PropOp29
 70
     1
102
RTVSPost2010Prop30
280
     1
102
RTVSPost2010PropOp30
 70
     1
102
RTVSPost2010Prop31
280
     0
102
RTVSPost2010PropOp31
 70
     1
102
RTVSPost2010Prop32
280
     0
102
RTVSPost2010PropOp32
 70
     1
102
RTVSPost2010Prop33
280
     0
102
RTVSPost2010PropOp33
 70
     1
102
RTVSPost2010Prop34
280
     0
102
RTVSPost2010PropOp34
 70
     1
102
RTVSPost2010Prop35
280
     0
102
RTVSPost2010PropOp35
 70
     1
102
RTVSPost2010Prop36
280
     0
102
RTVSPost2010PropOp36
 70
     1
102
RTVSPost2010Prop37
 90
       50
102
RTVSPost2010PropOp37
 70
     1
102
RTVSPost2010Prop38
140
0.0
102
RTVSPost2010PropOp38
 70
     1
102
RTVSPost2010Prop39
140
1.0
102
RTVSPost2010PropOp39
 70
     1
102
RTVSPost2010Prop40
 90
        0
102
RTVSPost2010PropOp40
 70
     1
102
RTVSPost2010Prop41ColorIndex
 90
       18
102
RTVSPost2010Prop41ColorRGB
 90
        0
102
RTVSPost2010PropOp41
 70
     1
102
RTVSPost2010Prop42
 90
       50
102
RTVSPost2010PropOp42
 70
     1
102
RTVSPost2010Prop43
 90
        3
102
RTVSPost2010PropOp43
 70
     1
102
RTVSPost2010Prop44ColorIndex
 90
        5
102
RTVSPost2010Prop44ColorRGB
 90
      255
102
RTVSPost2010PropOp44
 70
     1
102
RTVSPost2010Prop45
280
     0
102
RTVSPost2010PropOp45
 70
     1
102
RTVSPost2010Prop46
 90
       50
102
RTVSPost2010PropOp46
 70
     1
102
RTVSPost2010Prop47
 90
       50
102
RTVSPost2010PropOp47
 70
     1
102
RTVSPost2010Prop48
 90
       50
102
RTVSPost2010PropOp48
 70
     1
102
RTVSPost2010Prop49
280
     0
102
RTVSPost2010PropOp49
 70
     1
102
RTVSPost2010Prop50
 90
       50
102
RTVSPost2010PropOp50
 70
     1
102
RTVSPost2010Prop51ColorIndex
 90
      256
102
RTVSPost2010Prop51ColorRGB
 90
-16777216
102
RTVSPost2010PropOp51
 70
     0
102
RTVSPost2010Prop52
140
1.0
102
RTVSPost2010PropOp52
 70
     0
102
RTVSPost2010Prop53
 90
        2
102
RTVSPost2010PropOp53
 70
     1
102
RTVSPost2010Prop54
  1
strokes_ogs.tif
102
RTVSPost2010PropOp54
 70
     1
102
RTVSPost2010Prop55
280
     0
102
RTVSPost2010PropOp55
 70
     1
102
RTVSPost2010Prop56
140
1.0
102
RTVSPost2010PropOp56
 70
     1
102
RTVSPost2010Prop57
140
1.0
102
RTVSPost2010PropOp57
 70
     1
102
RTVSPropertyOp0
 70
     1
102
RTVSPropertyOp1
 70
     1
102
RTVSPropertyOp2
 70
     1
102
RTVSPropertyOp3
 70
     1
102
RTVSPropertyOp4
 70
     1
102
RTVSPropertyOp5
 70
     1
102
RTVSPropertyOp6
 70
     1
102
RTVSPropertyOp7
 70
     1
102
RTVSPropertyOp8
 70
     1
102
RTVSPropertyOp9
 70
     1
102
RTVSPropertyOp10
 70
     1
102
RTVSPropertyOp11
 70
     1
102
RTVSPropertyOp12
 70
     1
102
RTVSPropertyOp13
 70
     1
102
RTVSPropertyOp14
 70
     1
102
RTVSPropertyOp15
 70
     1
102
RTVSPropertyOp16
 70
     1
102
RTVSPropertyOp17
 70
     1
102
RTVSPropertyOp18
 70
     1
102
RTVSPropertyOp19
 70
     1
102
RTVSPropertyOp20
 70
     1
102
RTVSPropertyOp21
 70
     1
102
RTVSPropertyOp22
 70
     1
102
RTVSPropertyOp23
 70
     1
102
RTVSPropertyOp24
 70
     1
102
RTVSPropertyOp25
 70
     1
102
RTVSPropertyOp26
 70
     1
102
RTVSPropertyOp27
 70
     1
102
RTVSPropertyOp28
 70
     1
102
RTVSPropertyOp29
 70
     1
102
RTVSPropertyOp30
 70
     1
102
RTVSPropertyOp31
 70
     1
102
RTVSPropertyOp32
 70
     1
102
RTVSPropertyOp33
 70
     1
102
RTVSPropertyOp34
 70
     1
102
RTVSPropertyOp35
 70
     1
102
RTVSPropertyOp36
 70
     1
102
RTVSPropertyOp37
 70
     1
102
RTVSPropertyOp38
 70
     1
102
RTVSPropertyOp39
 70
     1
102
RTVSPropertyOp40
 70
     1
102
RTVSPropertyOp41
 70
     1
102
RTVSPropertyOp42
 70
     1
102
RTVSPropertyOp43
 70
     1
102
RTVSPropertyOp44
 70
     1
102
RTVSPropertyOp45
 70
     1
102
RTVSPropertyOp46
 70
     1
102
RTVSPropertyOp47
 70
     1
102
RTVSPropertyOp48
 70
     1
102
RTVSPropertyOp49
 70
     1
102
RTVSPropertyOp50
 70
     1
102
RTVSPropertyOp51
 70
     0
102
RTVSPropertyOp52
 70
     0
102
RTVSPropertyOp53
 70
     1
102
RTVSPropertyOp54
 70
     1
102
RTVSPropertyOp55
 70
     1
102
RTVSPropertyOp56
 70
     1
102
RTVSPropertyOp57
 70
     1
102
RTVSPropertyOp58
 70
     1
102
RTVSPropertyOp59
 70
     1
102
RTVSPropertyOp60
 70
     1
102
RTVSPropertyOp61
 70
     1
102
RTVSPropertyOp62
 70
     1
  0
XRECORD
  5
354F
102
{ACAD_REACTORS
330
354E
102
}
330
354E
100
AcDbXrecord
280
     1
102
RTVSPost2010Prop28
280
     0
102
RTVSPost2010PropOp28
 70
     1
102
RTVSPost2010Prop29
280
     1
102
RTVSPost2010PropOp29
 70
     1
102
RTVSPost2010Prop30
280
     1
102
RTVSPost2010PropOp30
 70
     1
102
RTVSPost2010Prop31
280
     0
102
RTVSPost2010PropOp31
 70
     1
102
RTVSPost2010Prop32
280
     0
102
RTVSPost2010PropOp32
 70
     1
102
RTVSPost2010Prop33
280
     0
102
RTVSPost2010PropOp33
 70
     1
102
RTVSPost2010Prop34
280
     0
102
RTVSPost2010PropOp34
 70
     1
102
RTVSPost2010Prop35
280
     0
102
RTVSPost2010PropOp35
 70
     1
102
RTVSPost2010Prop36
280
     0
102
RTVSPost2010PropOp36
 70
     1
102
RTVSPost2010Prop37
 90
       50
102
RTVSPost2010PropOp37
 70
     1
102
RTVSPost2010Prop38
140
0.0
102
RTVSPost2010PropOp38
 70
     1
102
RTVSPost2010Prop39
140
1.0
102
RTVSPost2010PropOp39
 70
     1
102
RTVSPost2010Prop40
 90
        0
102
RTVSPost2010PropOp40
 70
     1
102
RTVSPost2010Prop41ColorIndex
 90
       18
102
RTVSPost2010Prop41ColorRGB
 90
        0
102
RTVSPost2010PropOp41
 70
     1
102
RTVSPost2010Prop42
 90
       50
102
RTVSPost2010PropOp42
 70
     1
102
RTVSPost2010Prop43
 90
        3
102
RTVSPost2010PropOp43
 70
     1
102
RTVSPost2010Prop44ColorIndex
 90
        5
102
RTVSPost2010Prop44ColorRGB
 90
      255
102
RTVSPost2010PropOp44
 70
     1
102
RTVSPost2010Prop45
280
     0
102
RTVSPost2010PropOp45
 70
     1
102
RTVSPost2010Prop46
 90
       50
102
RTVSPost2010PropOp46
 70
     1
102
RTVSPost2010Prop47
 90
       50
102
RTVSPost2010PropOp47
 70
     1
102
RTVSPost2010Prop48
 90
       50
102
RTVSPost2010PropOp48
 70
     1
102
RTVSPost2010Prop49
280
     0
102
RTVSPost2010PropOp49
 70
     1
102
RTVSPost2010Prop50
 90
       50
102
RTVSPost2010PropOp50
 70
     1
102
RTVSPost2010Prop51ColorIndex
 90
      256
102
RTVSPost2010Prop51ColorRGB
 90
-16777216
102
RTVSPost2010PropOp51
 70
     0
102
RTVSPost2010Prop52
140
1.0
102
RTVSPost2010PropOp52
 70
     0
102
RTVSPost2010Prop53
 90
        2
102
RTVSPost2010PropOp53
 70
     1
102
RTVSPost2010Prop54
  1
strokes_ogs.tif
102
RTVSPost2010PropOp54
 70
     1
102
RTVSPost2010Prop55
280
     0
102
RTVSPost2010PropOp55
 70
     1
102
RTVSPost2010Prop56
140
1.0
102
RTVSPost2010PropOp56
 70
     1
102
RTVSPost2010Prop57
140
1.0
102
RTVSPost2010PropOp57
 70
     1
102
RTVSPropertyOp0
 70
     1
102
RTVSPropertyOp1
 70
     1
102
RTVSPropertyOp2
 70
     1
102
RTVSPropertyOp3
 70
     1
102
RTVSPropertyOp4
 70
     1
102
RTVSPropertyOp5
 70
     1
102
RTVSPropertyOp6
 70
     1
102
RTVSPropertyOp7
 70
     1
102
RTVSPropertyOp8
 70
     1
102
RTVSPropertyOp9
 70
     1
102
RTVSPropertyOp10
 70
     1
102
RTVSPropertyOp11
 70
     1
102
RTVSPropertyOp12
 70
     1
102
RTVSPropertyOp13
 70
     1
102
RTVSPropertyOp14
 70
     1
102
RTVSPropertyOp15
 70
     1
102
RTVSPropertyOp16
 70
     1
102
RTVSPropertyOp17
 70
     1
102
RTVSPropertyOp18
 70
     1
102
RTVSPropertyOp19
 70
     1
102
RTVSPropertyOp20
 70
     1
102
RTVSPropertyOp21
 70
     1
102
RTVSPropertyOp22
 70
     1
102
RTVSPropertyOp23
 70
     1
102
RTVSPropertyOp24
 70
     1
102
RTVSPropertyOp25
 70
     1
102
RTVSPropertyOp26
 70
     1
102
RTVSPropertyOp27
 70
     1
102
RTVSPropertyOp28
 70
     1
102
RTVSPropertyOp29
 70
     1
102
RTVSPropertyOp30
 70
     1
102
RTVSPropertyOp31
 70
     1
102
RTVSPropertyOp32
 70
     1
102
RTVSPropertyOp33
 70
     1
102
RTVSPropertyOp34
 70
     1
102
RTVSPropertyOp35
 70
     1
102
RTVSPropertyOp36
 70
     1
102
RTVSPropertyOp37
 70
     1
102
RTVSPropertyOp38
 70
     1
102
RTVSPropertyOp39
 70
     1
102
RTVSPropertyOp40
 70
     1
102
RTVSPropertyOp41
 70
     1
102
RTVSPropertyOp42
 70
     1
102
RTVSPropertyOp43
 70
     1
102
RTVSPropertyOp44
 70
     1
102
RTVSPropertyOp45
 70
     1
102
RTVSPropertyOp46
 70
     1
102
RTVSPropertyOp47
 70
     1
102
RTVSPropertyOp48
 70
     1
102
RTVSPropertyOp49
 70
     1
102
RTVSPropertyOp50
 70
     1
102
RTVSPropertyOp51
 70
     0
102
RTVSPropertyOp52
 70
     0
102
RTVSPropertyOp53
 70
     1
102
RTVSPropertyOp54
 70
     1
102
RTVSPropertyOp55
 70
     1
102
RTVSPropertyOp56
 70
     1
102
RTVSPropertyOp57
 70
     1
102
RTVSPropertyOp58
 70
     1
102
RTVSPropertyOp59
 70
     1
102
RTVSPropertyOp60
 70
     1
102
RTVSPropertyOp61
 70
     1
102
RTVSPropertyOp62
 70
     1
  0
XRECORD
  5
3572
102
{ACAD_REACTORS
330
3571
102
}
330
3571
100
AcDbXrecord
280
     1
102
RTVSPost2010Prop28
280
     0
102
RTVSPost2010PropOp28
 70
     1
102
RTVSPost2010Prop29
280
     1
102
RTVSPost2010PropOp29
 70
     1
102
RTVSPost2010Prop30
280
     1
102
RTVSPost2010PropOp30
 70
     1
102
RTVSPost2010Prop31
280
     0
102
RTVSPost2010PropOp31
 70
     1
102
RTVSPost2010Prop32
280
     0
102
RTVSPost2010PropOp32
 70
     1
102
RTVSPost2010Prop33
280
     0
102
RTVSPost2010PropOp33
 70
     1
102
RTVSPost2010Prop34
280
     0
102
RTVSPost2010PropOp34
 70
     1
102
RTVSPost2010Prop35
280
     0
102
RTVSPost2010PropOp35
 70
     1
102
RTVSPost2010Prop36
280
     0
102
RTVSPost2010PropOp36
 70
     1
102
RTVSPost2010Prop37
 90
       50
102
RTVSPost2010PropOp37
 70
     1
102
RTVSPost2010Prop38
140
0.0
102
RTVSPost2010PropOp38
 70
     1
102
RTVSPost2010Prop39
140
1.0
102
RTVSPost2010PropOp39
 70
     1
102
RTVSPost2010Prop40
 90
        0
102
RTVSPost2010PropOp40
 70
     1
102
RTVSPost2010Prop41ColorIndex
 90
       18
102
RTVSPost2010Prop41ColorRGB
 90
        0
102
RTVSPost2010PropOp41
 70
     1
102
RTVSPost2010Prop42
 90
       50
102
RTVSPost2010PropOp42
 70
     1
102
RTVSPost2010Prop43
 90
        3
102
RTVSPost2010PropOp43
 70
     1
102
RTVSPost2010Prop44ColorIndex
 90
        5
102
RTVSPost2010Prop44ColorRGB
 90
      255
102
RTVSPost2010PropOp44
 70
     1
102
RTVSPost2010Prop45
280
     0
102
RTVSPost2010PropOp45
 70
     1
102
RTVSPost2010Prop46
 90
       50
102
RTVSPost2010PropOp46
 70
     1
102
RTVSPost2010Prop47
 90
       50
102
RTVSPost2010PropOp47
 70
     1
102
RTVSPost2010Prop48
 90
       50
102
RTVSPost2010PropOp48
 70
     1
102
RTVSPost2010Prop49
280
     0
102
RTVSPost2010PropOp49
 70
     1
102
RTVSPost2010Prop50
 90
       50
102
RTVSPost2010PropOp50
 70
     1
102
RTVSPost2010Prop51ColorIndex
 90
      256
102
RTVSPost2010Prop51ColorRGB
 90
-16777216
102
RTVSPost2010PropOp51
 70
     0
102
RTVSPost2010Prop52
140
1.0
102
RTVSPost2010PropOp52
 70
     0
102
RTVSPost2010Prop53
 90
        2
102
RTVSPost2010PropOp53
 70
     1
102
RTVSPost2010Prop54
  1
strokes_ogs.tif
102
RTVSPost2010PropOp54
 70
     1
102
RTVSPost2010Prop55
280
     0
102
RTVSPost2010PropOp55
 70
     1
102
RTVSPost2010Prop56
140
1.0
102
RTVSPost2010PropOp56
 70
     1
102
RTVSPost2010Prop57
140
1.0
102
RTVSPost2010PropOp57
 70
     1
102
RTVSPropertyOp0
 70
     1
102
RTVSPropertyOp1
 70
     1
102
RTVSPropertyOp2
 70
     1
102
RTVSPropertyOp3
 70
     1
102
RTVSPropertyOp4
 70
     1
102
RTVSPropertyOp5
 70
     1
102
RTVSPropertyOp6
 70
     1
102
RTVSPropertyOp7
 70
     1
102
RTVSPropertyOp8
 70
     1
102
RTVSPropertyOp9
 70
     1
102
RTVSPropertyOp10
 70
     1
102
RTVSPropertyOp11
 70
     1
102
RTVSPropertyOp12
 70
     1
102
RTVSPropertyOp13
 70
     1
102
RTVSPropertyOp14
 70
     1
102
RTVSPropertyOp15
 70
     1
102
RTVSPropertyOp16
 70
     1
102
RTVSPropertyOp17
 70
     1
102
RTVSPropertyOp18
 70
     1
102
RTVSPropertyOp19
 70
     1
102
RTVSPropertyOp20
 70
     1
102
RTVSPropertyOp21
 70
     1
102
RTVSPropertyOp22
 70
     1
102
RTVSPropertyOp23
 70
     1
102
RTVSPropertyOp24
 70
     1
102
RTVSPropertyOp25
 70
     1
102
RTVSPropertyOp26
 70
     1
102
RTVSPropertyOp27
 70
     1
102
RTVSPropertyOp28
 70
     1
102
RTVSPropertyOp29
 70
     1
102
RTVSPropertyOp30
 70
     1
102
RTVSPropertyOp31
 70
     1
102
RTVSPropertyOp32
 70
     1
102
RTVSPropertyOp33
 70
     1
102
RTVSPropertyOp34
 70
     1
102
RTVSPropertyOp35
 70
     1
102
RTVSPropertyOp36
 70
     1
102
RTVSPropertyOp37
 70
     1
102
RTVSPropertyOp38
 70
     1
102
RTVSPropertyOp39
 70
     1
102
RTVSPropertyOp40
 70
     1
102
RTVSPropertyOp41
 70
     1
102
RTVSPropertyOp42
 70
     1
102
RTVSPropertyOp43
 70
     1
102
RTVSPropertyOp44
 70
     1
102
RTVSPropertyOp45
 70
     1
102
RTVSPropertyOp46
 70
     1
102
RTVSPropertyOp47
 70
     1
102
RTVSPropertyOp48
 70
     1
102
RTVSPropertyOp49
 70
     1
102
RTVSPropertyOp50
 70
     1
102
RTVSPropertyOp51
 70
     0
102
RTVSPropertyOp52
 70
     0
102
RTVSPropertyOp53
 70
     1
102
RTVSPropertyOp54
 70
     1
102
RTVSPropertyOp55
 70
     1
102
RTVSPropertyOp56
 70
     1
102
RTVSPropertyOp57
 70
     1
102
RTVSPropertyOp58
 70
     1
102
RTVSPropertyOp59
 70
     1
102
RTVSPropertyOp60
 70
     1
102
RTVSPropertyOp61
 70
     1
102
RTVSPropertyOp62
 70
     1
  0
XRECORD
  5
3569
102
{ACAD_REACTORS
330
3568
102
}
330
3568
100
AcDbXrecord
280
     1
102
RTVSPost2010Prop28
280
     0
102
RTVSPost2010PropOp28
 70
     1
102
RTVSPost2010Prop29
280
     1
102
RTVSPost2010PropOp29
 70
     1
102
RTVSPost2010Prop30
280
     1
102
RTVSPost2010PropOp30
 70
     1
102
RTVSPost2010Prop31
280
     0
102
RTVSPost2010PropOp31
 70
     1
102
RTVSPost2010Prop32
280
     0
102
RTVSPost2010PropOp32
 70
     1
102
RTVSPost2010Prop33
280
     0
102
RTVSPost2010PropOp33
 70
     1
102
RTVSPost2010Prop34
280
     0
102
RTVSPost2010PropOp34
 70
     1
102
RTVSPost2010Prop35
280
     0
102
RTVSPost2010PropOp35
 70
     1
102
RTVSPost2010Prop36
280
     0
102
RTVSPost2010PropOp36
 70
     1
102
RTVSPost2010Prop37
 90
       50
102
RTVSPost2010PropOp37
 70
     1
102
RTVSPost2010Prop38
140
0.0
102
RTVSPost2010PropOp38
 70
     1
102
RTVSPost2010Prop39
140
1.0
102
RTVSPost2010PropOp39
 70
     1
102
RTVSPost2010Prop40
 90
        0
102
RTVSPost2010PropOp40
 70
     1
102
RTVSPost2010Prop41ColorIndex
 90
       18
102
RTVSPost2010Prop41ColorRGB
 90
        0
102
RTVSPost2010PropOp41
 70
     1
102
RTVSPost2010Prop42
 90
       50
102
RTVSPost2010PropOp42
 70
     1
102
RTVSPost2010Prop43
 90
        3
102
RTVSPost2010PropOp43
 70
     1
102
RTVSPost2010Prop44ColorIndex
 90
        5
102
RTVSPost2010Prop44ColorRGB
 90
      255
102
RTVSPost2010PropOp44
 70
     1
102
RTVSPost2010Prop45
280
     0
102
RTVSPost2010PropOp45
 70
     1
102
RTVSPost2010Prop46
 90
       50
102
RTVSPost2010PropOp46
 70
     1
102
RTVSPost2010Prop47
 90
       50
102
RTVSPost2010PropOp47
 70
     1
102
RTVSPost2010Prop48
 90
       50
102
RTVSPost2010PropOp48
 70
     1
102
RTVSPost2010Prop49
280
     0
102
RTVSPost2010PropOp49
 70
     1
102
RTVSPost2010Prop50
 90
       50
102
RTVSPost2010PropOp50
 70
     1
102
RTVSPost2010Prop51ColorIndex
 90
      256
102
RTVSPost2010Prop51ColorRGB
 90
-16777216
102
RTVSPost2010PropOp51
 70
     0
102
RTVSPost2010Prop52
140
1.0
102
RTVSPost2010PropOp52
 70
     0
102
RTVSPost2010Prop53
 90
        2
102
RTVSPost2010PropOp53
 70
     1
102
RTVSPost2010Prop54
  1
strokes_ogs.tif
102
RTVSPost2010PropOp54
 70
     1
102
RTVSPost2010Prop55
280
     0
102
RTVSPost2010PropOp55
 70
     1
102
RTVSPost2010Prop56
140
1.0
102
RTVSPost2010PropOp56
 70
     1
102
RTVSPost2010Prop57
140
1.0
102
RTVSPost2010PropOp57
 70
     1
102
RTVSPropertyOp0
 70
     0
102
RTVSPropertyOp1
 70
     0
102
RTVSPropertyOp2
 70
     0
102
RTVSPropertyOp3
 70
     0
102
RTVSPropertyOp4
 70
     0
102
RTVSPropertyOp5
 70
     0
102
RTVSPropertyOp6
 70
     0
102
RTVSPropertyOp7
 70
     0
102
RTVSPropertyOp8
 70
     0
102
RTVSPropertyOp9
 70
     0
102
RTVSPropertyOp10
 70
     0
102
RTVSPropertyOp11
 70
     0
102
RTVSPropertyOp12
 70
     0
102
RTVSPropertyOp13
 70
     0
102
RTVSPropertyOp14
 70
     2
102
RTVSPropertyOp15
 70
     0
102
RTVSPropertyOp16
 70
     0
102
RTVSPropertyOp17
 70
     0
102
RTVSPropertyOp18
 70
     0
102
RTVSPropertyOp19
 70
     0
102
RTVSPropertyOp20
 70
     0
102
RTVSPropertyOp21
 70
     0
102
RTVSPropertyOp22
 70
     0
102
RTVSPropertyOp23
 70
     0
102
RTVSPropertyOp24
 70
     0
102
RTVSPropertyOp25
 70
     0
102
RTVSPropertyOp26
 70
     0
102
RTVSPropertyOp27
 70
     0
102
RTVSPropertyOp28
 70
     1
102
RTVSPropertyOp29
 70
     1
102
RTVSPropertyOp30
 70
     1
102
RTVSPropertyOp31
 70
     1
102
RTVSPropertyOp32
 70
     1
102
RTVSPropertyOp33
 70
     1
102
RTVSPropertyOp34
 70
     1
102
RTVSPropertyOp35
 70
     1
102
RTVSPropertyOp36
 70
     1
102
RTVSPropertyOp37
 70
     1
102
RTVSPropertyOp38
 70
     1
102
RTVSPropertyOp39
 70
     1
102
RTVSPropertyOp40
 70
     1
102
RTVSPropertyOp41
 70
     1
102
RTVSPropertyOp42
 70
     1
102
RTVSPropertyOp43
 70
     1
102
RTVSPropertyOp44
 70
     1
102
RTVSPropertyOp45
 70
     1
102
RTVSPropertyOp46
 70
     1
102
RTVSPropertyOp47
 70
     1
102
RTVSPropertyOp48
 70
     1
102
RTVSPropertyOp49
 70
     1
102
RTVSPropertyOp50
 70
     1
102
RTVSPropertyOp51
 70
     0
102
RTVSPropertyOp52
 70
     0
102
RTVSPropertyOp53
 70
     1
102
RTVSPropertyOp54
 70
     1
102
RTVSPropertyOp55
 70
     1
102
RTVSPropertyOp56
 70
     1
102
RTVSPropertyOp57
 70
     1
102
RTVSPropertyOp58
 70
     1
102
RTVSPropertyOp59
 70
     1
102
RTVSPropertyOp60
 70
     1
102
RTVSPropertyOp61
 70
     1
102
RTVSPropertyOp62
 70
     1
  0
XRECORD
  5
3563
102
{ACAD_REACTORS
330
3562
102
}
330
3562
100
AcDbXrecord
280
     1
102
RTVSPost2010Prop28
280
     0
102
RTVSPost2010PropOp28
 70
     1
102
RTVSPost2010Prop29
280
     1
102
RTVSPost2010PropOp29
 70
     1
102
RTVSPost2010Prop30
280
     1
102
RTVSPost2010PropOp30
 70
     1
102
RTVSPost2010Prop31
280
     0
102
RTVSPost2010PropOp31
 70
     1
102
RTVSPost2010Prop32
280
     0
102
RTVSPost2010PropOp32
 70
     1
102
RTVSPost2010Prop33
280
     0
102
RTVSPost2010PropOp33
 70
     1
102
RTVSPost2010Prop34
280
     0
102
RTVSPost2010PropOp34
 70
     1
102
RTVSPost2010Prop35
280
     0
102
RTVSPost2010PropOp35
 70
     1
102
RTVSPost2010Prop36
280
     0
102
RTVSPost2010PropOp36
 70
     1
102
RTVSPost2010Prop37
 90
       50
102
RTVSPost2010PropOp37
 70
     1
102
RTVSPost2010Prop38
140
0.0
102
RTVSPost2010PropOp38
 70
     1
102
RTVSPost2010Prop39
140
1.0
102
RTVSPost2010PropOp39
 70
     1
102
RTVSPost2010Prop40
 90
        0
102
RTVSPost2010PropOp40
 70
     1
102
RTVSPost2010Prop41ColorIndex
 90
       18
102
RTVSPost2010Prop41ColorRGB
 90
        0
102
RTVSPost2010PropOp41
 70
     1
102
RTVSPost2010Prop42
 90
       50
102
RTVSPost2010PropOp42
 70
     1
102
RTVSPost2010Prop43
 90
        3
102
RTVSPost2010PropOp43
 70
     1
102
RTVSPost2010Prop44ColorIndex
 90
        5
102
RTVSPost2010Prop44ColorRGB
 90
      255
102
RTVSPost2010PropOp44
 70
     1
102
RTVSPost2010Prop45
280
     0
102
RTVSPost2010PropOp45
 70
     1
102
RTVSPost2010Prop46
 90
       50
102
RTVSPost2010PropOp46
 70
     1
102
RTVSPost2010Prop47
 90
       50
102
RTVSPost2010PropOp47
 70
     1
102
RTVSPost2010Prop48
 90
       50
102
RTVSPost2010PropOp48
 70
     1
102
RTVSPost2010Prop49
280
     0
102
RTVSPost2010PropOp49
 70
     1
102
RTVSPost2010Prop50
 90
       50
102
RTVSPost2010PropOp50
 70
     1
102
RTVSPost2010Prop51ColorIndex
 90
      256
102
RTVSPost2010Prop51ColorRGB
 90
-16777216
102
RTVSPost2010PropOp51
 70
     0
102
RTVSPost2010Prop52
140
1.0
102
RTVSPost2010PropOp52
 70
     0
102
RTVSPost2010Prop53
 90
        2
102
RTVSPost2010PropOp53
 70
     1
102
RTVSPost2010Prop54
  1
strokes_ogs.tif
102
RTVSPost2010PropOp54
 70
     1
102
RTVSPost2010Prop55
280
     0
102
RTVSPost2010PropOp55
 70
     1
102
RTVSPost2010Prop56
140
1.0
102
RTVSPost2010PropOp56
 70
     1
102
RTVSPost2010Prop57
140
1.0
102
RTVSPost2010PropOp57
 70
     1
102
RTVSPropertyOp0
 70
     1
102
RTVSPropertyOp1
 70
     1
102
RTVSPropertyOp2
 70
     1
102
RTVSPropertyOp3
 70
     1
102
RTVSPropertyOp4
 70
     1
102
RTVSPropertyOp5
 70
     1
102
RTVSPropertyOp6
 70
     1
102
RTVSPropertyOp7
 70
     1
102
RTVSPropertyOp8
 70
     1
102
RTVSPropertyOp9
 70
     1
102
RTVSPropertyOp10
 70
     1
102
RTVSPropertyOp11
 70
     1
102
RTVSPropertyOp12
 70
     1
102
RTVSPropertyOp13
 70
     1
102
RTVSPropertyOp14
 70
     1
102
RTVSPropertyOp15
 70
     1
102
RTVSPropertyOp16
 70
     1
102
RTVSPropertyOp17
 70
     1
102
RTVSPropertyOp18
 70
     1
102
RTVSPropertyOp19
 70
     1
102
RTVSPropertyOp20
 70
     1
102
RTVSPropertyOp21
 70
     1
102
RTVSPropertyOp22
 70
     1
102
RTVSPropertyOp23
 70
     1
102
RTVSPropertyOp24
 70
     1
102
RTVSPropertyOp25
 70
     1
102
RTVSPropertyOp26
 70
     1
102
RTVSPropertyOp27
 70
     1
102
RTVSPropertyOp28
 70
     1
102
RTVSPropertyOp29
 70
     1
102
RTVSPropertyOp30
 70
     1
102
RTVSPropertyOp31
 70
     1
102
RTVSPropertyOp32
 70
     1
102
RTVSPropertyOp33
 70
     1
102
RTVSPropertyOp34
 70
     1
102
RTVSPropertyOp35
 70
     1
102
RTVSPropertyOp36
 70
     1
102
RTVSPropertyOp37
 70
     1
102
RTVSPropertyOp38
 70
     1
102
RTVSPropertyOp39
 70
     1
102
RTVSPropertyOp40
 70
     1
102
RTVSPropertyOp41
 70
     1
102
RTVSPropertyOp42
 70
     1
102
RTVSPropertyOp43
 70
     1
102
RTVSPropertyOp44
 70
     1
102
RTVSPropertyOp45
 70
     1
102
RTVSPropertyOp46
 70
     1
102
RTVSPropertyOp47
 70
     1
102
RTVSPropertyOp48
 70
     1
102
RTVSPropertyOp49
 70
     1
102
RTVSPropertyOp50
 70
     1
102
RTVSPropertyOp51
 70
     0
102
RTVSPropertyOp52
 70
     0
102
RTVSPropertyOp53
 70
     1
102
RTVSPropertyOp54
 70
     1
102
RTVSPropertyOp55
 70
     1
102
RTVSPropertyOp56
 70
     1
102
RTVSPropertyOp57
 70
     1
102
RTVSPropertyOp58
 70
     1
102
RTVSPropertyOp59
 70
     1
102
RTVSPropertyOp60
 70
     1
102
RTVSPropertyOp61
 70
     1
102
RTVSPropertyOp62
 70
     1
  0
XRECORD
  5
356B
102
{ACAD_REACTORS
330
356A
102
}
330
356A
100
AcDbXrecord
280
     1
102
RTVSPost2010Prop28
280
     0
102
RTVSPost2010PropOp28
 70
     1
102
RTVSPost2010Prop29
280
     1
102
RTVSPost2010PropOp29
 70
     1
102
RTVSPost2010Prop30
280
     1
102
RTVSPost2010PropOp30
 70
     1
102
RTVSPost2010Prop31
280
     0
102
RTVSPost2010PropOp31
 70
     1
102
RTVSPost2010Prop32
280
     0
102
RTVSPost2010PropOp32
 70
     1
102
RTVSPost2010Prop33
280
     0
102
RTVSPost2010PropOp33
 70
     1
102
RTVSPost2010Prop34
280
     0
102
RTVSPost2010PropOp34
 70
     1
102
RTVSPost2010Prop35
280
     0
102
RTVSPost2010PropOp35
 70
     1
102
RTVSPost2010Prop36
280
     0
102
RTVSPost2010PropOp36
 70
     1
102
RTVSPost2010Prop37
 90
       50
102
RTVSPost2010PropOp37
 70
     1
102
RTVSPost2010Prop38
140
0.0
102
RTVSPost2010PropOp38
 70
     1
102
RTVSPost2010Prop39
140
1.0
102
RTVSPost2010PropOp39
 70
     1
102
RTVSPost2010Prop40
 90
        0
102
RTVSPost2010PropOp40
 70
     1
102
RTVSPost2010Prop41ColorIndex
 90
       18
102
RTVSPost2010Prop41ColorRGB
 90
        0
102
RTVSPost2010PropOp41
 70
     1
102
RTVSPost2010Prop42
 90
       50
102
RTVSPost2010PropOp42
 70
     1
102
RTVSPost2010Prop43
 90
        3
102
RTVSPost2010PropOp43
 70
     1
102
RTVSPost2010Prop44ColorIndex
 90
        5
102
RTVSPost2010Prop44ColorRGB
 90
      255
102
RTVSPost2010PropOp44
 70
     1
102
RTVSPost2010Prop45
280
     0
102
RTVSPost2010PropOp45
 70
     1
102
RTVSPost2010Prop46
 90
       50
102
RTVSPost2010PropOp46
 70
     1
102
RTVSPost2010Prop47
 90
       50
102
RTVSPost2010PropOp47
 70
     1
102
RTVSPost2010Prop48
 90
       50
102
RTVSPost2010PropOp48
 70
     1
102
RTVSPost2010Prop49
280
     0
102
RTVSPost2010PropOp49
 70
     1
102
RTVSPost2010Prop50
 90
       50
102
RTVSPost2010PropOp50
 70
     1
102
RTVSPost2010Prop51ColorIndex
 90
      256
102
RTVSPost2010Prop51ColorRGB
 90
-16777216
102
RTVSPost2010PropOp51
 70
     0
102
RTVSPost2010Prop52
140
1.0
102
RTVSPost2010PropOp52
 70
     0
102
RTVSPost2010Prop53
 90
        2
102
RTVSPost2010PropOp53
 70
     1
102
RTVSPost2010Prop54
  1
strokes_ogs.tif
102
RTVSPost2010PropOp54
 70
     1
102
RTVSPost2010Prop55
280
     0
102
RTVSPost2010PropOp55
 70
     1
102
RTVSPost2010Prop56
140
1.0
102
RTVSPost2010PropOp56
 70
     1
102
RTVSPost2010Prop57
140
1.0
102
RTVSPost2010PropOp57
 70
     1
102
RTVSPropertyOp0
 70
     0
102
RTVSPropertyOp1
 70
     0
102
RTVSPropertyOp2
 70
     0
102
RTVSPropertyOp3
 70
     0
102
RTVSPropertyOp4
 70
     0
102
RTVSPropertyOp5
 70
     0
102
RTVSPropertyOp6
 70
     0
102
RTVSPropertyOp7
 70
     0
102
RTVSPropertyOp8
 70
     0
102
RTVSPropertyOp9
 70
     0
102
RTVSPropertyOp10
 70
     0
102
RTVSPropertyOp11
 70
     0
102
RTVSPropertyOp12
 70
     0
102
RTVSPropertyOp13
 70
     0
102
RTVSPropertyOp14
 70
     2
102
RTVSPropertyOp15
 70
     0
102
RTVSPropertyOp16
 70
     0
102
RTVSPropertyOp17
 70
     0
102
RTVSPropertyOp18
 70
     0
102
RTVSPropertyOp19
 70
     0
102
RTVSPropertyOp20
 70
     0
102
RTVSPropertyOp21
 70
     0
102
RTVSPropertyOp22
 70
     0
102
RTVSPropertyOp23
 70
     0
102
RTVSPropertyOp24
 70
     0
102
RTVSPropertyOp25
 70
     0
102
RTVSPropertyOp26
 70
     0
102
RTVSPropertyOp27
 70
     0
102
RTVSPropertyOp28
 70
     1
102
RTVSPropertyOp29
 70
     1
102
RTVSPropertyOp30
 70
     1
102
RTVSPropertyOp31
 70
     1
102
RTVSPropertyOp32
 70
     1
102
RTVSPropertyOp33
 70
     1
102
RTVSPropertyOp34
 70
     1
102
RTVSPropertyOp35
 70
     1
102
RTVSPropertyOp36
 70
     1
102
RTVSPropertyOp37
 70
     1
102
RTVSPropertyOp38
 70
     1
102
RTVSPropertyOp39
 70
     1
102
RTVSPropertyOp40
 70
     1
102
RTVSPropertyOp41
 70
     1
102
RTVSPropertyOp42
 70
     1
102
RTVSPropertyOp43
 70
     1
102
RTVSPropertyOp44
 70
     1
102
RTVSPropertyOp45
 70
     1
102
RTVSPropertyOp46
 70
     1
102
RTVSPropertyOp47
 70
     1
102
RTVSPropertyOp48
 70
     1
102
RTVSPropertyOp49
 70
     1
102
RTVSPropertyOp50
 70
     1
102
RTVSPropertyOp51
 70
     0
102
RTVSPropertyOp52
 70
     0
102
RTVSPropertyOp53
 70
     1
102
RTVSPropertyOp54
 70
     1
102
RTVSPropertyOp55
 70
     1
102
RTVSPropertyOp56
 70
     1
102
RTVSPropertyOp57
 70
     1
102
RTVSPropertyOp58
 70
     1
102
RTVSPropertyOp59
 70
     1
102
RTVSPropertyOp60
 70
     1
102
RTVSPropertyOp61
 70
     1
102
RTVSPropertyOp62
 70
     1
  0
XRECORD
  5
355B
102
{ACAD_REACTORS
330
355A
102
}
330
355A
100
AcDbXrecord
280
     1
102
RTVSPost2010Prop28
280
     0
102
RTVSPost2010PropOp28
 70
     1
102
RTVSPost2010Prop29
280
     1
102
RTVSPost2010PropOp29
 70
     1
102
RTVSPost2010Prop30
280
     1
102
RTVSPost2010PropOp30
 70
     1
102
RTVSPost2010Prop31
280
     0
102
RTVSPost2010PropOp31
 70
     1
102
RTVSPost2010Prop32
280
     0
102
RTVSPost2010PropOp32
 70
     1
102
RTVSPost2010Prop33
280
     0
102
RTVSPost2010PropOp33
 70
     1
102
RTVSPost2010Prop34
280
     0
102
RTVSPost2010PropOp34
 70
     1
102
RTVSPost2010Prop35
280
     0
102
RTVSPost2010PropOp35
 70
     1
102
RTVSPost2010Prop36
280
     0
102
RTVSPost2010PropOp36
 70
     1
102
RTVSPost2010Prop37
 90
       50
102
RTVSPost2010PropOp37
 70
     1
102
RTVSPost2010Prop38
140
0.0
102
RTVSPost2010PropOp38
 70
     1
102
RTVSPost2010Prop39
140
1.0
102
RTVSPost2010PropOp39
 70
     1
102
RTVSPost2010Prop40
 90
        0
102
RTVSPost2010PropOp40
 70
     1
102
RTVSPost2010Prop41ColorIndex
 90
       18
102
RTVSPost2010Prop41ColorRGB
 90
        0
102
RTVSPost2010PropOp41
 70
     1
102
RTVSPost2010Prop42
 90
       50
102
RTVSPost2010PropOp42
 70
     1
102
RTVSPost2010Prop43
 90
        3
102
RTVSPost2010PropOp43
 70
     1
102
RTVSPost2010Prop44ColorIndex
 90
        5
102
RTVSPost2010Prop44ColorRGB
 90
      255
102
RTVSPost2010PropOp44
 70
     1
102
RTVSPost2010Prop45
280
     0
102
RTVSPost2010PropOp45
 70
     1
102
RTVSPost2010Prop46
 90
       50
102
RTVSPost2010PropOp46
 70
     1
102
RTVSPost2010Prop47
 90
       50
102
RTVSPost2010PropOp47
 70
     1
102
RTVSPost2010Prop48
 90
       50
102
RTVSPost2010PropOp48
 70
     1
102
RTVSPost2010Prop49
280
     0
102
RTVSPost2010PropOp49
 70
     1
102
RTVSPost2010Prop50
 90
       50
102
RTVSPost2010PropOp50
 70
     1
102
RTVSPost2010Prop51ColorIndex
 90
      256
102
RTVSPost2010Prop51ColorRGB
 90
-16777216
102
RTVSPost2010PropOp51
 70
     0
102
RTVSPost2010Prop52
140
1.0
102
RTVSPost2010PropOp52
 70
     0
102
RTVSPost2010Prop53
 90
        2
102
RTVSPost2010PropOp53
 70
     1
102
RTVSPost2010Prop54
  1
strokes_ogs.tif
102
RTVSPost2010PropOp54
 70
     1
102
RTVSPost2010Prop55
280
     0
102
RTVSPost2010PropOp55
 70
     1
102
RTVSPost2010Prop56
140
1.0
102
RTVSPost2010PropOp56
 70
     1
102
RTVSPost2010Prop57
140
1.0
102
RTVSPost2010PropOp57
 70
     1
102
RTVSPropertyOp0
 70
     1
102
RTVSPropertyOp1
 70
     1
102
RTVSPropertyOp2
 70
     1
102
RTVSPropertyOp3
 70
     1
102
RTVSPropertyOp4
 70
     1
102
RTVSPropertyOp5
 70
     1
102
RTVSPropertyOp6
 70
     1
102
RTVSPropertyOp7
 70
     1
102
RTVSPropertyOp8
 70
     1
102
RTVSPropertyOp9
 70
     1
102
RTVSPropertyOp10
 70
     1
102
RTVSPropertyOp11
 70
     1
102
RTVSPropertyOp12
 70
     1
102
RTVSPropertyOp13
 70
     1
102
RTVSPropertyOp14
 70
     1
102
RTVSPropertyOp15
 70
     1
102
RTVSPropertyOp16
 70
     1
102
RTVSPropertyOp17
 70
     1
102
RTVSPropertyOp18
 70
     1
102
RTVSPropertyOp19
 70
     1
102
RTVSPropertyOp20
 70
     1
102
RTVSPropertyOp21
 70
     1
102
RTVSPropertyOp22
 70
     1
102
RTVSPropertyOp23
 70
     1
102
RTVSPropertyOp24
 70
     1
102
RTVSPropertyOp25
 70
     1
102
RTVSPropertyOp26
 70
     1
102
RTVSPropertyOp27
 70
     1
102
RTVSPropertyOp28
 70
     1
102
RTVSPropertyOp29
 70
     1
102
RTVSPropertyOp30
 70
     1
102
RTVSPropertyOp31
 70
     1
102
RTVSPropertyOp32
 70
     1
102
RTVSPropertyOp33
 70
     1
102
RTVSPropertyOp34
 70
     1
102
RTVSPropertyOp35
 70
     1
102
RTVSPropertyOp36
 70
     1
102
RTVSPropertyOp37
 70
     1
102
RTVSPropertyOp38
 70
     1
102
RTVSPropertyOp39
 70
     1
102
RTVSPropertyOp40
 70
     1
102
RTVSPropertyOp41
 70
     1
102
RTVSPropertyOp42
 70
     1
102
RTVSPropertyOp43
 70
     1
102
RTVSPropertyOp44
 70
     1
102
RTVSPropertyOp45
 70
     1
102
RTVSPropertyOp46
 70
     1
102
RTVSPropertyOp47
 70
     1
102
RTVSPropertyOp48
 70
     1
102
RTVSPropertyOp49
 70
     1
102
RTVSPropertyOp50
 70
     1
102
RTVSPropertyOp51
 70
     0
102
RTVSPropertyOp52
 70
     0
102
RTVSPropertyOp53
 70
     1
102
RTVSPropertyOp54
 70
     1
102
RTVSPropertyOp55
 70
     1
102
RTVSPropertyOp56
 70
     1
102
RTVSPropertyOp57
 70
     1
102
RTVSPropertyOp58
 70
     1
102
RTVSPropertyOp59
 70
     1
102
RTVSPropertyOp60
 70
     1
102
RTVSPropertyOp61
 70
     1
102
RTVSPropertyOp62
 70
     1
  0
XRECORD
  5
357C
102
{ACAD_REACTORS
330
357B
102
}
330
357B
100
AcDbXrecord
280
     1
102
RTVSPost2010Prop28
280
     0
102
RTVSPost2010PropOp28
 70
     1
102
RTVSPost2010Prop29
280
     1
102
RTVSPost2010PropOp29
 70
     1
102
RTVSPost2010Prop30
280
     1
102
RTVSPost2010PropOp30
 70
     1
102
RTVSPost2010Prop31
280
     0
102
RTVSPost2010PropOp31
 70
     1
102
RTVSPost2010Prop32
280
     0
102
RTVSPost2010PropOp32
 70
     1
102
RTVSPost2010Prop33
280
     0
102
RTVSPost2010PropOp33
 70
     1
102
RTVSPost2010Prop34
280
     0
102
RTVSPost2010PropOp34
 70
     1
102
RTVSPost2010Prop35
280
     0
102
RTVSPost2010PropOp35
 70
     1
102
RTVSPost2010Prop36
280
     0
102
RTVSPost2010PropOp36
 70
     1
102
RTVSPost2010Prop37
 90
       50
102
RTVSPost2010PropOp37
 70
     1
102
RTVSPost2010Prop38
140
0.0
102
RTVSPost2010PropOp38
 70
     1
102
RTVSPost2010Prop39
140
1.0
102
RTVSPost2010PropOp39
 70
     1
102
RTVSPost2010Prop40
 90
        0
102
RTVSPost2010PropOp40
 70
     1
102
RTVSPost2010Prop41ColorIndex
 90
       18
102
RTVSPost2010Prop41ColorRGB
 90
        0
102
RTVSPost2010PropOp41
 70
     1
102
RTVSPost2010Prop42
 90
       50
102
RTVSPost2010PropOp42
 70
     1
102
RTVSPost2010Prop43
 90
        3
102
RTVSPost2010PropOp43
 70
     1
102
RTVSPost2010Prop44ColorIndex
 90
        5
102
RTVSPost2010Prop44ColorRGB
 90
      255
102
RTVSPost2010PropOp44
 70
     1
102
RTVSPost2010Prop45
280
     0
102
RTVSPost2010PropOp45
 70
     1
102
RTVSPost2010Prop46
 90
       50
102
RTVSPost2010PropOp46
 70
     1
102
RTVSPost2010Prop47
 90
       50
102
RTVSPost2010PropOp47
 70
     1
102
RTVSPost2010Prop48
 90
       50
102
RTVSPost2010PropOp48
 70
     1
102
RTVSPost2010Prop49
280
     0
102
RTVSPost2010PropOp49
 70
     1
102
RTVSPost2010Prop50
 90
       50
102
RTVSPost2010PropOp50
 70
     1
102
RTVSPost2010Prop51ColorIndex
 90
      256
102
RTVSPost2010Prop51ColorRGB
 90
-16777216
102
RTVSPost2010PropOp51
 70
     0
102
RTVSPost2010Prop52
140
1.0
102
RTVSPost2010PropOp52
 70
     0
102
RTVSPost2010Prop53
 90
        2
102
RTVSPost2010PropOp53
 70
     1
102
RTVSPost2010Prop54
  1
strokes_ogs.tif
102
RTVSPost2010PropOp54
 70
     1
102
RTVSPost2010Prop55
280
     0
102
RTVSPost2010PropOp55
 70
     1
102
RTVSPost2010Prop56
140
1.0
102
RTVSPost2010PropOp56
 70
     1
102
RTVSPost2010Prop57
140
1.0
102
RTVSPost2010PropOp57
 70
     1
102
RTVSPropertyOp0
 70
     1
102
RTVSPropertyOp1
 70
     1
102
RTVSPropertyOp2
 70
     1
102
RTVSPropertyOp3
 70
     1
102
RTVSPropertyOp4
 70
     1
102
RTVSPropertyOp5
 70
     1
102
RTVSPropertyOp6
 70
     1
102
RTVSPropertyOp7
 70
     1
102
RTVSPropertyOp8
 70
     1
102
RTVSPropertyOp9
 70
     1
102
RTVSPropertyOp10
 70
     1
102
RTVSPropertyOp11
 70
     1
102
RTVSPropertyOp12
 70
     1
102
RTVSPropertyOp13
 70
     1
102
RTVSPropertyOp14
 70
     1
102
RTVSPropertyOp15
 70
     1
102
RTVSPropertyOp16
 70
     1
102
RTVSPropertyOp17
 70
     1
102
RTVSPropertyOp18
 70
     1
102
RTVSPropertyOp19
 70
     1
102
RTVSPropertyOp20
 70
     1
102
RTVSPropertyOp21
 70
     1
102
RTVSPropertyOp22
 70
     1
102
RTVSPropertyOp23
 70
     1
102
RTVSPropertyOp24
 70
     1
102
RTVSPropertyOp25
 70
     1
102
RTVSPropertyOp26
 70
     1
102
RTVSPropertyOp27
 70
     1
102
RTVSPropertyOp28
 70
     1
102
RTVSPropertyOp29
 70
     1
102
RTVSPropertyOp30
 70
     1
102
RTVSPropertyOp31
 70
     1
102
RTVSPropertyOp32
 70
     1
102
RTVSPropertyOp33
 70
     1
102
RTVSPropertyOp34
 70
     1
102
RTVSPropertyOp35
 70
     1
102
RTVSPropertyOp36
 70
     1
102
RTVSPropertyOp37
 70
     1
102
RTVSPropertyOp38
 70
     1
102
RTVSPropertyOp39
 70
     1
102
RTVSPropertyOp40
 70
     1
102
RTVSPropertyOp41
 70
     1
102
RTVSPropertyOp42
 70
     1
102
RTVSPropertyOp43
 70
     1
102
RTVSPropertyOp44
 70
     1
102
RTVSPropertyOp45
 70
     1
102
RTVSPropertyOp46
 70
     1
102
RTVSPropertyOp47
 70
     1
102
RTVSPropertyOp48
 70
     1
102
RTVSPropertyOp49
 70
     1
102
RTVSPropertyOp50
 70
     1
102
RTVSPropertyOp51
 70
     0
102
RTVSPropertyOp52
 70
     0
102
RTVSPropertyOp53
 70
     1
102
RTVSPropertyOp54
 70
     1
102
RTVSPropertyOp55
 70
     1
102
RTVSPropertyOp56
 70
     1
102
RTVSPropertyOp57
 70
     1
102
RTVSPropertyOp58
 70
     1
102
RTVSPropertyOp59
 70
     1
102
RTVSPropertyOp60
 70
     1
102
RTVSPropertyOp61
 70
     1
102
RTVSPropertyOp62
 70
     1
  0
XRECORD
  5
357A
102
{ACAD_REACTORS
330
3579
102
}
330
3579
100
AcDbXrecord
280
     1
102
RTVSPost2010Prop28
280
     0
102
RTVSPost2010PropOp28
 70
     1
102
RTVSPost2010Prop29
280
     1
102
RTVSPost2010PropOp29
 70
     1
102
RTVSPost2010Prop30
280
     1
102
RTVSPost2010PropOp30
 70
     1
102
RTVSPost2010Prop31
280
     0
102
RTVSPost2010PropOp31
 70
     1
102
RTVSPost2010Prop32
280
     0
102
RTVSPost2010PropOp32
 70
     1
102
RTVSPost2010Prop33
280
     0
102
RTVSPost2010PropOp33
 70
     1
102
RTVSPost2010Prop34
280
     0
102
RTVSPost2010PropOp34
 70
     1
102
RTVSPost2010Prop35
280
     0
102
RTVSPost2010PropOp35
 70
     1
102
RTVSPost2010Prop36
280
     0
102
RTVSPost2010PropOp36
 70
     1
102
RTVSPost2010Prop37
 90
       50
102
RTVSPost2010PropOp37
 70
     1
102
RTVSPost2010Prop38
140
0.0
102
RTVSPost2010PropOp38
 70
     1
102
RTVSPost2010Prop39
140
1.0
102
RTVSPost2010PropOp39
 70
     1
102
RTVSPost2010Prop40
 90
        0
102
RTVSPost2010PropOp40
 70
     1
102
RTVSPost2010Prop41ColorIndex
 90
       18
102
RTVSPost2010Prop41ColorRGB
 90
        0
102
RTVSPost2010PropOp41
 70
     1
102
RTVSPost2010Prop42
 90
       50
102
RTVSPost2010PropOp42
 70
     1
102
RTVSPost2010Prop43
 90
        3
102
RTVSPost2010PropOp43
 70
     1
102
RTVSPost2010Prop44ColorIndex
 90
        5
102
RTVSPost2010Prop44ColorRGB
 90
      255
102
RTVSPost2010PropOp44
 70
     1
102
RTVSPost2010Prop45
280
     0
102
RTVSPost2010PropOp45
 70
     1
102
RTVSPost2010Prop46
 90
       50
102
RTVSPost2010PropOp46
 70
     1
102
RTVSPost2010Prop47
 90
       50
102
RTVSPost2010PropOp47
 70
     1
102
RTVSPost2010Prop48
 90
       50
102
RTVSPost2010PropOp48
 70
     1
102
RTVSPost2010Prop49
280
     0
102
RTVSPost2010PropOp49
 70
     1
102
RTVSPost2010Prop50
 90
       50
102
RTVSPost2010PropOp50
 70
     1
102
RTVSPost2010Prop51ColorIndex
 90
      256
102
RTVSPost2010Prop51ColorRGB
 90
-16777216
102
RTVSPost2010PropOp51
 70
     0
102
RTVSPost2010Prop52
140
1.0
102
RTVSPost2010PropOp52
 70
     0
102
RTVSPost2010Prop53
 90
        2
102
RTVSPost2010PropOp53
 70
     1
102
RTVSPost2010Prop54
  1
strokes_ogs.tif
102
RTVSPost2010PropOp54
 70
     1
102
RTVSPost2010Prop55
280
     0
102
RTVSPost2010PropOp55
 70
     1
102
RTVSPost2010Prop56
140
1.0
102
RTVSPost2010PropOp56
 70
     1
102
RTVSPost2010Prop57
140
1.0
102
RTVSPost2010PropOp57
 70
     1
102
RTVSPropertyOp0
 70
     1
102
RTVSPropertyOp1
 70
     1
102
RTVSPropertyOp2
 70
     1
102
RTVSPropertyOp3
 70
     1
102
RTVSPropertyOp4
 70
     1
102
RTVSPropertyOp5
 70
     1
102
RTVSPropertyOp6
 70
     1
102
RTVSPropertyOp7
 70
     1
102
RTVSPropertyOp8
 70
     1
102
RTVSPropertyOp9
 70
     1
102
RTVSPropertyOp10
 70
     1
102
RTVSPropertyOp11
 70
     1
102
RTVSPropertyOp12
 70
     1
102
RTVSPropertyOp13
 70
     1
102
RTVSPropertyOp14
 70
     1
102
RTVSPropertyOp15
 70
     1
102
RTVSPropertyOp16
 70
     1
102
RTVSPropertyOp17
 70
     1
102
RTVSPropertyOp18
 70
     1
102
RTVSPropertyOp19
 70
     1
102
RTVSPropertyOp20
 70
     1
102
RTVSPropertyOp21
 70
     1
102
RTVSPropertyOp22
 70
     1
102
RTVSPropertyOp23
 70
     1
102
RTVSPropertyOp24
 70
     1
102
RTVSPropertyOp25
 70
     1
102
RTVSPropertyOp26
 70
     1
102
RTVSPropertyOp27
 70
     1
102
RTVSPropertyOp28
 70
     1
102
RTVSPropertyOp29
 70
     1
102
RTVSPropertyOp30
 70
     1
102
RTVSPropertyOp31
 70
     1
102
RTVSPropertyOp32
 70
     1
102
RTVSPropertyOp33
 70
     1
102
RTVSPropertyOp34
 70
     1
102
RTVSPropertyOp35
 70
     1
102
RTVSPropertyOp36
 70
     1
102
RTVSPropertyOp37
 70
     1
102
RTVSPropertyOp38
 70
     1
102
RTVSPropertyOp39
 70
     1
102
RTVSPropertyOp40
 70
     1
102
RTVSPropertyOp41
 70
     1
102
RTVSPropertyOp42
 70
     1
102
RTVSPropertyOp43
 70
     1
102
RTVSPropertyOp44
 70
     1
102
RTVSPropertyOp45
 70
     1
102
RTVSPropertyOp46
 70
     1
102
RTVSPropertyOp47
 70
     1
102
RTVSPropertyOp48
 70
     1
102
RTVSPropertyOp49
 70
     1
102
RTVSPropertyOp50
 70
     1
102
RTVSPropertyOp51
 70
     0
102
RTVSPropertyOp52
 70
     0
102
RTVSPropertyOp53
 70
     1
102
RTVSPropertyOp54
 70
     1
102
RTVSPropertyOp55
 70
     1
102
RTVSPropertyOp56
 70
     1
102
RTVSPropertyOp57
 70
     1
102
RTVSPropertyOp58
 70
     1
102
RTVSPropertyOp59
 70
     1
102
RTVSPropertyOp60
 70
     1
102
RTVSPropertyOp61
 70
     1
102
RTVSPropertyOp62
 70
     1
  0
XRECORD
  5
3574
102
{ACAD_REACTORS
330
3573
102
}
330
3573
100
AcDbXrecord
280
     1
102
RTVSPost2010Prop28
280
     0
102
RTVSPost2010PropOp28
 70
     1
102
RTVSPost2010Prop29
280
     1
102
RTVSPost2010PropOp29
 70
     1
102
RTVSPost2010Prop30
280
     1
102
RTVSPost2010PropOp30
 70
     1
102
RTVSPost2010Prop31
280
     0
102
RTVSPost2010PropOp31
 70
     1
102
RTVSPost2010Prop32
280
     0
102
RTVSPost2010PropOp32
 70
     1
102
RTVSPost2010Prop33
280
     0
102
RTVSPost2010PropOp33
 70
     1
102
RTVSPost2010Prop34
280
     0
102
RTVSPost2010PropOp34
 70
     1
102
RTVSPost2010Prop35
280
     0
102
RTVSPost2010PropOp35
 70
     1
102
RTVSPost2010Prop36
280
     0
102
RTVSPost2010PropOp36
 70
     1
102
RTVSPost2010Prop37
 90
       50
102
RTVSPost2010PropOp37
 70
     1
102
RTVSPost2010Prop38
140
0.0
102
RTVSPost2010PropOp38
 70
     1
102
RTVSPost2010Prop39
140
1.0
102
RTVSPost2010PropOp39
 70
     1
102
RTVSPost2010Prop40
 90
        0
102
RTVSPost2010PropOp40
 70
     1
102
RTVSPost2010Prop41ColorIndex
 90
       18
102
RTVSPost2010Prop41ColorRGB
 90
        0
102
RTVSPost2010PropOp41
 70
     1
102
RTVSPost2010Prop42
 90
       50
102
RTVSPost2010PropOp42
 70
     1
102
RTVSPost2010Prop43
 90
        3
102
RTVSPost2010PropOp43
 70
     1
102
RTVSPost2010Prop44ColorIndex
 90
        5
102
RTVSPost2010Prop44ColorRGB
 90
      255
102
RTVSPost2010PropOp44
 70
     1
102
RTVSPost2010Prop45
280
     0
102
RTVSPost2010PropOp45
 70
     1
102
RTVSPost2010Prop46
 90
       50
102
RTVSPost2010PropOp46
 70
     1
102
RTVSPost2010Prop47
 90
       50
102
RTVSPost2010PropOp47
 70
     1
102
RTVSPost2010Prop48
 90
       50
102
RTVSPost2010PropOp48
 70
     1
102
RTVSPost2010Prop49
280
     0
102
RTVSPost2010PropOp49
 70
     1
102
RTVSPost2010Prop50
 90
       50
102
RTVSPost2010PropOp50
 70
     1
102
RTVSPost2010Prop51ColorIndex
 90
      256
102
RTVSPost2010Prop51ColorRGB
 90
-16777216
102
RTVSPost2010PropOp51
 70
     0
102
RTVSPost2010Prop52
140
1.0
102
RTVSPost2010PropOp52
 70
     0
102
RTVSPost2010Prop53
 90
        2
102
RTVSPost2010PropOp53
 70
     1
102
RTVSPost2010Prop54
  1
strokes_ogs.tif
102
RTVSPost2010PropOp54
 70
     1
102
RTVSPost2010Prop55
280
     0
102
RTVSPost2010PropOp55
 70
     1
102
RTVSPost2010Prop56
140
1.0
102
RTVSPost2010PropOp56
 70
     1
102
RTVSPost2010Prop57
140
1.0
102
RTVSPost2010PropOp57
 70
     1
102
RTVSPropertyOp0
 70
     1
102
RTVSPropertyOp1
 70
     1
102
RTVSPropertyOp2
 70
     1
102
RTVSPropertyOp3
 70
     1
102
RTVSPropertyOp4
 70
     1
102
RTVSPropertyOp5
 70
     1
102
RTVSPropertyOp6
 70
     1
102
RTVSPropertyOp7
 70
     1
102
RTVSPropertyOp8
 70
     1
102
RTVSPropertyOp9
 70
     1
102
RTVSPropertyOp10
 70
     1
102
RTVSPropertyOp11
 70
     1
102
RTVSPropertyOp12
 70
     1
102
RTVSPropertyOp13
 70
     1
102
RTVSPropertyOp14
 70
     1
102
RTVSPropertyOp15
 70
     1
102
RTVSPropertyOp16
 70
     1
102
RTVSPropertyOp17
 70
     1
102
RTVSPropertyOp18
 70
     1
102
RTVSPropertyOp19
 70
     1
102
RTVSPropertyOp20
 70
     1
102
RTVSPropertyOp21
 70
     1
102
RTVSPropertyOp22
 70
     1
102
RTVSPropertyOp23
 70
     1
102
RTVSPropertyOp24
 70
     1
102
RTVSPropertyOp25
 70
     1
102
RTVSPropertyOp26
 70
     1
102
RTVSPropertyOp27
 70
     1
102
RTVSPropertyOp28
 70
     1
102
RTVSPropertyOp29
 70
     1
102
RTVSPropertyOp30
 70
     1
102
RTVSPropertyOp31
 70
     1
102
RTVSPropertyOp32
 70
     1
102
RTVSPropertyOp33
 70
     1
102
RTVSPropertyOp34
 70
     1
102
RTVSPropertyOp35
 70
     1
102
RTVSPropertyOp36
 70
     1
102
RTVSPropertyOp37
 70
     1
102
RTVSPropertyOp38
 70
     1
102
RTVSPropertyOp39
 70
     1
102
RTVSPropertyOp40
 70
     1
102
RTVSPropertyOp41
 70
     1
102
RTVSPropertyOp42
 70
     1
102
RTVSPropertyOp43
 70
     1
102
RTVSPropertyOp44
 70
     1
102
RTVSPropertyOp45
 70
     1
102
RTVSPropertyOp46
 70
     1
102
RTVSPropertyOp47
 70
     1
102
RTVSPropertyOp48
 70
     1
102
RTVSPropertyOp49
 70
     1
102
RTVSPropertyOp50
 70
     1
102
RTVSPropertyOp51
 70
     0
102
RTVSPropertyOp52
 70
     0
102
RTVSPropertyOp53
 70
     1
102
RTVSPropertyOp54
 70
     1
102
RTVSPropertyOp55
 70
     1
102
RTVSPropertyOp56
 70
     1
102
RTVSPropertyOp57
 70
     1
102
RTVSPropertyOp58
 70
     1
102
RTVSPropertyOp59
 70
     1
102
RTVSPropertyOp60
 70
     1
102
RTVSPropertyOp61
 70
     1
102
RTVSPropertyOp62
 70
     1
  0
XRECORD
  5
3576
102
{ACAD_REACTORS
330
3575
102
}
330
3575
100
AcDbXrecord
280
     1
102
RTVSPost2010Prop28
280
     0
102
RTVSPost2010PropOp28
 70
     1
102
RTVSPost2010Prop29
280
     1
102
RTVSPost2010PropOp29
 70
     1
102
RTVSPost2010Prop30
280
     1
102
RTVSPost2010PropOp30
 70
     1
102
RTVSPost2010Prop31
280
     0
102
RTVSPost2010PropOp31
 70
     1
102
RTVSPost2010Prop32
280
     0
102
RTVSPost2010PropOp32
 70
     1
102
RTVSPost2010Prop33
280
     0
102
RTVSPost2010PropOp33
 70
     1
102
RTVSPost2010Prop34
280
     0
102
RTVSPost2010PropOp34
 70
     1
102
RTVSPost2010Prop35
280
     0
102
RTVSPost2010PropOp35
 70
     1
102
RTVSPost2010Prop36
280
     0
102
RTVSPost2010PropOp36
 70
     1
102
RTVSPost2010Prop37
 90
       50
102
RTVSPost2010PropOp37
 70
     1
102
RTVSPost2010Prop38
140
0.0
102
RTVSPost2010PropOp38
 70
     1
102
RTVSPost2010Prop39
140
1.0
102
RTVSPost2010PropOp39
 70
     1
102
RTVSPost2010Prop40
 90
        0
102
RTVSPost2010PropOp40
 70
     1
102
RTVSPost2010Prop41ColorIndex
 90
       18
102
RTVSPost2010Prop41ColorRGB
 90
        0
102
RTVSPost2010PropOp41
 70
     1
102
RTVSPost2010Prop42
 90
       50
102
RTVSPost2010PropOp42
 70
     1
102
RTVSPost2010Prop43
 90
        3
102
RTVSPost2010PropOp43
 70
     1
102
RTVSPost2010Prop44ColorIndex
 90
        5
102
RTVSPost2010Prop44ColorRGB
 90
      255
102
RTVSPost2010PropOp44
 70
     1
102
RTVSPost2010Prop45
280
     0
102
RTVSPost2010PropOp45
 70
     1
102
RTVSPost2010Prop46
 90
       50
102
RTVSPost2010PropOp46
 70
     1
102
RTVSPost2010Prop47
 90
       50
102
RTVSPost2010PropOp47
 70
     1
102
RTVSPost2010Prop48
 90
       50
102
RTVSPost2010PropOp48
 70
     1
102
RTVSPost2010Prop49
280
     0
102
RTVSPost2010PropOp49
 70
     1
102
RTVSPost2010Prop50
 90
       50
102
RTVSPost2010PropOp50
 70
     1
102
RTVSPost2010Prop51ColorIndex
 90
      256
102
RTVSPost2010Prop51ColorRGB
 90
-16777216
102
RTVSPost2010PropOp51
 70
     0
102
RTVSPost2010Prop52
140
1.0
102
RTVSPost2010PropOp52
 70
     0
102
RTVSPost2010Prop53
 90
        2
102
RTVSPost2010PropOp53
 70
     1
102
RTVSPost2010Prop54
  1
strokes_ogs.tif
102
RTVSPost2010PropOp54
 70
     1
102
RTVSPost2010Prop55
280
     0
102
RTVSPost2010PropOp55
 70
     1
102
RTVSPost2010Prop56
140
1.0
102
RTVSPost2010PropOp56
 70
     1
102
RTVSPost2010Prop57
140
1.0
102
RTVSPost2010PropOp57
 70
     1
102
RTVSPropertyOp0
 70
     1
102
RTVSPropertyOp1
 70
     1
102
RTVSPropertyOp2
 70
     1
102
RTVSPropertyOp3
 70
     1
102
RTVSPropertyOp4
 70
     1
102
RTVSPropertyOp5
 70
     1
102
RTVSPropertyOp6
 70
     1
102
RTVSPropertyOp7
 70
     1
102
RTVSPropertyOp8
 70
     1
102
RTVSPropertyOp9
 70
     1
102
RTVSPropertyOp10
 70
     1
102
RTVSPropertyOp11
 70
     1
102
RTVSPropertyOp12
 70
     1
102
RTVSPropertyOp13
 70
     1
102
RTVSPropertyOp14
 70
     1
102
RTVSPropertyOp15
 70
     1
102
RTVSPropertyOp16
 70
     1
102
RTVSPropertyOp17
 70
     1
102
RTVSPropertyOp18
 70
     1
102
RTVSPropertyOp19
 70
     1
102
RTVSPropertyOp20
 70
     1
102
RTVSPropertyOp21
 70
     1
102
RTVSPropertyOp22
 70
     1
102
RTVSPropertyOp23
 70
     1
102
RTVSPropertyOp24
 70
     1
102
RTVSPropertyOp25
 70
     1
102
RTVSPropertyOp26
 70
     1
102
RTVSPropertyOp27
 70
     1
102
RTVSPropertyOp28
 70
     1
102
RTVSPropertyOp29
 70
     1
102
RTVSPropertyOp30
 70
     1
102
RTVSPropertyOp31
 70
     1
102
RTVSPropertyOp32
 70
     1
102
RTVSPropertyOp33
 70
     1
102
RTVSPropertyOp34
 70
     1
102
RTVSPropertyOp35
 70
     1
102
RTVSPropertyOp36
 70
     1
102
RTVSPropertyOp37
 70
     1
102
RTVSPropertyOp38
 70
     1
102
RTVSPropertyOp39
 70
     1
102
RTVSPropertyOp40
 70
     1
102
RTVSPropertyOp41
 70
     1
102
RTVSPropertyOp42
 70
     1
102
RTVSPropertyOp43
 70
     1
102
RTVSPropertyOp44
 70
     1
102
RTVSPropertyOp45
 70
     1
102
RTVSPropertyOp46
 70
     1
102
RTVSPropertyOp47
 70
     1
102
RTVSPropertyOp48
 70
     1
102
RTVSPropertyOp49
 70
     1
102
RTVSPropertyOp50
 70
     1
102
RTVSPropertyOp51
 70
     0
102
RTVSPropertyOp52
 70
     0
102
RTVSPropertyOp53
 70
     1
102
RTVSPropertyOp54
 70
     1
102
RTVSPropertyOp55
 70
     1
102
RTVSPropertyOp56
 70
     1
102
RTVSPropertyOp57
 70
     1
102
RTVSPropertyOp58
 70
     1
102
RTVSPropertyOp59
 70
     1
102
RTVSPropertyOp60
 70
     1
102
RTVSPropertyOp61
 70
     1
102
RTVSPropertyOp62
 70
     1
  0
XRECORD
  5
3561
102
{ACAD_REACTORS
330
3560
102
}
330
3560
100
AcDbXrecord
280
     1
102
RTVSPost2010Prop28
280
     0
102
RTVSPost2010PropOp28
 70
     1
102
RTVSPost2010Prop29
280
     1
102
RTVSPost2010PropOp29
 70
     1
102
RTVSPost2010Prop30
280
     1
102
RTVSPost2010PropOp30
 70
     1
102
RTVSPost2010Prop31
280
     0
102
RTVSPost2010PropOp31
 70
     1
102
RTVSPost2010Prop32
280
     0
102
RTVSPost2010PropOp32
 70
     1
102
RTVSPost2010Prop33
280
     0
102
RTVSPost2010PropOp33
 70
     1
102
RTVSPost2010Prop34
280
     0
102
RTVSPost2010PropOp34
 70
     1
102
RTVSPost2010Prop35
280
     0
102
RTVSPost2010PropOp35
 70
     1
102
RTVSPost2010Prop36
280
     0
102
RTVSPost2010PropOp36
 70
     1
102
RTVSPost2010Prop37
 90
       50
102
RTVSPost2010PropOp37
 70
     1
102
RTVSPost2010Prop38
140
0.0
102
RTVSPost2010PropOp38
 70
     1
102
RTVSPost2010Prop39
140
1.0
102
RTVSPost2010PropOp39
 70
     1
102
RTVSPost2010Prop40
 90
        0
102
RTVSPost2010PropOp40
 70
     1
102
RTVSPost2010Prop41ColorIndex
 90
       18
102
RTVSPost2010Prop41ColorRGB
 90
        0
102
RTVSPost2010PropOp41
 70
     1
102
RTVSPost2010Prop42
 90
       50
102
RTVSPost2010PropOp42
 70
     1
102
RTVSPost2010Prop43
 90
        3
102
RTVSPost2010PropOp43
 70
     1
102
RTVSPost2010Prop44ColorIndex
 90
        5
102
RTVSPost2010Prop44ColorRGB
 90
      255
102
RTVSPost2010PropOp44
 70
     1
102
RTVSPost2010Prop45
280
     0
102
RTVSPost2010PropOp45
 70
     1
102
RTVSPost2010Prop46
 90
       50
102
RTVSPost2010PropOp46
 70
     1
102
RTVSPost2010Prop47
 90
       50
102
RTVSPost2010PropOp47
 70
     1
102
RTVSPost2010Prop48
 90
       50
102
RTVSPost2010PropOp48
 70
     1
102
RTVSPost2010Prop49
280
     0
102
RTVSPost2010PropOp49
 70
     1
102
RTVSPost2010Prop50
 90
       50
102
RTVSPost2010PropOp50
 70
     1
102
RTVSPost2010Prop51ColorIndex
 90
      256
102
RTVSPost2010Prop51ColorRGB
 90
-16777216
102
RTVSPost2010PropOp51
 70
     0
102
RTVSPost2010Prop52
140
1.0
102
RTVSPost2010PropOp52
 70
     0
102
RTVSPost2010Prop53
 90
        2
102
RTVSPost2010PropOp53
 70
     1
102
RTVSPost2010Prop54
  1
strokes_ogs.tif
102
RTVSPost2010PropOp54
 70
     1
102
RTVSPost2010Prop55
280
     0
102
RTVSPost2010PropOp55
 70
     1
102
RTVSPost2010Prop56
140
1.0
102
RTVSPost2010PropOp56
 70
     1
102
RTVSPost2010Prop57
140
1.0
102
RTVSPost2010PropOp57
 70
     1
102
RTVSPropertyOp0
 70
     1
102
RTVSPropertyOp1
 70
     1
102
RTVSPropertyOp2
 70
     1
102
RTVSPropertyOp3
 70
     1
102
RTVSPropertyOp4
 70
     1
102
RTVSPropertyOp5
 70
     1
102
RTVSPropertyOp6
 70
     1
102
RTVSPropertyOp7
 70
     1
102
RTVSPropertyOp8
 70
     1
102
RTVSPropertyOp9
 70
     1
102
RTVSPropertyOp10
 70
     1
102
RTVSPropertyOp11
 70
     1
102
RTVSPropertyOp12
 70
     1
102
RTVSPropertyOp13
 70
     1
102
RTVSPropertyOp14
 70
     1
102
RTVSPropertyOp15
 70
     1
102
RTVSPropertyOp16
 70
     1
102
RTVSPropertyOp17
 70
     1
102
RTVSPropertyOp18
 70
     1
102
RTVSPropertyOp19
 70
     1
102
RTVSPropertyOp20
 70
     1
102
RTVSPropertyOp21
 70
     1
102
RTVSPropertyOp22
 70
     1
102
RTVSPropertyOp23
 70
     1
102
RTVSPropertyOp24
 70
     1
102
RTVSPropertyOp25
 70
     1
102
RTVSPropertyOp26
 70
     1
102
RTVSPropertyOp27
 70
     1
102
RTVSPropertyOp28
 70
     1
102
RTVSPropertyOp29
 70
     1
102
RTVSPropertyOp30
 70
     1
102
RTVSPropertyOp31
 70
     1
102
RTVSPropertyOp32
 70
     1
102
RTVSPropertyOp33
 70
     1
102
RTVSPropertyOp34
 70
     1
102
RTVSPropertyOp35
 70
     1
102
RTVSPropertyOp36
 70
     1
102
RTVSPropertyOp37
 70
     1
102
RTVSPropertyOp38
 70
     1
102
RTVSPropertyOp39
 70
     1
102
RTVSPropertyOp40
 70
     1
102
RTVSPropertyOp41
 70
     1
102
RTVSPropertyOp42
 70
     1
102
RTVSPropertyOp43
 70
     1
102
RTVSPropertyOp44
 70
     1
102
RTVSPropertyOp45
 70
     1
102
RTVSPropertyOp46
 70
     1
102
RTVSPropertyOp47
 70
     1
102
RTVSPropertyOp48
 70
     1
102
RTVSPropertyOp49
 70
     1
102
RTVSPropertyOp50
 70
     1
102
RTVSPropertyOp51
 70
     0
102
RTVSPropertyOp52
 70
     0
102
RTVSPropertyOp53
 70
     1
102
RTVSPropertyOp54
 70
     1
102
RTVSPropertyOp55
 70
     1
102
RTVSPropertyOp56
 70
     1
102
RTVSPropertyOp57
 70
     1
102
RTVSPropertyOp58
 70
     1
102
RTVSPropertyOp59
 70
     1
102
RTVSPropertyOp60
 70
     1
102
RTVSPropertyOp61
 70
     1
102
RTVSPropertyOp62
 70
     1
  0
XRECORD
  5
3570
102
{ACAD_REACTORS
330
356F
102
}
330
356F
100
AcDbXrecord
280
     1
102
RTVSPost2010Prop28
280
     0
102
RTVSPost2010PropOp28
 70
     1
102
RTVSPost2010Prop29
280
     1
102
RTVSPost2010PropOp29
 70
     1
102
RTVSPost2010Prop30
280
     1
102
RTVSPost2010PropOp30
 70
     1
102
RTVSPost2010Prop31
280
     0
102
RTVSPost2010PropOp31
 70
     1
102
RTVSPost2010Prop32
280
     0
102
RTVSPost2010PropOp32
 70
     1
102
RTVSPost2010Prop33
280
     0
102
RTVSPost2010PropOp33
 70
     1
102
RTVSPost2010Prop34
280
     0
102
RTVSPost2010PropOp34
 70
     1
102
RTVSPost2010Prop35
280
     0
102
RTVSPost2010PropOp35
 70
     1
102
RTVSPost2010Prop36
280
     0
102
RTVSPost2010PropOp36
 70
     1
102
RTVSPost2010Prop37
 90
       50
102
RTVSPost2010PropOp37
 70
     1
102
RTVSPost2010Prop38
140
0.0
102
RTVSPost2010PropOp38
 70
     1
102
RTVSPost2010Prop39
140
1.0
102
RTVSPost2010PropOp39
 70
     1
102
RTVSPost2010Prop40
 90
        0
102
RTVSPost2010PropOp40
 70
     1
102
RTVSPost2010Prop41ColorIndex
 90
       18
102
RTVSPost2010Prop41ColorRGB
 90
        0
102
RTVSPost2010PropOp41
 70
     1
102
RTVSPost2010Prop42
 90
       50
102
RTVSPost2010PropOp42
 70
     1
102
RTVSPost2010Prop43
 90
        3
102
RTVSPost2010PropOp43
 70
     1
102
RTVSPost2010Prop44ColorIndex
 90
        5
102
RTVSPost2010Prop44ColorRGB
 90
      255
102
RTVSPost2010PropOp44
 70
     1
102
RTVSPost2010Prop45
280
     0
102
RTVSPost2010PropOp45
 70
     1
102
RTVSPost2010Prop46
 90
       50
102
RTVSPost2010PropOp46
 70
     1
102
RTVSPost2010Prop47
 90
       50
102
RTVSPost2010PropOp47
 70
     1
102
RTVSPost2010Prop48
 90
       50
102
RTVSPost2010PropOp48
 70
     1
102
RTVSPost2010Prop49
280
     0
102
RTVSPost2010PropOp49
 70
     1
102
RTVSPost2010Prop50
 90
       50
102
RTVSPost2010PropOp50
 70
     1
102
RTVSPost2010Prop51ColorIndex
 90
      256
102
RTVSPost2010Prop51ColorRGB
 90
-16777216
102
RTVSPost2010PropOp51
 70
     0
102
RTVSPost2010Prop52
140
1.0
102
RTVSPost2010PropOp52
 70
     0
102
RTVSPost2010Prop53
 90
        2
102
RTVSPost2010PropOp53
 70
     1
102
RTVSPost2010Prop54
  1
strokes_ogs.tif
102
RTVSPost2010PropOp54
 70
     1
102
RTVSPost2010Prop55
280
     0
102
RTVSPost2010PropOp55
 70
     1
102
RTVSPost2010Prop56
140
1.0
102
RTVSPost2010PropOp56
 70
     1
102
RTVSPost2010Prop57
140
1.0
102
RTVSPost2010PropOp57
 70
     1
102
RTVSPropertyOp0
 70
     1
102
RTVSPropertyOp1
 70
     1
102
RTVSPropertyOp2
 70
     1
102
RTVSPropertyOp3
 70
     1
102
RTVSPropertyOp4
 70
     1
102
RTVSPropertyOp5
 70
     1
102
RTVSPropertyOp6
 70
     1
102
RTVSPropertyOp7
 70
     1
102
RTVSPropertyOp8
 70
     1
102
RTVSPropertyOp9
 70
     1
102
RTVSPropertyOp10
 70
     1
102
RTVSPropertyOp11
 70
     1
102
RTVSPropertyOp12
 70
     1
102
RTVSPropertyOp13
 70
     1
102
RTVSPropertyOp14
 70
     1
102
RTVSPropertyOp15
 70
     1
102
RTVSPropertyOp16
 70
     1
102
RTVSPropertyOp17
 70
     1
102
RTVSPropertyOp18
 70
     1
102
RTVSPropertyOp19
 70
     1
102
RTVSPropertyOp20
 70
     1
102
RTVSPropertyOp21
 70
     1
102
RTVSPropertyOp22
 70
     1
102
RTVSPropertyOp23
 70
     1
102
RTVSPropertyOp24
 70
     1
102
RTVSPropertyOp25
 70
     1
102
RTVSPropertyOp26
 70
     1
102
RTVSPropertyOp27
 70
     1
102
RTVSPropertyOp28
 70
     1
102
RTVSPropertyOp29
 70
     1
102
RTVSPropertyOp30
 70
     1
102
RTVSPropertyOp31
 70
     1
102
RTVSPropertyOp32
 70
     1
102
RTVSPropertyOp33
 70
     1
102
RTVSPropertyOp34
 70
     1
102
RTVSPropertyOp35
 70
     1
102
RTVSPropertyOp36
 70
     1
102
RTVSPropertyOp37
 70
     1
102
RTVSPropertyOp38
 70
     1
102
RTVSPropertyOp39
 70
     1
102
RTVSPropertyOp40
 70
     1
102
RTVSPropertyOp41
 70
     1
102
RTVSPropertyOp42
 70
     1
102
RTVSPropertyOp43
 70
     1
102
RTVSPropertyOp44
 70
     1
102
RTVSPropertyOp45
 70
     1
102
RTVSPropertyOp46
 70
     1
102
RTVSPropertyOp47
 70
     1
102
RTVSPropertyOp48
 70
     1
102
RTVSPropertyOp49
 70
     1
102
RTVSPropertyOp50
 70
     1
102
RTVSPropertyOp51
 70
     0
102
RTVSPropertyOp52
 70
     0
102
RTVSPropertyOp53
 70
     1
102
RTVSPropertyOp54
 70
     1
102
RTVSPropertyOp55
 70
     1
102
RTVSPropertyOp56
 70
     1
102
RTVSPropertyOp57
 70
     1
102
RTVSPropertyOp58
 70
     1
102
RTVSPropertyOp59
 70
     1
102
RTVSPropertyOp60
 70
     1
102
RTVSPropertyOp61
 70
     1
102
RTVSPropertyOp62
 70
     1
  0
XRECORD
  5
3578
102
{ACAD_REACTORS
330
3577
102
}
330
3577
100
AcDbXrecord
280
     1
102
RTVSPost2010Prop28
280
     0
102
RTVSPost2010PropOp28
 70
     1
102
RTVSPost2010Prop29
280
     1
102
RTVSPost2010PropOp29
 70
     1
102
RTVSPost2010Prop30
280
     1
102
RTVSPost2010PropOp30
 70
     1
102
RTVSPost2010Prop31
280
     0
102
RTVSPost2010PropOp31
 70
     1
102
RTVSPost2010Prop32
280
     0
102
RTVSPost2010PropOp32
 70
     1
102
RTVSPost2010Prop33
280
     0
102
RTVSPost2010PropOp33
 70
     1
102
RTVSPost2010Prop34
280
     0
102
RTVSPost2010PropOp34
 70
     1
102
RTVSPost2010Prop35
280
     0
102
RTVSPost2010PropOp35
 70
     1
102
RTVSPost2010Prop36
280
     0
102
RTVSPost2010PropOp36
 70
     1
102
RTVSPost2010Prop37
 90
       50
102
RTVSPost2010PropOp37
 70
     1
102
RTVSPost2010Prop38
140
0.0
102
RTVSPost2010PropOp38
 70
     1
102
RTVSPost2010Prop39
140
1.0
102
RTVSPost2010PropOp39
 70
     1
102
RTVSPost2010Prop40
 90
        0
102
RTVSPost2010PropOp40
 70
     1
102
RTVSPost2010Prop41ColorIndex
 90
       18
102
RTVSPost2010Prop41ColorRGB
 90
        0
102
RTVSPost2010PropOp41
 70
     1
102
RTVSPost2010Prop42
 90
       50
102
RTVSPost2010PropOp42
 70
     1
102
RTVSPost2010Prop43
 90
        3
102
RTVSPost2010PropOp43
 70
     1
102
RTVSPost2010Prop44ColorIndex
 90
        5
102
RTVSPost2010Prop44ColorRGB
 90
      255
102
RTVSPost2010PropOp44
 70
     1
102
RTVSPost2010Prop45
280
     0
102
RTVSPost2010PropOp45
 70
     1
102
RTVSPost2010Prop46
 90
       50
102
RTVSPost2010PropOp46
 70
     1
102
RTVSPost2010Prop47
 90
       50
102
RTVSPost2010PropOp47
 70
     1
102
RTVSPost2010Prop48
 90
       50
102
RTVSPost2010PropOp48
 70
     1
102
RTVSPost2010Prop49
280
     0
102
RTVSPost2010PropOp49
 70
     1
102
RTVSPost2010Prop50
 90
       50
102
RTVSPost2010PropOp50
 70
     1
102
RTVSPost2010Prop51ColorIndex
 90
      256
102
RTVSPost2010Prop51ColorRGB
 90
-16777216
102
RTVSPost2010PropOp51
 70
     0
102
RTVSPost2010Prop52
140
1.0
102
RTVSPost2010PropOp52
 70
     0
102
RTVSPost2010Prop53
 90
        2
102
RTVSPost2010PropOp53
 70
     1
102
RTVSPost2010Prop54
  1
strokes_ogs.tif
102
RTVSPost2010PropOp54
 70
     1
102
RTVSPost2010Prop55
280
     0
102
RTVSPost2010PropOp55
 70
     1
102
RTVSPost2010Prop56
140
1.0
102
RTVSPost2010PropOp56
 70
     1
102
RTVSPost2010Prop57
140
1.0
102
RTVSPost2010PropOp57
 70
     1
102
RTVSPropertyOp0
 70
     1
102
RTVSPropertyOp1
 70
     1
102
RTVSPropertyOp2
 70
     1
102
RTVSPropertyOp3
 70
     1
102
RTVSPropertyOp4
 70
     1
102
RTVSPropertyOp5
 70
     1
102
RTVSPropertyOp6
 70
     1
102
RTVSPropertyOp7
 70
     1
102
RTVSPropertyOp8
 70
     1
102
RTVSPropertyOp9
 70
     1
102
RTVSPropertyOp10
 70
     1
102
RTVSPropertyOp11
 70
     1
102
RTVSPropertyOp12
 70
     1
102
RTVSPropertyOp13
 70
     1
102
RTVSPropertyOp14
 70
     1
102
RTVSPropertyOp15
 70
     1
102
RTVSPropertyOp16
 70
     1
102
RTVSPropertyOp17
 70
     1
102
RTVSPropertyOp18
 70
     1
102
RTVSPropertyOp19
 70
     1
102
RTVSPropertyOp20
 70
     1
102
RTVSPropertyOp21
 70
     1
102
RTVSPropertyOp22
 70
     1
102
RTVSPropertyOp23
 70
     1
102
RTVSPropertyOp24
 70
     1
102
RTVSPropertyOp25
 70
     1
102
RTVSPropertyOp26
 70
     1
102
RTVSPropertyOp27
 70
     1
102
RTVSPropertyOp28
 70
     1
102
RTVSPropertyOp29
 70
     1
102
RTVSPropertyOp30
 70
     1
102
RTVSPropertyOp31
 70
     1
102
RTVSPropertyOp32
 70
     1
102
RTVSPropertyOp33
 70
     1
102
RTVSPropertyOp34
 70
     1
102
RTVSPropertyOp35
 70
     1
102
RTVSPropertyOp36
 70
     1
102
RTVSPropertyOp37
 70
     1
102
RTVSPropertyOp38
 70
     1
102
RTVSPropertyOp39
 70
     1
102
RTVSPropertyOp40
 70
     1
102
RTVSPropertyOp41
 70
     1
102
RTVSPropertyOp42
 70
     1
102
RTVSPropertyOp43
 70
     1
102
RTVSPropertyOp44
 70
     1
102
RTVSPropertyOp45
 70
     1
102
RTVSPropertyOp46
 70
     1
102
RTVSPropertyOp47
 70
     1
102
RTVSPropertyOp48
 70
     1
102
RTVSPropertyOp49
 70
     1
102
RTVSPropertyOp50
 70
     1
102
RTVSPropertyOp51
 70
     0
102
RTVSPropertyOp52
 70
     0
102
RTVSPropertyOp53
 70
     1
102
RTVSPropertyOp54
 70
     1
102
RTVSPropertyOp55
 70
     1
102
RTVSPropertyOp56
 70
     1
102
RTVSPropertyOp57
 70
     1
102
RTVSPropertyOp58
 70
     1
102
RTVSPropertyOp59
 70
     1
102
RTVSPropertyOp60
 70
     1
102
RTVSPropertyOp61
 70
     1
102
RTVSPropertyOp62
 70
     1
  0
ENDSEC
  0
EOF
