  0
SECTION
  2
HEADER
  9
$ACADVER
  1
AC1015
  9
$ACADMAINTVER
 70
    20
  9
$DWGCODEPAGE
  3
ANSI_932
  9
$INSBASE
 10
0.0
 20
0.0
 30
0.0
  9
$EXTMIN
 10
-0.1732862804628894
 20
-0.1202142408851614
 30
-0.0015258207003583
  9
$EXTMAX
 10
2760.13123757943
 20
1910.088966705146
 30
0.0000000349246037
  9
$LIMMIN
 10
0.0
 20
0.0
  9
$LIMMAX
 10
2840.0
 20
1970.0
  9
$ORTHOMODE
 70
     0
  9
$REGENMODE
 70
     1
  9
$FILLMODE
 70
     1
  9
$QTEXTMODE
 70
     0
  9
$MIRRTEXT
 70
     1
  9
$LTSCALE
 40
1.0
  9
$ATTMODE
 70
     1
  9
$TEXTSIZE
 40
2.5
  9
$TRACEWID
 40
1.0
  9
$TEXTSTYLE
  7
Standard
  9
$CLAYER
  8
sunpo
  9
$CELTYPE
  6
ByLayer
  9
$CECOLOR
 62
   256
  9
$CELTSCALE
 40
1.0
  9
$DISPSILH
 70
     0
  9
$DIMSCALE
 40
10.0
  9
$DIMASZ
 40
0.8
  9
$DIMEXO
 40
1.0
  9
$DIMDLI
 40
0.0
  9
$DIMRND
 40
0.0
  9
$DIMDLE
 40
0.0
  9
$DIMEXE
 40
0.0
  9
$DIMTP
 40
0.0
  9
$DIMTM
 40
0.0
  9
$DIMTXT
 40
2.0
  9
$DIMCEN
 40
2.5
  9
$DIMTSZ
 40
0.0
  9
$DIMTOL
 70
     0
  9
$DIMLIM
 70
     0
  9
$DIMTIH
 70
     0
  9
$DIMTOH
 70
     0
  9
$DIMSE1
 70
     0
  9
$DIMSE2
 70
     0
  9
$DIMTAD
 70
     2
  9
$DIMZIN
 70
     8
  9
$DIMBLK
  1

  9
$DIMASO
 70
     1
  9
$DIMSHO
 70
     1
  9
$DIMPOST
  1

  9
$DIMAPOST
  1

  9
$DIMALT
 70
     0
  9
$DIMALTD
 70
     4
  9
$DIMALTF
 40
0.0394
  9
$DIMLFAC
 40
1.0
  9
$DIMTOFL
 70
     1
  9
$DIMTVP
 40
0.0
  9
$DIMTIX
 70
     0
  9
$DIMSOXD
 70
     0
  9
$DIMSAH
 70
     1
  9
$DIMBLK1
  1
DOT
  9
$DIMBLK2
  1
DOT
  9
$DIMSTYLE
  2
STANDARD
  9
$DIMCLRD
 70
     0
  9
$DIMCLRE
 70
     0
  9
$DIMCLRT
 70
     0
  9
$DIMTFAC
 40
1.0
  9
$DIMGAP
 40
0.1
  9
$DIMJUST
 70
     0
  9
$DIMSD1
 70
     0
  9
$DIMSD2
 70
     0
  9
$DIMTOLJ
 70
     1
  9
$DIMTZIN
 70
     0
  9
$DIMALTZ
 70
     0
  9
$DIMALTTZ
 70
     0
  9
$DIMUPT
 70
     0
  9
$DIMDEC
 70
     8
  9
$DIMTDEC
 70
     8
  9
$DIMALTU
 70
     8
  9
$DIMALTTD
 70
     4
  9
$DIMTXSTY
  7
Standard
  9
$DIMAUNIT
 70
     0
  9
$DIMADEC
 70
     0
  9
$DIMALTRND
 40
0.0
  9
$DIMAZIN
 70
     0
  9
$DIMDSEP
 70
    46
  9
$DIMATFIT
 70
     3
  9
$DIMFRAC
 70
     0
  9
$DIMLDRBLK
  1
DOT
  9
$DIMLUNIT
 70
     2
  9
$DIMLWD
 70
    -2
  9
$DIMLWE
 70
    -2
  9
$DIMTMOVE
 70
     1
  9
$LUNITS
 70
     2
  9
$LUPREC
 70
     8
  9
$SKETCHINC
 40
1.0
  9
$FILLETRAD
 40
0.0
  9
$AUNITS
 70
     0
  9
$AUPREC
 70
     8
  9
$MENU
  1
.
  9
$ELEVATION
 40
0.0
  9
$PELEVATION
 40
0.0
  9
$THICKNESS
 40
0.0
  9
$LIMCHECK
 70
     0
  9
$CHAMFERA
 40
20.0
  9
$CHAMFERB
 40
20.0
  9
$CHAMFERC
 40
20.0
  9
$CHAMFERD
 40
0.0
  9
$SKPOLY
 70
     0
  9
$TDCREATE
 40
2453276.413761574
  9
$TDUCREATE
 40
2453276.038766620
  9
$TDUPDATE
 40
2459975.375509260
  9
$TDUUPDATE
 40
2459975.000509259
  9
$TDINDWG
 40
0.3497765509
  9
$TDUSRTIMER
 40
0.3497765509
  9
$USRTIMER
 70
     1
  9
$ANGBASE
 50
0.0
  9
$ANGDIR
 70
     0
  9
$PDMODE
 70
     0
  9
$PDSIZE
 40
0.0
  9
$PLINEWID
 40
0.0
  9
$SPLFRAME
 70
     0
  9
$SPLINETYPE
 70
     6
  9
$SPLINESEGS
 70
     8
  9
$HANDSEED
  5
58FC
  9
$SURFTAB1
 70
     6
  9
$SURFTAB2
 70
     6
  9
$SURFTYPE
 70
     6
  9
$SURFU
 70
     6
  9
$SURFV
 70
     6
  9
$UCSBASE
  2

  9
$UCSNAME
  2

  9
$UCSORG
 10
0.0
 20
0.0
 30
0.0
  9
$UCSXDIR
 10
1.0
 20
0.0
 30
0.0
  9
$UCSYDIR
 10
0.0
 20
1.0
 30
0.0
  9
$UCSORTHOREF
  2

  9
$UCSORTHOVIEW
 70
     0
  9
$UCSORGTOP
 10
0.0
 20
0.0
 30
0.0
  9
$UCSORGBOTTOM
 10
0.0
 20
0.0
 30
0.0
  9
$UCSORGLEFT
 10
0.0
 20
0.0
 30
0.0
  9
$UCSORGRIGHT
 10
0.0
 20
0.0
 30
0.0
  9
$UCSORGFRONT
 10
0.0
 20
0.0
 30
0.0
  9
$UCSORGBACK
 10
0.0
 20
0.0
 30
0.0
  9
$PUCSBASE
  2

  9
$PUCSNAME
  2

  9
$PUCSORG
 10
0.0
 20
0.0
 30
0.0
  9
$PUCSXDIR
 10
1.0
 20
0.0
 30
0.0
  9
$PUCSYDIR
 10
0.0
 20
1.0
 30
0.0
  9
$PUCSORTHOREF
  2

  9
$PUCSORTHOVIEW
 70
     0
  9
$PUCSORGTOP
 10
0.0
 20
0.0
 30
0.0
  9
$PUCSORGBOTTOM
 10
0.0
 20
0.0
 30
0.0
  9
$PUCSORGLEFT
 10
0.0
 20
0.0
 30
0.0
  9
$PUCSORGRIGHT
 10
0.0
 20
0.0
 30
0.0
  9
$PUCSORGFRONT
 10
0.0
 20
0.0
 30
0.0
  9
$PUCSORGBACK
 10
0.0
 20
0.0
 30
0.0
  9
$USERI1
 70
     0
  9
$USERI2
 70
     0
  9
$USERI3
 70
     0
  9
$USERI4
 70
     0
  9
$USERI5
 70
     0
  9
$USERR1
 40
0.0
  9
$USERR2
 40
0.0
  9
$USERR3
 40
0.0
  9
$USERR4
 40
0.0
  9
$USERR5
 40
0.0
  9
$WORLDVIEW
 70
     1
  9
$SHADEDGE
 70
     2
  9
$SHADEDIF
 70
    70
  9
$TILEMODE
 70
     1
  9
$MAXACTVP
 70
    64
  9
$PINSBASE
 10
0.0
 20
0.0
 30
0.0
  9
$PLIMCHECK
 70
     0
  9
$PEXTMIN
 10
0.0
 20
0.0
 30
0.0
  9
$PEXTMAX
 10
0.0
 20
0.0
 30
0.0
  9
$PLIMMIN
 10
0.0
 20
0.0
  9
$PLIMMAX
 10
12.0
 20
9.0
  9
$UNITMODE
 70
     0
  9
$VISRETAIN
 70
     1
  9
$PLINEGEN
 70
     0
  9
$PSLTSCALE
 70
     1
  9
$TREEDEPTH
 70
  3020
  9
$CMLSTYLE
  2
Standard
  9
$CMLJUST
 70
     0
  9
$CMLSCALE
 40
20.0
  9
$PROXYGRAPHICS
 70
     1
  9
$MEASUREMENT
 70
     1
  9
$CELWEIGHT
370
    -1
  9
$ENDCAPS
280
     0
  9
$JOINSTYLE
280
     0
  9
$LWDISPLAY
290
     0
  9
$INSUNITS
 70
     4
  9
$HYPERLINKBASE
  1

  9
$STYLESHEET
  1
monochrome.stb
  9
$XEDIT
290
     1
  9
$CEPSNTYPE
380
     0
  9
$PSTYLEMODE
290
     1
  9
$FINGERPRINTGUID
  2
{B4E61C12-08AD-407D-A83C-7C7812CA1D8B}
  9
$VERSIONGUID
  2
{877BDB31-CA9B-6247-960B-4742F96E3EC7}
  9
$EXTNAMES
290
     1
  9
$PSVPSCALE
 40
0.0
  9
$OLESTARTUP
290
     0
  0
ENDSEC
  0
SECTION
  2
CLASSES
  0
CLASS
  1
ACDBDICTIONARYWDFLT
  2
AcDbDictionaryWithDefault
  3
ObjectDBX Classes
 90
        0
280
     0
281
     0
  0
CLASS
  1
ACDBPLACEHOLDER
  2
AcDbPlaceHolder
  3
ObjectDBX Classes
 90
        0
280
     0
281
     0
  0
CLASS
  1
LAYOUT
  2
AcDbLayout
  3
ObjectDBX Classes
 90
        0
280
     0
281
     0
  0
CLASS
  1
DICTIONARYVAR
  2
AcDbDictionaryVar
  3
ObjectDBX Classes
 90
        0
280
     0
281
     0
  0
CLASS
  1
SORTENTSTABLE
  2
AcDbSortentsTable
  3
ObjectDBX Classes
 90
        0
280
     0
281
     0
  0
CLASS
  1
MATERIAL
  2
AcDbMaterial
  3
ObjectDBX Classes
 90
     1153
280
     0
281
     0
  0
CLASS
  1
VISUALSTYLE
  2
AcDbVisualStyle
  3
ObjectDBX Classes
 90
     4095
280
     0
281
     0
  0
CLASS
  1
TABLESTYLE
  2
AcDbTableStyle
  3
ObjectDBX Classes
 90
     4095
280
     0
281
     0
  0
CLASS
  1
SCALE
  2
AcDbScale
  3
ObjectDBX Classes
 90
     1153
280
     0
281
     0
  0
CLASS
  1
MLEADERSTYLE
  2
AcDbMLeaderStyle
  3
ACDB_MLEADERSTYLE_CLASS
 90
     4095
280
     0
281
     0
  0
CLASS
  1
AEC_REFEDIT_STATUS_TRACKER
  2
AecDbRefEditStatusTracker
  3
AecArchBase60|Product Desc: Autodesk Architectural Desktop 2007 |Company: Autodesk,Inc. |WEB Address: www.autodesk.com
 90
    32897
280
     0
281
     0
  0
CLASS
  1
NPOCOLLECTION
  2
AcDbImpNonPersistentObjectsCollection
  3
ObjectDBX Classes
 90
    33921
280
     0
281
     0
  0
CLASS
  1
CELLSTYLEMAP
  2
AcDbCellStyleMap
  3
ObjectDBX Classes
 90
     1152
280
     0
281
     0
  0
CLASS
  1
ACDBSECTIONVIEWSTYLE
  2
AcDbSectionViewStyle
  3
ObjectDBX Classes
 90
     1025
280
     0
281
     0
  0
CLASS
  1
ACDBDETAILVIEWSTYLE
  2
AcDbDetailViewStyle
  3
ObjectDBX Classes
 90
     1025
280
     0
281
     0
  0
ENDSEC
  0
SECTION
  2
TABLES
  0
TABLE
  2
VPORT
  5
8
102
{ACAD_XDICTIONARY
360
44F6
102
}
330
0
100
AcDbSymbolTable
 70
     1
  0
VPORT
  5
433B
330
8
100
AcDbSymbolTableRecord
100
AcDbViewportTableRecord
  2
*Active
 70
     0
 10
0.0
 20
0.0
 11
1.0
 21
1.0
 12
1379.978975649483
 22
954.9843762321303
 13
0.0
 23
0.0
 14
10.0
 24
10.0
 15
10.0
 25
10.0
 16
0.0
 26
0.0
 36
1.0
 17
0.0
 27
0.0
 37
0.0
 40
1926.083495469128
 41
1.775312066574202
 42
50.0
 43
0.0
 44
0.0
 50
0.0
 51
0.0
 71
     0
 72
   100
 73
     1
 74
     3
 75
     0
 76
     0
 77
     0
 78
     0
281
     0
 65
     1
110
0.0
120
0.0
130
0.0
111
1.0
121
0.0
131
0.0
112
0.0
122
1.0
132
0.0
 79
     0
146
0.0
1001
ACAD_NAV_VCDISPLAY
1070
     3
  0
ENDTAB
  0
TABLE
  2
LTYPE
  5
5
330
0
100
AcDbSymbolTable
 70
     3
  0
LTYPE
  5
14
330
5
100
AcDbSymbolTableRecord
100
AcDbLinetypeTableRecord
  2
ByBlock
 70
     0
  3

 72
    65
 73
     0
 40
0.0
  0
LTYPE
  5
15
330
5
100
AcDbSymbolTableRecord
100
AcDbLinetypeTableRecord
  2
ByLayer
 70
     0
  3

 72
    65
 73
     0
 40
0.0
  0
LTYPE
  5
16
330
5
100
AcDbSymbolTableRecord
100
AcDbLinetypeTableRecord
  2
Continuous
 70
     0
  3
Solid line
 72
    65
 73
     0
 40
0.0
  0
LTYPE
  5
255D
330
5
100
AcDbSymbolTableRecord
100
AcDbLinetypeTableRecord
  2
DASHED
 70
     0
  3
Dashed __ __ __ __ __ __ __ __ __ __ __ __ __ _
 72
    65
 73
     2
 40
19.05
 49
12.7
 74
     0
 49
-6.349999999999999
 74
     0
  0
LTYPE
  5
2E59
330
5
100
AcDbSymbolTableRecord
100
AcDbLinetypeTableRecord
  2
DASHED2
 70
     0
  3
Dashed (.5x) _ _ _ _ _ _ _ _ _ _ _ _ _ _ _ _ _
 72
    65
 73
     2
 40
9.524999999999998
 49
6.349999999999999
 74
     0
 49
-3.174999999999999
 74
     0
  0
ENDTAB
  0
TABLE
  2
LAYER
  5
2
102
{ACAD_XDICTIONARY
360
2D
102
}
330
0
100
AcDbSymbolTable
 70
    14
  0
LAYER
  5
10
102
{ACAD_XDICTIONARY
360
44D8
102
}
330
2
100
AcDbSymbolTableRecord
100
AcDbLayerTableRecord
  2
0
 70
     0
 62
     7
  6
Continuous
290
     0
370
    -3
390
29
  0
LAYER
  5
2294
102
{ACAD_XDICTIONARY
360
44DA
102
}
330
2
100
AcDbSymbolTableRecord
100
AcDbLayerTableRecord
  2
HATCH
 70
     0
 62
     9
  6
Continuous
370
    -3
390
29
  0
LAYER
  5
2301
330
2
100
AcDbSymbolTableRecord
100
AcDbLayerTableRecord
  2
Defpoints
 70
     0
 62
     7
  6
Continuous
290
     0
370
    -3
390
F
  0
LAYER
  5
235F
102
{ACAD_XDICTIONARY
360
44DC
102
}
330
2
100
AcDbSymbolTableRecord
100
AcDbLayerTableRecord
  2
KUTAI
 70
     0
 62
     3
  6
Continuous
370
    -3
390
29
  0
LAYER
  5
2360
102
{ACAD_XDICTIONARY
360
44DE
102
}
330
2
100
AcDbSymbolTableRecord
100
AcDbLayerTableRecord
  2
BOUSUI
 70
     0
 62
     1
  6
Continuous
370
    -3
390
29
  0
LAYER
  5
2361
102
{ACAD_XDICTIONARY
360
44E0
102
}
330
2
100
AcDbSymbolTableRecord
100
AcDbLayerTableRecord
  2
MOJI
 70
     0
 62
     7
  6
Continuous
370
    -3
390
29
  0
LAYER
  5
2363
102
{ACAD_XDICTIONARY
360
44E2
102
}
330
2
100
AcDbSymbolTableRecord
100
AcDbLayerTableRecord
  2
sunpo
 70
     0
 62
     7
  6
Continuous
370
    -3
390
29
  0
LAYER
  5
2364
102
{ACAD_XDICTIONARY
360
44E4
102
}
330
2
100
AcDbSymbolTableRecord
100
AcDbLayerTableRecord
  2
KANAMONO_SCREW
 70
     0
 62
     4
  6
Continuous
370
    -3
390
29
  0
LAYER
  5
2501
102
{ACAD_XDICTIONARY
360
44E6
102
}
330
2
100
AcDbSymbolTableRecord
100
AcDbLayerTableRecord
  2
dannnetu
 70
     0
 62
     6
  6
Continuous
370
    -3
390
F
  0
LAYER
  5
27C0
102
{ACAD_XDICTIONARY
360
44E8
102
}
330
2
100
AcDbSymbolTableRecord
100
AcDbLayerTableRecord
  2
KANAMONO
 70
     0
 62
     4
  6
Continuous
370
    -3
390
29
  0
LAYER
  5
2E5A
102
{ACAD_XDICTIONARY
360
44EA
102
}
330
2
100
AcDbSymbolTableRecord
100
AcDbLayerTableRecord
  2
TENSEN
 70
     0
 62
     4
  6
DASHED2
370
    -3
390
29
  0
LAYER
  5
2E5C
102
{ACAD_XDICTIONARY
360
44EE
102
}
330
2
100
AcDbSymbolTableRecord
100
AcDbLayerTableRecord
  2
WAKU
 70
     0
 62
     7
  6
Continuous
370
    -3
390
29
  0
LAYER
  5
37C3
102
{ACAD_XDICTIONARY
360
44F0
102
}
330
2
100
AcDbSymbolTableRecord
100
AcDbLayerTableRecord
  2
KASAGI
 70
     0
 62
   150
  6
Continuous
370
    -3
390
29
  0
LAYER
  5
4CD7
330
2
100
AcDbSymbolTableRecord
100
AcDbLayerTableRecord
  2
bousui2
 70
     0
 62
    40
  6
DASHED
370
     5
390
F
1001
AcAecLayerStandard
1000

1000

  0
ENDTAB
  0
TABLE
  2
STYLE
  5
3
330
0
100
AcDbSymbolTable
 70
     2
  0
STYLE
  5
11
330
3
100
AcDbSymbolTableRecord
100
AcDbTextStyleTableRecord
  2
Standard
 70
     0
 40
0.0
 41
1.0
 50
0.0
 71
     0
 42
2.5
  3

  4

1001
ACAD
1000
MS Gothic
1071
    32817
  0
STYLE
  5
4ADC
330
3
100
AcDbSymbolTableRecord
100
AcDbTextStyleTableRecord
  2
MSゴシック
 70
     0
 40
0.0
 41
1.0
 50
0.0
 71
     0
 42
2.5
  3

  4

1001
ACAD
1000
MS Gothic
1071
    32817
  0
ENDTAB
  0
TABLE
  2
VIEW
  5
6
330
0
100
AcDbSymbolTable
 70
     0
  0
ENDTAB
  0
TABLE
  2
UCS
  5
7
330
0
100
AcDbSymbolTable
 70
     0
  0
ENDTAB
  0
TABLE
  2
APPID
  5
9
330
0
100
AcDbSymbolTable
 70
    10
  0
APPID
  5
12
330
9
100
AcDbSymbolTableRecord
100
AcDbRegAppTableRecord
  2
ACAD
 70
     0
  0
APPID
  5
4384
330
9
100
AcDbSymbolTableRecord
100
AcDbRegAppTableRecord
  2
ACAD_EXEMPT_FROM_CAD_STANDARDS
 70
     0
  0
APPID
  5
43FE
330
9
100
AcDbSymbolTableRecord
100
AcDbRegAppTableRecord
  2
ACAD_MLEADERVER
 70
     0
  0
APPID
  5
43FF
330
9
100
AcDbSymbolTableRecord
100
AcDbRegAppTableRecord
  2
ACAD_PSEXT
 70
     0
  0
APPID
  5
4400
330
9
100
AcDbSymbolTableRecord
100
AcDbRegAppTableRecord
  2
ACAD_DSTYLE_DIMJAG
 70
     0
  0
APPID
  5
4401
330
9
100
AcDbSymbolTableRecord
100
AcDbRegAppTableRecord
  2
ACAD_DSTYLE_DIMTALN
 70
     0
  0
APPID
  5
4774
330
9
100
AcDbSymbolTableRecord
100
AcDbRegAppTableRecord
  2
ACAD_NAV_VCDISPLAY
 70
     0
  0
APPID
  5
4CD8
330
9
100
AcDbSymbolTableRecord
100
AcDbRegAppTableRecord
  2
AcAecLayerStandard
 70
     0
  0
APPID
  5
5558
330
9
100
AcDbSymbolTableRecord
100
AcDbRegAppTableRecord
  2
AcadAnnoPO
 70
     0
  0
APPID
  5
55A2
330
9
100
AcDbSymbolTableRecord
100
AcDbRegAppTableRecord
  2
Acad_TC
 70
     0
  0
ENDTAB
  0
TABLE
  2
DIMSTYLE
  5
A
330
0
100
AcDbSymbolTable
 70
     1
100
AcDbDimStyleTable
 71
     1
340
22E4
  0
DIMSTYLE
105
22E4
330
A
100
AcDbSymbolTableRecord
100
AcDbDimStyleTableRecord
  2
STANDARD
 70
     0
 40
10.0
 41
0.8
 42
1.0
 43
0.0
 44
0.0
 73
     0
 74
     0
 77
     2
 78
     8
140
2.0
141
2.5
143
0.0394
147
0.1
171
     4
172
     1
173
     1
271
     8
272
     8
273
     8
274
     4
279
     1
340
11
341
903
343
903
344
903
  0
ENDTAB
  0
TABLE
  2
BLOCK_RECORD
  5
1
330
0
100
AcDbSymbolTable
 70
     8
  0
BLOCK_RECORD
  5
1F
102
{ACAD_XDICTIONARY
360
1C62
102
}
330
1
100
AcDbSymbolTableRecord
100
AcDbBlockTableRecord
  2
*Model_Space
340
22
  0
BLOCK_RECORD
  5
1CD0
330
1
100
AcDbSymbolTableRecord
100
AcDbBlockTableRecord
  2
*Paper_Space
340
1CD1
  0
BLOCK_RECORD
  5
903
330
1
100
AcDbSymbolTableRecord
100
AcDbBlockTableRecord
  2
_DOT
340
0
102
{BLKREFS
331
55DD
331
55DE
331
55E7
331
55E8
331
55F0
331
55F1
331
55F9
331
55FA
331
57FF
331
5800
331
5805
331
5806
331
580B
331
580C
331
578C
331
578D
331
5792
331
5793
331
5602
331
5603
331
560B
331
560C
331
565C
331
565D
102
}
  0
BLOCK_RECORD
  5
26D4
330
1
100
AcDbSymbolTableRecord
100
AcDbBlockTableRecord
  2
*D1
340
0
  0
BLOCK_RECORD
  5
2A1C
330
1
100
AcDbSymbolTableRecord
100
AcDbBlockTableRecord
  2
hps-5-10-30
340
0
310
2800000020000000200000000100080000000000000400000000000000000000000000000000000000000000000080000080000000808000800000008000800080800000C0C0C000C0DCC000F0CAA6000020400000206000002080000020A0000020C0000020E00000400000004020000040400000406000004080000040A0
310
000040C0000040E00000600000006020000060400000606000006080000060A0000060C0000060E00000800000008020000080400000806000008080000080A0000080C0000080E00000A0000000A0200000A0400000A0600000A0800000A0A00000A0C00000A0E00000C0000000C0200000C0400000C0600000C0800000C0
310
A00000C0C00000C0E00000E0000000E0200000E0400000E0600000E0800000E0A00000E0C00000E0E00040000000400020004000400040006000400080004000A0004000C0004000E00040200000402020004020400040206000402080004020A0004020C0004020E000404000004040200040404000404060004040800040
310
40A0004040C0004040E00040600000406020004060400040606000406080004060A0004060C0004060E00040800000408020004080400040806000408080004080A0004080C0004080E00040A0000040A0200040A0400040A0600040A0800040A0A00040A0C00040A0E00040C0000040C0200040C0400040C0600040C08000
310
40C0A00040C0C00040C0E00040E0000040E0200040E0400040E0600040E0800040E0A00040E0C00040E0E00080000000800020008000400080006000800080008000A0008000C0008000E00080200000802020008020400080206000802080008020A0008020C0008020E00080400000804020008040400080406000804080
310
008040A0008040C0008040E00080600000806020008060400080606000806080008060A0008060C0008060E00080800000808020008080400080806000808080008080A0008080C0008080E00080A0000080A0200080A0400080A0600080A0800080A0A00080A0C00080A0E00080C0000080C0200080C0400080C0600080C0
310
800080C0A00080C0C00080C0E00080E0000080E0200080E0400080E0600080E0800080E0A00080E0C00080E0E000C0000000C0002000C0004000C0006000C0008000C000A000C000C000C000E000C0200000C0202000C0204000C0206000C0208000C020A000C020C000C020E000C0400000C0402000C0404000C0406000C0
310
408000C040A000C040C000C040E000C0600000C0602000C0604000C0606000C0608000C060A000C060C000C060E000C0800000C0802000C0804000C0806000C0808000C080A000C080C000C080E000C0A00000C0A02000C0A04000C0A06000C0A08000C0A0A000C0A0C000C0A0E000C0C00000C0C02000C0C04000C0C06000
310
C0C08000C0C0A000F0FBFF00A4A0A000808080000000FF0000FF000000FFFF00FF000000FF00FF00FFFF0000FFFFFF00FFFFFFFFFFFFFFFFFFFFFFFFFFFFFFFFFFFFFFFFFFFFFFFFFFFFFFFFFFFFFFFFFFFFFFFFFFFFFFFFFFFFFFFFFFFFFFFFFFFFFFFFFFFFFFFFFFFFFFFFFFFFFFFFFFFFFFFFFFFFFFFFFFFFFFFFFFFFFF
310
FEFEFFFFFFFFFFFFFFFFFFFFFFFFFFFFFFFFFFFFFFFFFFFFFFFFFFFFFFFFFFFFFEFFFEFFFFFFFFFFFFFFFFFFFFFFFFFFFFFFFFFFFFFFFFFFFFFFFFFFFFFFFEFEFEFEFEFEFFFFFFFFFFFFFFFFFFFFFFFFFFFFFFFFFFFFFFFFFFFFFFFFFFFFFEFFFEFEFFFEFFFFFFFFFFFFFFFFFFFFFFFFFFFFFFFFFFFFFFFFFFFFFFFFFFFFFE
310
FFFEFEFFFEFFFFFFFFFFFFFFFFFFFFFFFFFFFFFFFFFFFFFFFFFFFFFFFFFFFFFEFFFEFEFFFEFFFFFFFFFFFFFFFFFFFFFFFFFFFFFFFFFFFFFFFFFFFFFFFFFFFFFEFFFEFEFFFEFFFFFFFFFFFFFFFFFFFFFFFFFFFFFFFFFFFFFFFFFFFFFFFFFFFFFEFFFEFEFFFEFFFFFFFFFFFFFFFFFFFFFFFFFFFFFFFFFFFFFFFFFFFFFFFFFFFF
310
FEFFFEFEFFFEFFFFFFFFFFFFFFFFFFFFFFFFFFFFFFFFFFFFFFFFFFFFFFFFFFFFFEFFFEFEFFFEFFFFFFFFFFFFFFFFFFFFFFFFFFFFFFFFFFFFFFFFFFFFFFFFFFFFFEFFFEFEFFFEFFFFFFFFFFFFFFFFFFFFFFFFFFFFFFFFFFFFFFFFFFFFFFFFFFFFFEFFFEFEFFFEFFFFFFFFFFFFFFFFFFFFFFFFFFFFFFFFFFFFFFFFFFFFFFFFFF
310
FFFEFFFEFEFFFEFFFFFFFFFFFFFFFFFFFFFFFFFFFFFFFFFFFFFFFFFFFFFFFFFFFFFEFFFEFEFFFEFFFFFFFFFFFFFFFFFFFFFFFFFFFFFFFFFFFFFFFFFFFFFFFFFFFFFEFFFEFEFFFEFFFFFFFFFFFFFFFFFFFFFFFFFFFFFFFFFFFFFFFFFFFFFFFFFFFFFEFFFEFEFFFEFFFFFFFFFFFFFFFFFFFFFFFFFFFFFFFFFFFFFFFFFFFFFFFF
310
FFFFFEFEFEFEFEFEFFFFFFFFFFFFFFFFFFFFFFFFFFFFFFFFFFFFFFFFFFFFFFFFFFFFFEFFFFFFFFFEFFFFFFFFFFFFFFFFFFFFFFFFFFFFFFFFFFFFFFFFFFFFFFFFFFFFFEFEFEFEFEFEFFFFFFFFFFFFFFFFFFFFFFFFFFFFFFFFFFFFFFFFFFFFFFFFFFFFFEFFFFFFFFFEFFFFFFFFFFFFFFFFFFFFFFFFFFFFFFFFFFFFFFFFFFFFFF
310
FFFFFFFEFFFFFFFFFEFFFFFFFFFFFFFFFFFFFFFFFFFFFFFFFFFFFFFFFFFFFFFFFFFFFFFEFFFFFFFFFEFFFFFFFFFFFFFFFFFFFFFFFFFFFFFFFFFFFFFFFFFFFFFFFFFFFFFEFFFFFFFFFEFFFFFFFFFFFFFFFFFFFFFFFFFFFFFFFFFFFFFFFFFFFFFFFFFFFFFEFFFFFFFFFEFFFFFFFFFFFFFFFFFFFFFFFFFFFFFFFFFFFFFFFFFFFF
310
FFFFFFFFFEFFFFFFFFFEFFFFFFFFFFFFFFFFFFFFFFFFFFFFFFFFFFFFFFFFFFFFFFFFFFFFFEFFFFFFFFFEFFFFFFFFFFFFFFFFFFFFFFFFFFFFFFFFFFFFFFFFFFFFFFFFFEFEFEFEFEFEFEFEFEFEFFFFFFFFFFFFFFFFFFFFFFFFFFFFFFFFFFFFFFFFFFFFFEFEFEFEFEFEFEFEFEFEFFFFFFFFFFFFFFFFFFFFFFFFFFFFFFFFFFFFFF
310
FFFFFFFFFFFEFEFEFEFEFEFFFFFFFFFFFFFFFFFFFFFFFFFFFFFFFFFFFFFFFFFFFFFFFFFFFFFFFFFFFFFFFFFFFFFFFFFFFFFFFFFFFFFFFFFF
1001
ACAD
1000
DesignCenter Data
1002
{
1070
     1
1070
     4
1002
}
  0
BLOCK_RECORD
  5
344C
330
1
100
AcDbSymbolTableRecord
100
AcDbBlockTableRecord
  2
*D3
340
0
  0
BLOCK_RECORD
  5
3458
330
1
100
AcDbSymbolTableRecord
100
AcDbBlockTableRecord
  2
*D4
340
0
  0
BLOCK_RECORD
  5
3E4C
330
1
100
AcDbSymbolTableRecord
100
AcDbBlockTableRecord
  2
*D5
340
0
  0
BLOCK_RECORD
  5
3E58
330
1
100
AcDbSymbolTableRecord
100
AcDbBlockTableRecord
  2
*D6
340
0
  0
BLOCK_RECORD
  5
3E64
330
1
100
AcDbSymbolTableRecord
100
AcDbBlockTableRecord
  2
*D7
340
0
  0
ENDTAB
  0
ENDSEC
  0
SECTION
  2
BLOCKS
  0
BLOCK
  5
20
330
1F
100
AcDbEntity
  8
0
100
AcDbBlockBegin
  2
*Model_Space
 70
     0
 10
0.0
 20
0.0
 30
0.0
  3
*Model_Space
  1

  0
ENDBLK
  5
21
330
1F
100
AcDbEntity
  8
0
100
AcDbBlockEnd
  0
BLOCK
  5
1CD2
330
1CD0
100
AcDbEntity
 67
     1
  8
0
100
AcDbBlockBegin
  2
*Paper_Space
 70
     0
 10
0.0
 20
0.0
 30
0.0
  3
*Paper_Space
  1

  0
ENDBLK
  5
1CD3
330
1CD0
100
AcDbEntity
 67
     1
  8
0
100
AcDbBlockEnd
  0
BLOCK
  5
906
330
903
100
AcDbEntity
  8
0
100
AcDbBlockBegin
  2
_DOT
 70
     0
 10
0.0
 20
0.0
 30
0.0
  3
_DOT
  1

  0
LWPOLYLINE
  5
904
330
903
100
AcDbEntity
  8
0
  6
ByBlock
 62
     0
100
AcDbPolyline
 90
        2
 70
     1
 43
0.5
 10
-0.25
 20
0.0
 42
1.0
 10
0.25
 20
0.0
 42
1.0
  0
LINE
  5
905
330
903
100
AcDbEntity
  8
0
  6
ByBlock
 62
     0
100
AcDbLine
 10
-0.5
 20
0.0
 30
0.0
 11
-1.0
 21
0.0
 31
0.0
  0
ENDBLK
  5
907
330
903
100
AcDbEntity
  8
0
100
AcDbBlockEnd
  0
BLOCK
  5
26DE
330
26D4
100
AcDbEntity
  8
0
100
AcDbBlockBegin
  2
*D1
 70
     1
 10
0.0
 20
0.0
 30
0.0
  3
*D1
  1

  0
LINE
  5
55DA
330
26D4
100
AcDbEntity
  8
sunpo
 62
     0
 48
0.5
370
    -2
100
AcDbLine
 10
959.058634642743
 20
670.0000000000002
 30
0.0
 11
904.8814049038465
 21
670.0000000000002
 31
0.0
  0
LINE
  5
55DB
330
26D4
100
AcDbEntity
  8
sunpo
 62
     0
 48
0.5
370
    -2
100
AcDbLine
 10
959.0586346427432
 20
1025.0
 30
0.0
 11
904.8814049038465
 21
1025.0
 31
0.0
  0
LINE
  5
55DC
330
26D4
100
AcDbEntity
  8
sunpo
 62
     0
 48
0.5
370
    -2
100
AcDbLine
 10
904.8814049038465
 20
678.0000000000002
 30
0.0
 11
904.8814049038465
 21
1017.0
 31
0.0
  0
INSERT
  5
55DD
330
26D4
100
AcDbEntity
  8
sunpo
 62
     0
 48
0.5
370
    -2
100
AcDbBlockReference
  2
_DOT
 10
904.8814049038465
 20
670.0000000000002
 30
0.0
 41
8.0
 42
8.0
 43
8.0
 50
270.0
  0
INSERT
  5
55DE
330
26D4
100
AcDbEntity
  8
sunpo
 62
     0
 48
0.5
370
    -2
100
AcDbBlockReference
  2
_DOT
 10
904.8814049038465
 20
1025.0
 30
0.0
 41
8.0
 42
8.0
 43
8.0
 50
90.0
  0
MTEXT
  5
55DF
330
26D4
100
AcDbEntity
  8
sunpo
 62
     0
 48
0.5
100
AcDbMText
 10
892.4093236855723
 20
847.4999999999999
 30
0.0
 40
20.0
 41
0.0
 71
     5
 72
     1
  1
\A1;150以上（水上）
  7
MSゴシック
 11
0.0000000000000001
 21
1.0
 31
0.0
 73
     1
 44
1.0
1001
ACAD
1000
MTEXTBEGIN
1070
    73
1070
     1
1070
    44
1040
1.0
1070
    74
1070
     0
1000
MTEXTEND
  0
POINT
  5
55E0
330
26D4
100
AcDbEntity
  8
Defpoints
 62
     0
 48
0.5
100
AcDbPoint
 10
964.0586346427431
 20
670.0000000000002
 30
0.0
  0
POINT
  5
55E1
330
26D4
100
AcDbEntity
  8
Defpoints
 62
     0
 48
0.5
100
AcDbPoint
 10
964.0586346427431
 20
1025.0
 30
0.0
  0
POINT
  5
55E2
330
26D4
100
AcDbEntity
  8
Defpoints
 62
     0
 48
0.5
100
AcDbPoint
 10
904.8814049038465
 20
1025.0
 30
0.0
  0
ENDBLK
  5
26DF
330
26D4
100
AcDbEntity
  8
0
100
AcDbBlockEnd
  0
BLOCK
  5
2A53
330
2A1C
100
AcDbEntity
  8
0
 48
20.0
100
AcDbBlockBegin
  2
hps-5-10-30
 70
     0
 10
0.0
 20
0.0
 30
0.0
  3
hps-5-10-30
  1

  0
LINE
  5
2A1D
330
2A1C
100
AcDbEntity
  8
KANAMONO_SCREW
 48
20.0
100
AcDbLine
 10
-2.628551427289778
 20
-15.56980343716732
 30
0.0
 11
-3.074324324324322
 21
-25.67398910328466
 31
0.0
  0
LINE
  5
2A1E
330
2A1C
100
AcDbEntity
  8
KANAMONO_SCREW
 48
20.0
100
AcDbLine
 10
2.628551427297225
 20
-15.56980343716701
 30
0.0
 11
3.074324324324322
 21
-25.67398910328466
 31
0.0
  0
LINE
  5
2A1F
330
2A1C
100
AcDbEntity
  8
KANAMONO_SCREW
 48
20.0
100
AcDbLine
 10
0.2083333333333144
 20
-12.65597108526664
 30
0.0
 11
0.8333333333333143
 21
-26.8226377519333
 31
0.0
  0
LINE
  5
2A20
330
2A1C
100
AcDbEntity
  8
KANAMONO_SCREW
 48
20.0
100
AcDbLine
 10
-0.2083333333333144
 20
-12.65597108526664
 30
0.0
 11
-0.8333333333333143
 21
-26.8226377519333
 31
0.0
  0
LINE
  5
2A21
330
2A1C
100
AcDbEntity
  8
KANAMONO_SCREW
 48
20.0
100
AcDbLine
 10
-1.594514301521201
 20
-26.8226377519333
 30
0.0
 11
-0.3849498143908931
 21
-29.74278476348546
 31
0.0
  0
LINE
  5
2A22
330
2A1C
100
AcDbEntity
  8
KANAMONO_SCREW
 48
20.0
100
AcDbLine
 10
1.594514301521201
 20
-26.8226377519333
 30
0.0
 11
0.38494979603513
 21
-29.74278476348546
 31
0.0
  0
ARC
  5
2A23
330
2A1C
100
AcDbEntity
  8
KANAMONO_SCREW
 48
20.0
100
AcDbCircle
 10
-0.0000000091778816
 20
-29.58333333333333
 30
0.0
 40
0.4166666666666667
100
AcDbArc
 50
202.5000000000006
 51
337.4999999999994
  0
LINE
  5
2A24
330
2A1C
100
AcDbEntity
  8
KANAMONO_SCREW
 48
20.0
100
AcDbLine
 10
0.8333333333333143
 20
-26.8226377519333
 30
0.0
 11
2.5
 21
-26.8226377519333
 31
0.0
  0
LINE
  5
2A25
330
2A1C
100
AcDbEntity
  8
KANAMONO_SCREW
 48
20.0
100
AcDbLine
 10
-0.8333333333333143
 20
-26.8226377519333
 30
0.0
 11
-2.5
 21
-26.8226377519333
 31
0.0
  0
LINE
  5
2A26
330
2A1C
100
AcDbEntity
  8
KANAMONO_SCREW
 48
20.0
100
AcDbLine
 10
-2.5
 20
-26.8226377519333
 30
0.0
 11
-3.074324324324322
 21
-25.67398910328466
 31
0.0
  0
LINE
  5
2A27
330
2A1C
100
AcDbEntity
  8
KANAMONO_SCREW
 48
20.0
100
AcDbLine
 10
-0.7984944745110738
 20
-26.03295695196111
 30
0.0
 11
0.7810727768853099
 21
-25.63806513911202
 31
0.0
  0
LINE
  5
2A28
330
2A1C
100
AcDbEntity
  8
KANAMONO_SCREW
 48
20.0
100
AcDbLine
 10
-0.7427323927266798
 20
-24.76901643151503
 30
0.0
 11
0.7265273223398481
 21
-24.40170150274837
 31
0.0
  0
LINE
  5
2A29
330
2A1C
100
AcDbEntity
  8
KANAMONO_SCREW
 48
20.0
100
AcDbLine
 10
-1.347040089409006
 20
-27.42009335568558
 30
0.0
 11
1.042782325600171
 21
-26.8226377519333
 31
0.0
  0
LINE
  5
2A2A
330
2A1C
100
AcDbEntity
  8
KANAMONO_SCREW
 48
20.0
100
AcDbLine
 10
-0.6869703109422858
 20
-23.50507591106889
 30
0.0
 11
0.6719818677943863
 21
-23.16533786638472
 31
0.0
  0
LINE
  5
2A2B
330
2A1C
100
AcDbEntity
  8
KANAMONO_SCREW
 48
20.0
100
AcDbLine
 10
-0.4639219838047098
 20
-18.44931382928449
 30
0.0
 11
0.4538000496125961
 21
-18.21988332093018
 31
0.0
  0
LINE
  5
2A2C
330
2A1C
100
AcDbEntity
  8
KANAMONO_SCREW
 48
20.0
100
AcDbLine
 10
-0.6312082291578918
 20
-22.2411353906228
 30
0.0
 11
0.6174364132489245
 21
-21.92897423002107
 31
0.0
  0
LINE
  5
2A2D
330
2A1C
100
AcDbEntity
  8
KANAMONO_SCREW
 48
20.0
100
AcDbLine
 10
-0.5754461473734978
 20
-20.97719487017669
 30
0.0
 11
0.5628909587035196
 21
-20.69261059365742
 31
0.0
  0
LINE
  5
2A2E
330
2A1C
100
AcDbEntity
  8
KANAMONO_SCREW
 48
20.0
100
AcDbLine
 10
-0.5196840655891038
 20
-19.71325434973063
 30
0.0
 11
0.5083455041580578
 21
-19.45624695729383
 31
0.0
  0
LINE
  5
2A2F
330
2A1C
100
AcDbEntity
  8
KANAMONO_SCREW
 48
20.0
100
AcDbLine
 10
2.5
 20
-26.8226377519333
 30
0.0
 11
3.074324324324322
 21
-25.67398910328466
 31
0.0
  0
LINE
  5
2A30
330
2A1C
100
AcDbEntity
  8
KANAMONO_SCREW
 48
20.0
100
AcDbLine
 10
-2.5
 20
-0.8333333333333285
 30
0.0
 11
-2.5
 21
-12.6559710852661
 31
0.0
  0
LINE
  5
2A31
330
2A1C
100
AcDbEntity
  8
KANAMONO_SCREW
 48
20.0
100
AcDbLine
 10
2.5
 20
-0.833333333333357
 30
0.0
 11
2.5
 21
-12.6559710852661
 31
0.0
  0
LINE
  5
2A32
330
2A1C
100
AcDbEntity
  8
KANAMONO_SCREW
 48
20.0
100
AcDbLine
 10
-2.5
 20
-10.98930441859944
 30
0.0
 11
2.5
 21
-10.98930441859944
 31
0.0
  0
LINE
  5
2A33
330
2A1C
100
AcDbEntity
  8
KANAMONO_SCREW
 48
20.0
100
AcDbLine
 10
-2.5
 20
-8.489304418599445
 30
0.0
 11
2.5
 21
-8.489304418599445
 31
0.0
  0
LINE
  5
2A34
330
2A1C
100
AcDbEntity
  8
KANAMONO_SCREW
 48
20.0
100
AcDbLine
 10
-2.291869117721319
 20
-12.66515333007304
 30
0.0
 11
-2.5
 21
-12.6559710852661
 31
0.0
  0
LINE
  5
2A35
330
2A1C
100
AcDbEntity
  8
KANAMONO_SCREW
 48
20.0
100
AcDbLine
 10
-2.301051362528312
 20
-12.87328421235169
 30
0.0
 11
-2.509182244806879
 21
-12.86410196754472
 31
0.0
  0
LINE
  5
2A36
330
2A1C
100
AcDbEntity
  8
KANAMONO_SCREW
 48
20.0
100
AcDbLine
 10
-2.411238300211664
 20
-15.37085479969532
 30
0.0
 11
-2.619369182490231
 21
-15.36167255488836
 31
0.0
  0
LINE
  5
2A37
330
2A1C
100
AcDbEntity
  8
KANAMONO_SCREW
 48
20.0
100
AcDbLine
 10
-2.420420545018544
 20
-15.57898568197394
 30
0.0
 11
-2.628551427297225
 21
-15.56980343716701
 31
0.0
  0
LINE
  5
2A38
330
2A1C
100
AcDbEntity
  8
KANAMONO_SCREW
 48
20.0
100
AcDbLine
 10
-2.509182244806424
 20
-12.86410196754475
 30
0.0
 11
-2.619369182483353
 21
-15.3616725548887
 31
0.0
  0
LINE
  5
2A39
330
2A1C
100
AcDbEntity
  8
KANAMONO_SCREW
 48
20.0
100
AcDbLine
 10
-2.291869117721319
 20
-12.66515333007304
 30
0.0
 11
-2.420420545011097
 21
-15.57898568197429
 31
0.0
  0
LINE
  5
2A3A
330
2A1C
100
AcDbEntity
  8
KANAMONO_SCREW
 48
20.0
100
AcDbLine
 10
-0.2083333333333144
 20
-12.65597108526664
 30
0.0
 11
0.2083333333333144
 21
-12.65597108526664
 31
0.0
  0
LINE
  5
2A3B
330
2A1C
100
AcDbEntity
  8
KANAMONO_SCREW
 48
20.0
100
AcDbLine
 10
-0.2408736566671905
 20
-13.39355174750015
 30
0.0
 11
0.2356182314308057
 21
-13.27442877547567
 31
0.0
  0
LINE
  5
2A3C
330
2A1C
100
AcDbEntity
  8
KANAMONO_SCREW
 48
20.0
100
AcDbLine
 10
-0.4081599020203158
 20
-17.18537330883843
 30
0.0
 11
0.3992545950671342
 21
-16.98351968456656
 31
0.0
  0
LINE
  5
2A3D
330
2A1C
100
AcDbEntity
  8
KANAMONO_SCREW
 48
20.0
100
AcDbLine
 10
-0.3523978202359785
 20
-15.92143278839232
 30
0.0
 11
0.3447091405216724
 21
-15.74715604820291
 31
0.0
  0
LINE
  5
2A3E
330
2A1C
100
AcDbEntity
  8
KANAMONO_SCREW
 48
20.0
100
AcDbLine
 10
-0.2966357384515845
 20
-14.65749226794621
 30
0.0
 11
0.2901636859762107
 21
-14.51079241183926
 31
0.0
  0
LINE
  5
2A3F
330
2A1C
100
AcDbEntity
  8
KANAMONO_SCREW
 48
20.0
100
AcDbLine
 10
2.301051362528312
 20
-12.87328421235169
 30
0.0
 11
2.509182244806879
 21
-12.86410196754472
 31
0.0
  0
LINE
  5
2A40
330
2A1C
100
AcDbEntity
  8
KANAMONO_SCREW
 48
20.0
100
AcDbLine
 10
2.291869117721319
 20
-12.66515333007304
 30
0.0
 11
2.5
 21
-12.6559710852661
 31
0.0
  0
LINE
  5
2A41
330
2A1C
100
AcDbEntity
  8
KANAMONO_SCREW
 48
20.0
100
AcDbLine
 10
2.420420545018544
 20
-15.57898568197394
 30
0.0
 11
2.628551427297225
 21
-15.56980343716701
 31
0.0
  0
LINE
  5
2A42
330
2A1C
100
AcDbEntity
  8
KANAMONO_SCREW
 48
20.0
100
AcDbLine
 10
2.411238300211664
 20
-15.37085479969532
 30
0.0
 11
2.619369182490231
 21
-15.36167255488836
 31
0.0
  0
LINE
  5
2A43
330
2A1C
100
AcDbEntity
  8
KANAMONO_SCREW
 48
20.0
100
AcDbLine
 10
2.291869117721319
 20
-12.66515333007304
 30
0.0
 11
2.420420545011097
 21
-15.57898568197429
 31
0.0
  0
LINE
  5
2A44
330
2A1C
100
AcDbEntity
  8
KANAMONO_SCREW
 48
20.0
100
AcDbLine
 10
2.509182244806424
 20
-12.86410196754475
 30
0.0
 11
2.619369182483353
 21
-15.3616725548887
 31
0.0
  0
LINE
  5
2A45
330
2A1C
100
AcDbEntity
  8
KANAMONO_SCREW
 48
20.0
100
AcDbLine
 10
-3.333333333333314
 20
0.0000000000000142
 30
0.0
 11
3.333333333333314
 21
-0.0000000000000142
 31
0.0
  0
LINE
  5
2A46
330
2A1C
100
AcDbEntity
  8
KANAMONO_SCREW
 48
20.0
100
AcDbLine
 10
3.541666666666685
 20
2.083333333333328
 30
0.0
 11
-3.541666666666685
 21
2.083333333333328
 31
0.0
  0
LINE
  5
2A47
330
2A1C
100
AcDbEntity
  8
KANAMONO_SCREW
 48
20.0
100
AcDbLine
 10
2.5
 20
2.291666666666642
 30
0.0
 11
-2.5
 21
2.291666666666642
 31
0.0
  0
LINE
  5
2A48
330
2A1C
100
AcDbEntity
  8
KANAMONO_SCREW
 48
20.0
100
AcDbLine
 10
-4.583333333333314
 20
1.666666666666642
 30
0.0
 11
4.583333333333314
 21
1.666666666666642
 31
0.0
  0
LINE
  5
2A49
330
2A1C
100
AcDbEntity
  8
KANAMONO_SCREW
 48
20.0
100
AcDbLine
 10
-3.541666666666685
 20
2.083333333333328
 30
0.0
 11
-3.541666666666685
 21
1.666666666666642
 31
0.0
  0
LINE
  5
2A4A
330
2A1C
100
AcDbEntity
  8
KANAMONO_SCREW
 48
20.0
100
AcDbLine
 10
-3.541666666666685
 20
2.083333333333328
 30
0.0
 11
-2.5
 21
2.291666666666642
 31
0.0
  0
ARC
  5
2A4B
330
2A1C
100
AcDbEntity
  8
KANAMONO_SCREW
 48
20.0
100
AcDbCircle
 10
-3.333333333333314
 20
-0.8333333333333285
 30
0.0
 40
0.8333333333333333
100
AcDbArc
 50
0.0
 51
90.0
  0
LINE
  5
2A4C
330
2A1C
100
AcDbEntity
  8
KANAMONO_SCREW
 48
20.0
100
AcDbLine
 10
-4.583333333333314
 20
-0.0000000000000142
 30
0.0
 11
-3.333333333333314
 21
0.0000000000000142
 31
0.0
  0
LINE
  5
2A4D
330
2A1C
100
AcDbEntity
  8
KANAMONO_SCREW
 48
20.0
100
AcDbLine
 10
-4.583333333333314
 20
-0.0000000000000142
 30
0.0
 11
-4.583333333333314
 21
1.666666666666642
 31
0.0
  0
LINE
  5
2A4E
330
2A1C
100
AcDbEntity
  8
KANAMONO_SCREW
 48
20.0
100
AcDbLine
 10
4.583333333333314
 20
1.666666666666642
 30
0.0
 11
4.583333333333314
 21
-0.0000000000000142
 31
0.0
  0
LINE
  5
2A4F
330
2A1C
100
AcDbEntity
  8
KANAMONO_SCREW
 48
20.0
100
AcDbLine
 10
3.541666666666685
 20
1.666666666666642
 30
0.0
 11
3.541666666666685
 21
2.083333333333328
 31
0.0
  0
LINE
  5
2A50
330
2A1C
100
AcDbEntity
  8
KANAMONO_SCREW
 48
20.0
100
AcDbLine
 10
2.5
 20
2.291666666666642
 30
0.0
 11
3.541666666666685
 21
2.083333333333328
 31
0.0
  0
ARC
  5
2A51
330
2A1C
100
AcDbEntity
  8
KANAMONO_SCREW
 48
20.0
100
AcDbCircle
 10
3.333333333333314
 20
-0.833333333333357
 30
0.0
 40
0.8333333333333333
100
AcDbArc
 50
90.0
 51
180.0
  0
LINE
  5
2A52
330
2A1C
100
AcDbEntity
  8
KANAMONO_SCREW
 48
20.0
100
AcDbLine
 10
3.333333333333314
 20
-0.0000000000000142
 30
0.0
 11
4.583333333333314
 21
-0.0000000000000142
 31
0.0
  0
ENDBLK
  5
2A54
330
2A1C
100
AcDbEntity
  8
0
 48
20.0
100
AcDbBlockEnd
  0
BLOCK
  5
3456
330
344C
100
AcDbEntity
  8
0
100
AcDbBlockBegin
  2
*D3
 70
     1
 10
0.0
 20
0.0
 30
0.0
  3
*D3
  1

  0
LINE
  5
5607
330
344C
100
AcDbEntity
  8
sunpo
 62
     0
370
    -2
100
AcDbLine
 10
976.4644660940673
 20
590.9619407771256
 30
0.0
 11
926.1409355330181
 21
540.6384102160761
 31
0.0
  0
LINE
  5
5608
330
344C
100
AcDbEntity
  8
sunpo
 62
     0
370
    -2
100
AcDbLine
 10
1025.961940777126
 20
541.4644660940673
 30
0.0
 11
975.6384102160765
 21
491.1409355330179
 31
0.0
  0
LINE
  5
5609
330
344C
100
AcDbEntity
  8
sunpo
 62
     0
370
    -2
100
AcDbLine
 10
931.7977897825103
 20
534.9815559665837
 30
0.0
 11
969.9815559665841
 21
496.7977897825103
 31
0.0
  0
MTEXT
  5
560A
330
344C
100
AcDbEntity
  8
sunpo
 62
     0
100
AcDbMText
 10
934.4546062979301
 20
501.5531784945051
 30
0.0
 40
20.0
 41
0.0
 71
     5
 72
     1
  1
\A1;70程度
  7
MSゴシック
 11
0.7071067811865495
 21
-0.7071067811865457
 31
0.0
 73
     1
 44
1.0
1001
ACAD
1000
MTEXTBEGIN
1070
    73
1070
     1
1070
    44
1040
1.0
1070
    74
1070
     0
1000
MTEXTEND
  0
INSERT
  5
560B
330
344C
100
AcDbEntity
  8
sunpo
 62
     0
370
    -2
100
AcDbBlockReference
  2
_DOT
 10
926.1409355330181
 20
540.6384102160761
 30
0.0
 41
8.0
 42
8.0
 43
8.0
 50
135.0000000000001
  0
INSERT
  5
560C
330
344C
100
AcDbEntity
  8
sunpo
 62
     0
370
    -2
100
AcDbBlockReference
  2
_DOT
 10
975.6384102160765
 20
491.1409355330179
 30
0.0
 41
8.0
 42
8.0
 43
8.0
 50
315.0000000000002
  0
POINT
  5
560D
330
344C
100
AcDbEntity
  8
Defpoints
 62
     0
100
AcDbPoint
 10
980.0
 20
594.4974746830584
 30
0.0
  0
POINT
  5
560E
330
344C
100
AcDbEntity
  8
Defpoints
 62
     0
100
AcDbPoint
 10
1029.497474683058
 20
545.0000000000001
 30
0.0
  0
POINT
  5
560F
330
344C
100
AcDbEntity
  8
Defpoints
 62
     0
100
AcDbPoint
 10
975.6384102160765
 20
491.1409355330179
 30
0.0
  0
ENDBLK
  5
3457
330
344C
100
AcDbEntity
  8
0
100
AcDbBlockEnd
  0
BLOCK
  5
3462
330
3458
100
AcDbEntity
  8
0
100
AcDbBlockBegin
  2
*D4
 70
     1
 10
0.0
 20
0.0
 30
0.0
  3
*D4
  1

  0
LINE
  5
55E3
330
3458
100
AcDbEntity
  8
sunpo
 62
     0
 48
0.5
370
    -2
100
AcDbLine
 10
980.0
 20
738.6479041509701
 30
0.0
 11
980.0
 21
767.8974235504174
 31
0.0
  0
LINE
  5
55E4
330
3458
100
AcDbEntity
  8
sunpo
 62
     0
 48
0.5
370
    -2
100
AcDbLine
 10
1340.0
 20
674.5
 30
0.0
 11
1340.0
 21
767.8974235504174
 31
0.0
  0
LINE
  5
55E5
330
3458
100
AcDbEntity
  8
sunpo
 62
     0
 48
0.5
370
    -2
100
AcDbLine
 10
988.0
 20
767.8974235504174
 30
0.0
 11
1332.0
 21
767.8974235504174
 31
0.0
  0
MTEXT
  5
55E6
330
3458
100
AcDbEntity
  8
sunpo
 62
     0
 48
0.5
100
AcDbMText
 10
1160.0
 20
786.2903321137828
 30
0.0
 40
20.0
 41
0.0
 71
     5
 72
     1
  1
\A1;300～600
  7
MSゴシック
 73
     1
 44
1.0
1001
ACAD
1000
MTEXTBEGIN
1070
    73
1070
     1
1070
    44
1040
1.0
1070
    74
1070
     0
1000
MTEXTEND
  0
INSERT
  5
55E7
330
3458
100
AcDbEntity
  8
sunpo
 62
     0
 48
0.5
370
    -2
100
AcDbBlockReference
  2
_DOT
 10
980.0
 20
767.8974235504174
 30
0.0
 41
8.0
 42
8.0
 43
8.0
 50
180.0
  0
INSERT
  5
55E8
330
3458
100
AcDbEntity
  8
sunpo
 62
     0
 48
0.5
370
    -2
100
AcDbBlockReference
  2
_DOT
 10
1340.0
 20
767.8974235504174
 30
0.0
 41
8.0
 42
8.0
 43
8.0
  0
POINT
  5
55E9
330
3458
100
AcDbEntity
  8
Defpoints
 62
     0
 48
0.5
100
AcDbPoint
 10
980.0
 20
733.6479041509701
 30
0.0
  0
POINT
  5
55EA
330
3458
100
AcDbEntity
  8
Defpoints
 62
     0
 48
0.5
100
AcDbPoint
 10
1340.0
 20
669.5
 30
0.0
  0
POINT
  5
55EB
330
3458
100
AcDbEntity
  8
Defpoints
 62
     0
 48
0.5
100
AcDbPoint
 10
1340.0
 20
767.8974235504174
 30
0.0
  0
ENDBLK
  5
3463
330
3458
100
AcDbEntity
  8
0
100
AcDbBlockEnd
  0
BLOCK
  5
3E56
330
3E4C
100
AcDbEntity
  8
0
100
AcDbBlockBegin
  2
*D5
 70
     1
 10
0.0
 20
0.0
 30
0.0
  3
*D5
  1

  0
LINE
  5
55EC
330
3E4C
100
AcDbEntity
  8
sunpo
 62
     0
 48
0.5
370
    -2
100
AcDbLine
 10
799.9999999999998
 20
1086.368354928252
 30
0.0
 11
799.9999999999998
 21
1066.368354928252
 31
0.0
  0
LINE
  5
55ED
330
3E4C
100
AcDbEntity
  8
sunpo
 62
     0
 48
0.5
370
    -2
100
AcDbLine
 10
979.9999999999997
 20
1086.368354928252
 30
0.0
 11
979.9999999999997
 21
1066.368354928252
 31
0.0
  0
LINE
  5
55EE
330
3E4C
100
AcDbEntity
  8
sunpo
 62
     0
 48
0.5
370
    -2
100
AcDbLine
 10
807.9999999999998
 20
1066.368354928252
 30
0.0
 11
971.9999999999997
 21
1066.368354928252
 31
0.0
  0
MTEXT
  5
55EF
330
3E4C
100
AcDbEntity
  8
sunpo
 62
     0
 48
0.5
100
AcDbMText
 10
889.9999999999998
 20
1083.702590006172
 30
0.0
 40
20.0
 41
0.0
 71
     5
 72
     1
  1
\A1;≧180
  7
MSゴシック
 73
     1
 44
1.0
1001
ACAD
1000
MTEXTBEGIN
1070
    73
1070
     1
1070
    44
1040
1.0
1070
    74
1070
     0
1000
MTEXTEND
  0
INSERT
  5
55F0
330
3E4C
100
AcDbEntity
  8
sunpo
 62
     0
 48
0.5
370
    -2
100
AcDbBlockReference
  2
_DOT
 10
799.9999999999998
 20
1066.368354928252
 30
0.0
 41
8.0
 42
8.0
 43
8.0
 50
180.0
  0
INSERT
  5
55F1
330
3E4C
100
AcDbEntity
  8
sunpo
 62
     0
 48
0.5
370
    -2
100
AcDbBlockReference
  2
_DOT
 10
979.9999999999997
 20
1066.368354928252
 30
0.0
 41
8.0
 42
8.0
 43
8.0
  0
POINT
  5
55F2
330
3E4C
100
AcDbEntity
  8
Defpoints
 62
     0
 48
0.5
100
AcDbPoint
 10
799.9999999999998
 20
1091.368354928252
 30
0.0
  0
POINT
  5
55F3
330
3E4C
100
AcDbEntity
  8
Defpoints
 62
     0
 48
0.5
100
AcDbPoint
 10
979.9999999999997
 20
1091.368354928252
 30
0.0
  0
POINT
  5
55F4
330
3E4C
100
AcDbEntity
  8
Defpoints
 62
     0
 48
0.5
100
AcDbPoint
 10
979.9999999999997
 20
1066.368354928252
 30
0.0
  0
ENDBLK
  5
3E57
330
3E4C
100
AcDbEntity
  8
0
100
AcDbBlockEnd
  0
BLOCK
  5
3E62
330
3E58
100
AcDbEntity
  8
0
100
AcDbBlockBegin
  2
*D6
 70
     1
 10
0.0
 20
0.0
 30
0.0
  3
*D6
  1

  0
LINE
  5
55F5
330
3E58
100
AcDbEntity
  8
sunpo
 62
     0
 48
0.5
370
    -2
100
AcDbLine
 10
979.9999999999997
 20
1081.368354928252
 30
0.0
 11
979.9999999999997
 21
1066.368354928252
 31
0.0
  0
LINE
  5
55F6
330
3E58
100
AcDbEntity
  8
sunpo
 62
     0
 48
0.5
370
    -2
100
AcDbLine
 10
1080.0
 20
1081.368354928252
 30
0.0
 11
1080.0
 21
1066.368354928252
 31
0.0
  0
LINE
  5
55F7
330
3E58
100
AcDbEntity
  8
sunpo
 62
     0
 48
0.5
370
    -2
100
AcDbLine
 10
987.9999999999997
 20
1066.368354928252
 30
0.0
 11
1072.0
 21
1066.368354928252
 31
0.0
  0
MTEXT
  5
55F8
330
3E58
100
AcDbEntity
  8
sunpo
 62
     0
 48
0.5
100
AcDbMText
 10
1029.945233478331
 20
1085.27563809819
 30
0.0
 40
20.0
 41
0.0
 71
     5
 72
     1
  1
\A1;100
  7
MSゴシック
 73
     1
 44
1.0
1001
ACAD
1000
MTEXTBEGIN
1070
    73
1070
     1
1070
    44
1040
1.0
1070
    74
1070
     0
1000
MTEXTEND
  0
INSERT
  5
55F9
330
3E58
100
AcDbEntity
  8
sunpo
 62
     0
 48
0.5
370
    -2
100
AcDbBlockReference
  2
_DOT
 10
979.9999999999997
 20
1066.368354928252
 30
0.0
 41
8.0
 42
8.0
 43
8.0
 50
180.0
  0
INSERT
  5
55FA
330
3E58
100
AcDbEntity
  8
sunpo
 62
     0
 48
0.5
370
    -2
100
AcDbBlockReference
  2
_DOT
 10
1080.0
 20
1066.368354928252
 30
0.0
 41
8.0
 42
8.0
 43
8.0
  0
POINT
  5
55FB
330
3E58
100
AcDbEntity
  8
Defpoints
 62
     0
 48
0.5
100
AcDbPoint
 10
979.9999999999997
 20
1086.368354928252
 30
0.0
  0
POINT
  5
55FC
330
3E58
100
AcDbEntity
  8
Defpoints
 62
     0
 48
0.5
100
AcDbPoint
 10
1080.0
 20
1086.368354928252
 30
0.0
  0
POINT
  5
55FD
330
3E58
100
AcDbEntity
  8
Defpoints
 62
     0
 48
0.5
100
AcDbPoint
 10
1080.0
 20
1066.368354928252
 30
0.0
  0
ENDBLK
  5
3E63
330
3E58
100
AcDbEntity
  8
0
100
AcDbBlockEnd
  0
BLOCK
  5
3E6E
330
3E64
100
AcDbEntity
  8
0
100
AcDbBlockBegin
  2
*D7
 70
     1
 10
0.0
 20
0.0
 30
0.0
  3
*D7
  1

  0
LINE
  5
55FE
330
3E64
100
AcDbEntity
  8
sunpo
 62
     0
 48
0.5
370
    -2
100
AcDbLine
 10
1080.0
 20
1081.368354928252
 30
0.0
 11
1080.0
 21
1066.368354928252
 31
0.0
  0
LINE
  5
55FF
330
3E64
100
AcDbEntity
  8
sunpo
 62
     0
 48
0.5
370
    -2
100
AcDbLine
 10
1105.0
 20
1094.5
 30
0.0
 11
1105.0
 21
1066.368354928252
 31
0.0
  0
LINE
  5
5600
330
3E64
100
AcDbEntity
  8
sunpo
 62
     0
 48
0.5
370
    -2
100
AcDbLine
 10
1088.0
 20
1066.368354928252
 30
0.0
 11
1097.0
 21
1066.368354928252
 31
0.0
  0
MTEXT
  5
5601
330
3E64
100
AcDbEntity
  8
sunpo
 62
     0
 48
0.5
100
AcDbMText
 10
1136.554777457907
 20
1085.43105808696
 30
0.0
 40
20.0
 41
0.0
 71
     5
 72
     1
  1
\A1;25
  7
MSゴシック
 73
     1
 44
1.0
1001
ACAD
1000
MTEXTBEGIN
1070
    73
1070
     1
1070
    44
1040
1.0
1070
    74
1070
     0
1000
MTEXTEND
  0
INSERT
  5
5602
330
3E64
100
AcDbEntity
  8
sunpo
 62
     0
 48
0.5
370
    -2
100
AcDbBlockReference
  2
_DOT
 10
1080.0
 20
1066.368354928252
 30
0.0
 41
8.0
 42
8.0
 43
8.0
 50
180.0
  0
INSERT
  5
5603
330
3E64
100
AcDbEntity
  8
sunpo
 62
     0
 48
0.5
370
    -2
100
AcDbBlockReference
  2
_DOT
 10
1105.0
 20
1066.368354928252
 30
0.0
 41
8.0
 42
8.0
 43
8.0
  0
POINT
  5
5604
330
3E64
100
AcDbEntity
  8
Defpoints
 62
     0
 48
0.5
100
AcDbPoint
 10
1080.0
 20
1086.368354928252
 30
0.0
  0
POINT
  5
5605
330
3E64
100
AcDbEntity
  8
Defpoints
 62
     0
 48
0.5
100
AcDbPoint
 10
1105.0
 20
1099.5
 30
0.0
  0
POINT
  5
5606
330
3E64
100
AcDbEntity
  8
Defpoints
 62
     0
 48
0.5
100
AcDbPoint
 10
1105.0
 20
1066.368354928252
 30
0.0
  0
ENDBLK
  5
3E6F
330
3E64
100
AcDbEntity
  8
0
100
AcDbBlockEnd
  0
ENDSEC
  0
SECTION
  2
ENTITIES
  0
LINE
  5
24F1
330
1F
100
AcDbEntity
  8
KUTAI
100
AcDbLine
 10
2280.0
 20
545.0
 30
0.0
 11
980.0
 21
545.0
 31
0.0
  0
LINE
  5
24F2
330
1F
100
AcDbEntity
  8
KUTAI
100
AcDbLine
 10
980.0
 20
545.0
 30
0.0
 11
980.0
 21
1195.0
 31
0.0
  0
LINE
  5
24F4
330
1F
100
AcDbEntity
  8
KUTAI
100
AcDbLine
 10
800.0
 20
1495.0
 30
0.0
 11
800.0
 21
695.0000000000002
 31
0.0
  0
LINE
  5
24F5
330
1F
100
AcDbEntity
  8
KUTAI
100
AcDbLine
 10
2280.0
 20
395.0
 30
0.0
 11
980.0
 21
394.9999999999999
 31
0.0
  0
TEXT
  5
28CA
330
1F
100
AcDbEntity
  8
MOJI
100
AcDbText
 10
586.0081213952367
 20
987.2513428483712
 30
0.0
 40
20.0
  1
（室内）
  7
MSゴシック
100
AcDbText
  0
LINE
  5
2A0D
330
1F
100
AcDbEntity
  8
KUTAI
100
AcDbLine
 10
580.0
 20
545.0000000000001
 30
0.0
 11
579.9999999999998
 21
295.0
 31
0.0
  0
LINE
  5
2A0E
330
1F
100
AcDbEntity
  8
KUTAI
100
AcDbLine
 10
980.0
 20
394.9999999999999
 30
0.0
 11
980.0
 21
294.9999999999999
 31
0.0
  0
LINE
  5
2A0F
330
1F
100
AcDbEntity
  8
KUTAI
100
AcDbLine
 10
580.0
 20
545.0000000000001
 30
0.0
 11
479.9999999999998
 21
545.0000000000001
 31
0.0
  0
LINE
  5
2A10
330
1F
100
AcDbEntity
  8
KUTAI
100
AcDbLine
 10
800.0
 20
695.0000000000002
 30
0.0
 11
479.9999999999998
 21
695.0000000000002
 31
0.0
  0
LINE
  5
2A14
330
1F
100
AcDbEntity
  8
KUTAI
100
AcDbLine
 10
980.0
 20
1195.0
 30
0.0
 11
1005.0
 21
1195.0
 31
0.0
  0
LINE
  5
2A15
330
1F
100
AcDbEntity
  8
KUTAI
100
AcDbLine
 10
1005.0
 20
1195.0
 30
0.0
 11
1005.0
 21
1495.0
 31
0.0
  0
LINE
  5
2CAE
330
1F
100
AcDbEntity
  8
KUTAI
  6
DASHED
100
AcDbLine
 10
980.0
 20
1195.0
 30
0.0
 11
979.9999999999997
 21
1495.0
 31
0.0
  0
LINE
  5
2DF0
330
1F
100
AcDbEntity
  8
HATCH
100
AcDbLine
 10
800.0
 20
1249.999999088009
 30
0.0
 11
1005.0
 21
1454.999999088008
 31
0.0
  0
LINE
  5
2DF1
330
1F
100
AcDbEntity
  8
HATCH
100
AcDbLine
 10
800.0
 20
1239.999999088009
 30
0.0
 11
1005.0
 21
1444.999999088009
 31
0.0
  0
LINE
  5
2DF2
330
1F
100
AcDbEntity
  8
HATCH
100
AcDbLine
 10
800.0
 20
1229.999999088009
 30
0.0
 11
1005.0
 21
1434.999999088009
 31
0.0
  0
LINE
  5
2DF6
330
1F
100
AcDbEntity
  8
HATCH
100
AcDbLine
 10
845.0000009119913
 20
295.0
 30
0.0
 11
1095.000000911991
 21
545.0
 31
0.0
  0
LINE
  5
2DF7
330
1F
100
AcDbEntity
  8
HATCH
100
AcDbLine
 10
855.0000009119912
 20
295.0
 30
0.0
 11
1105.000000911991
 21
545.0
 31
0.0
  0
LINE
  5
2DF8
330
1F
100
AcDbEntity
  8
HATCH
100
AcDbLine
 10
865.0000009119912
 20
295.0
 30
0.0
 11
1115.000000911991
 21
545.0
 31
0.0
  0
LINE
  5
2E02
330
1F
100
AcDbEntity
  8
HATCH
100
AcDbLine
 10
800.0
 20
749.9999990880086
 30
0.0
 11
980.0
 21
929.9999990880085
 31
0.0
  0
LINE
  5
2E03
330
1F
100
AcDbEntity
  8
HATCH
100
AcDbLine
 10
800.0
 20
729.9999990880086
 30
0.0
 11
980.0
 21
909.9999990880085
 31
0.0
  0
LINE
  5
2E04
330
1F
100
AcDbEntity
  8
HATCH
100
AcDbLine
 10
800.0
 20
739.9999990880086
 30
0.0
 11
980.0
 21
919.9999990880085
 31
0.0
  0
LINE
  5
2E05
330
1F
100
AcDbEntity
  8
HATCH
100
AcDbLine
 10
580.0
 20
519.9999990880087
 30
0.0
 11
755.0000009119916
 21
695.0000000000002
 31
0.0
  0
LINE
  5
2E06
330
1F
100
AcDbEntity
  8
HATCH
100
AcDbLine
 10
580.0
 20
529.9999990880087
 30
0.0
 11
745.0000009119916
 21
695.0000000000002
 31
0.0
  0
LINE
  5
2E07
330
1F
100
AcDbEntity
  8
HATCH
100
AcDbLine
 10
580.0
 20
509.9999990880087
 30
0.0
 11
765.0000009119915
 21
695.0000000000002
 31
0.0
  0
LINE
  5
2E08
330
1F
100
AcDbEntity
  8
HATCH
100
AcDbLine
 10
1465.000000911991
 20
394.9999999999998
 30
0.0
 11
1615.000000911991
 21
545.0
 31
0.0
  0
LINE
  5
2E09
330
1F
100
AcDbEntity
  8
HATCH
100
AcDbLine
 10
1445.000000911991
 20
394.9999999999998
 30
0.0
 11
1595.000000911991
 21
545.0
 31
0.0
  0
LINE
  5
2E0A
330
1F
100
AcDbEntity
  8
HATCH
100
AcDbLine
 10
1455.000000911991
 20
394.9999999999998
 30
0.0
 11
1605.000000911991
 21
545.0
 31
0.0
  0
LINE
  5
2E0B
330
1F
100
AcDbEntity
  8
HATCH
100
AcDbLine
 10
1965.000000911991
 20
394.9999999999999
 30
0.0
 11
2115.000000911992
 21
545.0
 31
0.0
  0
LINE
  5
2E0C
330
1F
100
AcDbEntity
  8
HATCH
100
AcDbLine
 10
1955.000000911991
 20
394.9999999999999
 30
0.0
 11
2105.000000911991
 21
545.0
 31
0.0
  0
LINE
  5
2E0D
330
1F
100
AcDbEntity
  8
HATCH
100
AcDbLine
 10
1945.000000911991
 20
394.9999999999999
 30
0.0
 11
2095.000000911992
 21
545.0
 31
0.0
  0
CIRCLE
  5
328D
102
{ACAD_REACTORS
330
328E
102
}
330
1F
100
AcDbEntity
  8
MOJI
100
AcDbCircle
 10
1011.334398287843
 20
591.1291532829014
 30
0.0
 40
4.0
  0
HATCH
  5
328E
330
1F
100
AcDbEntity
  8
MOJI
100
AcDbHatch
 10
0.0
 20
0.0
 30
0.0
210
0.0
220
0.0
230
1.0
  2
SOLID
 70
     1
 71
     1
 91
        1
 92
        1
 93
        1
 72
     2
 10
1011.334398287843
 20
591.1291532829014
 40
4.0
 50
0.0
 51
360.0
 73
     1
 97
        1
330
328D
 75
     0
 76
     1
 98
        1
 10
-698.8958871719717
 20
-336.0472204434856
  0
CIRCLE
  5
3290
102
{ACAD_REACTORS
330
3291
102
}
330
1F
100
AcDbEntity
  8
MOJI
100
AcDbCircle
 10
1476.896795605651
 20
592.8121395026471
 30
0.0
 40
4.0
  0
HATCH
  5
3291
330
1F
100
AcDbEntity
  8
MOJI
100
AcDbHatch
 10
0.0
 20
0.0
 30
0.0
210
0.0
220
0.0
230
1.0
  2
SOLID
 70
     1
 71
     1
 91
        1
 92
        1
 93
        1
 72
     2
 10
1476.896795605651
 20
592.8121395026471
 40
4.0
 50
0.0
 51
360.0
 73
     1
 97
        1
330
3290
 75
     0
 76
     1
 98
        1
 10
-233.3334898541648
 20
-334.3642342237401
  0
CIRCLE
  5
3292
102
{ACAD_REACTORS
330
3293
102
}
330
1F
100
AcDbEntity
  8
MOJI
100
AcDbCircle
 10
1465.177737504175
 20
572.5141354540403
 30
0.0
 40
4.0
  0
HATCH
  5
3293
330
1F
100
AcDbEntity
  8
MOJI
100
AcDbHatch
 10
0.0
 20
0.0
 30
0.0
210
0.0
220
0.0
230
1.0
  2
SOLID
 70
     1
 71
     1
 91
        1
 92
        1
 93
        1
 72
     2
 10
1465.177737504175
 20
572.5141354540403
 40
4.0
 50
0.0
 51
360.0
 73
     1
 97
        1
330
3292
 75
     0
 76
     1
 98
        1
 10
-245.05254795564
 20
-354.6622382723465
  0
HATCH
  5
3294
330
1F
100
AcDbEntity
  8
MOJI
100
AcDbHatch
 10
0.0
 20
0.0
 30
0.0
210
0.0
220
0.0
230
1.0
  2
SOLID
 70
     1
 71
     1
 91
        1
 92
        1
 93
        1
 72
     2
 10
1452.291323231384
 20
550.1942112061856
 40
4.0
 50
0.0
 51
360.0
 73
     1
 97
        1
330
3295
 75
     0
 76
     1
 98
        1
 10
-257.9389622284312
 20
-376.9821625202014
  0
CIRCLE
  5
3295
102
{ACAD_REACTORS
330
3294
102
}
330
1F
100
AcDbEntity
  8
MOJI
100
AcDbCircle
 10
1452.291323231384
 20
550.1942112061856
 30
0.0
 40
4.0
  0
CIRCLE
  5
3296
102
{ACAD_REACTORS
330
3297
102
}
330
1F
100
AcDbEntity
  8
MOJI
100
AcDbCircle
 10
1339.25437825772
 20
658.0584264279905
 30
0.0
 40
4.0
  0
HATCH
  5
3297
330
1F
100
AcDbEntity
  8
MOJI
100
AcDbHatch
 10
0.0
 20
0.0
 30
0.0
210
0.0
220
0.0
230
1.0
  2
SOLID
 70
     1
 71
     1
 91
        1
 92
        1
 93
        1
 72
     2
 10
1339.25437825772
 20
658.0584264279905
 40
4.0
 50
0.0
 51
360.0
 73
     1
 97
        1
330
3296
 75
     0
 76
     1
 98
        1
 10
-370.9759072020952
 20
-269.1179472983965
  0
CIRCLE
  5
3298
102
{ACAD_REACTORS
330
3299
102
}
330
1F
100
AcDbEntity
  8
MOJI
100
AcDbCircle
 10
1505.56670337725
 20
642.5832158930711
 30
0.0
 40
4.0
  0
HATCH
  5
3299
330
1F
100
AcDbEntity
  8
MOJI
100
AcDbHatch
 10
0.0
 20
0.0
 30
0.0
210
0.0
220
0.0
230
1.0
  2
SOLID
 70
     1
 71
     1
 91
        1
 92
        1
 93
        1
 72
     2
 10
1505.56670337725
 20
642.5832158930711
 40
4.0
 50
0.0
 51
360.0
 73
     1
 97
        1
330
3298
 75
     0
 76
     1
 98
        1
 10
-204.663582082565
 20
-284.5931578333159
  0
TEXT
  5
329A
330
1F
100
AcDbEntity
  8
MOJI
100
AcDbText
 10
1682.356573798753
 20
846.8802214437818
 30
0.0
 40
20.0
  1
溶接金網（φ3.5～6mm＠100）
  7
MSゴシック
 11
1682.356573798753
 21
856.880221443782
 31
0.0
100
AcDbText
 73
     2
  0
TEXT
  5
329B
330
1F
100
AcDbEntity
  8
MOJI
100
AcDbText
 10
1636.168552263583
 20
766.8802214437818
 30
0.0
 40
20.0
  1
断熱材：ＲＢボードまたはスタイロフォームRB-GK-2
  7
MSゴシック
 11
1636.168552263583
 21
776.8802214437819
 31
0.0
100
AcDbText
 73
     2
  0
TEXT
  5
329C
330
1F
100
AcDbEntity
  8
MOJI
100
AcDbText
 10
1659.262563031169
 20
806.880221443782
 30
0.0
 40
20.0
  1
絶縁クロス1000
  7
MSゴシック
 11
1659.262563031169
 21
816.8802214437819
 31
0.0
100
AcDbText
 73
     2
  0
TEXT
  5
329D
330
1F
100
AcDbEntity
  8
MOJI
100
AcDbText
 10
1561.330878533161
 20
940.9075152709874
 30
0.0
 40
20.0
  1
伸縮目地（W=25）
  7
MSゴシック
 11
1561.330878533161
 21
950.9075152709874
 31
0.0
100
AcDbText
 73
     2
  0
TEXT
  5
329E
330
1F
100
AcDbEntity
  8
MOJI
100
AcDbText
 10
1126.982460464141
 20
689.6387799679834
 30
0.0
 40
20.0
  1
RBキャント1500
  7
MSゴシック
 11
1126.982460464141
 21
699.6387799679833
 31
0.0
100
AcDbText
 73
     2
  0
LINE
  5
329F
330
1F
100
AcDbEntity
  8
MOJI
100
AcDbLine
 10
1560.074541495998
 20
736.8802214437819
 30
0.0
 11
1610.074541495998
 21
736.8802214437819
 31
0.0
  0
LINE
  5
32A0
330
1F
100
AcDbEntity
  8
MOJI
100
AcDbLine
 10
1583.168552263582
 20
776.8802214437819
 30
0.0
 11
1633.168552263583
 21
776.8802214437819
 31
0.0
  0
LINE
  5
32A1
330
1F
100
AcDbEntity
  8
MOJI
100
AcDbLine
 10
1629.356573798753
 20
856.880221443782
 30
0.0
 11
1679.356573798752
 21
856.880221443782
 31
0.0
  0
LINE
  5
32A2
330
1F
100
AcDbEntity
  8
MOJI
100
AcDbLine
 10
1606.262563031168
 20
816.8802214437819
 30
0.0
 11
1656.262563031168
 21
816.8802214437819
 31
0.0
  0
LINE
  5
32A9
330
1F
100
AcDbEntity
  8
KUTAI
100
AcDbLine
 10
1348.214085098607
 20
590.0
 30
0.0
 11
1348.214085098607
 21
666.5
 31
0.0
  0
LINE
  5
32AA
330
1F
100
AcDbEntity
  8
KUTAI
100
AcDbLine
 10
1344.464085098607
 20
590.0
 30
0.0
 11
1344.464085098607
 21
666.5
 31
0.0
  0
LINE
  5
32AB
330
1F
100
AcDbEntity
  8
KUTAI
100
AcDbLine
 10
1340.714085098607
 20
590.0
 30
0.0
 11
1340.714085098607
 21
666.5
 31
0.0
  0
LINE
  5
32AC
330
1F
100
AcDbEntity
  8
KUTAI
100
AcDbLine
 10
1336.964085098607
 20
590.0
 30
0.0
 11
1336.964085098607
 21
666.4999999999995
 31
0.0
  0
LINE
  5
32AD
330
1F
100
AcDbEntity
  8
KUTAI
100
AcDbLine
 10
1333.214085098607
 20
590.0
 30
0.0
 11
1333.214085098607
 21
666.4999999999995
 31
0.0
  0
LINE
  5
32DF
330
1F
100
AcDbEntity
  8
KUTAI
100
AcDbLine
 10
1029.497474683058
 20
545.0
 30
0.0
 11
980.0
 21
594.4974746830582
 31
0.0
  0
LINE
  5
3390
330
1F
100
AcDbEntity
  8
KUTAI
100
AcDbLine
 10
2280.0
 20
670.0
 30
0.0
 11
1354.0
 21
670.0
 31
0.0
  0
CIRCLE
  5
33B5
102
{ACAD_REACTORS
330
33B6
102
}
330
1F
100
AcDbEntity
  8
MOJI
100
AcDbCircle
 10
995.330580332933
 20
559.4097274699138
 30
0.0
 40
4.0
  0
HATCH
  5
33B6
330
1F
100
AcDbEntity
  8
MOJI
100
AcDbHatch
 10
0.0
 20
0.0
 30
0.0
210
0.0
220
0.0
230
1.0
  2
SOLID
 70
     1
 71
     1
 91
        1
 92
        1
 93
        1
 72
     2
 10
995.330580332933
 20
559.4097274699138
 40
4.0
 50
0.0
 51
360.0
 73
     1
 97
        1
330
33B5
 75
     0
 76
     1
 98
        1
 10
-714.8997051268825
 20
-367.7666462564732
  0
TEXT
  5
33B7
330
1F
100
AcDbEntity
  8
MOJI
100
AcDbText
 10
1116.242516466144
 20
431.7828036468186
 30
0.0
 40
20.0
  1
モルタル
  7
MSゴシック
 11
1116.242516466144
 21
441.7828036468185
 31
0.0
100
AcDbText
 73
     2
  0
CIRCLE
  5
33B8
102
{ACAD_REACTORS
330
33B9
102
}
330
1F
100
AcDbEntity
  8
MOJI
100
AcDbCircle
 10
1496.771788883714
 20
627.3499771420412
 30
0.0
 40
4.0
  0
HATCH
  5
33B9
330
1F
100
AcDbEntity
  8
MOJI
100
AcDbHatch
 10
0.0
 20
0.0
 30
0.0
210
0.0
220
0.0
230
1.0
  2
SOLID
 70
     1
 71
     1
 91
        1
 92
        1
 93
        1
 72
     2
 10
1496.771788883714
 20
627.3499771420412
 40
4.0
 50
0.0
 51
360.0
 73
     1
 97
        1
330
33B8
 75
     0
 76
     1
 98
        1
 10
-213.4584965761019
 20
-299.8263965843459
  0
LINE
  5
33BF
330
1F
100
AcDbEntity
  8
HATCH
100
AcDbLine
 10
990.0
 20
833.3913676181227
 30
0.0
 11
1080.0
 21
743.3913676181228
 31
0.0
  0
LINE
  5
33C0
330
1F
100
AcDbEntity
  8
HATCH
100
AcDbLine
 10
990.0
 20
843.3913676181228
 30
0.0
 11
1080.0
 21
753.3913676181228
 31
0.0
  0
LINE
  5
33C1
330
1F
100
AcDbEntity
  8
HATCH
100
AcDbLine
 10
990.0
 20
853.3913676181228
 30
0.0
 11
1080.0
 21
763.3913676181223
 31
0.0
  0
LINE
  5
33C2
330
1F
100
AcDbEntity
  8
HATCH
100
AcDbLine
 10
1653.391367618123
 20
670.0
 30
0.0
 11
1733.391367618123
 21
590.0
 31
0.0
  0
LINE
  5
33C3
330
1F
100
AcDbEntity
  8
HATCH
100
AcDbLine
 10
1663.391367618124
 20
670.0
 30
0.0
 11
1743.391367618122
 21
590.0
 31
0.0
  0
LINE
  5
33C4
330
1F
100
AcDbEntity
  8
HATCH
100
AcDbLine
 10
1673.391367618124
 20
670.0
 30
0.0
 11
1753.391367618123
 21
590.0
 31
0.0
  0
LINE
  5
33C5
330
1F
100
AcDbEntity
  8
HATCH
100
AcDbLine
 10
2153.391367618124
 20
670.0
 30
0.0
 11
2233.391367618124
 21
590.0
 31
0.0
  0
LINE
  5
33C6
330
1F
100
AcDbEntity
  8
HATCH
100
AcDbLine
 10
2163.391367618123
 20
670.0
 30
0.0
 11
2243.391367618123
 21
590.0
 31
0.0
  0
LINE
  5
33C7
330
1F
100
AcDbEntity
  8
HATCH
100
AcDbLine
 10
2173.391367618124
 20
670.0
 30
0.0
 11
2253.391367618124
 21
590.0
 31
0.0
  0
TEXT
  5
3A51
330
1F
100
AcDbEntity
  8
MOJI
100
AcDbText
 10
1211.564503249438
 20
1022.711341128301
 30
0.0
 40
20.0
  1
Ｄ１０＠２００ タテ・ヨコ
  7
MSゴシック
 11
1211.564503249438
 21
1032.711341128301
 31
0.0
100
AcDbText
 73
     2
  0
TEXT
  5
3A52
330
1F
100
AcDbEntity
  8
MOJI
100
AcDbText
 10
1242.455970099157
 20
1124.888301767536
 30
0.0
 40
20.0
  1
ステンレスアングル
  7
MSゴシック
 11
1242.455970099157
 21
1134.888301767536
 31
0.0
100
AcDbText
 73
     2
  0
TEXT
  5
3A53
330
1F
100
AcDbEntity
  8
MOJI
100
AcDbText
 10
1122.641938709959
 20
1259.304581343271
 30
0.0
 40
20.0
  1
ライナーキープＳ100
  7
MSゴシック
 11
1122.641938709959
 21
1269.304581343271
 31
0.0
100
AcDbText
 73
     2
  0
CIRCLE
  5
3A67
102
{ACAD_REACTORS
330
3A68
102
}
330
1F
100
AcDbEntity
  8
MOJI
100
AcDbCircle
 10
1040.345294425931
 20
872.0709677555461
 30
0.0
 40
4.0
  0
HATCH
  5
3A68
330
1F
100
AcDbEntity
  8
MOJI
100
AcDbHatch
 10
0.0
 20
0.0
 30
0.0
210
0.0
220
0.0
230
1.0
  2
SOLID
 70
     1
 71
     1
 91
        1
 92
        1
 93
        1
 72
     2
 10
1040.345294425931
 20
872.0709677555461
 40
4.0
 50
0.0
 51
360.0
 73
     1
 97
        1
330
3A67
 75
     0
 76
     1
 98
        1
 10
-669.8849910338838
 20
-55.10540597084014
  0
CIRCLE
  5
3A6B
102
{ACAD_REACTORS
330
3A6C
102
}
330
1F
100
AcDbEntity
  8
MOJI
100
AcDbCircle
 10
986.686312099157
 20
1031.752199
 30
0.0
 40
4.0
  0
HATCH
  5
3A6C
330
1F
100
AcDbEntity
  8
MOJI
100
AcDbHatch
 10
0.0
 20
0.0
 30
0.0
210
0.0
220
0.0
230
1.0
  2
SOLID
 70
     1
 71
     1
 91
        1
 92
        1
 93
        1
 72
     2
 10
986.686312099157
 20
1031.752199
 40
4.0
 50
0.0
 51
360.0
 73
     1
 97
        1
330
3A6B
 75
     0
 76
     1
 98
        1
 10
-723.5439733606583
 20
104.5758252736141
  0
CIRCLE
  5
3A72
102
{ACAD_REACTORS
330
3A73
102
}
330
1F
100
AcDbEntity
  8
MOJI
100
AcDbCircle
 10
1003.701111099157
 20
1189.904061000001
 30
0.0
 40
4.0
  0
HATCH
  5
3A73
330
1F
100
AcDbEntity
  8
MOJI
100
AcDbHatch
 10
0.0
 20
0.0
 30
0.0
210
0.0
220
0.0
230
1.0
  2
SOLID
 70
     1
 71
     1
 91
        1
 92
        1
 93
        1
 72
     2
 10
1003.701111099157
 20
1189.904061000001
 40
4.0
 50
0.0
 51
360.0
 73
     1
 97
        1
330
3A72
 75
     0
 76
     1
 98
        1
 10
-706.5291743606583
 20
262.7276872736129
  0
CIRCLE
  5
3A75
102
{ACAD_REACTORS
330
3A76
102
}
330
1F
100
AcDbEntity
  8
MOJI
100
AcDbCircle
 10
1027.657984709959
 20
1168.496996055797
 30
0.0
 40
4.0
  0
HATCH
  5
3A76
330
1F
100
AcDbEntity
  8
MOJI
100
AcDbHatch
 10
0.0
 20
0.0
 30
0.0
210
0.0
220
0.0
230
1.0
  2
SOLID
 70
     1
 71
     1
 91
        1
 92
        1
 93
        1
 72
     2
 10
1027.657984709959
 20
1168.496996055797
 40
4.0
 50
0.0
 51
360.0
 73
     1
 97
        1
330
3A75
 75
     0
 76
     1
 98
        1
 10
-682.5723007498559
 20
241.3206223294092
  0
TEXT
  5
3A77
330
1F
100
AcDbEntity
  8
MOJI
100
AcDbText
 10
1235.646490099157
 20
1194.397451872755
 30
0.0
 40
20.0
  1
強力ガムシール
  7
MSゴシック
 11
1235.646490099157
 21
1204.397451872755
 31
0.0
100
AcDbText
 73
     2
  0
TEXT
  5
3A78
330
1F
100
AcDbEntity
  8
MOJI
100
AcDbText
 10
1089.199335574695
 20
1383.190242275359
 30
0.0
 40
20.0
  1
コンクリート打増し
  7
MSゴシック
 11
1089.199335574695
 21
1393.190242275359
 31
0.0
100
AcDbText
 73
     2
  0
TEXT
  5
3A79
330
1F
100
AcDbEntity
  8
MOJI
100
AcDbText
 10
1113.389798088261
 20
1308.489954730068
 30
0.0
 40
20.0
  1
シーリング　15×20
  7
MSゴシック
 11
1113.389798088261
 21
1318.489954730068
 31
0.0
100
AcDbText
 73
     2
  0
CIRCLE
  5
3A7B
102
{ACAD_REACTORS
330
3A7C
102
}
330
1F
100
AcDbEntity
  8
MOJI
100
AcDbCircle
 10
991.0892786630743
 20
1292.382656987884
 30
0.0
 40
4.0
  0
HATCH
  5
3A7C
330
1F
100
AcDbEntity
  8
MOJI
100
AcDbHatch
 10
0.0
 20
0.0
 30
0.0
210
0.0
220
0.0
230
1.0
  2
SOLID
 70
     1
 71
     1
 91
        1
 92
        1
 93
        1
 72
     2
 10
991.0892786630743
 20
1292.382656987884
 40
4.0
 50
0.0
 51
360.0
 73
     1
 97
        1
330
3A7B
 75
     0
 76
     1
 98
        1
 10
-719.141006796741
 20
365.2062832614975
  0
CIRCLE
  5
3ACA
102
{ACAD_REACTORS
330
3ACB
102
}
330
1F
100
AcDbEntity
  8
MOJI
100
AcDbCircle
 10
991.200775099157
 20
1017.555910985555
 30
0.0
 40
4.0
  0
HATCH
  5
3ACB
330
1F
100
AcDbEntity
  8
MOJI
100
AcDbHatch
 10
0.0
 20
0.0
 30
0.0
210
0.0
220
0.0
230
1.0
  2
SOLID
 70
     1
 71
     1
 91
        1
 92
        1
 93
        1
 72
     2
 10
991.200775099157
 20
1017.555910985555
 40
4.0
 50
0.0
 51
360.0
 73
     1
 97
        1
330
3ACA
 75
     0
 76
     1
 98
        1
 10
-719.0295103606586
 20
90.3795372591685
  0
LINE
  5
3E2A
330
1F
100
AcDbEntity
  8
BOUSUI
100
AcDbLine
 10
980.0
 20
1025.0
 30
0.0
 11
990.0
 21
1025.0
 31
0.0
  0
ARC
  5
3E2D
330
1F
100
AcDbEntity
  8
BOUSUI
100
AcDbCircle
 10
980.3158081200617
 20
1013.704285738121
 30
0.0
 40
22.69494592750136
100
AcDbArc
 50
29.84922930185727
 51
90.79731656925103
  0
LINE
  5
3E30
330
1F
100
AcDbEntity
  8
KUTAI
100
AcDbLine
 10
980.0
 20
1145.0
 30
0.0
 11
1080.0
 21
1145.0
 31
0.0
  0
LINE
  5
3E31
330
1F
100
AcDbEntity
  8
KUTAI
100
AcDbLine
 10
1080.0
 20
1145.0
 30
0.0
 11
1080.0
 21
670.0
 31
0.0
  0
CIRCLE
  5
3E32
330
1F
100
AcDbEntity
  8
TENSEN
100
AcDbCircle
 10
1030.001654026148
 20
754.9999999999995
 30
0.0
 40
5.0
  0
CIRCLE
  5
3E33
330
1F
100
AcDbEntity
  8
TENSEN
100
AcDbCircle
 10
1010.001654026147
 20
755.0
 30
0.0
 40
5.0
  0
CIRCLE
  5
3E34
330
1F
100
AcDbEntity
  8
TENSEN
100
AcDbCircle
 10
1030.001654026148
 20
904.9999999999995
 30
0.0
 40
5.0
  0
CIRCLE
  5
3E35
330
1F
100
AcDbEntity
  8
TENSEN
100
AcDbCircle
 10
1030.001654026146
 20
1054.999999999998
 30
0.0
 40
5.0
  0
CIRCLE
  5
3E36
330
1F
100
AcDbEntity
  8
TENSEN
100
AcDbCircle
 10
870.0016540261476
 20
1054.999999999999
 30
0.0
 40
5.0
  0
ARC
  5
3E3B
330
1F
100
AcDbEntity
  8
BOUSUI
100
AcDbCircle
 10
1018.279681094629
 20
1187.0
 30
0.0
 40
15.50322321244998
100
AcDbArc
 50
148.9342269475711
 51
211.0657730524286
  0
LINE
  5
3EB9
330
1F
100
AcDbEntity
  8
HATCH
100
AcDbLine
 10
1153.391367618123
 20
670.0
 30
0.0
 11
1233.391367618122
 21
590.0
 31
0.0
  0
LINE
  5
3EBA
330
1F
100
AcDbEntity
  8
HATCH
100
AcDbLine
 10
1163.391367618123
 20
670.0
 30
0.0
 11
1243.391367618123
 21
590.0
 31
0.0
  0
LINE
  5
3EBB
330
1F
100
AcDbEntity
  8
HATCH
100
AcDbLine
 10
1173.391367618123
 20
670.0
 30
0.0
 11
1288.391367618123
 21
555.0
 31
0.0
  0
CIRCLE
  5
41F2
330
1F
100
AcDbEntity
  8
TENSEN
  6
DASHED2
100
AcDbCircle
 10
1155.0
 20
633.0
 30
0.0
 40
3.0
  0
CIRCLE
  5
41F3
330
1F
100
AcDbEntity
  8
TENSEN
  6
DASHED2
100
AcDbCircle
 10
1255.0
 20
633.0
 30
0.0
 40
3.0
  0
CIRCLE
  5
41F4
330
1F
100
AcDbEntity
  8
TENSEN
  6
DASHED2
100
AcDbCircle
 10
1425.0
 20
633.0
 30
0.0
 40
3.0
  0
CIRCLE
  5
41F5
330
1F
100
AcDbEntity
  8
TENSEN
  6
DASHED2
100
AcDbCircle
 10
1525.0
 20
633.0
 30
0.0
 40
3.0
  0
CIRCLE
  5
41F6
330
1F
100
AcDbEntity
  8
TENSEN
  6
DASHED2
100
AcDbCircle
 10
1624.999999999997
 20
633.0
 30
0.0
 40
3.0
  0
CIRCLE
  5
41F7
330
1F
100
AcDbEntity
  8
TENSEN
  6
DASHED2
100
AcDbCircle
 10
1725.0
 20
633.0
 30
0.0
 40
3.0
  0
CIRCLE
  5
41F8
330
1F
100
AcDbEntity
  8
TENSEN
  6
DASHED2
100
AcDbCircle
 10
1825.0
 20
633.0
 30
0.0
 40
3.0
  0
CIRCLE
  5
41F9
330
1F
100
AcDbEntity
  8
TENSEN
  6
DASHED2
100
AcDbCircle
 10
1924.999999999999
 20
633.0
 30
0.0
 40
3.0
  0
CIRCLE
  5
41FA
330
1F
100
AcDbEntity
  8
TENSEN
  6
DASHED2
100
AcDbCircle
 10
2125.0
 20
633.0
 30
0.0
 40
3.0
  0
CIRCLE
  5
41FB
330
1F
100
AcDbEntity
  8
TENSEN
  6
DASHED2
100
AcDbCircle
 10
2025.0
 20
633.0
 30
0.0
 40
3.0
  0
LINE
  5
41FC
330
1F
100
AcDbEntity
  8
TENSEN
  6
DASHED2
100
AcDbLine
 10
2280.0
 20
630.0
 30
0.0
 11
1400.0
 21
630.0
 31
0.0
  0
LINE
  5
41FD
330
1F
100
AcDbEntity
  8
TENSEN
  6
DASHED2
100
AcDbLine
 10
1400.0
 20
630.0
 30
0.0
 11
1400.0
 21
624.0
 31
0.0
  0
CIRCLE
  5
41FE
330
1F
100
AcDbEntity
  8
TENSEN
  6
DASHED2
100
AcDbCircle
 10
2224.999999999998
 20
633.0
 30
0.0
 40
3.0
  0
LINE
  5
4228
330
1F
100
AcDbEntity
  8
TENSEN
  6
DASHED2
100
AcDbLine
 10
1060.0
 20
630.0
 30
0.0
 11
1280.0
 21
630.0
 31
0.0
  0
LINE
  5
4229
330
1F
100
AcDbEntity
  8
TENSEN
  6
DASHED2
100
AcDbLine
 10
1280.0
 20
630.0
 30
0.0
 11
1280.0
 21
624.0
 31
0.0
  0
LINE
  5
422A
330
1F
100
AcDbEntity
  8
TENSEN
  6
DASHED2
100
AcDbLine
 10
1060.0
 20
624.0
 30
0.0
 11
1060.0
 21
630.0
 31
0.0
  0
LINE
  5
422B
330
1F
100
AcDbEntity
  8
TENSEN
  6
DASHED2
100
AcDbLine
 10
1060.0
 20
624.0
 30
0.0
 11
1280.0
 21
624.0
 31
0.0
  0
LINE
  5
422C
330
1F
100
AcDbEntity
  8
TENSEN
  6
DASHED2
100
AcDbLine
 10
2280.0
 20
624.0
 30
0.0
 11
1400.0
 21
624.0
 31
0.0
  0
LINE
  5
441A
330
1F
100
AcDbEntity
  8
KANAMONO_SCREW
100
AcDbLine
 10
1043.599999999998
 20
1138.434999999999
 30
0.0
 11
1044.599999999998
 21
1133.434999999999
 31
0.0
  0
LINE
  5
441D
330
1F
100
AcDbEntity
  8
KANAMONO_SCREW
100
AcDbLine
 10
1046.091999999998
 20
1149.491
 30
0.0
 11
1046.091999999998
 21
1138.434999999999
 31
0.0
  0
LINE
  5
441E
330
1F
100
AcDbEntity
  8
KANAMONO_SCREW
100
AcDbLine
 10
1047.091999999999
 20
1149.491
 30
0.0
 11
1047.091999999999
 21
1138.434999999999
 31
0.0
  0
LINE
  5
4420
330
1F
100
AcDbEntity
  8
KANAMONO_SCREW
100
AcDbLine
 10
1044.599999999998
 20
1133.434999999999
 30
0.0
 11
1044.599999999998
 21
1138.434999999999
 31
0.0
  0
LINE
  5
4421
330
1F
100
AcDbEntity
  8
KANAMONO_SCREW
100
AcDbLine
 10
1048.599999999998
 20
1133.434999999999
 30
0.0
 11
1048.599999999998
 21
1138.434999999999
 31
0.0
  0
LINE
  5
4422
330
1F
100
AcDbEntity
  8
KANAMONO_SCREW
100
AcDbLine
 10
1045.599999999998
 20
1138.434999999999
 30
0.0
 11
1044.599999999998
 21
1133.434999999999
 31
0.0
  0
LINE
  5
4423
330
1F
100
AcDbEntity
  8
KANAMONO_SCREW
100
AcDbLine
 10
1043.091999999999
 20
1149.491
 30
0.0
 11
1043.091999999999
 21
1138.434999999999
 31
0.0
  0
LINE
  5
4424
330
1F
100
AcDbEntity
  8
KANAMONO_SCREW
100
AcDbLine
 10
1042.091999999999
 20
1149.491
 30
0.0
 11
1042.091999999999
 21
1138.434999999999
 31
0.0
  0
LINE
  5
4426
330
1F
100
AcDbEntity
  8
KANAMONO_SCREW
100
AcDbLine
 10
1040.599999999998
 20
1133.434999999999
 30
0.0
 11
1040.599999999998
 21
1138.434999999999
 31
0.0
  0
LINE
  5
442B
330
1F
100
AcDbEntity
  8
KANAMONO_SCREW
 48
20.0
100
AcDbLine
 10
1050.112945999999
 20
1101.657918999999
 30
0.0
 11
1046.617742123524
 21
1101.47474320185
 31
0.0
  0
LINE
  5
442C
330
1F
100
AcDbEntity
  8
KANAMONO_SCREW
 48
20.0
100
AcDbLine
 10
1039.087053999999
 20
1101.657918999999
 30
0.0
 11
1042.58225693765
 21
1101.474743138149
 31
0.0
  0
LINE
  5
4453
330
1F
100
AcDbEntity
  8
KASAGI
  6
Continuous
100
AcDbLine
 10
1069.599999999998
 20
1145.0
 30
0.0
 11
1069.599999999998
 21
1148.5
 31
0.0
  0
LINE
  5
445E
330
1F
100
AcDbEntity
  8
KASAGI
  6
Continuous
100
AcDbLine
 10
1019.599999999998
 20
1145.0
 30
0.0
 11
1019.599999999998
 21
1148.5
 31
0.0
  0
CIRCLE
  5
44CD
330
1F
100
AcDbEntity
  8
BOUSUI
100
AcDbCircle
 10
987.0
 20
1188.5
 30
0.0
 40
6.493073047485722
  0
LINE
  5
4AF0
330
1F
100
AcDbEntity
  8
0
100
AcDbLine
 10
0.0
 20
1849.999999999998
 30
0.0
 11
2760.0
 21
1849.999999999995
 31
0.0
  0
TEXT
  5
4AF1
330
1F
100
AcDbEntity
  8
WAKU
100
AcDbText
 10
2608.553299492386
 20
1860.0
 30
0.0
 40
30.0
  1
ash-3-3
  7
MSゴシック
 72
     2
 11
2745.0
 21
1860.0
 31
0.0
100
AcDbText
  0
TEXT
  5
4AF3
330
1F
100
AcDbEntity
  8
WAKU
100
AcDbText
 10
15.0
 20
1860.0
 30
0.0
 40
40.0
  1
アスファルト防水／保護仕上げ
  7
MSゴシック
100
AcDbText
  0
TEXT
  5
4AF4
330
1F
100
AcDbEntity
  8
WAKU
100
AcDbText
 10
15.0
 20
1800.000000000004
 30
0.0
 40
30.0
  1
一般部／壁立上り／アルミ水切＋立上りコンクリート押え／断熱
  7
MSゴシック
100
AcDbText
  0
TEXT
  5
4AF5
330
1F
100
AcDbEntity
  8
WAKU
100
AcDbText
 10
2589.060913705584
 20
1800.000000000005
 30
0.0
 40
30.0
  1
1/10(A4)
  7
MSゴシック
 72
     2
 11
2745.0
 21
1800.000000000005
 31
0.0
100
AcDbText
  0
LINE
  5
4B2F
330
1F
100
AcDbEntity
  8
dannnetu
100
AcDbLine
 10
1033.639610306789
 20
555.0
 30
0.0
 11
1033.639610306789
 21
590.0
 31
0.0
  0
LINE
  5
4B30
330
1F
100
AcDbEntity
  8
dannnetu
100
AcDbLine
 10
1033.639610306789
 20
583.2842712474621
 30
0.0
 11
1030.145999397177
 21
558.493610909612
 31
0.0
  0
TEXT
  5
4E6F
330
1F
100
AcDbEntity
  8
MOJI
100
AcDbText
 10
1613.074541495998
 20
726.8802214437819
 30
0.0
 40
20.0
  1
アスファルト防水層
  7
MSゴシック
 11
1613.074541495998
 21
736.8802214437819
 31
0.0
100
AcDbText
 73
     2
  0
TEXT
  5
4E83
330
1F
100
AcDbEntity
  8
MOJI
100
AcDbText
 10
1710.450584566338
 20
886.880221443782
 30
0.0
 40
20.0
  1
保護コンクリート（t≧80）
  7
MSゴシック
 11
1710.450584566338
 21
896.880221443782
 31
0.0
100
AcDbText
 73
     2
  0
TEXT
  5
4FA0
330
1F
100
AcDbEntity
  8
MOJI
100
AcDbText
 10
480.0
 20
265.0
 30
0.0
 40
20.0
  1
※こちらの図は熱工法とストライプ工法の場合の形状です。その他の工法については出入隅の形状等一部が異なります。
  7
MSゴシック
 11
480.0
 21
275.0
 31
0.0
100
AcDbText
 73
     2
  0
TEXT
  5
5370
330
1F
100
AcDbEntity
  8
MOJI
100
AcDbText
 10
1920.023571852786
 20
1228.418974667497
 30
0.0
 40
20.0
  1
水勾配
  7
MSゴシック
100
AcDbText
  0
TEXT
  5
5371
330
1F
100
AcDbEntity
  8
MOJI
100
AcDbText
 10
1959.356480257943
 20
1289.737686385522
 30
0.0
 40
20.0
  1
1/100～1/50
  7
MSゴシック
100
AcDbText
  0
LINE
  5
5372
330
1F
100
AcDbEntity
  8
MOJI
100
AcDbLine
 10
2027.016965439608
 20
1258.686565679878
 30
0.0
 11
1898.638133135225
 21
1287.192661744607
 31
0.0
  0
LINE
  5
5373
330
1F
100
AcDbEntity
  8
MOJI
100
AcDbLine
 10
1898.638133135225
 20
1258.686565679878
 30
0.0
 11
2027.016965439608
 21
1258.686565679878
 31
0.0
  0
LINE
  5
5374
330
1F
100
AcDbEntity
  8
MOJI
100
AcDbLine
 10
1898.638133135225
 20
1287.192661744607
 30
0.0
 11
1898.638133135225
 21
1258.686565679878
 31
0.0
  0
LINE
  5
5655
330
1F
100
AcDbEntity
  8
0
100
AcDbLine
 10
479.9999999999998
 20
295.0
 30
0.0
 11
2280.0
 21
295.0
 31
0.0
  0
LINE
  5
5656
330
1F
100
AcDbEntity
  8
0
100
AcDbLine
 10
2280.0
 20
295.0
 30
0.0
 11
2280.0
 21
1495.0
 31
0.0
  0
LINE
  5
5657
330
1F
100
AcDbEntity
  8
0
100
AcDbLine
 10
2280.0
 20
1495.0
 30
0.0
 11
479.9999999999998
 21
1495.0
 31
0.0
  0
LINE
  5
5658
330
1F
100
AcDbEntity
  8
0
100
AcDbLine
 10
479.9999999999998
 20
1495.0
 30
0.0
 11
479.9999999999998
 21
295.0
 31
0.0
  0
LINE
  5
5659
330
1F
100
AcDbEntity
  8
sunpo
 48
0.5
100
AcDbLine
 10
959.058634642743
 20
670.0000000000002
 30
0.0
 11
904.8814049038465
 21
670.0000000000002
 31
0.0
  0
LINE
  5
565A
330
1F
100
AcDbEntity
  8
sunpo
 48
0.5
100
AcDbLine
 10
959.0586346427432
 20
1025.0
 30
0.0
 11
904.8814049038465
 21
1025.0
 31
0.0
  0
LINE
  5
565B
330
1F
100
AcDbEntity
  8
sunpo
 48
0.5
100
AcDbLine
 10
904.8814049038465
 20
678.0000000000002
 30
0.0
 11
904.8814049038465
 21
1017.0
 31
0.0
  0
INSERT
  5
565C
330
1F
100
AcDbEntity
  8
sunpo
 48
0.5
100
AcDbBlockReference
  2
_DOT
 10
904.8814049038465
 20
670.0000000000002
 30
0.0
 41
8.0
 42
8.0
 43
8.0
 50
270.0
  0
INSERT
  5
565D
330
1F
100
AcDbEntity
  8
sunpo
 48
0.5
100
AcDbBlockReference
  2
_DOT
 10
904.8814049038465
 20
1025.0
 30
0.0
 41
8.0
 42
8.0
 43
8.0
 50
90.0
  0
MTEXT
  5
565E
330
1F
100
AcDbEntity
  8
sunpo
 48
0.5
100
AcDbMText
 10
892.4093236855723
 20
847.4999999999999
 30
0.0
 40
20.0
 41
0.0
 71
     5
 72
     1
  1
\A1;150以上（水上）
  7
MSゴシック
 11
0.0000000000000001
 21
1.0
 31
0.0
 73
     1
 44
1.0
1001
ACAD
1000
MTEXTBEGIN
1070
    73
1070
     1
1070
    44
1040
1.0
1070
    74
1070
     0
1000
MTEXTEND
  0
LINE
  5
565F
330
1F
100
AcDbEntity
  8
BOUSUI
  6
Continuous
100
AcDbLine
 10
988.8010010303288
 20
1194.7383004808
 30
0.0
 11
989.0565650263642
 21
1194.993864476835
 31
0.0
1001
ACAD
1010
0.0
1020
0.0
1030
0.0
  0
LINE
  5
5660
330
1F
100
AcDbEntity
  8
BOUSUI
  6
Continuous
100
AcDbLine
 10
991.6176343046053
 20
1193.064805694541
 30
0.0
 11
993.548421691222
 21
1194.995593081158
 31
0.0
1001
ACAD
1010
0.0
1020
0.0
1030
0.0
  0
LINE
  5
5661
330
1F
100
AcDbEntity
  8
BOUSUI
  6
Continuous
100
AcDbLine
 10
993.2615140459491
 20
1190.21855737535
 30
0.0
 11
998.0402783560796
 21
1194.997321685481
 31
0.0
1001
ACAD
1010
0.0
1020
0.0
1030
0.0
  0
LINE
  5
5662
330
1F
100
AcDbEntity
  8
BOUSUI
  6
Continuous
100
AcDbLine
 10
988.7999999999994
 20
1181.266915268866
 30
0.0
 11
990.6914097337821
 21
1183.158325002649
 31
0.0
1001
ACAD
1010
0.0
1020
0.0
1030
0.0
  0
LINE
  5
5663
330
1F
100
AcDbEntity
  8
BOUSUI
  6
Continuous
100
AcDbLine
 10
992.341674997351
 20
1184.808590266218
 30
0.0
 11
1002.532135020937
 21
1194.999050289804
 31
0.0
1001
ACAD
1010
0.0
1020
0.0
1030
0.0
  0
LINE
  5
5664
330
1F
100
AcDbEntity
  8
BOUSUI
  6
Continuous
100
AcDbLine
 10
991.0232127916682
 20
1179.0
 30
0.0
 11
1003.410066198365
 21
1191.386853406698
 31
0.0
1001
ACAD
1010
0.0
1020
0.0
1030
0.0
  0
LINE
  5
5665
330
1F
100
AcDbEntity
  8
BOUSUI
  6
Continuous
100
AcDbLine
 10
995.5133408522026
 20
1179.0
 30
0.0
 11
1002.793192890757
 21
1186.279852038555
 31
0.0
1001
ACAD
1010
0.0
1020
0.0
1030
0.0
  0
LINE
  5
5666
330
1F
100
AcDbEntity
  8
BOUSUI
  6
Continuous
100
AcDbLine
 10
1000.003468912737
 20
1179.0
 30
0.0
 11
1003.457834466798
 21
1182.454365554062
 31
0.0
1001
ACAD
1010
0.0
1020
0.0
1030
0.0
  0
LINE
  5
5667
330
1F
100
AcDbEntity
  8
BOUSUI
  6
Continuous
100
AcDbLine
 10
1004.493596973272
 20
1179.0
 30
0.0
 11
1004.812837795858
 21
1179.319240822587
 31
0.0
1001
ACAD
1010
0.0
1020
0.0
1030
0.0
  0
LINE
  5
5668
330
1F
100
AcDbEntity
  8
BOUSUI
  6
Continuous
100
AcDbLine
 10
989.9455669937028
 20
1179.0
 30
0.0
 11
988.7999999999991
 21
1180.145566993704
 31
0.0
1001
ACAD
1010
0.0
1020
0.0
1030
0.0
  0
LINE
  5
5669
330
1F
100
AcDbEntity
  8
BOUSUI
  6
Continuous
100
AcDbLine
 10
994.4356950542372
 20
1179.0
 30
0.0
 11
990.4416222278294
 21
1182.994072826408
 31
0.0
1001
ACAD
1010
0.0
1020
0.0
1030
0.0
  0
LINE
  5
566A
330
1F
100
AcDbEntity
  8
BOUSUI
  6
Continuous
100
AcDbLine
 10
998.9258231147717
 20
1179.0
 30
0.0
 11
992.6410990369257
 21
1185.284724077846
 31
0.0
1001
ACAD
1010
0.0
1020
0.0
1030
0.0
  0
LINE
  5
566B
330
1F
100
AcDbEntity
  8
BOUSUI
  6
Continuous
100
AcDbLine
 10
1003.415951175306
 20
1179.0
 30
0.0
 11
993.4783072971159
 21
1188.93764387819
 31
0.0
1001
ACAD
1010
0.0
1020
0.0
1030
0.0
  0
LINE
  5
566C
330
1F
100
AcDbEntity
  8
BOUSUI
  6
Continuous
100
AcDbLine
 10
987.4376438781906
 20
1194.978307297116
 30
0.0
 11
987.4227154539388
 21
1194.993235721368
 31
0.0
1001
ACAD
1010
0.0
1020
0.0
1030
0.0
  0
LINE
  5
566D
330
1F
100
AcDbEntity
  8
BOUSUI
  6
Continuous
100
AcDbLine
 10
1003.111437724551
 20
1183.79464151129
 30
0.0
 11
991.9111162400787
 21
1194.994962995763
 31
0.0
1001
ACAD
1010
0.0
1020
0.0
1030
0.0
  0
LINE
  5
566E
330
1F
100
AcDbEntity
  8
BOUSUI
  6
Continuous
100
AcDbLine
 10
1002.853413930907
 20
1188.542793365469
 30
0.0
 11
996.3995170262183
 21
1194.996690270158
 31
0.0
1001
ACAD
1010
0.0
1020
0.0
1030
0.0
  0
LINE
  5
566F
330
1F
100
AcDbEntity
  8
BOUSUI
  6
Continuous
100
AcDbLine
 10
1003.677644580227
 20
1192.208690776684
 30
0.0
 11
1000.887917812358
 21
1194.998417544553
 31
0.0
1001
ACAD
1010
0.0
1020
0.0
1030
0.0
  0
LINE
  5
5670
330
1F
100
AcDbEntity
  8
MOJI
100
AcDbLine
 10
1702.450584566338
 20
896.8802214437818
 30
0.0
 11
1652.450584566338
 21
896.8802214437818
 31
0.0
  0
LINE
  5
5671
330
1F
100
AcDbEntity
  8
MOJI
100
AcDbLine
 10
1652.450584566338
 20
896.8802214437818
 30
0.0
 11
1452.291323231384
 21
550.1942112061856
 31
0.0
  0
LINE
  5
5672
330
1F
100
AcDbEntity
  8
MOJI
100
AcDbLine
 10
1558.330878533161
 20
950.9075152709874
 30
0.0
 11
1508.330878533161
 21
950.9075152709874
 31
0.0
  0
LINE
  5
5673
330
1F
100
AcDbEntity
  8
MOJI
100
AcDbLine
 10
1508.330878533161
 20
950.9075152709874
 30
0.0
 11
1339.25437825772
 21
658.0584264279905
 31
0.0
  0
LINE
  5
5674
330
1F
100
AcDbEntity
  8
MOJI
100
AcDbLine
 10
1123.982460464141
 20
699.6387799679833
 30
0.0
 11
1073.982460464141
 21
699.6387799679833
 31
0.0
  0
LINE
  5
5675
330
1F
100
AcDbEntity
  8
MOJI
100
AcDbLine
 10
1073.982460464141
 20
699.6387799679833
 30
0.0
 11
1011.334398287843
 21
591.1291532829014
 31
0.0
  0
LINE
  5
5676
330
1F
100
AcDbEntity
  8
KUTAI
100
AcDbLine
 10
1330.0
 20
590.0
 30
0.0
 11
1330.0
 21
666.5
 31
0.0
  0
LINE
  5
5677
330
1F
100
AcDbEntity
  8
KUTAI
100
AcDbLine
 10
1330.0
 20
666.5
 30
0.0
 11
1350.0
 21
666.5
 31
0.0
  0
LINE
  5
5678
330
1F
100
AcDbEntity
  8
KUTAI
100
AcDbLine
 10
1350.0
 20
666.5
 30
0.0
 11
1350.0
 21
590.0
 31
0.0
  0
LINE
  5
5679
330
1F
100
AcDbEntity
  8
KUTAI
100
AcDbLine
 10
1351.0
 20
668.0
 30
0.0
 11
1351.0
 21
667.0
 31
0.0
  0
LINE
  5
567A
330
1F
100
AcDbEntity
  8
KUTAI
100
AcDbLine
 10
1351.0
 20
667.0
 30
0.0
 11
1349.0
 21
667.0
 31
0.0
  0
LINE
  5
567B
330
1F
100
AcDbEntity
  8
KUTAI
100
AcDbLine
 10
1349.0
 20
667.0
 30
0.0
 11
1349.0
 21
666.5
 31
0.0
  0
LINE
  5
567C
330
1F
100
AcDbEntity
  8
KUTAI
100
AcDbLine
 10
1349.0
 20
666.5
 30
0.0
 11
1351.0
 21
666.5
 31
0.0
  0
LINE
  5
567D
330
1F
100
AcDbEntity
  8
KUTAI
100
AcDbLine
 10
1351.0
 20
666.5
 30
0.0
 11
1351.0
 21
655.0
 31
0.0
  0
LINE
  5
567E
330
1F
100
AcDbEntity
  8
KUTAI
100
AcDbLine
 10
1351.0
 20
655.0
 30
0.0
 11
1350.5
 21
655.0
 31
0.0
  0
LINE
  5
567F
330
1F
100
AcDbEntity
  8
KUTAI
100
AcDbLine
 10
1350.5
 20
655.0
 30
0.0
 11
1351.0
 21
654.0
 31
0.0
  0
LINE
  5
5680
330
1F
100
AcDbEntity
  8
KUTAI
100
AcDbLine
 10
1351.0
 20
654.0
 30
0.0
 11
1351.0
 21
641.0
 31
0.0
  0
LINE
  5
5681
330
1F
100
AcDbEntity
  8
KUTAI
100
AcDbLine
 10
1351.0
 20
641.0
 30
0.0
 11
1350.5
 21
641.0
 31
0.0
  0
LINE
  5
5682
330
1F
100
AcDbEntity
  8
KUTAI
100
AcDbLine
 10
1350.5
 20
641.0
 30
0.0
 11
1351.0
 21
640.0
 31
0.0
  0
LINE
  5
5683
330
1F
100
AcDbEntity
  8
KUTAI
100
AcDbLine
 10
1351.0
 20
640.0
 30
0.0
 11
1352.0
 21
640.0
 31
0.0
  0
LINE
  5
5684
330
1F
100
AcDbEntity
  8
KUTAI
100
AcDbLine
 10
1352.0
 20
640.0
 30
0.0
 11
1352.0
 21
666.5
 31
0.0
  0
LINE
  5
5685
330
1F
100
AcDbEntity
  8
KUTAI
100
AcDbLine
 10
1352.0
 20
666.5
 30
0.0
 11
1352.5
 21
666.5
 31
0.0
  0
LINE
  5
5686
330
1F
100
AcDbEntity
  8
KUTAI
100
AcDbLine
 10
1352.5
 20
666.5
 30
0.0
 11
1352.5
 21
668.5
 31
0.0
  0
LINE
  5
5687
330
1F
100
AcDbEntity
  8
KUTAI
100
AcDbLine
 10
1352.5
 20
668.5
 30
0.0
 11
1327.5
 21
668.5
 31
0.0
  0
LINE
  5
5688
330
1F
100
AcDbEntity
  8
KUTAI
100
AcDbLine
 10
1327.5
 20
668.5
 30
0.0
 11
1327.5
 21
666.5
 31
0.0
  0
LINE
  5
5689
330
1F
100
AcDbEntity
  8
KUTAI
100
AcDbLine
 10
1327.5
 20
666.5
 30
0.0
 11
1328.0
 21
666.5
 31
0.0
  0
LINE
  5
568A
330
1F
100
AcDbEntity
  8
KUTAI
100
AcDbLine
 10
1328.0
 20
666.5
 30
0.0
 11
1328.0
 21
640.0
 31
0.0
  0
LINE
  5
568B
330
1F
100
AcDbEntity
  8
KUTAI
100
AcDbLine
 10
1328.0
 20
640.0
 30
0.0
 11
1329.0
 21
640.0
 31
0.0
  0
LINE
  5
568C
330
1F
100
AcDbEntity
  8
KUTAI
100
AcDbLine
 10
1329.0
 20
640.0
 30
0.0
 11
1329.5
 21
641.0
 31
0.0
  0
LINE
  5
568D
330
1F
100
AcDbEntity
  8
KUTAI
100
AcDbLine
 10
1329.5
 20
641.0
 30
0.0
 11
1329.0
 21
641.0
 31
0.0
  0
LINE
  5
568E
330
1F
100
AcDbEntity
  8
KUTAI
100
AcDbLine
 10
1329.0
 20
641.0
 30
0.0
 11
1329.0
 21
654.0
 31
0.0
  0
LINE
  5
568F
330
1F
100
AcDbEntity
  8
KUTAI
100
AcDbLine
 10
1329.0
 20
654.0
 30
0.0
 11
1329.5
 21
655.0
 31
0.0
  0
LINE
  5
5690
330
1F
100
AcDbEntity
  8
KUTAI
100
AcDbLine
 10
1329.5
 20
655.0
 30
0.0
 11
1329.0
 21
655.0
 31
0.0
  0
LINE
  5
5691
330
1F
100
AcDbEntity
  8
KUTAI
100
AcDbLine
 10
1329.0
 20
655.0
 30
0.0
 11
1329.0
 21
666.5
 31
0.0
  0
LINE
  5
5692
330
1F
100
AcDbEntity
  8
KUTAI
100
AcDbLine
 10
1329.0
 20
666.5
 30
0.0
 11
1331.0
 21
666.5
 31
0.0
  0
LINE
  5
5693
330
1F
100
AcDbEntity
  8
KUTAI
100
AcDbLine
 10
1331.0
 20
666.5
 30
0.0
 11
1331.0
 21
667.0
 31
0.0
  0
LINE
  5
5694
330
1F
100
AcDbEntity
  8
KUTAI
100
AcDbLine
 10
1331.0
 20
667.0
 30
0.0
 11
1329.0
 21
667.0
 31
0.0
  0
LINE
  5
5695
330
1F
100
AcDbEntity
  8
KUTAI
100
AcDbLine
 10
1329.0
 20
667.0
 30
0.0
 11
1329.0
 21
668.0
 31
0.0
  0
LINE
  5
5696
330
1F
100
AcDbEntity
  8
KUTAI
100
AcDbLine
 10
1329.0
 20
668.0
 30
0.0
 11
1351.0
 21
668.0
 31
0.0
  0
LINE
  5
5697
330
1F
100
AcDbEntity
  8
KUTAI
100
AcDbLine
 10
1352.5
 20
669.5
 30
0.0
 11
1353.0
 21
670.0
 31
0.0
  0
LINE
  5
5698
330
1F
100
AcDbEntity
  8
KUTAI
100
AcDbLine
 10
1353.0
 20
670.0
 30
0.0
 11
1354.0
 21
670.0
 31
0.0
  0
LINE
  5
5699
330
1F
100
AcDbEntity
  8
KUTAI
100
AcDbLine
 10
1354.0
 20
670.0
 30
0.0
 11
1354.0
 21
667.0
 31
0.0
  0
LINE
  5
569A
330
1F
100
AcDbEntity
  8
KUTAI
100
AcDbLine
 10
1354.0
 20
667.0
 30
0.0
 11
1353.5
 21
667.0
 31
0.0
  0
LINE
  5
569B
330
1F
100
AcDbEntity
  8
KUTAI
100
AcDbLine
 10
1353.5
 20
667.0
 30
0.0
 11
1353.5
 21
652.0
 31
0.0
  0
LINE
  5
569C
330
1F
100
AcDbEntity
  8
KUTAI
100
AcDbLine
 10
1353.5
 20
652.0
 30
0.0
 11
1354.000000000007
 21
652.0
 31
0.0
  0
LINE
  5
569D
330
1F
100
AcDbEntity
  8
KUTAI
100
AcDbLine
 10
1354.000000000007
 20
652.0
 30
0.0
 11
1354.0
 21
650.0
 31
0.0
  0
LINE
  5
569E
330
1F
100
AcDbEntity
  8
KUTAI
100
AcDbLine
 10
1354.0
 20
650.0
 30
0.0
 11
1352.5
 21
650.0
 31
0.0
  0
LINE
  5
569F
330
1F
100
AcDbEntity
  8
KUTAI
100
AcDbLine
 10
1352.5
 20
650.0
 30
0.0
 11
1352.5
 21
668.5
 31
0.0
  0
LINE
  5
56A0
330
1F
100
AcDbEntity
  8
KUTAI
100
AcDbLine
 10
1352.5
 20
668.5
 30
0.0
 11
1327.5
 21
668.5
 31
0.0
  0
LINE
  5
56A1
330
1F
100
AcDbEntity
  8
KUTAI
100
AcDbLine
 10
1327.5
 20
668.5
 30
0.0
 11
1327.5
 21
650.0
 31
0.0
  0
LINE
  5
56A2
330
1F
100
AcDbEntity
  8
KUTAI
100
AcDbLine
 10
1327.5
 20
650.0
 30
0.0
 11
1326.0
 21
650.0
 31
0.0
  0
LINE
  5
56A3
330
1F
100
AcDbEntity
  8
KUTAI
100
AcDbLine
 10
1326.0
 20
650.0
 30
0.0
 11
1325.999999999992
 21
652.0
 31
0.0
  0
LINE
  5
56A4
330
1F
100
AcDbEntity
  8
KUTAI
100
AcDbLine
 10
1325.999999999992
 20
652.0
 30
0.0
 11
1326.5
 21
652.0
 31
0.0
  0
LINE
  5
56A5
330
1F
100
AcDbEntity
  8
KUTAI
100
AcDbLine
 10
1326.5
 20
652.0
 30
0.0
 11
1326.5
 21
667.0
 31
0.0
  0
LINE
  5
56A6
330
1F
100
AcDbEntity
  8
KUTAI
100
AcDbLine
 10
1326.5
 20
667.0
 30
0.0
 11
1326.0
 21
667.0
 31
0.0
  0
LINE
  5
56A7
330
1F
100
AcDbEntity
  8
KUTAI
100
AcDbLine
 10
1326.0
 20
667.0
 30
0.0
 11
1326.0
 21
670.0
 31
0.0
  0
LINE
  5
56A8
330
1F
100
AcDbEntity
  8
KUTAI
100
AcDbLine
 10
1326.0
 20
670.0
 30
0.0
 11
1327.0
 21
670.0
 31
0.0
  0
LINE
  5
56A9
330
1F
100
AcDbEntity
  8
KUTAI
100
AcDbLine
 10
1327.0
 20
670.0
 30
0.0
 11
1327.5
 21
669.5
 31
0.0
  0
LINE
  5
56AA
330
1F
100
AcDbEntity
  8
KUTAI
100
AcDbLine
 10
1327.5
 20
669.5
 30
0.0
 11
1340.0
 21
669.5
 31
0.0
  0
LINE
  5
56AB
330
1F
100
AcDbEntity
  8
KUTAI
100
AcDbLine
 10
1340.0
 20
669.5
 30
0.0
 11
1352.5
 21
669.5
 31
0.0
  0
LINE
  5
56AC
330
1F
100
AcDbEntity
  8
BOUSUI
100
AcDbLine
 10
2280.0
 20
555.0
 30
0.0
 11
1033.639610306789
 21
555.0
 31
0.0
  0
LINE
  5
56AD
330
1F
100
AcDbEntity
  8
BOUSUI
100
AcDbLine
 10
1033.639610306789
 20
555.0
 30
0.0
 11
990.0
 21
598.6396103067892
 31
0.0
  0
LINE
  5
56AE
330
1F
100
AcDbEntity
  8
BOUSUI
100
AcDbLine
 10
990.0
 20
598.6396103067892
 30
0.0
 11
990.0
 21
995.0
 31
0.0
  0
LINE
  5
56AF
330
1F
100
AcDbEntity
  8
dannnetu
100
AcDbLine
 10
1033.639610306789
 20
583.2842712474622
 30
0.0
 11
1010.0
 21
606.9238815542514
 31
0.0
  0
LINE
  5
56B0
330
1F
100
AcDbEntity
  8
dannnetu
100
AcDbLine
 10
1010.0
 20
606.9238815542514
 30
0.0
 11
1010.0
 21
690.0
 31
0.0
  0
LINE
  5
56B1
330
1F
100
AcDbEntity
  8
dannnetu
100
AcDbLine
 10
2280.0
 20
590.0
 30
0.0
 11
1033.639610306789
 21
590.0
 31
0.0
  0
LINE
  5
56B2
330
1F
100
AcDbEntity
  8
dannnetu
100
AcDbLine
 10
1010.0
 20
690.0
 30
0.0
 11
990.0
 21
690.0
 31
0.0
  0
LINE
  5
56B3
330
1F
100
AcDbEntity
  8
KUTAI
100
AcDbLine
 10
1326.0
 20
670.0
 30
0.0
 11
1010.0
 21
670.0
 31
0.0
  0
LINE
  5
56B4
330
1F
100
AcDbEntity
  8
HATCH
  6
Continuous
100
AcDbLine
 10
990.0000000000002
 20
678.3553898207554
 30
0.0
 11
1001.644610179245
 21
690.0000000000002
 31
0.0
  0
LINE
  5
56B5
330
1F
100
AcDbEntity
  8
HATCH
  6
Continuous
100
AcDbLine
 10
990.0000000000002
 20
664.8850056391516
 30
0.0
 11
1010.0
 21
684.8850056391518
 31
0.0
  0
LINE
  5
56B6
330
1F
100
AcDbEntity
  8
HATCH
  6
Continuous
100
AcDbLine
 10
990.0000000000002
 20
651.4146214575479
 30
0.0
 11
1010.0
 21
671.414621457548
 31
0.0
  0
LINE
  5
56B7
330
1F
100
AcDbEntity
  8
HATCH
  6
Continuous
100
AcDbLine
 10
990.0000000000002
 20
637.9442372759442
 30
0.0
 11
1010.0
 21
657.9442372759443
 31
0.0
  0
LINE
  5
56B8
330
1F
100
AcDbEntity
  8
HATCH
  6
Continuous
100
AcDbLine
 10
990.0000000000003
 20
624.4738530943407
 30
0.0
 11
1010.0
 21
644.4738530943404
 31
0.0
  0
LINE
  5
56B9
330
1F
100
AcDbEntity
  8
HATCH
  6
Continuous
100
AcDbLine
 10
990.0000000000002
 20
611.0034689127367
 30
0.0
 11
1010.0
 21
631.0034689127367
 31
0.0
  0
LINE
  5
56BA
330
1F
100
AcDbEntity
  8
HATCH
  6
Continuous
100
AcDbLine
 10
990.5532627878283
 20
598.0863475189612
 30
0.0
 11
1010.0
 21
617.533084731133
 31
0.0
  0
LINE
  5
56BB
330
1F
100
AcDbEntity
  8
HATCH
  6
Continuous
100
AcDbLine
 10
997.2884548786302
 20
591.3511554281593
 30
0.0
 11
1011.430590502361
 21
605.4932910518905
 31
0.0
  0
LINE
  5
56BC
330
1F
100
AcDbEntity
  8
HATCH
  6
Continuous
100
AcDbLine
 10
1004.023646969432
 20
584.6159633373573
 30
0.0
 11
1018.165782593163
 21
598.7580989610886
 31
0.0
  0
LINE
  5
56BD
330
1F
100
AcDbEntity
  8
HATCH
  6
Continuous
100
AcDbLine
 10
1010.758839060234
 20
577.8807712465554
 30
0.0
 11
1024.900974683965
 21
592.0229068702867
 31
0.0
  0
LINE
  5
56BE
330
1F
100
AcDbEntity
  8
HATCH
  6
Continuous
100
AcDbLine
 10
1017.494031151035
 20
571.1455791557536
 30
0.0
 11
1031.636166774767
 21
585.2877147794847
 31
0.0
  0
LINE
  5
56BF
330
1F
100
AcDbEntity
  8
HATCH
  6
Continuous
100
AcDbLine
 10
1024.229223241837
 20
564.4103870649518
 30
0.0
 11
1032.08719916719
 21
572.2683629903043
 31
0.0
  0
LINE
  5
56C0
330
1F
100
AcDbEntity
  8
HATCH
  6
Continuous
100
AcDbLine
 10
1031.792817536145
 20
570.1794311619616
 30
0.0
 11
989.9999999999998
 21
611.972248698107
 31
0.0
  0
LINE
  5
56C1
330
1F
100
AcDbEntity
  8
HATCH
  6
Continuous
100
AcDbLine
 10
1033.456649731848
 20
581.9859831478626
 30
0.0
 11
989.9999999999998
 21
625.4426328797108
 31
0.0
  0
LINE
  5
56C2
330
1F
100
AcDbEntity
  8
HATCH
  6
Continuous
100
AcDbLine
 10
1010.0
 20
618.9130170613144
 30
0.0
 11
990.0
 21
638.9130170613144
 31
0.0
  0
LINE
  5
56C3
330
1F
100
AcDbEntity
  8
HATCH
  6
Continuous
100
AcDbLine
 10
1010.0
 20
632.3834012429182
 30
0.0
 11
990.0
 21
652.3834012429182
 31
0.0
  0
LINE
  5
56C4
330
1F
100
AcDbEntity
  8
HATCH
  6
Continuous
100
AcDbLine
 10
1010.0
 20
645.8537854245219
 30
0.0
 11
990.0
 21
665.8537854245217
 31
0.0
  0
LINE
  5
56C5
330
1F
100
AcDbEntity
  8
HATCH
  6
Continuous
100
AcDbLine
 10
1010.0
 20
659.3241696061255
 30
0.0
 11
990.0
 21
679.3241696061255
 31
0.0
  0
LINE
  5
56C6
330
1F
100
AcDbEntity
  8
HATCH
  6
Continuous
100
AcDbLine
 10
1010.0
 20
672.7945537877293
 30
0.0
 11
992.7945537877294
 21
690.0
 31
0.0
  0
LINE
  5
56C7
330
1F
100
AcDbEntity
  8
HATCH
  6
Continuous
100
AcDbLine
 10
1010.0
 20
686.2649379693331
 30
0.0
 11
1006.264937969333
 21
690.0
 31
0.0
  0
LINE
  5
56C8
330
1F
100
AcDbEntity
  8
HATCH
  6
Continuous
100
AcDbLine
 10
1033.639610306789
 20
587.2911583115072
 30
0.0
 11
1036.348451995283
 21
590.0000000000013
 31
0.0
  0
LINE
  5
56C9
330
1F
100
AcDbEntity
  8
HATCH
  6
Continuous
100
AcDbLine
 10
1033.639610306789
 20
573.8207741299034
 30
0.0
 11
1049.818836176887
 21
590.0000000000014
 31
0.0
  0
LINE
  5
56CA
330
1F
100
AcDbEntity
  8
HATCH
  6
Continuous
100
AcDbLine
 10
1033.639610306789
 20
560.3503899482997
 30
0.0
 11
1063.289220358491
 21
590.0000000000013
 31
0.0
  0
LINE
  5
56CB
330
1F
100
AcDbEntity
  8
HATCH
  6
Continuous
100
AcDbLine
 10
1041.759604540093
 20
555.0000000000001
 30
0.0
 11
1076.759604540094
 21
590.0000000000012
 31
0.0
  0
LINE
  5
56CC
330
1F
100
AcDbEntity
  8
HATCH
  6
Continuous
100
AcDbLine
 10
1055.229988721697
 20
555.0000000000002
 30
0.0
 11
1090.229988721698
 21
590.0000000000013
 31
0.0
  0
LINE
  5
56CD
330
1F
100
AcDbEntity
  8
HATCH
  6
Continuous
100
AcDbLine
 10
1068.700372903301
 20
555.0000000000003
 30
0.0
 11
1103.700372903302
 21
590.0000000000013
 31
0.0
  0
LINE
  5
56CE
330
1F
100
AcDbEntity
  8
HATCH
  6
Continuous
100
AcDbLine
 10
1082.170757084904
 20
555.0
 30
0.0
 11
1117.170757084906
 21
590.0000000000012
 31
0.0
  0
LINE
  5
56CF
330
1F
100
AcDbEntity
  8
HATCH
  6
Continuous
100
AcDbLine
 10
1095.641141266508
 20
555.0000000000001
 30
0.0
 11
1130.641141266509
 21
590.0000000000011
 31
0.0
  0
LINE
  5
56D0
330
1F
100
AcDbEntity
  8
HATCH
  6
Continuous
100
AcDbLine
 10
1109.111525448112
 20
555.0000000000001
 30
0.0
 11
1144.111525448113
 21
590.0000000000012
 31
0.0
  0
LINE
  5
56D1
330
1F
100
AcDbEntity
  8
HATCH
  6
Continuous
100
AcDbLine
 10
1122.581909629715
 20
555.0000000000002
 30
0.0
 11
1157.581909629717
 21
590.0000000000013
 31
0.0
  0
LINE
  5
56D2
330
1F
100
AcDbEntity
  8
HATCH
  6
Continuous
100
AcDbLine
 10
1136.052293811319
 20
555.0000000000001
 30
0.0
 11
1171.05229381132
 21
590.0000000000012
 31
0.0
  0
LINE
  5
56D3
330
1F
100
AcDbEntity
  8
HATCH
  6
Continuous
100
AcDbLine
 10
1149.522677992923
 20
555.0
 30
0.0
 11
1184.522677992924
 21
590.0000000000011
 31
0.0
  0
LINE
  5
56D4
330
1F
100
AcDbEntity
  8
HATCH
  6
Continuous
100
AcDbLine
 10
1162.993062174527
 20
555.0000000000001
 30
0.0
 11
1197.993062174528
 21
590.0000000000011
 31
0.0
  0
LINE
  5
56D5
330
1F
100
AcDbEntity
  8
HATCH
  6
Continuous
100
AcDbLine
 10
1176.46344635613
 20
555.0000000000002
 30
0.0
 11
1211.463446356132
 21
590.0000000000013
 31
0.0
  0
LINE
  5
56D6
330
1F
100
AcDbEntity
  8
HATCH
  6
Continuous
100
AcDbLine
 10
1189.933830537734
 20
555.0
 30
0.0
 11
1224.933830537735
 21
590.0000000000009
 31
0.0
  0
LINE
  5
56D7
330
1F
100
AcDbEntity
  8
HATCH
  6
Continuous
100
AcDbLine
 10
1203.404214719338
 20
555.0000000000001
 30
0.0
 11
1238.404214719339
 21
590.000000000001
 31
0.0
  0
LINE
  5
56D8
330
1F
100
AcDbEntity
  8
HATCH
  6
Continuous
100
AcDbLine
 10
1216.874598900942
 20
555.0
 30
0.0
 11
1251.874598900943
 21
590.0000000000011
 31
0.0
  0
LINE
  5
56D9
330
1F
100
AcDbEntity
  8
HATCH
  6
Continuous
100
AcDbLine
 10
1230.344983082545
 20
555.0000000000001
 30
0.0
 11
1265.344983082546
 21
590.000000000001
 31
0.0
  0
LINE
  5
56DA
330
1F
100
AcDbEntity
  8
HATCH
  6
Continuous
100
AcDbLine
 10
1243.815367264149
 20
555.0000000000002
 30
0.0
 11
1278.81536726415
 21
590.0000000000011
 31
0.0
  0
LINE
  5
56DB
330
1F
100
AcDbEntity
  8
HATCH
  6
Continuous
100
AcDbLine
 10
1257.285751445753
 20
555.0
 30
0.0
 11
1292.285751445754
 21
590.0000000000011
 31
0.0
  0
LINE
  5
56DC
330
1F
100
AcDbEntity
  8
HATCH
  6
Continuous
100
AcDbLine
 10
1270.756135627357
 20
555.0000000000001
 30
0.0
 11
1305.756135627358
 21
590.000000000001
 31
0.0
  0
LINE
  5
56DD
330
1F
100
AcDbEntity
  8
HATCH
  6
Continuous
100
AcDbLine
 10
1284.22651980896
 20
555.0
 30
0.0
 11
1319.226519808961
 21
590.0000000000011
 31
0.0
  0
LINE
  5
56DE
330
1F
100
AcDbEntity
  8
HATCH
  6
Continuous
100
AcDbLine
 10
1297.696903990564
 20
555.0000000000002
 30
0.0
 11
1332.696903990565
 21
590.0000000000009
 31
0.0
  0
LINE
  5
56DF
330
1F
100
AcDbEntity
  8
HATCH
  6
Continuous
100
AcDbLine
 10
1311.167288172168
 20
555.0000000000002
 30
0.0
 11
1346.167288172169
 21
590.0000000000009
 31
0.0
  0
LINE
  5
56E0
330
1F
100
AcDbEntity
  8
HATCH
  6
Continuous
100
AcDbLine
 10
1324.637672353772
 20
555.0000000000002
 30
0.0
 11
1359.637672353773
 21
590.0000000000011
 31
0.0
  0
LINE
  5
56E1
330
1F
100
AcDbEntity
  8
HATCH
  6
Continuous
100
AcDbLine
 10
1338.108056535375
 20
555.0000000000001
 30
0.0
 11
1373.108056535376
 21
590.000000000001
 31
0.0
  0
LINE
  5
56E2
330
1F
100
AcDbEntity
  8
HATCH
  6
Continuous
100
AcDbLine
 10
1351.578440716979
 20
555.0
 30
0.0
 11
1386.57844071698
 21
590.0000000000009
 31
0.0
  0
LINE
  5
56E3
330
1F
100
AcDbEntity
  8
HATCH
  6
Continuous
100
AcDbLine
 10
1365.048824898583
 20
555.0000000000002
 30
0.0
 11
1400.048824898583
 21
590.0000000000009
 31
0.0
  0
LINE
  5
56E4
330
1F
100
AcDbEntity
  8
HATCH
  6
Continuous
100
AcDbLine
 10
1378.519209080186
 20
555.0000000000002
 30
0.0
 11
1413.519209080187
 21
590.0000000000009
 31
0.0
  0
LINE
  5
56E5
330
1F
100
AcDbEntity
  8
HATCH
  6
Continuous
100
AcDbLine
 10
1391.98959326179
 20
555.0000000000002
 30
0.0
 11
1426.989593261791
 21
590.0000000000006
 31
0.0
  0
LINE
  5
56E6
330
1F
100
AcDbEntity
  8
HATCH
  6
Continuous
100
AcDbLine
 10
1405.459977443394
 20
554.9999999999998
 30
0.0
 11
1440.459977443394
 21
590.0000000000008
 31
0.0
  0
LINE
  5
56E7
330
1F
100
AcDbEntity
  8
HATCH
  6
Continuous
100
AcDbLine
 10
1418.930361624997
 20
555.0
 30
0.0
 11
1453.930361624999
 21
590.0000000000009
 31
0.0
  0
LINE
  5
56E8
330
1F
100
AcDbEntity
  8
HATCH
  6
Continuous
100
AcDbLine
 10
1432.400745806601
 20
555.0000000000002
 30
0.0
 11
1467.400745806602
 21
590.0000000000009
 31
0.0
  0
LINE
  5
56E9
330
1F
100
AcDbEntity
  8
HATCH
  6
Continuous
100
AcDbLine
 10
1445.871129988205
 20
555.0
 30
0.0
 11
1480.871129988206
 21
590.0000000000004
 31
0.0
  0
LINE
  5
56EA
330
1F
100
AcDbEntity
  8
HATCH
  6
Continuous
100
AcDbLine
 10
1459.341514169809
 20
555.0000000000002
 30
0.0
 11
1494.341514169809
 21
590.0000000000006
 31
0.0
  0
LINE
  5
56EB
330
1F
100
AcDbEntity
  8
HATCH
  6
Continuous
100
AcDbLine
 10
1472.811898351412
 20
554.9999999999998
 30
0.0
 11
1507.811898351413
 21
590.0000000000008
 31
0.0
  0
LINE
  5
56EC
330
1F
100
AcDbEntity
  8
HATCH
  6
Continuous
100
AcDbLine
 10
1486.282282533016
 20
554.9999999999998
 30
0.0
 11
1521.282282533017
 21
590.0000000000009
 31
0.0
  0
LINE
  5
56ED
330
1F
100
AcDbEntity
  8
HATCH
  6
Continuous
100
AcDbLine
 10
1499.75266671462
 20
555.0
 30
0.0
 11
1534.752666714621
 21
590.0000000000009
 31
0.0
  0
LINE
  5
56EE
330
1F
100
AcDbEntity
  8
HATCH
  6
Continuous
100
AcDbLine
 10
1513.223050896224
 20
555.0
 30
0.0
 11
1548.223050896224
 21
590.0000000000006
 31
0.0
  0
LINE
  5
56EF
330
1F
100
AcDbEntity
  8
HATCH
  6
Continuous
100
AcDbLine
 10
1526.693435077827
 20
555.0
 30
0.0
 11
1561.693435077828
 21
590.0000000000006
 31
0.0
  0
LINE
  5
56F0
330
1F
100
AcDbEntity
  8
HATCH
  6
Continuous
100
AcDbLine
 10
1540.163819259431
 20
554.9999999999998
 30
0.0
 11
1575.163819259432
 21
590.0000000000008
 31
0.0
  0
LINE
  5
56F1
330
1F
100
AcDbEntity
  8
HATCH
  6
Continuous
100
AcDbLine
 10
1553.634203441035
 20
554.9999999999998
 30
0.0
 11
1588.634203441035
 21
590.0000000000004
 31
0.0
  0
LINE
  5
56F2
330
1F
100
AcDbEntity
  8
HATCH
  6
Continuous
100
AcDbLine
 10
1567.104587622638
 20
554.9999999999998
 30
0.0
 11
1602.104587622639
 21
590.0000000000006
 31
0.0
  0
LINE
  5
56F3
330
1F
100
AcDbEntity
  8
HATCH
  6
Continuous
100
AcDbLine
 10
1580.574971804242
 20
554.9999999999995
 30
0.0
 11
1615.574971804243
 21
590.0000000000006
 31
0.0
  0
LINE
  5
56F4
330
1F
100
AcDbEntity
  8
HATCH
  6
Continuous
100
AcDbLine
 10
1594.045355985846
 20
554.9999999999998
 30
0.0
 11
1629.045355985846
 21
590.0000000000006
 31
0.0
  0
LINE
  5
56F5
330
1F
100
AcDbEntity
  8
HATCH
  6
Continuous
100
AcDbLine
 10
1607.515740167449
 20
554.9999999999998
 30
0.0
 11
1642.51574016745
 21
590.0000000000003
 31
0.0
  0
LINE
  5
56F6
330
1F
100
AcDbEntity
  8
HATCH
  6
Continuous
100
AcDbLine
 10
1620.986124349053
 20
554.9999999999998
 30
0.0
 11
1655.986124349054
 21
590.0000000000004
 31
0.0
  0
LINE
  5
56F7
330
1F
100
AcDbEntity
  8
HATCH
  6
Continuous
100
AcDbLine
 10
1634.456508530657
 20
554.9999999999998
 30
0.0
 11
1669.456508530658
 21
590.0000000000006
 31
0.0
  0
LINE
  5
56F8
330
1F
100
AcDbEntity
  8
HATCH
  6
Continuous
100
AcDbLine
 10
1647.926892712261
 20
554.9999999999996
 30
0.0
 11
1682.926892712261
 21
590.0000000000003
 31
0.0
  0
LINE
  5
56F9
330
1F
100
AcDbEntity
  8
HATCH
  6
Continuous
100
AcDbLine
 10
1661.397276893864
 20
554.9999999999995
 30
0.0
 11
1696.397276893865
 21
590.0000000000004
 31
0.0
  0
LINE
  5
56FA
330
1F
100
AcDbEntity
  8
HATCH
  6
Continuous
100
AcDbLine
 10
1674.867661075468
 20
554.9999999999996
 30
0.0
 11
1709.867661075469
 21
590.0000000000003
 31
0.0
  0
LINE
  5
56FB
330
1F
100
AcDbEntity
  8
HATCH
  6
Continuous
100
AcDbLine
 10
1688.338045257072
 20
554.9999999999998
 30
0.0
 11
1723.338045257072
 21
590.0000000000004
 31
0.0
  0
LINE
  5
56FC
330
1F
100
AcDbEntity
  8
HATCH
  6
Continuous
100
AcDbLine
 10
1701.808429438675
 20
554.9999999999995
 30
0.0
 11
1736.808429438676
 21
590.0000000000006
 31
0.0
  0
LINE
  5
56FD
330
1F
100
AcDbEntity
  8
HATCH
  6
Continuous
100
AcDbLine
 10
1715.278813620279
 20
554.9999999999996
 30
0.0
 11
1750.27881362028
 21
590.0000000000003
 31
0.0
  0
LINE
  5
56FE
330
1F
100
AcDbEntity
  8
HATCH
  6
Continuous
100
AcDbLine
 10
1728.749197801883
 20
554.9999999999995
 30
0.0
 11
1763.749197801884
 21
590.0000000000004
 31
0.0
  0
LINE
  5
56FF
330
1F
100
AcDbEntity
  8
HATCH
  6
Continuous
100
AcDbLine
 10
1742.219581983487
 20
554.9999999999996
 30
0.0
 11
1777.219581983487
 21
590.0000000000003
 31
0.0
  0
LINE
  5
5700
330
1F
100
AcDbEntity
  8
HATCH
  6
Continuous
100
AcDbLine
 10
1755.68996616509
 20
554.9999999999993
 30
0.0
 11
1790.689966165091
 21
590.0000000000002
 31
0.0
  0
LINE
  5
5701
330
1F
100
AcDbEntity
  8
HATCH
  6
Continuous
100
AcDbLine
 10
1769.160350346694
 20
554.9999999999995
 30
0.0
 11
1804.160350346695
 21
590.0000000000002
 31
0.0
  0
LINE
  5
5702
330
1F
100
AcDbEntity
  8
HATCH
  6
Continuous
100
AcDbLine
 10
1782.630734528298
 20
554.9999999999996
 30
0.0
 11
1817.630734528298
 21
590.0000000000003
 31
0.0
  0
LINE
  5
5703
330
1F
100
AcDbEntity
  8
HATCH
  6
Continuous
100
AcDbLine
 10
1796.101118709901
 20
554.9999999999993
 30
0.0
 11
1831.101118709902
 21
590.0000000000004
 31
0.0
  0
LINE
  5
5704
330
1F
100
AcDbEntity
  8
HATCH
  6
Continuous
100
AcDbLine
 10
1809.571502891505
 20
554.9999999999994
 30
0.0
 11
1844.571502891506
 21
590.0000000000001
 31
0.0
  0
LINE
  5
5705
330
1F
100
AcDbEntity
  8
HATCH
  6
Continuous
100
AcDbLine
 10
1823.041887073108
 20
554.9999999999994
 30
0.0
 11
1858.04188707311
 21
590.0000000000003
 31
0.0
  0
LINE
  5
5706
330
1F
100
AcDbEntity
  8
HATCH
  6
Continuous
100
AcDbLine
 10
1836.512271254713
 20
554.9999999999995
 30
0.0
 11
1871.512271254713
 21
590.0000000000002
 31
0.0
  0
LINE
  5
5707
330
1F
100
AcDbEntity
  8
HATCH
  6
Continuous
100
AcDbLine
 10
1849.982655436316
 20
554.9999999999991
 30
0.0
 11
1884.982655436317
 21
590.0000000000003
 31
0.0
  0
LINE
  5
5708
330
1F
100
AcDbEntity
  8
HATCH
  6
Continuous
100
AcDbLine
 10
1863.45303961792
 20
554.9999999999993
 30
0.0
 11
1898.45303961792
 21
590.0
 31
0.0
  0
LINE
  5
5709
330
1F
100
AcDbEntity
  8
HATCH
  6
Continuous
100
AcDbLine
 10
1876.923423799524
 20
554.9999999999994
 30
0.0
 11
1911.923423799525
 21
590.0000000000001
 31
0.0
  0
LINE
  5
570A
330
1F
100
AcDbEntity
  8
HATCH
  6
Continuous
100
AcDbLine
 10
1890.393807981127
 20
554.9999999999994
 30
0.0
 11
1925.393807981128
 21
590.0000000000003
 31
0.0
  0
LINE
  5
570B
330
1F
100
AcDbEntity
  8
HATCH
  6
Continuous
100
AcDbLine
 10
1903.864192162731
 20
554.9999999999995
 30
0.0
 11
1938.864192162732
 21
590.0000000000002
 31
0.0
  0
LINE
  5
570C
330
1F
100
AcDbEntity
  8
HATCH
  6
Continuous
100
AcDbLine
 10
1917.334576344335
 20
554.9999999999991
 30
0.0
 11
1952.334576344336
 21
590.0000000000001
 31
0.0
  0
LINE
  5
570D
330
1F
100
AcDbEntity
  8
HATCH
  6
Continuous
100
AcDbLine
 10
1930.804960525939
 20
554.9999999999993
 30
0.0
 11
1965.804960525939
 21
590.0
 31
0.0
  0
LINE
  5
570E
330
1F
100
AcDbEntity
  8
HATCH
  6
Continuous
100
AcDbLine
 10
1944.275344707542
 20
554.9999999999994
 30
0.0
 11
1979.275344707543
 21
590.0000000000001
 31
0.0
  0
LINE
  5
570F
330
1F
100
AcDbEntity
  8
HATCH
  6
Continuous
100
AcDbLine
 10
1957.745728889146
 20
554.9999999999991
 30
0.0
 11
1992.745728889147
 21
590.0000000000003
 31
0.0
  0
LINE
  5
5710
330
1F
100
AcDbEntity
  8
HATCH
  6
Continuous
100
AcDbLine
 10
1971.216113070749
 20
554.9999999999993
 30
0.0
 11
2006.216113070751
 21
590.0000000000002
 31
0.0
  0
LINE
  5
5711
330
1F
100
AcDbEntity
  8
HATCH
  6
Continuous
100
AcDbLine
 10
1984.686497252354
 20
554.9999999999991
 30
0.0
 11
2019.686497252354
 21
590.0000000000001
 31
0.0
  0
LINE
  5
5712
330
1F
100
AcDbEntity
  8
HATCH
  6
Continuous
100
AcDbLine
 10
1998.156881433957
 20
554.9999999999993
 30
0.0
 11
2033.156881433958
 21
590.0
 31
0.0
  0
LINE
  5
5713
330
1F
100
AcDbEntity
  8
HATCH
  6
Continuous
100
AcDbLine
 10
2011.627265615561
 20
554.999999999999
 30
0.0
 11
2046.627265615562
 21
590.0000000000001
 31
0.0
  0
LINE
  5
5714
330
1F
100
AcDbEntity
  8
HATCH
  6
Continuous
100
AcDbLine
 10
2025.097649797165
 20
554.9999999999991
 30
0.0
 11
2060.097649797165
 21
589.9999999999998
 31
0.0
  0
LINE
  5
5715
330
1F
100
AcDbEntity
  8
HATCH
  6
Continuous
100
AcDbLine
 10
2038.568033978768
 20
554.9999999999993
 30
0.0
 11
2073.568033978769
 21
590.0000000000002
 31
0.0
  0
LINE
  5
5716
330
1F
100
AcDbEntity
  8
HATCH
  6
Continuous
100
AcDbLine
 10
2052.038418160372
 20
554.999999999999
 30
0.0
 11
2087.038418160373
 21
590.0000000000001
 31
0.0
  0
LINE
  5
5717
330
1F
100
AcDbEntity
  8
HATCH
  6
Continuous
100
AcDbLine
 10
2065.508802341976
 20
554.9999999999993
 30
0.0
 11
2100.508802341977
 21
590.0
 31
0.0
  0
LINE
  5
5718
330
1F
100
AcDbEntity
  8
HATCH
  6
Continuous
100
AcDbLine
 10
2078.97918652358
 20
554.999999999999
 30
0.0
 11
2113.979186523581
 21
590.0000000000002
 31
0.0
  0
LINE
  5
5719
330
1F
100
AcDbEntity
  8
HATCH
  6
Continuous
100
AcDbLine
 10
2092.449570705183
 20
554.9999999999991
 30
0.0
 11
2127.449570705184
 21
589.9999999999998
 31
0.0
  0
LINE
  5
571A
330
1F
100
AcDbEntity
  8
HATCH
  6
Continuous
100
AcDbLine
 10
2105.919954886786
 20
554.9999999999989
 30
0.0
 11
2140.919954886788
 21
590.0000000000002
 31
0.0
  0
LINE
  5
571B
330
1F
100
AcDbEntity
  8
HATCH
  6
Continuous
100
AcDbLine
 10
2119.39033906839
 20
554.999999999999
 30
0.0
 11
2154.390339068392
 21
590.0000000000001
 31
0.0
  0
LINE
  5
571C
330
1F
100
AcDbEntity
  8
HATCH
  6
Continuous
100
AcDbLine
 10
2132.860723249994
 20
554.999999999999
 30
0.0
 11
2167.860723249996
 21
590.0
 31
0.0
  0
LINE
  5
571D
330
1F
100
AcDbEntity
  8
HATCH
  6
Continuous
100
AcDbLine
 10
2146.331107431598
 20
554.999999999999
 30
0.0
 11
2181.331107431599
 21
590.0000000000002
 31
0.0
  0
LINE
  5
571E
330
1F
100
AcDbEntity
  8
HATCH
  6
Continuous
100
AcDbLine
 10
2159.801491613202
 20
554.9999999999991
 30
0.0
 11
2194.801491613203
 21
589.9999999999998
 31
0.0
  0
LINE
  5
571F
330
1F
100
AcDbEntity
  8
HATCH
  6
Continuous
100
AcDbLine
 10
2173.271875794805
 20
554.9999999999989
 30
0.0
 11
2208.271875794807
 21
590.0000000000002
 31
0.0
  0
LINE
  5
5720
330
1F
100
AcDbEntity
  8
HATCH
  6
Continuous
100
AcDbLine
 10
2186.742259976409
 20
554.999999999999
 30
0.0
 11
2221.74225997641
 21
590.0000000000001
 31
0.0
  0
LINE
  5
5721
330
1F
100
AcDbEntity
  8
HATCH
  6
Continuous
100
AcDbLine
 10
2200.212644158013
 20
554.9999999999986
 30
0.0
 11
2235.212644158014
 21
590.0
 31
0.0
  0
LINE
  5
5722
330
1F
100
AcDbEntity
  8
HATCH
  6
Continuous
100
AcDbLine
 10
2213.683028339616
 20
554.999999999999
 30
0.0
 11
2248.683028339618
 21
590.0000000000002
 31
0.0
  0
LINE
  5
5723
330
1F
100
AcDbEntity
  8
HATCH
  6
Continuous
100
AcDbLine
 10
2227.153412521221
 20
554.9999999999991
 30
0.0
 11
2262.153412521221
 21
589.9999999999998
 31
0.0
  0
LINE
  5
5724
330
1F
100
AcDbEntity
  8
HATCH
  6
Continuous
100
AcDbLine
 10
2240.623796702823
 20
554.9999999999989
 30
0.0
 11
2275.623796702825
 21
590.0000000000002
 31
0.0
  0
LINE
  5
5725
330
1F
100
AcDbEntity
  8
HATCH
  6
Continuous
100
AcDbLine
 10
2254.094180884428
 20
554.999999999999
 30
0.0
 11
2280.0
 21
580.9058191155712
 31
0.0
  0
LINE
  5
5726
330
1F
100
AcDbEntity
  8
HATCH
  6
Continuous
100
AcDbLine
 10
2267.564565066031
 20
554.9999999999986
 30
0.0
 11
2280.000000000001
 21
567.4354349339678
 31
0.0
  0
LINE
  5
5727
330
1F
100
AcDbEntity
  8
HATCH
  6
Continuous
100
AcDbLine
 10
1046.972248698107
 20
554.9999999999998
 30
0.0
 11
1033.639610306789
 21
568.332638391318
 31
0.0
  0
LINE
  5
5728
330
1F
100
AcDbEntity
  8
HATCH
  6
Continuous
100
AcDbLine
 10
1060.442632879711
 20
554.9999999999998
 30
0.0
 11
1033.639610306789
 21
581.8030225729217
 31
0.0
  0
LINE
  5
5729
330
1F
100
AcDbEntity
  8
HATCH
  6
Continuous
100
AcDbLine
 10
1073.913017061314
 20
554.9999999999998
 30
0.0
 11
1038.913017061315
 21
589.9999999999987
 31
0.0
  0
LINE
  5
572A
330
1F
100
AcDbEntity
  8
HATCH
  6
Continuous
100
AcDbLine
 10
1087.383401242918
 20
554.9999999999998
 30
0.0
 11
1052.383401242919
 21
589.9999999999986
 31
0.0
  0
LINE
  5
572B
330
1F
100
AcDbEntity
  8
HATCH
  6
Continuous
100
AcDbLine
 10
1100.853785424522
 20
554.9999999999998
 30
0.0
 11
1065.853785424523
 21
589.9999999999986
 31
0.0
  0
LINE
  5
572C
330
1F
100
AcDbEntity
  8
HATCH
  6
Continuous
100
AcDbLine
 10
1114.324169606125
 20
554.9999999999998
 30
0.0
 11
1079.324169606127
 21
589.9999999999987
 31
0.0
  0
LINE
  5
572D
330
1F
100
AcDbEntity
  8
HATCH
  6
Continuous
100
AcDbLine
 10
1127.794553787729
 20
554.9999999999998
 30
0.0
 11
1092.79455378773
 21
589.9999999999986
 31
0.0
  0
LINE
  5
572E
330
1F
100
AcDbEntity
  8
HATCH
  6
Continuous
100
AcDbLine
 10
1141.264937969333
 20
554.9999999999998
 30
0.0
 11
1106.264937969334
 21
589.9999999999987
 31
0.0
  0
LINE
  5
572F
330
1F
100
AcDbEntity
  8
HATCH
  6
Continuous
100
AcDbLine
 10
1154.735322150937
 20
554.9999999999998
 30
0.0
 11
1119.735322150938
 21
589.9999999999987
 31
0.0
  0
LINE
  5
5730
330
1F
100
AcDbEntity
  8
HATCH
  6
Continuous
100
AcDbLine
 10
1168.20570633254
 20
554.9999999999998
 30
0.0
 11
1133.205706332542
 21
589.9999999999986
 31
0.0
  0
LINE
  5
5731
330
1F
100
AcDbEntity
  8
HATCH
  6
Continuous
100
AcDbLine
 10
1181.676090514144
 20
554.9999999999998
 30
0.0
 11
1146.676090514145
 21
589.9999999999988
 31
0.0
  0
LINE
  5
5732
330
1F
100
AcDbEntity
  8
HATCH
  6
Continuous
100
AcDbLine
 10
1195.146474695748
 20
554.9999999999998
 30
0.0
 11
1160.146474695749
 21
589.9999999999987
 31
0.0
  0
LINE
  5
5733
330
1F
100
AcDbEntity
  8
HATCH
  6
Continuous
100
AcDbLine
 10
1208.616858877352
 20
554.9999999999998
 30
0.0
 11
1173.616858877353
 21
589.9999999999988
 31
0.0
  0
LINE
  5
5734
330
1F
100
AcDbEntity
  8
HATCH
  6
Continuous
100
AcDbLine
 10
1222.087243058955
 20
554.9999999999998
 30
0.0
 11
1187.087243058956
 21
589.9999999999988
 31
0.0
  0
LINE
  5
5735
330
1F
100
AcDbEntity
  8
HATCH
  6
Continuous
100
AcDbLine
 10
1235.557627240559
 20
554.9999999999998
 30
0.0
 11
1200.55762724056
 21
589.9999999999987
 31
0.0
  0
LINE
  5
5736
330
1F
100
AcDbEntity
  8
HATCH
  6
Continuous
100
AcDbLine
 10
1249.028011422163
 20
554.9999999999998
 30
0.0
 11
1214.028011422164
 21
589.9999999999988
 31
0.0
  0
LINE
  5
5737
330
1F
100
AcDbEntity
  8
HATCH
  6
Continuous
100
AcDbLine
 10
1262.498395603766
 20
554.9999999999998
 30
0.0
 11
1227.498395603767
 21
589.9999999999988
 31
0.0
  0
LINE
  5
5738
330
1F
100
AcDbEntity
  8
HATCH
  6
Continuous
100
AcDbLine
 10
1275.96877978537
 20
554.9999999999998
 30
0.0
 11
1240.968779785371
 21
589.9999999999988
 31
0.0
  0
LINE
  5
5739
330
1F
100
AcDbEntity
  8
HATCH
  6
Continuous
100
AcDbLine
 10
1289.439163966974
 20
554.9999999999998
 30
0.0
 11
1254.439163966975
 21
589.9999999999988
 31
0.0
  0
LINE
  5
573A
330
1F
100
AcDbEntity
  8
HATCH
  6
Continuous
100
AcDbLine
 10
1302.909548148578
 20
555.0
 30
0.0
 11
1267.909548148579
 21
589.999999999999
 31
0.0
  0
LINE
  5
573B
330
1F
100
AcDbEntity
  8
HATCH
  6
Continuous
100
AcDbLine
 10
1316.379932330182
 20
554.9999999999998
 30
0.0
 11
1281.379932330183
 21
589.9999999999988
 31
0.0
  0
LINE
  5
573C
330
1F
100
AcDbEntity
  8
HATCH
  6
Continuous
100
AcDbLine
 10
1329.850316511785
 20
554.9999999999998
 30
0.0
 11
1294.850316511786
 21
589.9999999999988
 31
0.0
  0
LINE
  5
573D
330
1F
100
AcDbEntity
  8
HATCH
  6
Continuous
100
AcDbLine
 10
1343.320700693389
 20
554.9999999999998
 30
0.0
 11
1308.32070069339
 21
589.999999999999
 31
0.0
  0
LINE
  5
573E
330
1F
100
AcDbEntity
  8
HATCH
  6
Continuous
100
AcDbLine
 10
1356.791084874993
 20
554.9999999999998
 30
0.0
 11
1321.791084874994
 21
589.9999999999988
 31
0.0
  0
LINE
  5
573F
330
1F
100
AcDbEntity
  8
HATCH
  6
Continuous
100
AcDbLine
 10
1370.261469056596
 20
554.9999999999998
 30
0.0
 11
1335.261469056597
 21
589.9999999999988
 31
0.0
  0
LINE
  5
5740
330
1F
100
AcDbEntity
  8
HATCH
  6
Continuous
100
AcDbLine
 10
1383.7318532382
 20
554.9999999999998
 30
0.0
 11
1348.731853238201
 21
589.999999999999
 31
0.0
  0
LINE
  5
5741
330
1F
100
AcDbEntity
  8
HATCH
  6
Continuous
100
AcDbLine
 10
1397.202237419804
 20
554.9999999999998
 30
0.0
 11
1362.202237419805
 21
589.9999999999988
 31
0.0
  0
LINE
  5
5742
330
1F
100
AcDbEntity
  8
HATCH
  6
Continuous
100
AcDbLine
 10
1410.672621601407
 20
555.0
 30
0.0
 11
1375.672621601408
 21
589.999999999999
 31
0.0
  0
LINE
  5
5743
330
1F
100
AcDbEntity
  8
HATCH
  6
Continuous
100
AcDbLine
 10
1424.143005783012
 20
554.9999999999998
 30
0.0
 11
1389.143005783012
 21
589.999999999999
 31
0.0
  0
LINE
  5
5744
330
1F
100
AcDbEntity
  8
HATCH
  6
Continuous
100
AcDbLine
 10
1437.613389964615
 20
554.9999999999998
 30
0.0
 11
1402.613389964615
 21
589.999999999999
 31
0.0
  0
LINE
  5
5745
330
1F
100
AcDbEntity
  8
HATCH
  6
Continuous
100
AcDbLine
 10
1451.083774146218
 20
554.9999999999998
 30
0.0
 11
1416.083774146219
 21
589.999999999999
 31
0.0
  0
LINE
  5
5746
330
1F
100
AcDbEntity
  8
HATCH
  6
Continuous
100
AcDbLine
 10
1464.554158327822
 20
554.9999999999998
 30
0.0
 11
1429.554158327823
 21
589.999999999999
 31
0.0
  0
LINE
  5
5747
330
1F
100
AcDbEntity
  8
HATCH
  6
Continuous
100
AcDbLine
 10
1478.024542509426
 20
555.0000000000001
 30
0.0
 11
1443.024542509427
 21
589.9999999999992
 31
0.0
  0
LINE
  5
5748
330
1F
100
AcDbEntity
  8
HATCH
  6
Continuous
100
AcDbLine
 10
1491.49492669103
 20
555.0
 30
0.0
 11
1456.49492669103
 21
589.9999999999992
 31
0.0
  0
LINE
  5
5749
330
1F
100
AcDbEntity
  8
HATCH
  6
Continuous
100
AcDbLine
 10
1504.965310872633
 20
555.0
 30
0.0
 11
1469.965310872634
 21
589.9999999999992
 31
0.0
  0
LINE
  5
574A
330
1F
100
AcDbEntity
  8
HATCH
  6
Continuous
100
AcDbLine
 10
1518.435695054237
 20
555.0
 30
0.0
 11
1483.435695054238
 21
589.9999999999993
 31
0.0
  0
LINE
  5
574B
330
1F
100
AcDbEntity
  8
HATCH
  6
Continuous
100
AcDbLine
 10
1531.906079235841
 20
555.0
 30
0.0
 11
1496.906079235842
 21
589.999999999999
 31
0.0
  0
LINE
  5
574C
330
1F
100
AcDbEntity
  8
HATCH
  6
Continuous
100
AcDbLine
 10
1545.376463417445
 20
555.0000000000001
 30
0.0
 11
1510.376463417445
 21
589.9999999999993
 31
0.0
  0
LINE
  5
574D
330
1F
100
AcDbEntity
  8
HATCH
  6
Continuous
100
AcDbLine
 10
1558.846847599048
 20
555.0000000000001
 30
0.0
 11
1523.846847599049
 21
589.9999999999992
 31
0.0
  0
LINE
  5
574E
330
1F
100
AcDbEntity
  8
HATCH
  6
Continuous
100
AcDbLine
 10
1572.317231780652
 20
555.0000000000001
 30
0.0
 11
1537.317231780653
 21
589.9999999999992
 31
0.0
  0
LINE
  5
574F
330
1F
100
AcDbEntity
  8
HATCH
  6
Continuous
100
AcDbLine
 10
1585.787615962256
 20
555.0000000000002
 30
0.0
 11
1550.787615962256
 21
589.9999999999994
 31
0.0
  0
LINE
  5
5750
330
1F
100
AcDbEntity
  8
HATCH
  6
Continuous
100
AcDbLine
 10
1599.25800014386
 20
555.0
 30
0.0
 11
1564.25800014386
 21
589.9999999999994
 31
0.0
  0
LINE
  5
5751
330
1F
100
AcDbEntity
  8
HATCH
  6
Continuous
100
AcDbLine
 10
1612.728384325463
 20
555.0000000000002
 30
0.0
 11
1577.728384325464
 21
589.9999999999993
 31
0.0
  0
LINE
  5
5752
330
1F
100
AcDbEntity
  8
HATCH
  6
Continuous
100
AcDbLine
 10
1626.198768507067
 20
555.0000000000001
 30
0.0
 11
1591.198768507068
 21
589.9999999999993
 31
0.0
  0
LINE
  5
5753
330
1F
100
AcDbEntity
  8
HATCH
  6
Continuous
100
AcDbLine
 10
1639.66915268867
 20
555.0000000000001
 30
0.0
 11
1604.669152688671
 21
589.9999999999993
 31
0.0
  0
LINE
  5
5754
330
1F
100
AcDbEntity
  8
HATCH
  6
Continuous
100
AcDbLine
 10
1653.139536870274
 20
555.0000000000003
 30
0.0
 11
1618.139536870275
 21
589.9999999999994
 31
0.0
  0
LINE
  5
5755
330
1F
100
AcDbEntity
  8
HATCH
  6
Continuous
100
AcDbLine
 10
1666.609921051878
 20
555.0000000000001
 30
0.0
 11
1631.609921051879
 21
589.9999999999994
 31
0.0
  0
LINE
  5
5756
330
1F
100
AcDbEntity
  8
HATCH
  6
Continuous
100
AcDbLine
 10
1680.080305233482
 20
555.0
 30
0.0
 11
1645.080305233483
 21
589.9999999999993
 31
0.0
  0
LINE
  5
5757
330
1F
100
AcDbEntity
  8
HATCH
  6
Continuous
100
AcDbLine
 10
1693.550689415086
 20
555.0000000000002
 30
0.0
 11
1658.550689415086
 21
589.9999999999995
 31
0.0
  0
LINE
  5
5758
330
1F
100
AcDbEntity
  8
HATCH
  6
Continuous
100
AcDbLine
 10
1707.021073596689
 20
555.0
 30
0.0
 11
1672.02107359669
 21
589.9999999999993
 31
0.0
  0
LINE
  5
5759
330
1F
100
AcDbEntity
  8
HATCH
  6
Continuous
100
AcDbLine
 10
1720.491457778293
 20
555.0000000000002
 30
0.0
 11
1685.491457778294
 21
589.9999999999995
 31
0.0
  0
LINE
  5
575A
330
1F
100
AcDbEntity
  8
HATCH
  6
Continuous
100
AcDbLine
 10
1733.961841959897
 20
555.0000000000003
 30
0.0
 11
1698.961841959897
 21
589.9999999999994
 31
0.0
  0
LINE
  5
575B
330
1F
100
AcDbEntity
  8
HATCH
  6
Continuous
100
AcDbLine
 10
1747.4322261415
 20
555.0000000000001
 30
0.0
 11
1712.432226141501
 21
589.9999999999994
 31
0.0
  0
LINE
  5
575C
330
1F
100
AcDbEntity
  8
HATCH
  6
Continuous
100
AcDbLine
 10
1760.902610323104
 20
555.0000000000002
 30
0.0
 11
1725.902610323105
 21
589.9999999999995
 31
0.0
  0
LINE
  5
575D
330
1F
100
AcDbEntity
  8
HATCH
  6
Continuous
100
AcDbLine
 10
1774.372994504708
 20
555.0000000000002
 30
0.0
 11
1739.372994504709
 21
589.9999999999995
 31
0.0
  0
LINE
  5
575E
330
1F
100
AcDbEntity
  8
HATCH
  6
Continuous
100
AcDbLine
 10
1787.843378686311
 20
555.0000000000004
 30
0.0
 11
1752.843378686312
 21
589.9999999999995
 31
0.0
  0
LINE
  5
575F
330
1F
100
AcDbEntity
  8
HATCH
  6
Continuous
100
AcDbLine
 10
1801.313762867916
 20
555.0000000000003
 30
0.0
 11
1766.313762867916
 21
589.9999999999996
 31
0.0
  0
LINE
  5
5760
330
1F
100
AcDbEntity
  8
HATCH
  6
Continuous
100
AcDbLine
 10
1814.784147049519
 20
555.0000000000003
 30
0.0
 11
1779.784147049519
 21
589.9999999999994
 31
0.0
  0
LINE
  5
5761
330
1F
100
AcDbEntity
  8
HATCH
  6
Continuous
100
AcDbLine
 10
1828.254531231123
 20
555.0000000000006
 30
0.0
 11
1793.254531231124
 21
589.9999999999996
 31
0.0
  0
LINE
  5
5762
330
1F
100
AcDbEntity
  8
HATCH
  6
Continuous
100
AcDbLine
 10
1841.724915412726
 20
555.0000000000003
 30
0.0
 11
1806.724915412727
 21
589.9999999999995
 31
0.0
  0
LINE
  5
5763
330
1F
100
AcDbEntity
  8
HATCH
  6
Continuous
100
AcDbLine
 10
1855.19529959433
 20
555.0000000000004
 30
0.0
 11
1820.195299594331
 21
589.9999999999997
 31
0.0
  0
LINE
  5
5764
330
1F
100
AcDbEntity
  8
HATCH
  6
Continuous
100
AcDbLine
 10
1868.665683775933
 20
555.0000000000004
 30
0.0
 11
1833.665683775934
 21
589.9999999999997
 31
0.0
  0
LINE
  5
5765
330
1F
100
AcDbEntity
  8
HATCH
  6
Continuous
100
AcDbLine
 10
1882.136067957538
 20
555.0000000000003
 30
0.0
 11
1847.136067957538
 21
589.9999999999996
 31
0.0
  0
LINE
  5
5766
330
1F
100
AcDbEntity
  8
HATCH
  6
Continuous
100
AcDbLine
 10
1895.606452139141
 20
555.0000000000006
 30
0.0
 11
1860.606452139142
 21
589.9999999999998
 31
0.0
  0
LINE
  5
5767
330
1F
100
AcDbEntity
  8
HATCH
  6
Continuous
100
AcDbLine
 10
1909.076836320745
 20
555.0000000000003
 30
0.0
 11
1874.076836320746
 21
589.9999999999996
 31
0.0
  0
LINE
  5
5768
330
1F
100
AcDbEntity
  8
HATCH
  6
Continuous
100
AcDbLine
 10
1922.547220502348
 20
555.0000000000006
 30
0.0
 11
1887.547220502349
 21
589.9999999999997
 31
0.0
  0
LINE
  5
5769
330
1F
100
AcDbEntity
  8
HATCH
  6
Continuous
100
AcDbLine
 10
1936.017604683952
 20
555.0000000000004
 30
0.0
 11
1901.017604683953
 21
589.9999999999997
 31
0.0
  0
LINE
  5
576A
330
1F
100
AcDbEntity
  8
HATCH
  6
Continuous
100
AcDbLine
 10
1949.487988865556
 20
555.0000000000004
 30
0.0
 11
1914.487988865557
 21
589.9999999999997
 31
0.0
  0
LINE
  5
576B
330
1F
100
AcDbEntity
  8
HATCH
  6
Continuous
100
AcDbLine
 10
1962.958373047159
 20
555.0000000000006
 30
0.0
 11
1927.95837304716
 21
589.9999999999998
 31
0.0
  0
LINE
  5
576C
330
1F
100
AcDbEntity
  8
HATCH
  6
Continuous
100
AcDbLine
 10
1976.428757228763
 20
555.0000000000006
 30
0.0
 11
1941.428757228764
 21
589.9999999999998
 31
0.0
  0
LINE
  5
576D
330
1F
100
AcDbEntity
  8
HATCH
  6
Continuous
100
AcDbLine
 10
1989.899141410367
 20
555.0000000000003
 30
0.0
 11
1954.899141410368
 21
589.9999999999996
 31
0.0
  0
LINE
  5
576E
330
1F
100
AcDbEntity
  8
HATCH
  6
Continuous
100
AcDbLine
 10
2003.369525591971
 20
555.0000000000006
 30
0.0
 11
1968.369525591972
 21
589.9999999999997
 31
0.0
  0
LINE
  5
576F
330
1F
100
AcDbEntity
  8
HATCH
  6
Continuous
100
AcDbLine
 10
2016.839909773575
 20
555.0000000000004
 30
0.0
 11
1981.839909773576
 21
589.9999999999997
 31
0.0
  0
LINE
  5
5770
330
1F
100
AcDbEntity
  8
HATCH
  6
Continuous
100
AcDbLine
 10
2030.310293955178
 20
555.0000000000006
 30
0.0
 11
1995.310293955179
 21
590.0
 31
0.0
  0
LINE
  5
5771
330
1F
100
AcDbEntity
  8
HATCH
  6
Continuous
100
AcDbLine
 10
2043.780678136782
 20
555.0000000000006
 30
0.0
 11
2008.780678136783
 21
589.9999999999998
 31
0.0
  0
LINE
  5
5772
330
1F
100
AcDbEntity
  8
HATCH
  6
Continuous
100
AcDbLine
 10
2057.251062318386
 20
555.0000000000003
 30
0.0
 11
2022.251062318387
 21
589.9999999999998
 31
0.0
  0
LINE
  5
5773
330
1F
100
AcDbEntity
  8
HATCH
  6
Continuous
100
AcDbLine
 10
2070.72144649999
 20
555.0000000000006
 30
0.0
 11
2035.721446499991
 21
589.9999999999997
 31
0.0
  0
LINE
  5
5774
330
1F
100
AcDbEntity
  8
HATCH
  6
Continuous
100
AcDbLine
 10
2084.191830681593
 20
555.0000000000006
 30
0.0
 11
2049.191830681595
 21
589.9999999999997
 31
0.0
  0
LINE
  5
5775
330
1F
100
AcDbEntity
  8
HATCH
  6
Continuous
100
AcDbLine
 10
2097.662214863197
 20
555.0000000000007
 30
0.0
 11
2062.662214863198
 21
590.0
 31
0.0
  0
LINE
  5
5776
330
1F
100
AcDbEntity
  8
HATCH
  6
Continuous
100
AcDbLine
 10
2111.132599044801
 20
555.0000000000006
 30
0.0
 11
2076.132599044802
 21
589.9999999999998
 31
0.0
  0
LINE
  5
5777
330
1F
100
AcDbEntity
  8
HATCH
  6
Continuous
100
AcDbLine
 10
2124.602983226404
 20
555.0000000000006
 30
0.0
 11
2089.602983226405
 21
589.9999999999998
 31
0.0
  0
LINE
  5
5778
330
1F
100
AcDbEntity
  8
HATCH
  6
Continuous
100
AcDbLine
 10
2138.073367408008
 20
555.0000000000006
 30
0.0
 11
2103.073367408009
 21
589.9999999999997
 31
0.0
  0
LINE
  5
5779
330
1F
100
AcDbEntity
  8
HATCH
  6
Continuous
100
AcDbLine
 10
2151.543751589612
 20
555.0000000000006
 30
0.0
 11
2116.543751589613
 21
589.9999999999997
 31
0.0
  0
LINE
  5
577A
330
1F
100
AcDbEntity
  8
HATCH
  6
Continuous
100
AcDbLine
 10
2165.014135771215
 20
555.0000000000007
 30
0.0
 11
2130.014135771217
 21
590.0
 31
0.0
  0
LINE
  5
577B
330
1F
100
AcDbEntity
  8
HATCH
  6
Continuous
100
AcDbLine
 10
2178.484519952819
 20
555.0000000000009
 30
0.0
 11
2143.48451995282
 21
589.9999999999998
 31
0.0
  0
LINE
  5
577C
330
1F
100
AcDbEntity
  8
HATCH
  6
Continuous
100
AcDbLine
 10
2191.954904134423
 20
555.0000000000007
 30
0.0
 11
2156.954904134424
 21
589.9999999999998
 31
0.0
  0
LINE
  5
577D
330
1F
100
AcDbEntity
  8
HATCH
  6
Continuous
100
AcDbLine
 10
2205.425288316027
 20
555.0000000000007
 30
0.0
 11
2170.425288316028
 21
590.0000000000001
 31
0.0
  0
LINE
  5
577E
330
1F
100
AcDbEntity
  8
HATCH
  6
Continuous
100
AcDbLine
 10
2218.895672497631
 20
555.0000000000006
 30
0.0
 11
2183.895672497632
 21
589.9999999999997
 31
0.0
  0
LINE
  5
577F
330
1F
100
AcDbEntity
  8
HATCH
  6
Continuous
100
AcDbLine
 10
2232.366056679234
 20
555.0000000000007
 30
0.0
 11
2197.366056679235
 21
589.9999999999998
 31
0.0
  0
LINE
  5
5780
330
1F
100
AcDbEntity
  8
HATCH
  6
Continuous
100
AcDbLine
 10
2245.836440860838
 20
555.0000000000009
 30
0.0
 11
2210.836440860839
 21
589.9999999999997
 31
0.0
  0
LINE
  5
5781
330
1F
100
AcDbEntity
  8
HATCH
  6
Continuous
100
AcDbLine
 10
2259.306825042441
 20
555.0000000000007
 30
0.0
 11
2224.306825042442
 21
589.9999999999998
 31
0.0
  0
LINE
  5
5782
330
1F
100
AcDbEntity
  8
HATCH
  6
Continuous
100
AcDbLine
 10
2272.777209224045
 20
555.0000000000011
 30
0.0
 11
2237.777209224046
 21
590.0
 31
0.0
  0
LINE
  5
5783
330
1F
100
AcDbEntity
  8
HATCH
  6
Continuous
100
AcDbLine
 10
2280.0
 20
561.2475934056497
 30
0.0
 11
2251.247593405651
 21
589.9999999999998
 31
0.0
  0
LINE
  5
5784
330
1F
100
AcDbEntity
  8
HATCH
  6
Continuous
100
AcDbLine
 10
2280.0
 20
574.7179775872536
 30
0.0
 11
2264.717977587254
 21
589.9999999999996
 31
0.0
  0
LINE
  5
5785
330
1F
100
AcDbEntity
  8
HATCH
  6
Continuous
100
AcDbLine
 10
2280.0
 20
588.1883617688575
 30
0.0
 11
2278.188361768858
 21
589.9999999999997
 31
0.0
  0
LINE
  5
5786
330
1F
100
AcDbEntity
  8
MOJI
100
AcDbLine
 10
1113.242516466144
 20
441.7828036468185
 30
0.0
 11
1063.242516466144
 21
441.7828036468185
 31
0.0
  0
LINE
  5
5787
330
1F
100
AcDbEntity
  8
MOJI
100
AcDbLine
 10
1063.242516466144
 20
441.7828036468185
 30
0.0
 11
995.330580332933
 21
559.4097274699138
 31
0.0
  0
LINE
  5
5788
330
1F
100
AcDbEntity
  8
sunpo
100
AcDbLine
 10
976.4644660940673
 20
590.9619407771256
 30
0.0
 11
926.1409355330181
 21
540.6384102160761
 31
0.0
  0
LINE
  5
5789
330
1F
100
AcDbEntity
  8
sunpo
100
AcDbLine
 10
1025.961940777126
 20
541.4644660940673
 30
0.0
 11
975.6384102160765
 21
491.1409355330179
 31
0.0
  0
LINE
  5
578A
330
1F
100
AcDbEntity
  8
sunpo
100
AcDbLine
 10
931.7977897825103
 20
534.9815559665837
 30
0.0
 11
969.9815559665841
 21
496.7977897825103
 31
0.0
  0
MTEXT
  5
578B
330
1F
100
AcDbEntity
  8
sunpo
100
AcDbMText
 10
934.4546062979301
 20
501.5531784945051
 30
0.0
 40
20.0
 41
0.0
 71
     5
 72
     1
  1
\A1;70程度
  7
MSゴシック
 11
0.7071067811865495
 21
-0.7071067811865457
 31
0.0
 73
     1
 44
1.0
1001
ACAD
1000
MTEXTBEGIN
1070
    73
1070
     1
1070
    44
1040
1.0
1070
    74
1070
     0
1000
MTEXTEND
  0
INSERT
  5
578C
330
1F
100
AcDbEntity
  8
sunpo
100
AcDbBlockReference
  2
_DOT
 10
926.1409355330181
 20
540.6384102160761
 30
0.0
 41
8.0
 42
8.0
 43
8.0
 50
135.0000000000001
  0
INSERT
  5
578D
330
1F
100
AcDbEntity
  8
sunpo
100
AcDbBlockReference
  2
_DOT
 10
975.6384102160765
 20
491.1409355330179
 30
0.0
 41
8.0
 42
8.0
 43
8.0
 50
315.0000000000002
  0
LINE
  5
578E
330
1F
100
AcDbEntity
  8
sunpo
 48
0.5
100
AcDbLine
 10
980.0
 20
738.6479041509701
 30
0.0
 11
980.0
 21
767.8974235504174
 31
0.0
  0
LINE
  5
578F
330
1F
100
AcDbEntity
  8
sunpo
 48
0.5
100
AcDbLine
 10
1340.0
 20
674.5
 30
0.0
 11
1340.0
 21
767.8974235504174
 31
0.0
  0
LINE
  5
5790
330
1F
100
AcDbEntity
  8
sunpo
 48
0.5
100
AcDbLine
 10
988.0
 20
767.8974235504174
 30
0.0
 11
1332.0
 21
767.8974235504174
 31
0.0
  0
MTEXT
  5
5791
330
1F
100
AcDbEntity
  8
sunpo
 48
0.5
100
AcDbMText
 10
1160.0
 20
786.2903321137828
 30
0.0
 40
20.0
 41
0.0
 71
     5
 72
     1
  1
\A1;300～600
  7
MSゴシック
 73
     1
 44
1.0
1001
ACAD
1000
MTEXTBEGIN
1070
    73
1070
     1
1070
    44
1040
1.0
1070
    74
1070
     0
1000
MTEXTEND
  0
INSERT
  5
5792
330
1F
100
AcDbEntity
  8
sunpo
 48
0.5
100
AcDbBlockReference
  2
_DOT
 10
980.0
 20
767.8974235504174
 30
0.0
 41
8.0
 42
8.0
 43
8.0
 50
180.0
  0
INSERT
  5
5793
330
1F
100
AcDbEntity
  8
sunpo
 48
0.5
100
AcDbBlockReference
  2
_DOT
 10
1340.0
 20
767.8974235504174
 30
0.0
 41
8.0
 42
8.0
 43
8.0
  0
LINE
  5
5794
330
1F
100
AcDbEntity
  8
MOJI
 48
0.5
100
AcDbLine
 10
1110.389798088261
 20
1318.489954730068
 30
0.0
 11
1077.9402114582
 21
1318.489954730068
 31
0.0
  0
LINE
  5
5795
330
1F
100
AcDbEntity
  8
MOJI
 48
0.5
100
AcDbLine
 10
1077.9402114582
 20
1318.489954730068
 30
0.0
 11
1003.701111099157
 21
1189.904061000001
 31
0.0
  0
LINE
  5
5796
330
1F
100
AcDbEntity
  8
MOJI
 48
0.5
100
AcDbLine
 10
1119.641938709959
 20
1269.304581343271
 30
0.0
 11
1085.859271212038
 21
1269.304581343271
 31
0.0
  0
LINE
  5
5797
330
1F
100
AcDbEntity
  8
MOJI
 48
0.5
100
AcDbLine
 10
1085.859271212038
 20
1269.304581343271
 30
0.0
 11
1027.657984709959
 21
1168.496996055797
 31
0.0
  0
LINE
  5
5798
330
1F
100
AcDbEntity
  8
MOJI
 48
0.5
100
AcDbLine
 10
1232.646490099157
 20
1204.397451872755
 30
0.0
 11
1086.363095319552
 21
1204.397451872755
 31
0.0
  0
LINE
  5
5799
330
1F
100
AcDbEntity
  8
MOJI
 48
0.5
100
AcDbLine
 10
1086.363095319552
 20
1204.397451872755
 30
0.0
 11
986.686312099157
 21
1031.752199
 31
0.0
  0
LINE
  5
579A
330
1F
100
AcDbEntity
  8
MOJI
 48
0.5
100
AcDbLine
 10
1239.455970099157
 20
1134.888301767536
 30
0.0
 11
1058.942662501796
 21
1134.888301767536
 31
0.0
  0
LINE
  5
579B
330
1F
100
AcDbEntity
  8
MOJI
 48
0.5
100
AcDbLine
 10
1058.942662501796
 20
1134.888301767536
 30
0.0
 11
991.200775099157
 21
1017.555910985555
 31
0.0
  0
LINE
  5
579C
330
1F
100
AcDbEntity
  8
MOJI
 48
0.5
100
AcDbLine
 10
1208.564503249438
 20
1032.711341128301
 30
0.0
 11
1133.091057235413
 21
1032.711341128301
 31
0.0
  0
LINE
  5
579D
330
1F
100
AcDbEntity
  8
MOJI
 48
0.5
100
AcDbLine
 10
1133.091057235413
 20
1032.711341128301
 30
0.0
 11
1040.345294425931
 21
872.0709677555461
 31
0.0
  0
LINE
  5
579E
330
1F
100
AcDbEntity
  8
MOJI
 48
0.5
100
AcDbLine
 10
1086.199335574695
 20
1393.190242275359
 30
0.0
 11
1049.290565165153
 21
1393.190242275359
 31
0.0
  0
LINE
  5
579F
330
1F
100
AcDbEntity
  8
MOJI
 48
0.5
100
AcDbLine
 10
1049.290565165153
 20
1393.190242275359
 30
0.0
 11
991.0892786630743
 21
1292.382656987884
 31
0.0
  0
LINE
  5
57A0
330
1F
100
AcDbEntity
  8
KANAMONO
100
AcDbLine
 10
990.0
 20
1025.0
 30
0.0
 11
990.0
 21
995.0
 31
0.0
  0
LINE
  5
57A1
330
1F
100
AcDbEntity
  8
KANAMONO
100
AcDbLine
 10
990.0
 20
995.0
 30
0.0
 11
990.8000000000001
 21
995.0
 31
0.0
  0
LINE
  5
57A2
330
1F
100
AcDbEntity
  8
KANAMONO
100
AcDbLine
 10
990.8000000000001
 20
995.0
 30
0.0
 11
990.8000000000001
 21
1024.2
 31
0.0
  0
LINE
  5
57A3
330
1F
100
AcDbEntity
  8
KANAMONO
100
AcDbLine
 10
990.8000000000001
 20
1024.2
 30
0.0
 11
1000.0
 21
1024.2
 31
0.0
  0
LINE
  5
57A4
330
1F
100
AcDbEntity
  8
KANAMONO
100
AcDbLine
 10
1000.0
 20
1024.2
 30
0.0
 11
1000.0
 21
1025.0
 31
0.0
  0
LINE
  5
57A5
330
1F
100
AcDbEntity
  8
KANAMONO
100
AcDbLine
 10
1000.0
 20
1025.0
 30
0.0
 11
990.0
 21
1025.0
 31
0.0
  0
LINE
  5
57A6
330
1F
100
AcDbEntity
  8
KANAMONO_SCREW
 48
20.0
100
AcDbLine
 10
975.2301965628328
 20
1012.228551427289
 30
0.0
 11
965.1260108967155
 21
1012.674324324324
 31
0.0
  0
LINE
  5
57A7
330
1F
100
AcDbEntity
  8
KANAMONO_SCREW
 48
20.0
100
AcDbLine
 10
975.2301965628332
 20
1006.971448572703
 30
0.0
 11
965.1260108967155
 21
1006.525675675675
 31
0.0
  0
LINE
  5
57A8
330
1F
100
AcDbEntity
  8
KANAMONO_SCREW
 48
20.0
100
AcDbLine
 10
978.1440289147335
 20
1009.391666666666
 30
0.0
 11
963.9773622480669
 21
1008.766666666667
 31
0.0
  0
LINE
  5
57A9
330
1F
100
AcDbEntity
  8
KANAMONO_SCREW
 48
20.0
100
AcDbLine
 10
978.1440289147335
 20
1009.808333333333
 30
0.0
 11
963.9773622480669
 21
1010.433333333333
 31
0.0
  0
LINE
  5
57AA
330
1F
100
AcDbEntity
  8
KANAMONO_SCREW
 48
20.0
100
AcDbLine
 10
963.9773622480669
 20
1011.194514301521
 30
0.0
 11
961.0572152365147
 21
1009.984949814391
 31
0.0
  0
LINE
  5
57AB
330
1F
100
AcDbEntity
  8
KANAMONO_SCREW
 48
20.0
100
AcDbLine
 10
963.9773622480669
 20
1008.005485698479
 30
0.0
 11
961.0572152365147
 21
1009.215050203964
 31
0.0
  0
ARC
  5
57AC
330
1F
100
AcDbEntity
  8
KANAMONO_SCREW
 48
20.0
100
AcDbCircle
 10
961.2166666666668
 20
1009.600000009178
 30
0.0
 40
0.4166666666666667
100
AcDbArc
 50
112.4999999999997
 51
247.5000000000002
  0
LINE
  5
57AD
330
1F
100
AcDbEntity
  8
KANAMONO_SCREW
 48
20.0
100
AcDbLine
 10
963.9773622480669
 20
1008.766666666667
 30
0.0
 11
963.9773622480669
 21
1007.1
 31
0.0
  0
LINE
  5
57AE
330
1F
100
AcDbEntity
  8
KANAMONO_SCREW
 48
20.0
100
AcDbLine
 10
963.9773622480669
 20
1010.433333333333
 30
0.0
 11
963.9773622480669
 21
1012.1
 31
0.0
  0
LINE
  5
57AF
330
1F
100
AcDbEntity
  8
KANAMONO_SCREW
 48
20.0
100
AcDbLine
 10
963.9773622480669
 20
1012.1
 30
0.0
 11
965.1260108967155
 21
1012.674324324324
 31
0.0
  0
LINE
  5
57B0
330
1F
100
AcDbEntity
  8
KANAMONO_SCREW
 48
20.0
100
AcDbLine
 10
964.767043048039
 20
1010.398494474511
 30
0.0
 11
965.1619348608882
 21
1008.818927223114
 31
0.0
  0
LINE
  5
57B1
330
1F
100
AcDbEntity
  8
KANAMONO_SCREW
 48
20.0
100
AcDbLine
 10
966.030983568485
 20
1010.342732392726
 30
0.0
 11
966.3982984972518
 21
1008.87347267766
 31
0.0
  0
LINE
  5
57B2
330
1F
100
AcDbEntity
  8
KANAMONO_SCREW
 48
20.0
100
AcDbLine
 10
963.3799066443145
 20
1010.947040089409
 30
0.0
 11
963.9773622480669
 21
1008.557217674399
 31
0.0
  0
LINE
  5
57B3
330
1F
100
AcDbEntity
  8
KANAMONO_SCREW
 48
20.0
100
AcDbLine
 10
967.2949240889312
 20
1010.286970310942
 30
0.0
 11
967.6346621336154
 21
1008.928018132206
 31
0.0
  0
LINE
  5
57B4
330
1F
100
AcDbEntity
  8
KANAMONO_SCREW
 48
20.0
100
AcDbLine
 10
972.3506861707157
 20
1010.063921983805
 30
0.0
 11
972.58011667907
 21
1009.146199950387
 31
0.0
  0
LINE
  5
57B5
330
1F
100
AcDbEntity
  8
KANAMONO_SCREW
 48
20.0
100
AcDbLine
 10
968.5588646093773
 20
1010.231208229158
 30
0.0
 11
968.8710257699792
 21
1008.982563586751
 31
0.0
  0
LINE
  5
57B6
330
1F
100
AcDbEntity
  8
KANAMONO_SCREW
 48
20.0
100
AcDbLine
 10
969.8228051298235
 20
1010.175446147373
 30
0.0
 11
970.1073894063428
 21
1009.037109041296
 31
0.0
  0
LINE
  5
57B7
330
1F
100
AcDbEntity
  8
KANAMONO_SCREW
 48
20.0
100
AcDbLine
 10
971.0867456502695
 20
1010.119684065589
 30
0.0
 11
971.3437530427063
 21
1009.091654495842
 31
0.0
  0
LINE
  5
57B8
330
1F
100
AcDbEntity
  8
KANAMONO_SCREW
 48
20.0
100
AcDbLine
 10
963.9773622480669
 20
1007.1
 30
0.0
 11
965.1260108967155
 21
1006.525675675675
 31
0.0
  0
LINE
  5
57B9
330
1F
100
AcDbEntity
  8
KANAMONO_SCREW
 48
20.0
100
AcDbLine
 10
989.9666666666668
 20
1012.1
 30
0.0
 11
978.144028914734
 21
1012.1
 31
0.0
  0
LINE
  5
57BA
330
1F
100
AcDbEntity
  8
KANAMONO_SCREW
 48
20.0
100
AcDbLine
 10
989.9666666666668
 20
1007.1
 30
0.0
 11
978.144028914734
 21
1007.1
 31
0.0
  0
LINE
  5
57BB
330
1F
100
AcDbEntity
  8
KANAMONO_SCREW
 48
20.0
100
AcDbLine
 10
979.8106955814008
 20
1012.1
 30
0.0
 11
979.8106955814008
 21
1007.1
 31
0.0
  0
LINE
  5
57BC
330
1F
100
AcDbEntity
  8
KANAMONO_SCREW
 48
20.0
100
AcDbLine
 10
982.3106955814008
 20
1012.1
 30
0.0
 11
982.3106955814008
 21
1007.1
 31
0.0
  0
LINE
  5
57BD
330
1F
100
AcDbEntity
  8
KANAMONO_SCREW
 48
20.0
100
AcDbLine
 10
978.134846669927
 20
1011.891869117721
 30
0.0
 11
978.144028914734
 21
1012.1
 31
0.0
  0
LINE
  5
57BE
330
1F
100
AcDbEntity
  8
KANAMONO_SCREW
 48
20.0
100
AcDbLine
 10
977.9267157876486
 20
1011.901051362528
 30
0.0
 11
977.9358980324555
 21
1012.109182244807
 31
0.0
  0
LINE
  5
57BF
330
1F
100
AcDbEntity
  8
KANAMONO_SCREW
 48
20.0
100
AcDbLine
 10
975.4291452003048
 20
1012.011238300211
 30
0.0
 11
975.4383274451118
 21
1012.21936918249
 31
0.0
  0
LINE
  5
57C0
330
1F
100
AcDbEntity
  8
KANAMONO_SCREW
 48
20.0
100
AcDbLine
 10
975.2210143180262
 20
1012.020420545018
 30
0.0
 11
975.2301965628332
 21
1012.228551427297
 31
0.0
  0
LINE
  5
57C1
330
1F
100
AcDbEntity
  8
KANAMONO_SCREW
 48
20.0
100
AcDbLine
 10
977.9358980324554
 20
1012.109182244806
 30
0.0
 11
975.4383274451114
 21
1012.219369182483
 31
0.0
  0
LINE
  5
57C2
330
1F
100
AcDbEntity
  8
KANAMONO_SCREW
 48
20.0
100
AcDbLine
 10
978.134846669927
 20
1011.891869117721
 30
0.0
 11
975.221014318026
 21
1012.020420545011
 31
0.0
  0
LINE
  5
57C3
330
1F
100
AcDbEntity
  8
KANAMONO_SCREW
 48
20.0
100
AcDbLine
 10
978.1440289147335
 20
1009.808333333333
 30
0.0
 11
978.1440289147335
 21
1009.391666666666
 31
0.0
  0
LINE
  5
57C4
330
1F
100
AcDbEntity
  8
KANAMONO_SCREW
 48
20.0
100
AcDbLine
 10
977.4064482525
 20
1009.840873656667
 30
0.0
 11
977.5255712245245
 21
1009.364381768569
 31
0.0
  0
LINE
  5
57C5
330
1F
100
AcDbEntity
  8
KANAMONO_SCREW
 48
20.0
100
AcDbLine
 10
973.6146266911617
 20
1010.00815990202
 30
0.0
 11
973.8164803154337
 21
1009.200745404933
 31
0.0
  0
LINE
  5
57C6
330
1F
100
AcDbEntity
  8
KANAMONO_SCREW
 48
20.0
100
AcDbLine
 10
974.8785672116079
 20
1009.952397820236
 30
0.0
 11
975.0528439517973
 21
1009.255290859478
 31
0.0
  0
LINE
  5
57C7
330
1F
100
AcDbEntity
  8
KANAMONO_SCREW
 48
20.0
100
AcDbLine
 10
976.142507732054
 20
1009.896635738451
 30
0.0
 11
976.2892075881609
 21
1009.309836314024
 31
0.0
  0
LINE
  5
57C8
330
1F
100
AcDbEntity
  8
KANAMONO_SCREW
 48
20.0
100
AcDbLine
 10
977.9267157876486
 20
1007.298948637471
 30
0.0
 11
977.9358980324555
 21
1007.090817755193
 31
0.0
  0
LINE
  5
57C9
330
1F
100
AcDbEntity
  8
KANAMONO_SCREW
 48
20.0
100
AcDbLine
 10
978.134846669927
 20
1007.308130882278
 30
0.0
 11
978.144028914734
 21
1007.1
 31
0.0
  0
LINE
  5
57CA
330
1F
100
AcDbEntity
  8
KANAMONO_SCREW
 48
20.0
100
AcDbLine
 10
975.2210143180262
 20
1007.179579454981
 30
0.0
 11
975.2301965628332
 21
1006.971448572703
 31
0.0
  0
LINE
  5
57CB
330
1F
100
AcDbEntity
  8
KANAMONO_SCREW
 48
20.0
100
AcDbLine
 10
975.4291452003048
 20
1007.188761699788
 30
0.0
 11
975.4383274451118
 21
1006.980630817509
 31
0.0
  0
LINE
  5
57CC
330
1F
100
AcDbEntity
  8
KANAMONO_SCREW
 48
20.0
100
AcDbLine
 10
978.134846669927
 20
1007.308130882278
 30
0.0
 11
975.221014318026
 21
1007.179579454989
 31
0.0
  0
LINE
  5
57CD
330
1F
100
AcDbEntity
  8
KANAMONO_SCREW
 48
20.0
100
AcDbLine
 10
977.9358980324554
 20
1007.090817755193
 30
0.0
 11
975.4383274451114
 21
1006.980630817516
 31
0.0
  0
LINE
  5
57CE
330
1F
100
AcDbEntity
  8
KANAMONO_SCREW
 48
20.0
100
AcDbLine
 10
990.8000000000001
 20
1012.933333333333
 30
0.0
 11
990.8000000000001
 21
1006.266666666666
 31
0.0
  0
LINE
  5
57CF
330
1F
100
AcDbEntity
  8
KANAMONO_SCREW
 48
20.0
100
AcDbLine
 10
992.8833333333335
 20
1006.058333333333
 30
0.0
 11
992.8833333333335
 21
1013.141666666666
 31
0.0
  0
LINE
  5
57D0
330
1F
100
AcDbEntity
  8
KANAMONO_SCREW
 48
20.0
100
AcDbLine
 10
993.0916666666668
 20
1007.1
 30
0.0
 11
993.0916666666668
 21
1012.1
 31
0.0
  0
LINE
  5
57D1
330
1F
100
AcDbEntity
  8
KANAMONO_SCREW
 48
20.0
100
AcDbLine
 10
992.4666666666668
 20
1014.183333333333
 30
0.0
 11
992.4666666666668
 21
1005.016666666667
 31
0.0
  0
LINE
  5
57D2
330
1F
100
AcDbEntity
  8
KANAMONO_SCREW
 48
20.0
100
AcDbLine
 10
992.8833333333335
 20
1013.141666666666
 30
0.0
 11
992.4666666666668
 21
1013.141666666666
 31
0.0
  0
LINE
  5
57D3
330
1F
100
AcDbEntity
  8
KANAMONO_SCREW
 48
20.0
100
AcDbLine
 10
992.8833333333335
 20
1013.141666666666
 30
0.0
 11
993.0916666666668
 21
1012.1
 31
0.0
  0
ARC
  5
57D4
330
1F
100
AcDbEntity
  8
KANAMONO_SCREW
 48
20.0
100
AcDbCircle
 10
989.9666666666668
 20
1012.933333333333
 30
0.0
 40
0.8333333333333333
100
AcDbArc
 50
270.0
 51
0.0
  0
LINE
  5
57D5
330
1F
100
AcDbEntity
  8
KANAMONO_SCREW
 48
20.0
100
AcDbLine
 10
990.8000000000001
 20
1014.183333333333
 30
0.0
 11
990.8000000000001
 21
1012.933333333333
 31
0.0
  0
LINE
  5
57D6
330
1F
100
AcDbEntity
  8
KANAMONO_SCREW
 48
20.0
100
AcDbLine
 10
990.8000000000001
 20
1014.183333333333
 30
0.0
 11
992.4666666666668
 21
1014.183333333333
 31
0.0
  0
LINE
  5
57D7
330
1F
100
AcDbEntity
  8
KANAMONO_SCREW
 48
20.0
100
AcDbLine
 10
992.4666666666668
 20
1005.016666666667
 30
0.0
 11
990.8000000000001
 21
1005.016666666667
 31
0.0
  0
LINE
  5
57D8
330
1F
100
AcDbEntity
  8
KANAMONO_SCREW
 48
20.0
100
AcDbLine
 10
992.4666666666668
 20
1006.058333333333
 30
0.0
 11
992.8833333333335
 21
1006.058333333333
 31
0.0
  0
LINE
  5
57D9
330
1F
100
AcDbEntity
  8
KANAMONO_SCREW
 48
20.0
100
AcDbLine
 10
993.0916666666668
 20
1007.1
 30
0.0
 11
992.8833333333335
 21
1006.058333333333
 31
0.0
  0
ARC
  5
57DA
330
1F
100
AcDbEntity
  8
KANAMONO_SCREW
 48
20.0
100
AcDbCircle
 10
989.9666666666668
 20
1006.266666666666
 30
0.0
 40
0.8333333333333333
100
AcDbArc
 50
0.0
 51
90.0
  0
LINE
  5
57DB
330
1F
100
AcDbEntity
  8
KANAMONO_SCREW
 48
20.0
100
AcDbLine
 10
990.8000000000001
 20
1006.266666666666
 30
0.0
 11
990.8000000000001
 21
1005.016666666667
 31
0.0
  0
LINE
  5
57DC
330
1F
100
AcDbEntity
  8
BOUSUI
  6
Continuous
100
AcDbLine
 10
980.0000000000002
 20
1034.407343084102
 30
0.0
 11
981.9341166835979
 21
1036.341459767699
 31
0.0
  0
LINE
  5
57DD
330
1F
100
AcDbEntity
  8
BOUSUI
  6
Continuous
100
AcDbLine
 10
980.0
 20
1029.917215023567
 30
0.0
 11
985.8075469798075
 21
1035.724762003375
 31
0.0
  0
LINE
  5
57DE
330
1F
100
AcDbEntity
  8
BOUSUI
  6
Continuous
100
AcDbLine
 10
980.0000000000002
 20
1025.427086963033
 30
0.0
 11
989.172600267168
 21
1034.599687230201
 31
0.0
  0
LINE
  5
57DF
330
1F
100
AcDbEntity
  8
BOUSUI
  6
Continuous
100
AcDbLine
 10
984.063041097502
 20
1025.0
 30
0.0
 11
992.1391760413609
 21
1033.076134943859
 31
0.0
  0
LINE
  5
57E0
330
1F
100
AcDbEntity
  8
BOUSUI
  6
Continuous
100
AcDbLine
 10
988.5531691580366
 20
1025.0
 30
0.0
 11
994.7613585547788
 21
1031.208189396742
 31
0.0
  0
LINE
  5
57E1
330
1F
100
AcDbEntity
  8
BOUSUI
  6
Continuous
100
AcDbLine
 10
993.0432972185711
 20
1025.0
 30
0.0
 11
997.0634699420546
 21
1029.020172723483
 31
0.0
  0
LINE
  5
57E2
330
1F
100
AcDbEntity
  8
BOUSUI
  6
Continuous
100
AcDbLine
 10
997.5334252791057
 20
1025.0
 30
0.0
 11
999.0489836301158
 21
1026.51555835101
 31
0.0
  0
LINE
  5
57E3
330
1F
100
AcDbEntity
  8
BOUSUI
  6
Continuous
100
AcDbLine
 10
983.4386617764474
 20
1025.0
 30
0.0
 11
979.9999999999998
 21
1028.438661776447
 31
0.0
  0
LINE
  5
57E4
330
1F
100
AcDbEntity
  8
BOUSUI
  6
Continuous
100
AcDbLine
 10
987.928789836982
 20
1025.0
 30
0.0
 11
979.9999999999998
 21
1032.928789836982
 31
0.0
  0
LINE
  5
57E5
330
1F
100
AcDbEntity
  8
BOUSUI
  6
Continuous
100
AcDbLine
 10
992.4189178975165
 20
1025.0
 30
0.0
 11
981.030956681481
 21
1036.387961216036
 31
0.0
  0
LINE
  5
57E6
330
1F
100
AcDbEntity
  8
BOUSUI
  6
Continuous
100
AcDbLine
 10
996.9090459580515
 20
1025.0
 30
0.0
 11
986.3178743959457
 21
1035.591171562106
 31
0.0
  0
LINE
  5
57E7
330
1F
100
AcDbEntity
  8
TENSEN
100
AcDbLine
 10
995.0016540261476
 20
764.9999999999995
 30
0.0
 11
1005.001654026147
 21
764.9999999999995
 31
0.0
  0
LINE
  5
57E8
330
1F
100
AcDbEntity
  8
TENSEN
100
AcDbLine
 10
1005.001654026147
 20
764.9999999999995
 30
0.0
 11
1005.001654026147
 21
755.0
 31
0.0
  0
ARC
  5
57E9
330
1F
100
AcDbEntity
  8
TENSEN
100
AcDbCircle
 10
1010.001654026148
 20
755.0000000000001
 30
0.0
 40
5.000000000000113
100
AcDbArc
 50
180.0000000000013
 51
269.9999999999987
  0
LINE
  5
57EA
330
1F
100
AcDbEntity
  8
TENSEN
100
AcDbLine
 10
1010.001654026147
 20
750.0
 30
0.0
 11
1030.001654026148
 21
749.9999999999995
 31
0.0
  0
ARC
  5
57EB
330
1F
100
AcDbEntity
  8
TENSEN
100
AcDbCircle
 10
1030.001654026147
 20
754.9999999999998
 30
0.0
 40
5.000000000000341
100
AcDbArc
 50
270.0000000000026
 51
359.9999999999961
  0
LINE
  5
57EC
330
1F
100
AcDbEntity
  8
TENSEN
100
AcDbLine
 10
1035.001654026147
 20
754.9999999999995
 30
0.0
 11
1035.001654026147
 21
1054.999999999999
 31
0.0
  0
ARC
  5
57ED
330
1F
100
AcDbEntity
  8
TENSEN
100
AcDbCircle
 10
1030.001654026147
 20
1054.999999999999
 30
0.0
 40
5.000000000000454
100
AcDbArc
 50
0.000000000005211
 51
89.99999999999479
  0
LINE
  5
57EE
330
1F
100
AcDbEntity
  8
TENSEN
100
AcDbLine
 10
1030.001654026148
 20
1059.999999999999
 30
0.0
 11
870.0016540261476
 21
1059.999999999999
 31
0.0
  0
ARC
  5
57EF
330
1F
100
AcDbEntity
  8
TENSEN
100
AcDbCircle
 10
870.0016540261479
 20
1054.999999999999
 30
0.0
 40
5.000000000000227
100
AcDbArc
 50
90.00000000000389
 51
179.9999999999974
  0
LINE
  5
57F0
330
1F
100
AcDbEntity
  8
TENSEN
100
AcDbLine
 10
865.0016540261477
 20
1054.999999999999
 30
0.0
 11
865.0016540261477
 21
964.9999999999995
 31
0.0
  0
LINE
  5
57F1
330
1F
100
AcDbEntity
  8
TENSEN
100
AcDbLine
 10
865.0016540261477
 20
964.9999999999995
 30
0.0
 11
855.0016540261477
 21
964.9999999999995
 31
0.0
  0
LINE
  5
57F2
330
1F
100
AcDbEntity
  8
TENSEN
100
AcDbLine
 10
855.0016540261477
 20
964.9999999999995
 30
0.0
 11
855.0016540261477
 21
1054.999999999999
 31
0.0
  0
ARC
  5
57F3
330
1F
100
AcDbEntity
  8
TENSEN
100
AcDbCircle
 10
870.0016540261481
 20
1054.999999999999
 30
0.0
 40
15.00000000000045
100
AcDbArc
 50
90.00000000000175
 51
179.9999999999982
  0
LINE
  5
57F4
330
1F
100
AcDbEntity
  8
TENSEN
100
AcDbLine
 10
870.0016540261476
 20
1069.999999999999
 30
0.0
 11
1030.001654026148
 21
1069.999999999999
 31
0.0
  0
ARC
  5
57F5
330
1F
100
AcDbEntity
  8
TENSEN
100
AcDbCircle
 10
1030.001654026147
 20
1054.999999999999
 30
0.0
 40
15.00000000000045
100
AcDbArc
 50
0.000000000001737
 51
89.99999999999827
  0
LINE
  5
57F6
330
1F
100
AcDbEntity
  8
TENSEN
100
AcDbLine
 10
1045.001654026147
 20
1054.999999999999
 30
0.0
 11
1045.001654026147
 21
754.9999999999995
 31
0.0
  0
ARC
  5
57F7
330
1F
100
AcDbEntity
  8
TENSEN
100
AcDbCircle
 10
1030.001654026147
 20
755.0000000000001
 30
0.0
 40
15.00000000000045
100
AcDbArc
 50
270.0000000000017
 51
359.9999999999978
  0
LINE
  5
57F8
330
1F
100
AcDbEntity
  8
TENSEN
100
AcDbLine
 10
1030.001654026148
 20
739.9999999999995
 30
0.0
 11
1010.001654026147
 21
740.0
 31
0.0
  0
ARC
  5
57F9
330
1F
100
AcDbEntity
  8
TENSEN
100
AcDbCircle
 10
1010.001654026148
 20
755.0000000000002
 30
0.0
 40
15.00000000000023
100
AcDbArc
 50
180.0000000000009
 51
269.9999999999992
  0
LINE
  5
57FA
330
1F
100
AcDbEntity
  8
TENSEN
100
AcDbLine
 10
995.0016540261476
 20
755.0
 30
0.0
 11
995.0016540261476
 21
764.9999999999995
 31
0.0
  0
LINE
  5
57FB
330
1F
100
AcDbEntity
  8
sunpo
 48
0.5
100
AcDbLine
 10
799.9999999999998
 20
1086.368354928252
 30
0.0
 11
799.9999999999998
 21
1066.368354928252
 31
0.0
  0
LINE
  5
57FC
330
1F
100
AcDbEntity
  8
sunpo
 48
0.5
100
AcDbLine
 10
979.9999999999997
 20
1086.368354928252
 30
0.0
 11
979.9999999999997
 21
1066.368354928252
 31
0.0
  0
LINE
  5
57FD
330
1F
100
AcDbEntity
  8
sunpo
 48
0.5
100
AcDbLine
 10
807.9999999999998
 20
1066.368354928252
 30
0.0
 11
971.9999999999997
 21
1066.368354928252
 31
0.0
  0
MTEXT
  5
57FE
330
1F
100
AcDbEntity
  8
sunpo
 48
0.5
100
AcDbMText
 10
889.9999999999998
 20
1083.702590006172
 30
0.0
 40
20.0
 41
0.0
 71
     5
 72
     1
  1
\A1;≧180
  7
MSゴシック
 73
     1
 44
1.0
1001
ACAD
1000
MTEXTBEGIN
1070
    73
1070
     1
1070
    44
1040
1.0
1070
    74
1070
     0
1000
MTEXTEND
  0
INSERT
  5
57FF
330
1F
100
AcDbEntity
  8
sunpo
 48
0.5
100
AcDbBlockReference
  2
_DOT
 10
799.9999999999998
 20
1066.368354928252
 30
0.0
 41
8.0
 42
8.0
 43
8.0
 50
180.0
  0
INSERT
  5
5800
330
1F
100
AcDbEntity
  8
sunpo
 48
0.5
100
AcDbBlockReference
  2
_DOT
 10
979.9999999999997
 20
1066.368354928252
 30
0.0
 41
8.0
 42
8.0
 43
8.0
  0
LINE
  5
5801
330
1F
100
AcDbEntity
  8
sunpo
 48
0.5
100
AcDbLine
 10
979.9999999999997
 20
1081.368354928252
 30
0.0
 11
979.9999999999997
 21
1066.368354928252
 31
0.0
  0
LINE
  5
5802
330
1F
100
AcDbEntity
  8
sunpo
 48
0.5
100
AcDbLine
 10
1080.0
 20
1081.368354928252
 30
0.0
 11
1080.0
 21
1066.368354928252
 31
0.0
  0
LINE
  5
5803
330
1F
100
AcDbEntity
  8
sunpo
 48
0.5
100
AcDbLine
 10
987.9999999999997
 20
1066.368354928252
 30
0.0
 11
1072.0
 21
1066.368354928252
 31
0.0
  0
MTEXT
  5
5804
330
1F
100
AcDbEntity
  8
sunpo
 48
0.5
100
AcDbMText
 10
1029.945233478331
 20
1085.27563809819
 30
0.0
 40
20.0
 41
0.0
 71
     5
 72
     1
  1
\A1;100
  7
MSゴシック
 73
     1
 44
1.0
1001
ACAD
1000
MTEXTBEGIN
1070
    73
1070
     1
1070
    44
1040
1.0
1070
    74
1070
     0
1000
MTEXTEND
  0
INSERT
  5
5805
330
1F
100
AcDbEntity
  8
sunpo
 48
0.5
100
AcDbBlockReference
  2
_DOT
 10
979.9999999999997
 20
1066.368354928252
 30
0.0
 41
8.0
 42
8.0
 43
8.0
 50
180.0
  0
INSERT
  5
5806
330
1F
100
AcDbEntity
  8
sunpo
 48
0.5
100
AcDbBlockReference
  2
_DOT
 10
1080.0
 20
1066.368354928252
 30
0.0
 41
8.0
 42
8.0
 43
8.0
  0
LINE
  5
5807
330
1F
100
AcDbEntity
  8
sunpo
 48
0.5
100
AcDbLine
 10
1080.0
 20
1081.368354928252
 30
0.0
 11
1080.0
 21
1066.368354928252
 31
0.0
  0
LINE
  5
5808
330
1F
100
AcDbEntity
  8
sunpo
 48
0.5
100
AcDbLine
 10
1105.0
 20
1094.5
 30
0.0
 11
1105.0
 21
1066.368354928252
 31
0.0
  0
LINE
  5
5809
330
1F
100
AcDbEntity
  8
sunpo
 48
0.5
100
AcDbLine
 10
1088.0
 20
1066.368354928252
 30
0.0
 11
1097.0
 21
1066.368354928252
 31
0.0
  0
MTEXT
  5
580A
330
1F
100
AcDbEntity
  8
sunpo
 48
0.5
100
AcDbMText
 10
1136.554777457907
 20
1085.43105808696
 30
0.0
 40
20.0
 41
0.0
 71
     5
 72
     1
  1
\A1;25
  7
MSゴシック
 73
     1
 44
1.0
1001
ACAD
1000
MTEXTBEGIN
1070
    73
1070
     1
1070
    44
1040
1.0
1070
    74
1070
     0
1000
MTEXTEND
  0
INSERT
  5
580B
330
1F
100
AcDbEntity
  8
sunpo
 48
0.5
100
AcDbBlockReference
  2
_DOT
 10
1080.0
 20
1066.368354928252
 30
0.0
 41
8.0
 42
8.0
 43
8.0
 50
180.0
  0
INSERT
  5
580C
330
1F
100
AcDbEntity
  8
sunpo
 48
0.5
100
AcDbBlockReference
  2
_DOT
 10
1105.0
 20
1066.368354928252
 30
0.0
 41
8.0
 42
8.0
 43
8.0
  0
ARC
  5
580D
330
1F
100
AcDbEntity
  8
KANAMONO_SCREW
 48
20.0
100
AcDbCircle
 10
1043.097233559649
 20
1149.371290901951
 30
0.0
 40
2.99999652412171
100
AcDbArc
 50
128.6145824874474
 51
177.5410883911675
  0
ARC
  5
580E
330
1F
100
AcDbEntity
  8
KANAMONO_SCREW
 48
20.0
100
AcDbCircle
 10
1044.599999999999
 20
1147.500002492842
 30
0.0
 40
5.3999975071579
100
AcDbArc
 50
51.31779516688157
 51
128.6822048331184
  0
ARC
  5
580F
330
1F
100
AcDbEntity
  8
KANAMONO_SCREW
 48
20.0
100
AcDbCircle
 10
1046.102766440349
 20
1149.371290901951
 30
0.0
 40
2.999996524121734
100
AcDbArc
 50
2.458911608832552
 51
51.38541751255259
  0
LINE
  5
5810
330
1F
100
AcDbEntity
  8
KANAMONO_SCREW
 48
20.0
100
AcDbLine
 10
1057.099999999998
 20
1149.5
 30
0.0
 11
1032.099999999998
 21
1149.5
 31
0.0
  0
LINE
  5
5811
330
1F
100
AcDbEntity
  8
KANAMONO_SCREW
 48
20.0
100
AcDbLine
 10
1032.099999999998
 20
1149.5
 30
0.0
 11
1032.099999999998
 21
1148.5
 31
0.0
  0
LINE
  5
5812
330
1F
100
AcDbEntity
  8
KANAMONO_SCREW
 48
20.0
100
AcDbLine
 10
1032.099999999998
 20
1148.5
 30
0.0
 11
1057.099999999998
 21
1148.5
 31
0.0
  0
LINE
  5
5813
330
1F
100
AcDbEntity
  8
KANAMONO_SCREW
 48
20.0
100
AcDbLine
 10
1057.099999999998
 20
1148.5
 30
0.0
 11
1057.099999999998
 21
1149.5
 31
0.0
  0
LINE
  5
5814
330
1F
100
AcDbEntity
  8
KANAMONO_SCREW
100
AcDbLine
 10
1049.851266
 20
1106.651067
 30
0.0
 11
1047.906342999999
 21
1105.547764999999
 31
0.0
  0
LINE
  5
5815
330
1F
100
AcDbEntity
  8
KANAMONO_SCREW
100
AcDbLine
 10
1047.906342999999
 20
1105.547764999999
 30
0.0
 11
1048.011014999998
 21
1103.550505999999
 31
0.0
  0
LINE
  5
5816
330
1F
100
AcDbEntity
  8
KANAMONO_SCREW
100
AcDbLine
 10
1048.011014999998
 20
1103.550505999999
 30
0.0
 11
1050.008274
 21
1103.655178000001
 31
0.0
  0
LINE
  5
5817
330
1F
100
AcDbEntity
  8
KANAMONO_SCREW
100
AcDbLine
 10
1050.008274
 20
1103.655178000001
 30
0.0
 11
1050.112945999999
 21
1101.657918999999
 31
0.0
  0
LINE
  5
5818
330
1F
100
AcDbEntity
  8
KANAMONO_SCREW
100
AcDbLine
 10
1050.112945999999
 20
1101.657918999999
 30
0.0
 11
1048.220358999999
 21
1099.555988
 31
0.0
  0
LINE
  5
5819
330
1F
100
AcDbEntity
  8
KANAMONO_SCREW
100
AcDbLine
 10
1048.220358999999
 20
1099.555988
 30
0.0
 11
1046.722414
 21
1099.477484000001
 31
0.0
  0
LINE
  5
581A
330
1F
100
AcDbEntity
  8
KANAMONO_SCREW
100
AcDbLine
 10
1046.722414
 20
1099.477484000001
 30
0.0
 11
1045.099999999998
 21
1130.434999999999
 31
0.0
  0
LINE
  5
581B
330
1F
100
AcDbEntity
  8
KANAMONO_SCREW
100
AcDbLine
 10
1045.099999999998
 20
1130.434999999999
 30
0.0
 11
1044.599999999998
 21
1130.434999999999
 31
0.0
  0
LINE
  5
581C
330
1F
100
AcDbEntity
  8
KANAMONO_SCREW
100
AcDbLine
 10
1044.599999999998
 20
1130.434999999999
 30
0.0
 11
1044.099999999998
 21
1130.434999999999
 31
0.0
  0
LINE
  5
581D
330
1F
100
AcDbEntity
  8
KANAMONO_SCREW
100
AcDbLine
 10
1044.099999999998
 20
1130.434999999999
 30
0.0
 11
1042.477584999998
 21
1099.477484000001
 31
0.0
  0
LINE
  5
581E
330
1F
100
AcDbEntity
  8
KANAMONO_SCREW
100
AcDbLine
 10
1042.477584999998
 20
1099.477484000001
 30
0.0
 11
1040.979641
 21
1099.555988
 31
0.0
  0
LINE
  5
581F
330
1F
100
AcDbEntity
  8
KANAMONO_SCREW
100
AcDbLine
 10
1040.979641
 20
1099.555988
 30
0.0
 11
1039.087053999999
 21
1101.657918999999
 31
0.0
  0
LINE
  5
5820
330
1F
100
AcDbEntity
  8
KANAMONO_SCREW
100
AcDbLine
 10
1039.087053999999
 20
1101.657918999999
 30
0.0
 11
1039.191724999999
 21
1103.655178000001
 31
0.0
  0
LINE
  5
5821
330
1F
100
AcDbEntity
  8
KANAMONO_SCREW
100
AcDbLine
 10
1039.191724999999
 20
1103.655178000001
 30
0.0
 11
1041.188983999998
 21
1103.550505999999
 31
0.0
  0
LINE
  5
5822
330
1F
100
AcDbEntity
  8
KANAMONO_SCREW
100
AcDbLine
 10
1041.188983999998
 20
1103.550505999999
 30
0.0
 11
1041.293656
 21
1105.547764999999
 31
0.0
  0
LINE
  5
5823
330
1F
100
AcDbEntity
  8
KANAMONO_SCREW
100
AcDbLine
 10
1041.293656
 20
1105.547764999999
 30
0.0
 11
1039.348732999999
 21
1106.651067
 31
0.0
  0
LINE
  5
5824
330
1F
100
AcDbEntity
  8
KANAMONO_SCREW
100
AcDbLine
 10
1039.348732999999
 20
1106.651067
 30
0.0
 11
1039.453404999998
 21
1108.648326
 31
0.0
  0
LINE
  5
5825
330
1F
100
AcDbEntity
  8
KANAMONO_SCREW
100
AcDbLine
 10
1039.453404999998
 20
1108.648326
 30
0.0
 11
1041.450664
 21
1108.543654000001
 31
0.0
  0
LINE
  5
5826
330
1F
100
AcDbEntity
  8
KANAMONO_SCREW
100
AcDbLine
 10
1041.450664
 20
1108.543654000001
 30
0.0
 11
1041.555335999999
 21
1110.540913000001
 31
0.0
  0
LINE
  5
5827
330
1F
100
AcDbEntity
  8
KANAMONO_SCREW
100
AcDbLine
 10
1041.555335999999
 20
1110.540913000001
 30
0.0
 11
1039.610412999998
 21
1111.644214
 31
0.0
  0
LINE
  5
5828
330
1F
100
AcDbEntity
  8
KANAMONO_SCREW
100
AcDbLine
 10
1039.610412999998
 20
1111.644214
 30
0.0
 11
1039.715085
 21
1113.641472999999
 31
0.0
  0
LINE
  5
5829
330
1F
100
AcDbEntity
  8
KANAMONO_SCREW
100
AcDbLine
 10
1039.715085
 20
1113.641472999999
 30
0.0
 11
1041.712343999999
 21
1113.536801
 31
0.0
  0
LINE
  5
582A
330
1F
100
AcDbEntity
  8
KANAMONO_SCREW
100
AcDbLine
 10
1041.712343999999
 20
1113.536801
 30
0.0
 11
1041.817015999999
 21
1115.53406
 31
0.0
  0
LINE
  5
582B
330
1F
100
AcDbEntity
  8
KANAMONO_SCREW
100
AcDbLine
 10
1041.817015999999
 20
1115.53406
 30
0.0
 11
1039.872093
 21
1116.637361999999
 31
0.0
  0
LINE
  5
582C
330
1F
100
AcDbEntity
  8
KANAMONO_SCREW
100
AcDbLine
 10
1039.872093
 20
1116.637361999999
 30
0.0
 11
1039.976764999999
 21
1118.634620999999
 31
0.0
  0
LINE
  5
582D
330
1F
100
AcDbEntity
  8
KANAMONO_SCREW
100
AcDbLine
 10
1039.976764999999
 20
1118.634620999999
 30
0.0
 11
1041.974023999999
 21
1118.529949
 31
0.0
  0
LINE
  5
582E
330
1F
100
AcDbEntity
  8
KANAMONO_SCREW
100
AcDbLine
 10
1041.974023999999
 20
1118.529949
 30
0.0
 11
1042.078695999999
 21
1120.527207999999
 31
0.0
  0
LINE
  5
582F
330
1F
100
AcDbEntity
  8
KANAMONO_SCREW
100
AcDbLine
 10
1042.078695999999
 20
1120.527207999999
 30
0.0
 11
1040.133772999999
 21
1121.630510000001
 31
0.0
  0
LINE
  5
5830
330
1F
100
AcDbEntity
  8
KANAMONO_SCREW
100
AcDbLine
 10
1040.133772999999
 20
1121.630510000001
 30
0.0
 11
1040.238444999999
 21
1123.627769
 31
0.0
  0
LINE
  5
5831
330
1F
100
AcDbEntity
  8
KANAMONO_SCREW
100
AcDbLine
 10
1040.238444999999
 20
1123.627769
 30
0.0
 11
1042.235703999999
 21
1123.523096999999
 31
0.0
  0
LINE
  5
5832
330
1F
100
AcDbEntity
  8
KANAMONO_SCREW
100
AcDbLine
 10
1042.235703999999
 20
1123.523096999999
 30
0.0
 11
1042.340375999998
 21
1125.520356000001
 31
0.0
  0
LINE
  5
5833
330
1F
100
AcDbEntity
  8
KANAMONO_SCREW
100
AcDbLine
 10
1042.340375999998
 20
1125.520356000001
 30
0.0
 11
1040.599999999998
 21
1126.434999999999
 31
0.0
  0
LINE
  5
5834
330
1F
100
AcDbEntity
  8
KANAMONO_SCREW
100
AcDbLine
 10
1040.599999999998
 20
1126.434999999999
 30
0.0
 11
1040.599999999998
 21
1130.434999999999
 31
0.0
  0
LINE
  5
5835
330
1F
100
AcDbEntity
  8
KANAMONO_SCREW
100
AcDbLine
 10
1040.599999999998
 20
1130.434999999999
 30
0.0
 11
1040.599999999998
 21
1133.434999999999
 31
0.0
  0
LINE
  5
5836
330
1F
100
AcDbEntity
  8
KANAMONO_SCREW
100
AcDbLine
 10
1040.599999999998
 20
1133.434999999999
 30
0.0
 11
1039.599999999998
 21
1138.434999999999
 31
0.0
  0
LINE
  5
5837
330
1F
100
AcDbEntity
  8
KANAMONO_SCREW
100
AcDbLine
 10
1039.599999999998
 20
1138.434999999999
 30
0.0
 11
1044.599999999998
 21
1138.434999999999
 31
0.0
  0
LINE
  5
5838
330
1F
100
AcDbEntity
  8
KANAMONO_SCREW
100
AcDbLine
 10
1044.599999999998
 20
1138.434999999999
 30
0.0
 11
1049.599999999998
 21
1138.434999999999
 31
0.0
  0
LINE
  5
5839
330
1F
100
AcDbEntity
  8
KANAMONO_SCREW
100
AcDbLine
 10
1049.599999999998
 20
1138.434999999999
 30
0.0
 11
1048.599999999998
 21
1133.434999999999
 31
0.0
  0
LINE
  5
583A
330
1F
100
AcDbEntity
  8
KANAMONO_SCREW
100
AcDbLine
 10
1048.599999999998
 20
1133.434999999999
 30
0.0
 11
1048.599999999998
 21
1130.434999999999
 31
0.0
  0
LINE
  5
583B
330
1F
100
AcDbEntity
  8
KANAMONO_SCREW
100
AcDbLine
 10
1048.599999999998
 20
1130.434999999999
 30
0.0
 11
1048.599999999998
 21
1126.434999999999
 31
0.0
  0
LINE
  5
583C
330
1F
100
AcDbEntity
  8
KANAMONO_SCREW
100
AcDbLine
 10
1048.599999999998
 20
1126.434999999999
 30
0.0
 11
1046.859623999998
 21
1125.520356000001
 31
0.0
  0
LINE
  5
583D
330
1F
100
AcDbEntity
  8
KANAMONO_SCREW
100
AcDbLine
 10
1046.859623999998
 20
1125.520356000001
 30
0.0
 11
1046.964295999998
 21
1123.523096999999
 31
0.0
  0
LINE
  5
583E
330
1F
100
AcDbEntity
  8
KANAMONO_SCREW
100
AcDbLine
 10
1046.964295999998
 20
1123.523096999999
 30
0.0
 11
1048.961554999999
 21
1123.627769
 31
0.0
  0
LINE
  5
583F
330
1F
100
AcDbEntity
  8
KANAMONO_SCREW
100
AcDbLine
 10
1048.961554999999
 20
1123.627769
 30
0.0
 11
1049.066226999999
 21
1121.630510000001
 31
0.0
  0
LINE
  5
5840
330
1F
100
AcDbEntity
  8
KANAMONO_SCREW
100
AcDbLine
 10
1049.066226999999
 20
1121.630510000001
 30
0.0
 11
1047.121303
 21
1120.527207999999
 31
0.0
  0
LINE
  5
5841
330
1F
100
AcDbEntity
  8
KANAMONO_SCREW
100
AcDbLine
 10
1047.121303
 20
1120.527207999999
 30
0.0
 11
1047.225974999999
 21
1118.529949
 31
0.0
  0
LINE
  5
5842
330
1F
100
AcDbEntity
  8
KANAMONO_SCREW
100
AcDbLine
 10
1047.225974999999
 20
1118.529949
 30
0.0
 11
1049.223233999999
 21
1118.634620999999
 31
0.0
  0
LINE
  5
5843
330
1F
100
AcDbEntity
  8
KANAMONO_SCREW
100
AcDbLine
 10
1049.223233999999
 20
1118.634620999999
 30
0.0
 11
1049.327905999998
 21
1116.637361999999
 31
0.0
  0
LINE
  5
5844
330
1F
100
AcDbEntity
  8
KANAMONO_SCREW
100
AcDbLine
 10
1049.327905999998
 20
1116.637361999999
 30
0.0
 11
1047.382982999999
 21
1115.53406
 31
0.0
  0
LINE
  5
5845
330
1F
100
AcDbEntity
  8
KANAMONO_SCREW
100
AcDbLine
 10
1047.382982999999
 20
1115.53406
 30
0.0
 11
1047.487654999999
 21
1113.536801
 31
0.0
  0
LINE
  5
5846
330
1F
100
AcDbEntity
  8
KANAMONO_SCREW
100
AcDbLine
 10
1047.487654999999
 20
1113.536801
 30
0.0
 11
1049.484913999998
 21
1113.641472999999
 31
0.0
  0
LINE
  5
5847
330
1F
100
AcDbEntity
  8
KANAMONO_SCREW
100
AcDbLine
 10
1049.484913999998
 20
1113.641472999999
 30
0.0
 11
1049.589585999998
 21
1111.644214
 31
0.0
  0
LINE
  5
5848
330
1F
100
AcDbEntity
  8
KANAMONO_SCREW
100
AcDbLine
 10
1049.589585999998
 20
1111.644214
 30
0.0
 11
1047.644662999999
 21
1110.540913000001
 31
0.0
  0
LINE
  5
5849
330
1F
100
AcDbEntity
  8
KANAMONO_SCREW
100
AcDbLine
 10
1047.644662999999
 20
1110.540913000001
 30
0.0
 11
1047.749334999998
 21
1108.543654000001
 31
0.0
  0
LINE
  5
584A
330
1F
100
AcDbEntity
  8
KANAMONO_SCREW
100
AcDbLine
 10
1047.749334999998
 20
1108.543654000001
 30
0.0
 11
1049.746593999998
 21
1108.648326
 31
0.0
  0
LINE
  5
584B
330
1F
100
AcDbEntity
  8
KANAMONO_SCREW
100
AcDbLine
 10
1049.746593999998
 20
1108.648326
 30
0.0
 11
1049.851266
 21
1106.651067
 31
0.0
  0
LINE
  5
584C
330
1F
100
AcDbEntity
  8
KANAMONO_SCREW
100
AcDbLine
 10
1049.223234999999
 20
1118.634620999999
 30
0.0
 11
1050.719991
 21
1123.634620999999
 31
0.0
  0
LINE
  5
584D
330
1F
100
AcDbEntity
  8
KANAMONO_SCREW
100
AcDbLine
 10
1050.719991
 20
1123.634620999999
 30
0.0
 11
1051.610391091061
 21
1128.977025546368
 31
0.0
  0
ARC
  5
584E
330
1F
100
AcDbEntity
  8
KANAMONO_SCREW
100
AcDbCircle
 10
1051.117194074733
 20
1129.059224948403
 30
0.0
 40
0.5000000386091744
100
AcDbArc
 50
350.5376891728314
 51
170.5376784293662
  0
LINE
  5
584F
330
1F
100
AcDbEntity
  8
KANAMONO_SCREW
100
AcDbLine
 10
1050.623997073819
 20
1129.141424442916
 30
0.0
 11
1049.706196999999
 21
1123.634620999999
 31
0.0
  0
LINE
  5
5850
330
1F
100
AcDbEntity
  8
KANAMONO_SCREW
100
AcDbLine
 10
1049.706196999999
 20
1123.634620999999
 30
0.0
 11
1048.160516
 21
1118.578926
 31
0.0
  0
LINE
  5
5851
330
1F
100
AcDbEntity
  8
KANAMONO_SCREW
100
AcDbLine
 10
1039.976764999999
 20
1118.634620999999
 30
0.0
 11
1038.480008999999
 21
1123.634620999999
 31
0.0
  0
LINE
  5
5852
330
1F
100
AcDbEntity
  8
KANAMONO_SCREW
100
AcDbLine
 10
1038.480008999999
 20
1123.634620999999
 30
0.0
 11
1037.589608908938
 21
1128.977025546368
 31
0.0
  0
ARC
  5
5853
330
1F
100
AcDbEntity
  8
KANAMONO_SCREW
100
AcDbCircle
 10
1038.082805925266
 20
1129.059224948403
 30
0.0
 40
0.5000000386091744
100
AcDbArc
 50
9.462321570633747
 51
189.4623108271685
  0
LINE
  5
5854
330
1F
100
AcDbEntity
  8
KANAMONO_SCREW
100
AcDbLine
 10
1038.57600292618
 20
1129.141424442916
 30
0.0
 11
1039.493802999999
 21
1123.634620999999
 31
0.0
  0
LINE
  5
5855
330
1F
100
AcDbEntity
  8
KANAMONO_SCREW
100
AcDbLine
 10
1039.493802999999
 20
1123.634620999999
 30
0.0
 11
1041.039483999999
 21
1118.578926
 31
0.0
  0
LINE
  5
5856
330
1F
100
AcDbEntity
  8
KANAMONO_SCREW
100
AcDbLine
 10
1042.730555999998
 20
1104.304443999999
 30
0.0
 11
1044.599999999998
 21
1102.494306
 31
0.0
  0
LINE
  5
5857
330
1F
100
AcDbEntity
  8
KANAMONO_SCREW
100
AcDbLine
 10
1044.599999999998
 20
1102.494306
 30
0.0
 11
1046.469443999998
 21
1104.304443999999
 31
0.0
  0
LINE
  5
5858
330
1F
100
AcDbEntity
  8
KASAGI
  6
Continuous
100
AcDbLine
 10
1101.523908119123
 20
1109.145174486531
 30
0.0
 11
1094.655398050927
 21
1142.997116965498
 31
0.0
  0
ARC
  5
5859
330
1F
100
AcDbEntity
  8
KASAGI
  6
Continuous
100
AcDbCircle
 10
1092.205321578118
 20
1142.5
 30
0.0
 40
2.499999999999439
100
AcDbArc
 50
11.46953033287371
 51
90.00000000000522
  0
LINE
  5
585A
330
1F
100
AcDbEntity
  8
KASAGI
  6
Continuous
100
AcDbLine
 10
1092.205321578118
 20
1145.0
 30
0.0
 11
994.5999999999985
 21
1145.0
 31
0.0
  0
LINE
  5
585B
330
1F
100
AcDbEntity
  8
KASAGI
  6
Continuous
100
AcDbLine
 10
994.5999999999985
 20
1145.0
 30
0.0
 11
994.5999999999985
 21
1173.0
 31
0.0
  0
LINE
  5
585C
330
1F
100
AcDbEntity
  8
KASAGI
  6
Continuous
100
AcDbLine
 10
994.5999999999985
 20
1173.0
 30
0.0
 11
992.9077523955948
 21
1173.0
 31
0.0
  0
ARC
  5
585D
330
1F
100
AcDbEntity
  8
KASAGI
  6
Continuous
100
AcDbCircle
 10
992.9077523955943
 20
1173.2
 30
0.0
 40
0.2000000000005002
100
AcDbArc
 50
156.0375110255739
 51
270.0000000001303
  0
LINE
  5
585E
330
1F
100
AcDbEntity
  8
KASAGI
  6
Continuous
100
AcDbLine
 10
992.7249900858695
 20
1173.281227693211
 30
0.0
 11
994.0721230809341
 21
1176.312276932107
 31
0.0
  0
ARC
  5
585F
330
1F
100
AcDbEntity
  8
KASAGI
  6
Continuous
100
AcDbCircle
 10
995.8997461781743
 20
1175.5
 30
0.0
 40
1.999999999999941
100
AcDbArc
 50
89.99999999999349
 51
156.0375110254139
  0
LINE
  5
5860
330
1F
100
AcDbEntity
  8
KASAGI
  6
Continuous
100
AcDbLine
 10
995.8997461781747
 20
1177.5
 30
0.0
 11
996.5999999999985
 21
1177.5
 31
0.0
  0
ARC
  5
5861
330
1F
100
AcDbEntity
  8
KASAGI
  6
Continuous
100
AcDbCircle
 10
996.5999999999985
 20
1177.0
 30
0.0
 40
0.5
100
AcDbArc
 50
0.0
 51
90.0
  0
LINE
  5
5862
330
1F
100
AcDbEntity
  8
KASAGI
  6
Continuous
100
AcDbLine
 10
997.0999999999985
 20
1177.0
 30
0.0
 11
997.0999999999985
 21
1150.0
 31
0.0
  0
ARC
  5
5863
330
1F
100
AcDbEntity
  8
KASAGI
  6
Continuous
100
AcDbCircle
 10
998.5999999999986
 20
1150.0
 30
0.0
 40
1.5
100
AcDbArc
 50
180.0
 51
270.0
  0
LINE
  5
5864
330
1F
100
AcDbEntity
  8
KASAGI
  6
Continuous
100
AcDbLine
 10
998.5999999999986
 20
1148.5
 30
0.0
 11
1044.099999999998
 21
1148.5
 31
0.0
  0
LINE
  5
5865
330
1F
100
AcDbEntity
  8
KASAGI
  6
Continuous
100
AcDbLine
 10
1044.099999999998
 20
1148.5
 30
0.0
 11
1044.599999999998
 21
1148.0
 31
0.0
  0
LINE
  5
5866
330
1F
100
AcDbEntity
  8
KASAGI
  6
Continuous
100
AcDbLine
 10
1044.599999999998
 20
1148.0
 30
0.0
 11
1045.099999999998
 21
1148.5
 31
0.0
  0
LINE
  5
5867
330
1F
100
AcDbEntity
  8
KASAGI
  6
Continuous
100
AcDbLine
 10
1045.099999999998
 20
1148.5
 30
0.0
 11
1077.099999999998
 21
1148.5
 31
0.0
  0
ARC
  5
5868
330
1F
100
AcDbEntity
  8
KASAGI
  6
Continuous
100
AcDbCircle
 10
1077.099999999998
 20
1149.0
 30
0.0
 40
0.5
100
AcDbArc
 50
270.0
 51
0.0
  0
LINE
  5
5869
330
1F
100
AcDbEntity
  8
KASAGI
  6
Continuous
100
AcDbLine
 10
1077.599999999998
 20
1149.0
 30
0.0
 11
1077.599999999998
 21
1155.3
 31
0.0
  0
ARC
  5
586A
330
1F
100
AcDbEntity
  8
KASAGI
  6
Continuous
100
AcDbCircle
 10
1077.099999999998
 20
1155.3
 30
0.0
 40
0.5
100
AcDbArc
 50
0.0
 51
90.0
  0
LINE
  5
586B
330
1F
100
AcDbEntity
  8
KASAGI
  6
Continuous
100
AcDbLine
 10
1077.099999999998
 20
1155.8
 30
0.0
 11
1073.099999999998
 21
1155.8
 31
0.0
  0
ARC
  5
586C
330
1F
100
AcDbEntity
  8
KASAGI
  6
Continuous
100
AcDbCircle
 10
1073.099999999998
 20
1156.3
 30
0.0
 40
0.5
100
AcDbArc
 50
180.0
 51
270.0
  0
LINE
  5
586D
330
1F
100
AcDbEntity
  8
KASAGI
  6
Continuous
100
AcDbLine
 10
1072.599999999998
 20
1156.3
 30
0.0
 11
1072.599999999998
 21
1157.3
 31
0.0
  0
ARC
  5
586E
330
1F
100
AcDbEntity
  8
KASAGI
  6
Continuous
100
AcDbCircle
 10
1073.099999999998
 20
1157.3
 30
0.0
 40
0.5
100
AcDbArc
 50
90.0
 51
180.0
  0
LINE
  5
586F
330
1F
100
AcDbEntity
  8
KASAGI
  6
Continuous
100
AcDbLine
 10
1073.099999999998
 20
1157.8
 30
0.0
 11
1084.099999999998
 21
1157.8
 31
0.0
  0
ARC
  5
5870
330
1F
100
AcDbEntity
  8
KASAGI
  6
Continuous
100
AcDbCircle
 10
1084.099999999998
 20
1157.3
 30
0.0
 40
0.5
100
AcDbArc
 50
0.0
 51
90.0
  0
LINE
  5
5871
330
1F
100
AcDbEntity
  8
KASAGI
  6
Continuous
100
AcDbLine
 10
1084.599999999998
 20
1157.3
 30
0.0
 11
1084.599999999998
 21
1156.3
 31
0.0
  0
ARC
  5
5872
330
1F
100
AcDbEntity
  8
KASAGI
  6
Continuous
100
AcDbCircle
 10
1084.099999999998
 20
1156.3
 30
0.0
 40
0.5
100
AcDbArc
 50
270.0
 51
0.0
  0
LINE
  5
5873
330
1F
100
AcDbEntity
  8
KASAGI
  6
Continuous
100
AcDbLine
 10
1084.099999999998
 20
1155.8
 30
0.0
 11
1080.099999999998
 21
1155.8
 31
0.0
  0
ARC
  5
5874
330
1F
100
AcDbEntity
  8
KASAGI
  6
Continuous
100
AcDbCircle
 10
1080.099999999998
 20
1155.3
 30
0.0
 40
0.5
100
AcDbArc
 50
90.0
 51
180.0
  0
LINE
  5
5875
330
1F
100
AcDbEntity
  8
KASAGI
  6
Continuous
100
AcDbLine
 10
1079.599999999998
 20
1155.3
 30
0.0
 11
1079.599999999998
 21
1149.0
 31
0.0
  0
ARC
  5
5876
330
1F
100
AcDbEntity
  8
KASAGI
  6
Continuous
100
AcDbCircle
 10
1080.099999999998
 20
1149.0
 30
0.0
 40
0.5
100
AcDbArc
 50
180.0
 51
270.0
  0
LINE
  5
5877
330
1F
100
AcDbEntity
  8
KASAGI
  6
Continuous
100
AcDbLine
 10
1080.099999999998
 20
1148.5
 30
0.0
 11
1092.512611184322
 21
1148.5
 31
0.0
  0
ARC
  5
5878
330
1F
100
AcDbEntity
  8
KASAGI
  6
Continuous
100
AcDbCircle
 10
1092.512611184322
 20
1143.499999999999
 30
0.0
 40
5.000000000000454
100
AcDbArc
 50
11.46953033287519
 51
90.00000000000783
  0
LINE
  5
5879
330
1F
100
AcDbEntity
  8
KASAGI
  6
Continuous
100
AcDbLine
 10
1097.412764129942
 20
1144.494233930995
 30
0.0
 11
1103.599999999998
 21
1114.0
 31
0.0
  0
LINE
  5
587A
330
1F
100
AcDbEntity
  8
KASAGI
  6
Continuous
100
AcDbLine
 10
1103.599999999998
 20
1114.0
 30
0.0
 11
1103.599999999998
 21
1109.536184355012
 31
0.0
  0
ARC
  5
587B
330
1F
100
AcDbEntity
  8
KASAGI
  6
Continuous
100
AcDbCircle
 10
1103.099999999998
 20
1109.536184355013
 30
0.0
 40
0.5000000000002274
100
AcDbArc
 50
265.9999999999403
 51
359.999999999974
  0
LINE
  5
587C
330
1F
100
AcDbEntity
  8
KASAGI
  6
Continuous
100
AcDbLine
 10
1103.065121763125
 20
1109.037402329883
 30
0.0
 11
1101.523908119123
 21
1109.145174486531
 31
0.0
  0
LINE
  5
587D
330
1F
100
AcDbEntity
  8
KASAGI
  6
Continuous
100
AcDbLine
 10
1073.680682228812
 20
1157.799999999999
 30
0.0
 11
1073.599999999998
 21
1157.880682228815
 31
0.0
1001
ACAD
1010
0.0
1020
0.0
1030
0.0
  0
LINE
  5
587E
330
1F
100
AcDbEntity
  8
KASAGI
  6
Continuous
100
AcDbLine
 10
1074.803214243946
 20
1157.799999999999
 30
0.0
 11
1073.599999999998
 21
1159.003214243947
 31
0.0
1001
ACAD
1010
0.0
1020
0.0
1030
0.0
  0
LINE
  5
587F
330
1F
100
AcDbEntity
  8
KASAGI
  6
Continuous
100
AcDbLine
 10
1075.925746259079
 20
1157.8
 30
0.0
 11
1073.599999999998
 21
1160.125746259082
 31
0.0
1001
ACAD
1010
0.0
1020
0.0
1030
0.0
  0
LINE
  5
5880
330
1F
100
AcDbEntity
  8
KASAGI
  6
Continuous
100
AcDbLine
 10
1077.048278274213
 20
1157.8
 30
0.0
 11
1073.901612844212
 21
1160.946665430001
 31
0.0
1001
ACAD
1010
0.0
1020
0.0
1030
0.0
  0
LINE
  5
5881
330
1F
100
AcDbEntity
  8
KASAGI
  6
Continuous
100
AcDbLine
 10
1078.170810289347
 20
1157.8
 30
0.0
 11
1075.151705315611
 21
1160.819104973736
 31
0.0
1001
ACAD
1010
0.0
1020
0.0
1030
0.0
  0
LINE
  5
5882
330
1F
100
AcDbEntity
  8
KASAGI
  6
Continuous
100
AcDbLine
 10
1079.293342304481
 20
1157.8
 30
0.0
 11
1076.401797787011
 21
1160.691544517471
 31
0.0
1001
ACAD
1010
0.0
1020
0.0
1030
0.0
  0
LINE
  5
5883
330
1F
100
AcDbEntity
  8
KASAGI
  6
Continuous
100
AcDbLine
 10
1080.415874319614
 20
1157.8
 30
0.0
 11
1077.651890258408
 21
1160.563984061206
 31
0.0
1001
ACAD
1010
0.0
1020
0.0
1030
0.0
  0
LINE
  5
5884
330
1F
100
AcDbEntity
  8
KASAGI
  6
Continuous
100
AcDbLine
 10
1081.538406334748
 20
1157.8
 30
0.0
 11
1078.901982729808
 21
1160.43642360494
 31
0.0
1001
ACAD
1010
0.0
1020
0.0
1030
0.0
  0
LINE
  5
5885
330
1F
100
AcDbEntity
  8
KASAGI
  6
Continuous
100
AcDbLine
 10
1082.660938349882
 20
1157.799999999999
 30
0.0
 11
1080.152075201207
 21
1160.308863148675
 31
0.0
1001
ACAD
1010
0.0
1020
0.0
1030
0.0
  0
LINE
  5
5886
330
1F
100
AcDbEntity
  8
KASAGI
  6
Continuous
100
AcDbLine
 10
1083.599999999998
 20
1157.983470365017
 30
0.0
 11
1081.402167672606
 21
1160.181302692409
 31
0.0
1001
ACAD
1010
0.0
1020
0.0
1030
0.0
  0
LINE
  5
5887
330
1F
100
AcDbEntity
  8
KASAGI
  6
Continuous
100
AcDbLine
 10
1083.599999999998
 20
1159.106002380151
 30
0.0
 11
1082.652260144004
 21
1160.053742236146
 31
0.0
1001
ACAD
1010
0.0
1020
0.0
1030
0.0
  0
LINE
  5
5888
330
1F
100
AcDbEntity
  8
KASAGI
  6
Continuous
100
AcDbLine
 10
1083.599999999998
 20
1157.8
 30
0.0
 11
1073.599999999998
 21
1157.8
 31
0.0
  0
LINE
  5
5889
330
1F
100
AcDbEntity
  8
KASAGI
  6
Continuous
100
AcDbLine
 10
1073.599999999998
 20
1157.8
 30
0.0
 11
1073.599999999998
 21
1160.977442250839
 31
0.0
  0
LINE
  5
588A
330
1F
100
AcDbEntity
  8
KASAGI
  6
Continuous
100
AcDbLine
 10
1073.599999999998
 20
1160.977442250839
 30
0.0
 11
1083.599999999998
 21
1159.957034087573
 31
0.0
  0
LINE
  5
588B
330
1F
100
AcDbEntity
  8
KASAGI
  6
Continuous
100
AcDbLine
 10
1083.599999999998
 20
1159.957034087573
 30
0.0
 11
1083.599999999998
 21
1157.8
 31
0.0
  0
LINE
  5
588C
330
1F
100
AcDbEntity
  8
KASAGI
  6
Continuous
100
AcDbLine
 10
991.8324081207556
 20
1169.1
 30
0.0
 11
991.2999999999993
 21
1169.1
 31
0.0
  0
ARC
  5
588D
330
1F
100
AcDbEntity
  8
KASAGI
  6
Continuous
100
AcDbCircle
 10
991.2999999999993
 20
1169.6
 30
0.0
 40
0.5
100
AcDbArc
 50
180.0
 51
270.0
  0
LINE
  5
588E
330
1F
100
AcDbEntity
  8
KASAGI
  6
Continuous
100
AcDbLine
 10
990.7999999999992
 20
1169.6
 30
0.0
 11
990.7999999999992
 21
1177.6
 31
0.0
  0
LINE
  5
588F
330
1F
100
AcDbEntity
  8
KASAGI
  6
Continuous
100
AcDbLine
 10
990.7999999999992
 20
1177.6
 30
0.0
 11
987.5
 21
1177.6
 31
0.0
  0
ARC
  5
5890
330
1F
100
AcDbEntity
  8
KASAGI
  6
Continuous
100
AcDbCircle
 10
987.5
 20
1178.1
 30
0.0
 40
0.5
100
AcDbArc
 50
180.0
 51
270.0
  0
LINE
  5
5891
330
1F
100
AcDbEntity
  8
KASAGI
  6
Continuous
100
AcDbLine
 10
987.0
 20
1178.1
 30
0.0
 11
987.0
 21
1182.0
 31
0.0
  0
LINE
  5
5892
330
1F
100
AcDbEntity
  8
KASAGI
  6
Continuous
100
AcDbLine
 10
987.0
 20
1182.0
 30
0.0
 11
988.7999999999992
 21
1182.0
 31
0.0
  0
LINE
  5
5893
330
1F
100
AcDbEntity
  8
KASAGI
  6
Continuous
100
AcDbLine
 10
988.7999999999992
 20
1182.0
 30
0.0
 11
988.7999999999992
 21
1179.3
 31
0.0
  0
ARC
  5
5894
330
1F
100
AcDbEntity
  8
KASAGI
  6
Continuous
100
AcDbCircle
 10
989.0999999999987
 20
1179.3
 30
0.0
 40
0.2999999999994998
100
AcDbArc
 50
179.9999999999566
 51
269.9999999999566
  0
LINE
  5
5895
330
1F
100
AcDbEntity
  8
KASAGI
  6
Continuous
100
AcDbLine
 10
989.0999999999985
 20
1179.0
 30
0.0
 11
1005.0
 21
1179.0
 31
0.0
  0
LINE
  5
5896
330
1F
100
AcDbEntity
  8
KASAGI
  6
Continuous
100
AcDbLine
 10
1005.0
 20
1179.0
 30
0.0
 11
1005.0
 21
1171.0
 31
0.0
  0
LINE
  5
5897
330
1F
100
AcDbEntity
  8
KASAGI
  6
Continuous
100
AcDbLine
 10
1005.0
 20
1171.0
 30
0.0
 11
1007.0
 21
1169.0
 31
0.0
  0
LINE
  5
5898
330
1F
100
AcDbEntity
  8
KASAGI
  6
Continuous
100
AcDbLine
 10
1007.0
 20
1169.0
 30
0.0
 11
1102.772727272726
 21
1159.227272727273
 31
0.0
  0
LINE
  5
5899
330
1F
100
AcDbEntity
  8
KASAGI
  6
Continuous
100
AcDbLine
 10
1102.772727272726
 20
1159.227272727273
 30
0.0
 11
1105.0
 21
1157.0
 31
0.0
  0
LINE
  5
589A
330
1F
100
AcDbEntity
  8
KASAGI
  6
Continuous
100
AcDbLine
 10
1105.0
 20
1157.0
 30
0.0
 11
1105.0
 21
1099.5
 31
0.0
  0
ARC
  5
589B
330
1F
100
AcDbEntity
  8
KASAGI
  6
Continuous
100
AcDbCircle
 10
1104.5
 20
1099.5
 30
0.0
 40
0.5
100
AcDbArc
 50
270.0
 51
0.0
  0
LINE
  5
589C
330
1F
100
AcDbEntity
  8
KASAGI
  6
Continuous
100
AcDbLine
 10
1104.5
 20
1099.0
 30
0.0
 11
1104.099999999998
 21
1099.0
 31
0.0
  0
ARC
  5
589D
330
1F
100
AcDbEntity
  8
KASAGI
  6
Continuous
100
AcDbCircle
 10
1104.099999999998
 20
1099.5
 30
0.0
 40
0.5
100
AcDbArc
 50
180.0
 51
270.0
  0
LINE
  5
589E
330
1F
100
AcDbEntity
  8
KASAGI
  6
Continuous
100
AcDbLine
 10
1103.599999999998
 20
1099.5
 30
0.0
 11
1103.599999999998
 21
1106.0
 31
0.0
  0
LINE
  5
589F
330
1F
100
AcDbEntity
  8
KASAGI
  6
Continuous
100
AcDbLine
 10
1103.599999999998
 20
1106.0
 30
0.0
 11
1100.642931259162
 21
1106.946045574954
 31
0.0
  0
ARC
  5
58A0
330
1F
100
AcDbEntity
  8
KASAGI
  6
Continuous
100
AcDbCircle
 10
1101.099999999999
 20
1108.374712144224
 30
0.0
 40
1.500000000000564
100
AcDbArc
 50
180.0000000000173
 51
252.259132308043
  0
LINE
  5
58A1
330
1F
100
AcDbEntity
  8
KASAGI
  6
Continuous
100
AcDbLine
 10
1099.599999999998
 20
1108.374712144224
 30
0.0
 11
1099.599999999998
 21
1108.743522892762
 31
0.0
  0
ARC
  5
58A2
330
1F
100
AcDbEntity
  8
KASAGI
  6
Continuous
100
AcDbCircle
 10
1100.099999999999
 20
1108.743522892761
 30
0.0
 40
0.5000000000004548
100
AcDbArc
 50
85.99999999996814
 51
179.9999999999479
  0
LINE
  5
58A3
330
1F
100
AcDbEntity
  8
KASAGI
  6
Continuous
100
AcDbLine
 10
1100.134878236871
 20
1109.242304917892
 30
0.0
 11
1103.599999999998
 21
1109.0
 31
0.0
  0
LINE
  5
58A4
330
1F
100
AcDbEntity
  8
KASAGI
  6
Continuous
100
AcDbLine
 10
1103.599999999998
 20
1109.0
 30
0.0
 11
1103.599999999998
 21
1154.57455585759
 31
0.0
  0
ARC
  5
58A5
330
1F
100
AcDbEntity
  8
KASAGI
  6
Continuous
100
AcDbCircle
 10
1100.099999999998
 20
1154.57455585759
 30
0.0
 40
3.5
100
AcDbArc
 50
0.0
 51
84.17365797044482
  0
LINE
  5
58A6
330
1F
100
AcDbEntity
  8
KASAGI
  6
Continuous
100
AcDbLine
 10
1100.455297908045
 20
1158.05647535645
 30
0.0
 11
1006.362299263976
 21
1167.657801748702
 31
0.0
  0
LINE
  5
58A7
330
1F
100
AcDbEntity
  8
KASAGI
  6
Continuous
100
AcDbLine
 10
1006.362299263976
 20
1167.657801748702
 30
0.0
 11
1003.799999999999
 21
1170.220101012678
 31
0.0
  0
LINE
  5
58A8
330
1F
100
AcDbEntity
  8
KASAGI
  6
Continuous
100
AcDbLine
 10
1003.799999999999
 20
1170.220101012678
 30
0.0
 11
1003.799999999999
 21
1177.6
 31
0.0
  0
LINE
  5
58A9
330
1F
100
AcDbEntity
  8
KASAGI
  6
Continuous
100
AcDbLine
 10
1003.799999999999
 20
1177.6
 30
0.0
 11
992.0999999999985
 21
1177.6
 31
0.0
  0
LINE
  5
58AA
330
1F
100
AcDbEntity
  8
KASAGI
  6
Continuous
100
AcDbLine
 10
992.0999999999985
 20
1177.6
 30
0.0
 11
992.0999999999985
 21
1172.1
 31
0.0
  0
LINE
  5
58AB
330
1F
100
AcDbEntity
  8
KASAGI
  6
Continuous
100
AcDbLine
 10
992.0999999999985
 20
1172.1
 30
0.0
 11
993.7262965816353
 21
1172.1
 31
0.0
  0
ARC
  5
58AC
330
1F
100
AcDbEntity
  8
KASAGI
  6
Continuous
100
AcDbCircle
 10
993.7262965816355
 20
1171.9
 30
0.0
 40
0.2000000000000455
100
AcDbArc
 50
326.3099324740563
 51
90.00000000003257
  0
LINE
  5
58AD
330
1F
100
AcDbEntity
  8
KASAGI
  6
Continuous
100
AcDbLine
 10
993.892706640503
 20
1171.789059960755
 30
0.0
 11
992.2484332679232
 21
1169.322649901888
 31
0.0
  0
ARC
  5
58AE
330
1F
100
AcDbEntity
  8
KASAGI
  6
Continuous
100
AcDbCircle
 10
991.8324081207549
 20
1169.599999999999
 30
0.0
 40
0.4999999999988657
100
AcDbArc
 50
270.0000000000912
 51
326.3099324741069
  0
LINE
  5
58AF
330
1F
100
AcDbEntity
  8
WAKU
100
AcDbLine
 10
2760.0
 20
1790.0
 30
0.0
 11
0.0
 21
1790.0
 31
0.0
  0
LINE
  5
58B0
330
1F
100
AcDbEntity
  8
WAKU
100
AcDbLine
 10
0.0
 20
1790.0
 30
0.0
 11
0.0
 21
1910.0
 31
0.0
  0
LINE
  5
58B1
330
1F
100
AcDbEntity
  8
WAKU
100
AcDbLine
 10
0.0
 20
1910.0
 30
0.0
 11
2760.0
 21
1910.0
 31
0.0
  0
LINE
  5
58B2
330
1F
100
AcDbEntity
  8
WAKU
100
AcDbLine
 10
2760.0
 20
1910.0
 30
0.0
 11
2760.0
 21
1790.0
 31
0.0
  0
LINE
  5
58B3
330
1F
100
AcDbEntity
  8
WAKU
100
AcDbLine
 10
0.0
 20
0.0
 30
0.0
 11
2760.0
 21
0.0
 31
0.0
  0
LINE
  5
58B4
330
1F
100
AcDbEntity
  8
WAKU
100
AcDbLine
 10
2760.0
 20
0.0
 30
0.0
 11
2760.0
 21
1910.0
 31
0.0
  0
LINE
  5
58B5
330
1F
100
AcDbEntity
  8
WAKU
100
AcDbLine
 10
2760.0
 20
1910.0
 30
0.0
 11
0.0
 21
1910.0
 31
0.0
  0
LINE
  5
58B6
330
1F
100
AcDbEntity
  8
WAKU
100
AcDbLine
 10
0.0
 20
1910.0
 30
0.0
 11
0.0
 21
0.0
 31
0.0
  0
LINE
  5
58B7
330
1F
100
AcDbEntity
  8
bousui2
100
AcDbLine
 10
1033.639610306789
 20
592.4999999999999
 30
0.0
 11
2280.0
 21
592.4999999999999
 31
0.0
  0
ENDSEC
  0
SECTION
  2
OBJECTS
  0
DICTIONARY
  5
C
330
0
100
AcDbDictionary
281
     1
  3
ACAD_CIP_PREVIOUS_PRODUCT_INFO
350
476D
  3
ACAD_COLOR
350
436A
  3
ACAD_DETAILVIEWSTYLE
350
4768
  3
ACAD_GROUP
350
D
  3
ACAD_LAYOUT
350
1A
  3
ACAD_MATERIAL
350
433D
  3
ACAD_MLEADERSTYLE
350
437F
  3
ACAD_MLINESTYLE
350
17
  3
ACAD_PLOTSETTINGS
350
19
  3
ACAD_PLOTSTYLENAME
350
E
  3
ACAD_SCALELIST
350
436D
  3
ACAD_SECTIONVIEWSTYLE
350
4766
  3
ACAD_TABLESTYLE
350
436B
  3
ACAD_VISUALSTYLE
350
4356
  3
ACDB_RECOMPOSE_DATA
350
58BA
  3
AcDbVariableDictionary
350
1835
  3
AEC_PROPERTY_SET_DEFS
350
44C3
  3
DWGPROPS
350
58BB
  0
DICTIONARY
  5
44F6
330
8
100
AcDbDictionary
280
     1
281
     1
  0
DICTIONARY
  5
2D
330
2
100
AcDbDictionary
280
     1
281
     1
  3
ACAD_LAYERFILTERS
360
2E
  3
ACAD_LAYERSTATES
360
918
  0
DICTIONARY
  5
44D8
330
10
100
AcDbDictionary
280
     1
281
     1
  3
ADSK_XREC_LAYER_RECONCILED
360
44D9
  0
DICTIONARY
  5
44DA
330
2294
100
AcDbDictionary
280
     1
281
     1
  3
ADSK_XREC_LAYER_RECONCILED
360
44DB
  0
DICTIONARY
  5
44DC
330
235F
100
AcDbDictionary
280
     1
281
     1
  3
ADSK_XREC_LAYER_RECONCILED
360
44DD
  0
DICTIONARY
  5
44DE
330
2360
100
AcDbDictionary
280
     1
281
     1
  3
ADSK_XREC_LAYER_RECONCILED
360
44DF
  0
DICTIONARY
  5
44E0
330
2361
100
AcDbDictionary
280
     1
281
     1
  3
ADSK_XREC_LAYER_RECONCILED
360
44E1
  0
DICTIONARY
  5
44E2
330
2363
100
AcDbDictionary
280
     1
281
     1
  3
ADSK_XREC_LAYER_RECONCILED
360
44E3
  0
DICTIONARY
  5
44E4
330
2364
100
AcDbDictionary
280
     1
281
     1
  3
ADSK_XREC_LAYER_RECONCILED
360
44E5
  0
DICTIONARY
  5
44E6
330
2501
100
AcDbDictionary
280
     1
281
     1
  3
ADSK_XREC_LAYER_RECONCILED
360
44E7
  0
DICTIONARY
  5
44E8
330
27C0
100
AcDbDictionary
280
     1
281
     1
  3
ADSK_XREC_LAYER_RECONCILED
360
44E9
  0
DICTIONARY
  5
44EA
330
2E5A
100
AcDbDictionary
280
     1
281
     1
  3
ADSK_XREC_LAYER_RECONCILED
360
44EB
  0
DICTIONARY
  5
44EE
330
2E5C
100
AcDbDictionary
280
     1
281
     1
  3
ADSK_XREC_LAYER_RECONCILED
360
44EF
  0
DICTIONARY
  5
44F0
330
37C3
100
AcDbDictionary
280
     1
281
     1
  3
ADSK_XREC_LAYER_RECONCILED
360
44F1
  0
DICTIONARY
  5
1C62
330
1F
100
AcDbDictionary
280
     1
281
     1
  3
ACAD_SORTENTS
360
1C63
  0
XRECORD
  5
476D
102
{ACAD_REACTORS
330
C
102
}
330
C
100
AcDbXrecord
280
     1
300
ACD
300
2022
300

  0
DICTIONARY
  5
436A
102
{ACAD_REACTORS
330
C
102
}
330
C
100
AcDbDictionary
281
     1
  0
DICTIONARY
  5
4768
102
{ACAD_REACTORS
330
C
102
}
330
C
100
AcDbDictionary
281
     1
  3
Metric50
350
4769
  0
DICTIONARY
  5
D
102
{ACAD_REACTORS
330
C
102
}
330
C
100
AcDbDictionary
281
     1
  0
DICTIONARY
  5
1A
102
{ACAD_REACTORS
330
C
102
}
330
C
100
AcDbDictionary
281
     1
  3
Model
350
22
  3
\U+FF9A\U+FF72\U+FF71\U+FF73\U+FF841
350
1CD1
  0
DICTIONARY
  5
433D
102
{ACAD_REACTORS
330
C
102
}
330
C
100
AcDbDictionary
281
     1
  3
ByBlock
350
4346
  3
ByLayer
350
433E
  3
Global
350
434E
  0
DICTIONARY
  5
437F
102
{ACAD_REACTORS
330
C
102
}
330
C
100
AcDbDictionary
281
     1
  3
Standard
350
4380
  0
DICTIONARY
  5
17
102
{ACAD_REACTORS
330
C
102
}
330
C
100
AcDbDictionary
281
     1
  3
Standard
350
18
  0
DICTIONARY
  5
19
102
{ACAD_REACTORS
330
C
102
}
330
C
100
AcDbDictionary
281
     1
  0
ACDBDICTIONARYWDFLT
  5
E
102
{ACAD_REACTORS
330
C
102
}
330
C
100
AcDbDictionary
281
     1
  3
Normal
350
F
  3
通常
350
29
100
AcDbDictionaryWithDefault
340
F
  0
DICTIONARY
  5
436D
102
{ACAD_REACTORS
330
C
102
}
330
C
100
AcDbDictionary
281
     1
  3
A0
350
436E
  3
A1
350
436F
  3
A2
350
4370
  3
A3
350
4371
  3
A4
350
4372
  3
A5
350
4373
  3
A6
350
4374
  3
A7
350
4375
  3
A8
350
4376
  3
A9
350
4377
  3
B0
350
4378
  3
B1
350
4379
  3
B2
350
437A
  3
B3
350
437B
  3
B4
350
437C
  3
B5
350
437D
  3
B6
350
437E
  0
DICTIONARY
  5
4766
102
{ACAD_REACTORS
330
C
102
}
330
C
100
AcDbDictionary
281
     1
  3
Metric50
350
4767
  0
DICTIONARY
  5
436B
102
{ACAD_REACTORS
330
C
102
}
330
C
100
AcDbDictionary
281
     1
  3
Standard
350
436C
  0
DICTIONARY
  5
4356
102
{ACAD_REACTORS
330
C
102
}
330
C
100
AcDbDictionary
281
     1
  3
2dWireframe
350
435C
  3
3D Hidden
350
435E
  3
3dWireframe
350
435D
  3
Basic
350
435B
  3
Brighten
350
4362
  3
ColorChange
350
4366
  3
Conceptual
350
435F
  3
Dim
350
4361
  3
EdgeColorOff
350
4369
  3
Facepattern
350
4365
  3
Flat
350
4357
  3
FlatWithEdges
350
4358
  3
Gouraud
350
4359
  3
GouraudWithEdges
350
435A
  3
Hidden
350
4760
  3
JitterOff
350
4367
  3
Linepattern
350
4364
  3
OverhangOff
350
4368
  3
Realistic
350
4360
  3
Shaded
350
4765
  3
Shaded with edges
350
4764
  3
Shades of Gray
350
4761
  3
Sketchy
350
4762
  3
Thicken
350
4363
  3
Wireframe
350
475F
  3
X-Ray
350
4763
  0
XRECORD
  5
58BA
102
{ACAD_REACTORS
330
C
102
}
330
C
100
AcDbXrecord
280
     1
 90
        1
330
436C
  0
DICTIONARY
  5
1835
102
{ACAD_REACTORS
330
C
102
}
330
C
100
AcDbDictionary
281
     1
  3
CANNOSCALE
350
4528
  3
CMLEADERSTYLE
350
4527
  3
CTABLESTYLE
350
4526
  3
CVIEWDETAILSTYLE
350
47B7
  3
CVIEWSECTIONSTYLE
350
47B8
  3
DIMASSOC
350
452A
  3
INDEXCTL
350
4529
  3
SORTENTS
350
1836
  3
XCLIPFRAME
350
58B8
  0
DICTIONARY
  5
44C3
102
{ACAD_REACTORS
330
C
102
}
330
C
100
AcDbDictionary
281
     1
  0
XRECORD
  5
58BB
102
{ACAD_REACTORS
330
C
102
}
330
C
100
AcDbXrecord
280
     1
  1
DWGPROPS COOKIE
  2

  3

  4

  6

  7

  8
2020009
  9

300
=
301
=
302
=
303
=
304
=
305
=
306
=
307
=
308
=
309
=
 40
0.3497765509259259
 41
2453276.413761574
 42
2459975.37550926
  1

 90
        0
  0
DICTIONARY
  5
2E
102
{ACAD_REACTORS
330
2D
102
}
330
2D
100
AcDbDictionary
280
     1
281
     1
  0
DICTIONARY
  5
918
102
{ACAD_REACTORS
330
2D
102
}
330
2D
100
AcDbDictionary
281
     1
  0
XRECORD
  5
44D9
102
{ACAD_REACTORS
330
44D8
102
}
330
44D8
100
AcDbXrecord
280
     1
290
     1
  0
XRECORD
  5
44DB
102
{ACAD_REACTORS
330
44DA
102
}
330
44DA
100
AcDbXrecord
280
     1
290
     1
  0
XRECORD
  5
44DD
102
{ACAD_REACTORS
330
44DC
102
}
330
44DC
100
AcDbXrecord
280
     1
290
     1
  0
XRECORD
  5
44DF
102
{ACAD_REACTORS
330
44DE
102
}
330
44DE
100
AcDbXrecord
280
     1
290
     1
  0
XRECORD
  5
44E1
102
{ACAD_REACTORS
330
44E0
102
}
330
44E0
100
AcDbXrecord
280
     1
290
     1
  0
XRECORD
  5
44E3
102
{ACAD_REACTORS
330
44E2
102
}
330
44E2
100
AcDbXrecord
280
     1
290
     1
  0
XRECORD
  5
44E5
102
{ACAD_REACTORS
330
44E4
102
}
330
44E4
100
AcDbXrecord
280
     1
290
     1
  0
XRECORD
  5
44E7
102
{ACAD_REACTORS
330
44E6
102
}
330
44E6
100
AcDbXrecord
280
     1
290
     1
  0
XRECORD
  5
44E9
102
{ACAD_REACTORS
330
44E8
102
}
330
44E8
100
AcDbXrecord
280
     1
290
     1
  0
XRECORD
  5
44EB
102
{ACAD_REACTORS
330
44EA
102
}
330
44EA
100
AcDbXrecord
280
     1
290
     1
  0
XRECORD
  5
44EF
102
{ACAD_REACTORS
330
44EE
102
}
330
44EE
100
AcDbXrecord
280
     1
290
     1
  0
XRECORD
  5
44F1
102
{ACAD_REACTORS
330
44F0
102
}
330
44F0
100
AcDbXrecord
280
     1
290
     1
  0
SORTENTSTABLE
  5
1C63
102
{ACAD_REACTORS
330
1C62
102
}
330
1C62
100
AcDbSortentsTable
330
1F
331
24F1
  5
28CA
331
24F2
  5
2A0D
331
24F4
  5
2A0E
331
24F5
  5
2A0F
331
28CA
  5
2DF6
331
2A0D
  5
2DF7
331
2A0E
  5
2DF8
331
2A0F
  5
2E02
331
2A10
  5
2E03
331
2A14
  5
329B
331
2A15
  5
329C
331
2CAE
  5
329D
331
2DF0
  5
329E
331
2DF1
  5
329F
331
2DF2
  5
32A0
331
2DF6
  5
32A1
331
2DF7
  5
32A2
331
2DF8
  5
32A3
331
2E02
  5
32AA
331
2E03
  5
32AB
331
2E04
  5
32AC
331
2E05
  5
32AD
331
2E06
  5
32AE
331
2E07
  5
32E0
331
2E08
  5
3391
331
2E09
  5
33B6
331
2E0A
  5
33B8
331
2E0B
  5
33B9
331
2E0C
  5
33C0
331
2E0D
  5
33C1
331
328D
  5
33C8
331
328E
  5
328F
331
3290
  5
3A52
331
3291
  5
3292
331
3292
  5
3A53
331
3293
  5
3294
331
3294
  5
3295
331
3295
  5
3A5F
331
3296
  5
3A68
331
3297
  5
3298
331
3298
  5
3A6C
331
3299
  5
329A
331
329A
  5
3A73
331
329B
  5
3A76
331
329C
  5
3A78
331
329D
  5
3A79
331
329E
  5
3A7A
331
329F
  5
3A7C
331
32A0
  5
3ACB
331
32A1
  5
3E2B
331
32A2
  5
3E2E
331
32A9
  5
3E31
331
32AA
  5
3E32
331
32AB
  5
3E33
331
32AC
  5
3E34
331
32AD
  5
3E35
331
32DF
  5
5656
331
3390
  5
565F
331
33B5
  5
573A
331
33B6
  5
33B7
331
33B7
  5
573B
331
33B8
  5
573C
331
33B9
  5
33BF
331
33BF
  5
573D
331
33C0
  5
573E
331
33C1
  5
573F
331
33C2
  5
5740
331
33C3
  5
5741
331
33C4
  5
5742
331
33C5
  5
5743
331
33C6
  5
5744
331
33C7
  5
5745
331
3A51
  5
574C
331
3A52
  5
574D
331
3A53
  5
574E
331
3A67
  5
5759
331
3A68
  5
3A6B
331
3A6B
  5
575A
331
3A6C
  5
3A72
331
3A72
  5
575B
331
3A73
  5
3A75
331
3A75
  5
575C
331
3A76
  5
3A77
331
3A77
  5
575D
331
3A78
  5
575E
331
3A79
  5
575F
331
3A7B
  5
5762
331
3A7C
  5
3ACA
331
3ACA
  5
5763
331
3ACB
  5
3E2A
331
3E2A
  5
5764
331
3E2D
  5
57A1
331
3E30
  5
57AD
331
3E31
  5
57AE
331
3E32
  5
57AF
331
3E33
  5
57B0
331
3E34
  5
57B1
331
3E35
  5
57B2
331
3E36
  5
57B3
331
3E3B
  5
57C8
331
3EB9
  5
57DB
331
3EBA
  5
57DC
331
3EBB
  5
57DD
331
41F2
  5
57DE
331
41F3
  5
57DF
331
41F4
  5
57E0
331
41F5
  5
57E1
331
41F6
  5
57E2
331
41F7
  5
57E3
331
41F8
  5
57E4
331
41F9
  5
57E5
331
41FA
  5
57E6
331
41FB
  5
57E7
331
41FC
  5
57E8
331
41FD
  5
57E9
331
41FE
  5
57EA
331
4228
  5
57EB
331
4229
  5
57EC
331
422A
  5
57ED
331
422B
  5
57EE
331
422C
  5
57EF
331
441A
  5
57F3
331
441D
  5
5830
331
441E
  5
5831
331
4420
  5
5837
331
4421
  5
5838
331
4422
  5
5839
331
4423
  5
583A
331
4424
  5
583B
331
4426
  5
5841
331
442B
  5
5844
331
442C
  5
5845
331
4453
  5
5846
331
445E
  5
587B
331
44CD
  5
589F
331
4AF0
  5
58A4
331
4AF1
  5
58A5
331
4AF3
  5
58AA
331
4AF4
  5
58AB
331
4AF5
  5
58AC
331
4B2F
  5
58AE
331
4B30
  5
58AF
331
4E6F
  5
58B0
331
4E83
  5
58B1
331
4FA0
  5
58B2
331
5370
  5
58B3
331
5371
  5
58B4
331
5372
  5
58B5
331
5373
  5
58B6
331
5374
  5
58B7
331
5655
  5
24F1
331
5656
  5
24F2
331
5657
  5
24F4
331
5658
  5
24F5
331
5659
  5
2A10
331
565A
  5
2A15
331
565B
  5
2CAE
331
565C
  5
2DF0
331
565D
  5
2DF1
331
565E
  5
2DF2
331
565F
  5
2E04
331
5660
  5
2E05
331
5661
  5
2E06
331
5662
  5
2E07
331
5663
  5
2E08
331
5664
  5
2E09
331
5665
  5
2E0A
331
5666
  5
2E0B
331
5667
  5
2E0C
331
5668
  5
2E0D
331
5669
  5
3289
331
566A
  5
328E
331
566B
  5
3291
331
566C
  5
3293
331
566D
  5
3296
331
566E
  5
3297
331
566F
  5
3299
331
5670
  5
33C2
331
5671
  5
33C3
331
5672
  5
33C4
331
5673
  5
33C5
331
5674
  5
33C6
331
5675
  5
33C7
331
5676
  5
3E36
331
5677
  5
3E37
331
5678
  5
3E48
331
5679
  5
3EBA
331
567A
  5
3EBB
331
567B
  5
41F2
331
567C
  5
41F3
331
567D
  5
41F4
331
567E
  5
41F5
331
567F
  5
41F6
331
5680
  5
41F7
331
5681
  5
41F8
331
5682
  5
41F9
331
5683
  5
41FA
331
5684
  5
41FB
331
5685
  5
41FC
331
5686
  5
41FD
331
5687
  5
41FE
331
5688
  5
4228
331
5689
  5
4229
331
568A
  5
422A
331
568B
  5
422B
331
568C
  5
422C
331
568D
  5
4419
331
568E
  5
441B
331
568F
  5
441E
331
5690
  5
441F
331
5691
  5
4421
331
5692
  5
4422
331
5693
  5
4423
331
5694
  5
4424
331
5695
  5
4425
331
5696
  5
442A
331
5697
  5
442C
331
5698
  5
4453
331
5699
  5
4454
331
569A
  5
4460
331
569B
  5
44CE
331
569C
  5
4AF0
331
569D
  5
4AF1
331
569E
  5
4AF3
331
569F
  5
4AF4
331
56A0
  5
4AF5
331
56A1
  5
4B2F
331
56A2
  5
4B30
331
56A3
  5
4E6F
331
56A4
  5
4E83
331
56A5
  5
4FA0
331
56A6
  5
5370
331
56A7
  5
5371
331
56A8
  5
5372
331
56A9
  5
5373
331
56AA
  5
5374
331
56AB
  5
5655
331
56AC
  5
5657
331
56AD
  5
5658
331
56AE
  5
5659
331
56AF
  5
565A
331
56B0
  5
565B
331
56B1
  5
565C
331
56B2
  5
565D
331
56B3
  5
565E
331
56B4
  5
5660
331
56B5
  5
5661
331
56B6
  5
5662
331
56B7
  5
5663
331
56B8
  5
5664
331
56B9
  5
5665
331
56BA
  5
5666
331
56BB
  5
5667
331
56BC
  5
5668
331
56BD
  5
5669
331
56BE
  5
566A
331
56BF
  5
566B
331
56C0
  5
566C
331
56C1
  5
566D
331
56C2
  5
566E
331
56C3
  5
566F
331
56C4
  5
5670
331
56C5
  5
5671
331
56C6
  5
5672
331
56C7
  5
5673
331
56C8
  5
5674
331
56C9
  5
5675
331
56CA
  5
5676
331
56CB
  5
5677
331
56CC
  5
5678
331
56CD
  5
5679
331
56CE
  5
567A
331
56CF
  5
567B
331
56D0
  5
567C
331
56D1
  5
567D
331
56D2
  5
567E
331
56D3
  5
567F
331
56D4
  5
5680
331
56D5
  5
5681
331
56D6
  5
5682
331
56D7
  5
5683
331
56D8
  5
5684
331
56D9
  5
5685
331
56DA
  5
5686
331
56DB
  5
5687
331
56DC
  5
5688
331
56DD
  5
5689
331
56DE
  5
568A
331
56DF
  5
568B
331
56E0
  5
568C
331
56E1
  5
568D
331
56E2
  5
568E
331
56E3
  5
568F
331
56E4
  5
5690
331
56E5
  5
5691
331
56E6
  5
5692
331
56E7
  5
5693
331
56E8
  5
5694
331
56E9
  5
5695
331
56EA
  5
5696
331
56EB
  5
5697
331
56EC
  5
5698
331
56ED
  5
5699
331
56EE
  5
569A
331
56EF
  5
569B
331
56F0
  5
569C
331
56F1
  5
569D
331
56F2
  5
569E
331
56F3
  5
569F
331
56F4
  5
56A0
331
56F5
  5
56A1
331
56F6
  5
56A2
331
56F7
  5
56A3
331
56F8
  5
56A4
331
56F9
  5
56A5
331
56FA
  5
56A6
331
56FB
  5
56A7
331
56FC
  5
56A8
331
56FD
  5
56A9
331
56FE
  5
56AA
331
56FF
  5
56AB
331
5700
  5
56AC
331
5701
  5
56AD
331
5702
  5
56AE
331
5703
  5
56AF
331
5704
  5
56B0
331
5705
  5
56B1
331
5706
  5
56B2
331
5707
  5
56B3
331
5708
  5
56B4
331
5709
  5
56B5
331
570A
  5
56B6
331
570B
  5
56B7
331
570C
  5
56B8
331
570D
  5
56B9
331
570E
  5
56BA
331
570F
  5
56BB
331
5710
  5
56BC
331
5711
  5
56BD
331
5712
  5
56BE
331
5713
  5
56BF
331
5714
  5
56C0
331
5715
  5
56C1
331
5716
  5
56C2
331
5717
  5
56C3
331
5718
  5
56C4
331
5719
  5
56C5
331
571A
  5
56C6
331
571B
  5
56C7
331
571C
  5
56C8
331
571D
  5
56C9
331
571E
  5
56CA
331
571F
  5
56CB
331
5720
  5
56CC
331
5721
  5
56CD
331
5722
  5
56CE
331
5723
  5
56CF
331
5724
  5
56D0
331
5725
  5
56D1
331
5726
  5
56D2
331
5727
  5
56D3
331
5728
  5
56D4
331
5729
  5
56D5
331
572A
  5
56D6
331
572B
  5
56D7
331
572C
  5
56D8
331
572D
  5
56D9
331
572E
  5
56DA
331
572F
  5
56DB
331
5730
  5
56DC
331
5731
  5
56DD
331
5732
  5
56DE
331
5733
  5
56DF
331
5734
  5
56E0
331
5735
  5
56E1
331
5736
  5
56E2
331
5737
  5
56E3
331
5738
  5
56E4
331
5739
  5
56E5
331
573A
  5
56E6
331
573B
  5
56E7
331
573C
  5
56E8
331
573D
  5
56E9
331
573E
  5
56EA
331
573F
  5
56EB
331
5740
  5
56EC
331
5741
  5
56ED
331
5742
  5
56EE
331
5743
  5
56EF
331
5744
  5
56F0
331
5745
  5
56F1
331
5746
  5
56F2
331
5747
  5
56F3
331
5748
  5
56F4
331
5749
  5
56F5
331
574A
  5
56F6
331
574B
  5
56F7
331
574C
  5
56F8
331
574D
  5
56F9
331
574E
  5
56FA
331
574F
  5
56FB
331
5750
  5
56FC
331
5751
  5
56FD
331
5752
  5
56FE
331
5753
  5
56FF
331
5754
  5
5700
331
5755
  5
5701
331
5756
  5
5702
331
5757
  5
5703
331
5758
  5
5704
331
5759
  5
5705
331
575A
  5
5706
331
575B
  5
5707
331
575C
  5
5708
331
575D
  5
5709
331
575E
  5
570A
331
575F
  5
570B
331
5760
  5
570C
331
5761
  5
570D
331
5762
  5
570E
331
5763
  5
570F
331
5764
  5
5710
331
5765
  5
5711
331
5766
  5
5712
331
5767
  5
5713
331
5768
  5
5714
331
5769
  5
5715
331
576A
  5
5716
331
576B
  5
5717
331
576C
  5
5718
331
576D
  5
5719
331
576E
  5
571A
331
576F
  5
571B
331
5770
  5
571C
331
5771
  5
571D
331
5772
  5
571E
331
5773
  5
571F
331
5774
  5
5720
331
5775
  5
5721
331
5776
  5
5722
331
5777
  5
5723
331
5778
  5
5724
331
5779
  5
5725
331
577A
  5
5726
331
577B
  5
5727
331
577C
  5
5728
331
577D
  5
5729
331
577E
  5
572A
331
577F
  5
572B
331
5780
  5
572C
331
5781
  5
572D
331
5782
  5
572E
331
5783
  5
572F
331
5784
  5
5730
331
5785
  5
5731
331
5786
  5
5732
331
5787
  5
5733
331
5788
  5
5734
331
5789
  5
5735
331
578A
  5
5736
331
578B
  5
5737
331
578C
  5
5738
331
578D
  5
5739
331
578E
  5
5746
331
578F
  5
5747
331
5790
  5
5748
331
5791
  5
5749
331
5792
  5
574A
331
5793
  5
574B
331
5794
  5
574F
331
5795
  5
5750
331
5796
  5
5751
331
5797
  5
5752
331
5798
  5
5753
331
5799
  5
5754
331
579A
  5
5755
331
579B
  5
5756
331
579C
  5
5757
331
579D
  5
5758
331
579E
  5
5760
331
579F
  5
5761
331
57A0
  5
5765
331
57A1
  5
5766
331
57A2
  5
5767
331
57A3
  5
5768
331
57A4
  5
5769
331
57A5
  5
576A
331
57A6
  5
576B
331
57A7
  5
576C
331
57A8
  5
576D
331
57A9
  5
576E
331
57AA
  5
576F
331
57AB
  5
5770
331
57AC
  5
5771
331
57AD
  5
5772
331
57AE
  5
5773
331
57AF
  5
5774
331
57B0
  5
5775
331
57B1
  5
5776
331
57B2
  5
5777
331
57B3
  5
5778
331
57B4
  5
5779
331
57B5
  5
577A
331
57B6
  5
577B
331
57B7
  5
577C
331
57B8
  5
577D
331
57B9
  5
577E
331
57BA
  5
577F
331
57BB
  5
5780
331
57BC
  5
5781
331
57BD
  5
5782
331
57BE
  5
5783
331
57BF
  5
5784
331
57C0
  5
5785
331
57C1
  5
5786
331
57C2
  5
5787
331
57C3
  5
5788
331
57C4
  5
5789
331
57C5
  5
578A
331
57C6
  5
578B
331
57C7
  5
578C
331
57C8
  5
578D
331
57C9
  5
578E
331
57CA
  5
578F
331
57CB
  5
5790
331
57CC
  5
5791
331
57CD
  5
5792
331
57CE
  5
5793
331
57CF
  5
5794
331
57D0
  5
5795
331
57D1
  5
5796
331
57D2
  5
5797
331
57D3
  5
5798
331
57D4
  5
5799
331
57D5
  5
579A
331
57D6
  5
579B
331
57D7
  5
579C
331
57D8
  5
579D
331
57D9
  5
579E
331
57DA
  5
579F
331
57DB
  5
57A0
331
57DC
  5
57A2
331
57DD
  5
57A3
331
57DE
  5
57A4
331
57DF
  5
57A5
331
57E0
  5
57A6
331
57E1
  5
57A7
331
57E2
  5
57A8
331
57E3
  5
57A9
331
57E4
  5
57AA
331
57E5
  5
57AB
331
57E6
  5
57AC
331
57E7
  5
57B4
331
57E8
  5
57B5
331
57E9
  5
57B6
331
57EA
  5
57B7
331
57EB
  5
57B8
331
57EC
  5
57B9
331
57ED
  5
57BA
331
57EE
  5
57BB
331
57EF
  5
57BC
331
57F0
  5
57BD
331
57F1
  5
57BE
331
57F2
  5
57BF
331
57F3
  5
57C0
331
57F4
  5
57C1
331
57F5
  5
57C2
331
57F6
  5
57C3
331
57F7
  5
57C4
331
57F8
  5
57C5
331
57F9
  5
57C6
331
57FA
  5
57C7
331
57FB
  5
57C9
331
57FC
  5
57CA
331
57FD
  5
57CB
331
57FE
  5
57CC
331
57FF
  5
57CD
331
5800
  5
57CE
331
5801
  5
57CF
331
5802
  5
57D0
331
5803
  5
57D1
331
5804
  5
57D2
331
5805
  5
57D3
331
5806
  5
57D4
331
5807
  5
57D5
331
5808
  5
57D6
331
5809
  5
57D7
331
580A
  5
57D8
331
580B
  5
57D9
331
580C
  5
57DA
331
580D
  5
57F0
331
580E
  5
57F1
331
580F
  5
57F2
331
5810
  5
57F4
331
5811
  5
57F5
331
5812
  5
57F6
331
5813
  5
57F7
331
5814
  5
57F8
331
5815
  5
57F9
331
5816
  5
57FA
331
5817
  5
57FB
331
5818
  5
57FC
331
5819
  5
57FD
331
581A
  5
57FE
331
581B
  5
57FF
331
581C
  5
5800
331
581D
  5
5801
331
581E
  5
5802
331
581F
  5
5803
331
5820
  5
5804
331
5821
  5
5805
331
5822
  5
5806
331
5823
  5
5807
331
5824
  5
5808
331
5825
  5
5809
331
5826
  5
580A
331
5827
  5
580B
331
5828
  5
580C
331
5829
  5
580D
331
582A
  5
580E
331
582B
  5
580F
331
582C
  5
5810
331
582D
  5
5811
331
582E
  5
5812
331
582F
  5
5813
331
5830
  5
5814
331
5831
  5
5815
331
5832
  5
5816
331
5833
  5
5817
331
5834
  5
5818
331
5835
  5
5819
331
5836
  5
581A
331
5837
  5
581B
331
5838
  5
581C
331
5839
  5
581D
331
583A
  5
581E
331
583B
  5
581F
331
583C
  5
5820
331
583D
  5
5821
331
583E
  5
5822
331
583F
  5
5823
331
5840
  5
5824
331
5841
  5
5825
331
5842
  5
5826
331
5843
  5
5827
331
5844
  5
5828
331
5845
  5
5829
331
5846
  5
582A
331
5847
  5
582B
331
5848
  5
582C
331
5849
  5
582D
331
584A
  5
582E
331
584B
  5
582F
331
584C
  5
5832
331
584D
  5
5833
331
584E
  5
5834
331
584F
  5
5835
331
5850
  5
5836
331
5851
  5
583C
331
5852
  5
583D
331
5853
  5
583E
331
5854
  5
583F
331
5855
  5
5840
331
5856
  5
5842
331
5857
  5
5843
331
5858
  5
5847
331
5859
  5
5848
331
585A
  5
5849
331
585B
  5
584A
331
585C
  5
584B
331
585D
  5
584C
331
585E
  5
584D
331
585F
  5
584E
331
5860
  5
584F
331
5861
  5
5850
331
5862
  5
5851
331
5863
  5
5852
331
5864
  5
5853
331
5865
  5
5854
331
5866
  5
5855
331
5867
  5
5856
331
5868
  5
5857
331
5869
  5
5858
331
586A
  5
5859
331
586B
  5
585A
331
586C
  5
585B
331
586D
  5
585C
331
586E
  5
585D
331
586F
  5
585E
331
5870
  5
585F
331
5871
  5
5860
331
5872
  5
5861
331
5873
  5
5862
331
5874
  5
5863
331
5875
  5
5864
331
5876
  5
5865
331
5877
  5
5866
331
5878
  5
5867
331
5879
  5
5868
331
587A
  5
5869
331
587B
  5
586A
331
587C
  5
586B
331
587D
  5
586C
331
587E
  5
586D
331
587F
  5
586E
331
5880
  5
586F
331
5881
  5
5870
331
5882
  5
5871
331
5883
  5
5872
331
5884
  5
5873
331
5885
  5
5874
331
5886
  5
5875
331
5887
  5
5876
331
5888
  5
5877
331
5889
  5
5878
331
588A
  5
5879
331
588B
  5
587A
331
588C
  5
587C
331
588D
  5
587D
331
588E
  5
587E
331
588F
  5
587F
331
5890
  5
5880
331
5891
  5
5881
331
5892
  5
5882
331
5893
  5
5883
331
5894
  5
5884
331
5895
  5
5885
331
5896
  5
5886
331
5897
  5
5887
331
5898
  5
5888
331
5899
  5
5889
331
589A
  5
588A
331
589B
  5
588B
331
589C
  5
588C
331
589D
  5
588D
331
589E
  5
588E
331
589F
  5
588F
331
58A0
  5
5890
331
58A1
  5
5891
331
58A2
  5
5892
331
58A3
  5
5893
331
58A4
  5
5894
331
58A5
  5
5895
331
58A6
  5
5896
331
58A7
  5
5897
331
58A8
  5
5898
331
58A9
  5
5899
331
58AA
  5
589A
331
58AB
  5
589B
331
58AC
  5
589C
331
58AD
  5
589D
331
58AE
  5
589E
331
58AF
  5
58A0
331
58B0
  5
58A1
331
58B1
  5
58A2
331
58B2
  5
58A3
331
58B3
  5
58A6
331
58B4
  5
58A7
331
58B5
  5
58A8
331
58B6
  5
58A9
331
58B7
  5
58AD
  0
ACDBDETAILVIEWSTYLE
  5
4769
102
{ACAD_XDICTIONARY
360
58FA
102
}
102
{ACAD_REACTORS
330
4768
102
}
330
4768
100
AcDbModelDocViewStyle
 70
     0
  3
Metric50
290
     0
100
AcDbDetailViewStyle
 70
     0
 71
     0
 90
        3
 71
     1
340
11
 40
5.0
340
0
 40
5.0
300

 40
0.0
280
     1
 71
     2
340
16
 90
       25
 71
     3
340
11
 40
5.0
 90
        0
 40
15.0
 90
        1
300
%<\AcVar ViewDetailId>% (%<\AcVar ViewScale \f "%sn">%)
 71
     4
340
16
 90
       25
340
16
 90
       25
280
     0
1001
ACAD
1000
AcRTDxfName
1000
ACDBDETAILVIEWSTYLE
1000
AcRTDxfName
1000
ACDBDETAILVIEWSTYLE
  0
LAYOUT
  5
22
102
{ACAD_XDICTIONARY
360
58BC
102
}
102
{ACAD_REACTORS
330
1A
102
}
330
1A
100
AcDbPlotSettings
  1

  2
Canon LBP3800 LIPSLX
  4
A4
  6

 40
5.873749732971191
 41
5.873747825622558
 42
5.873748779296875
 43
5.873748779296875
 44
209.9733276367187
 45
296.9259948730469
 46
0.61
 47
0.59
 48
444.9983463649091
 49
-1090.000000918417
140
2395.001653364909
141
1659.999999081583
142
1.0
143
10.0
 70
 11940
 72
     1
 73
     1
 74
     2
  7
monochrome.ctb
 75
     0
147
0.1
148
0.0
149
0.0
100
AcDbLayout
  1
Model
 70
     1
 71
     0
 10
0.0
 20
0.0
 11
12.0
 21
9.0
 12
0.0
 22
0.0
 32
0.0
 14
0.0
 24
0.0
 34
0.0
 15
0.0
 25
0.0
 35
0.0
146
0.0
 13
0.0
 23
0.0
 33
0.0
 16
1.0
 26
0.0
 36
0.0
 17
0.0
 27
1.0
 37
0.0
 76
     0
330
1F
331
433B
  0
LAYOUT
  5
1CD1
102
{ACAD_XDICTIONARY
360
58BE
102
}
102
{ACAD_REACTORS
330
1A
102
}
330
1A
100
AcDbPlotSettings
  1

  2
\\ek_srv\Canon LBP-880 LIPS4
  4

  6

 40
0.0
 41
0.0
 42
0.0
 43
0.0
 44
0.0
 45
0.0
 46
0.0
 47
0.0
 48
0.0
 49
0.0
140
0.0
141
0.0
142
1.0
143
1.0
 70
   688
 72
     0
 73
     0
 74
     5
  7
monochrome.ctb
 75
    16
147
1.0
148
0.0
149
0.0
100
AcDbLayout
  1
\U+FF9A\U+FF72\U+FF71\U+FF73\U+FF841
 70
     1
 71
     1
 10
0.0
 20
0.0
 11
12.0
 21
9.0
 12
0.0
 22
0.0
 32
0.0
 14
0.0
 24
0.0
 34
0.0
 15
0.0
 25
0.0
 35
0.0
146
0.0
 13
0.0
 23
0.0
 33
0.0
 16
1.0
 26
0.0
 36
0.0
 17
0.0
 27
1.0
 37
0.0
 76
     0
330
1CD0
  0
MATERIAL
  5
4346
102
{ACAD_XDICTIONARY
360
4347
102
}
102
{ACAD_REACTORS
330
433D
102
}
330
433D
100
AcDbMaterial
  1
ByBlock
 72
     0
 43
0.0008202099737533
 43
0.0
 43
0.0
 43
0.0
 43
0.0
 43
0.0008202099737533
 43
0.0
 43
0.0
 43
0.0
 43
0.0
 43
1.0
 43
0.0
 43
0.0
 43
0.0
 43
0.0
 43
1.0
 77
     0
 47
0.0008202099737533
 47
0.0
 47
0.0
 47
0.0
 47
0.0
 47
0.0008202099737533
 47
0.0
 47
0.0
 47
0.0
 47
0.0
 47
1.0
 47
0.0
 47
0.0
 47
0.0
 47
0.0
 47
1.0
171
     0
 49
0.0008202099737533
 49
0.0
 49
0.0
 49
0.0
 49
0.0
 49
0.0008202099737533
 49
0.0
 49
0.0
 49
0.0
 49
0.0
 49
1.0
 49
0.0
 49
0.0
 49
0.0
 49
0.0
 49
1.0
175
     0
142
0.0008202099737533
142
0.0
142
0.0
142
0.0
142
0.0
142
0.0008202099737533
142
0.0
142
0.0
142
0.0
142
0.0
142
1.0
142
0.0
142
0.0
142
0.0
142
0.0
142
1.0
179
     0
144
0.0008202099737533
144
0.0
144
0.0
144
0.0
144
0.0
144
0.0008202099737533
144
0.0
144
0.0
144
0.0
144
0.0
144
1.0
144
0.0
144
0.0
144
0.0
144
0.0
144
1.0
147
0.0008202099737533
147
0.0
147
0.0
147
0.0
147
0.0
147
0.0008202099737533
147
0.0
147
0.0
147
0.0
147
0.0
147
1.0
147
0.0
147
0.0
147
0.0
147
0.0
147
1.0
  0
MATERIAL
  5
433E
102
{ACAD_XDICTIONARY
360
433F
102
}
102
{ACAD_REACTORS
330
433D
102
}
330
433D
100
AcDbMaterial
  1
ByLayer
 72
     0
 43
0.0008202099737533
 43
0.0
 43
0.0
 43
0.0
 43
0.0
 43
0.0008202099737533
 43
0.0
 43
0.0
 43
0.0
 43
0.0
 43
1.0
 43
0.0
 43
0.0
 43
0.0
 43
0.0
 43
1.0
 77
     0
 47
0.0008202099737533
 47
0.0
 47
0.0
 47
0.0
 47
0.0
 47
0.0008202099737533
 47
0.0
 47
0.0
 47
0.0
 47
0.0
 47
1.0
 47
0.0
 47
0.0
 47
0.0
 47
0.0
 47
1.0
171
     0
 49
0.0008202099737533
 49
0.0
 49
0.0
 49
0.0
 49
0.0
 49
0.0008202099737533
 49
0.0
 49
0.0
 49
0.0
 49
0.0
 49
1.0
 49
0.0
 49
0.0
 49
0.0
 49
0.0
 49
1.0
175
     0
142
0.0008202099737533
142
0.0
142
0.0
142
0.0
142
0.0
142
0.0008202099737533
142
0.0
142
0.0
142
0.0
142
0.0
142
1.0
142
0.0
142
0.0
142
0.0
142
0.0
142
1.0
179
     0
144
0.0008202099737533
144
0.0
144
0.0
144
0.0
144
0.0
144
0.0008202099737533
144
0.0
144
0.0
144
0.0
144
0.0
144
1.0
144
0.0
144
0.0
144
0.0
144
0.0
144
1.0
147
0.0008202099737533
147
0.0
147
0.0
147
0.0
147
0.0
147
0.0008202099737533
147
0.0
147
0.0
147
0.0
147
0.0
147
1.0
147
0.0
147
0.0
147
0.0
147
0.0
147
1.0
  0
MATERIAL
  5
434E
102
{ACAD_XDICTIONARY
360
434F
102
}
102
{ACAD_REACTORS
330
433D
102
}
330
433D
100
AcDbMaterial
  1
Global
 72
     0
 43
0.0008202099737533
 43
0.0
 43
0.0
 43
0.0
 43
0.0
 43
0.0008202099737533
 43
0.0
 43
0.0
 43
0.0
 43
0.0
 43
1.0
 43
0.0
 43
0.0
 43
0.0
 43
0.0
 43
1.0
 77
     0
 47
0.0008202099737533
 47
0.0
 47
0.0
 47
0.0
 47
0.0
 47
0.0008202099737533
 47
0.0
 47
0.0
 47
0.0
 47
0.0
 47
1.0
 47
0.0
 47
0.0
 47
0.0
 47
0.0
 47
1.0
171
     0
 49
0.0008202099737533
 49
0.0
 49
0.0
 49
0.0
 49
0.0
 49
0.0008202099737533
 49
0.0
 49
0.0
 49
0.0
 49
0.0
 49
1.0
 49
0.0
 49
0.0
 49
0.0
 49
0.0
 49
1.0
175
     0
142
0.0008202099737533
142
0.0
142
0.0
142
0.0
142
0.0
142
0.0008202099737533
142
0.0
142
0.0
142
0.0
142
0.0
142
1.0
142
0.0
142
0.0
142
0.0
142
0.0
142
1.0
179
     0
144
0.0008202099737533
144
0.0
144
0.0
144
0.0
144
0.0
144
0.0008202099737533
144
0.0
144
0.0
144
0.0
144
0.0
144
1.0
144
0.0
144
0.0
144
0.0
144
0.0
144
1.0
147
0.0008202099737533
147
0.0
147
0.0
147
0.0
147
0.0
147
0.0008202099737533
147
0.0
147
0.0
147
0.0
147
0.0
147
1.0
147
0.0
147
0.0
147
0.0
147
0.0
147
1.0
  0
MLEADERSTYLE
  5
4380
102
{ACAD_REACTORS
330
437F
102
}
330
437F
100
AcDbMLeaderStyle
170
     2
171
     1
172
     0
 90
        2
 40
0.0
 41
0.0
173
     1
 91
-1056964608
340
14
 92
       -2
290
     1
 42
2.0
291
     1
 43
0.36
  3
Standard
 44
4.0
300

342
11
174
     1
178
     6
175
     1
176
     0
 93
-1056964608
 45
4.0
292
     0
297
     0
 46
4.0
 94
-1056964608
 47
1.0
 49
1.0
140
1.0
293
     1
141
0.0
294
     1
177
     0
142
1.0
295
     0
296
     0
143
0.125
1001
ACAD_MLEADERVER
1070
     2
  0
MLINESTYLE
  5
18
102
{ACAD_REACTORS
330
17
102
}
330
17
100
AcDbMlineStyle
  2
STANDARD
 70
     0
  3

 62
   256
 51
90.0
 52
90.0
 71
     2
 49
0.5
 62
   256
  6
BYLAYER
 49
-0.5
 62
   256
  6
BYLAYER
  0
ACDBPLACEHOLDER
  5
F
102
{ACAD_REACTORS
330
E
102
}
330
E
  0
ACDBPLACEHOLDER
  5
29
102
{ACAD_REACTORS
330
E
102
}
330
E
  0
SCALE
  5
436E
102
{ACAD_REACTORS
330
436D
102
}
330
436D
100
AcDbScale
 70
     0
300
1:1
140
1.0
141
1.0
290
     1
  0
SCALE
  5
436F
102
{ACAD_REACTORS
330
436D
102
}
330
436D
100
AcDbScale
 70
     0
300
1:2
140
1.0
141
2.0
290
     0
  0
SCALE
  5
4370
102
{ACAD_REACTORS
330
436D
102
}
330
436D
100
AcDbScale
 70
     0
300
1:4
140
1.0
141
4.0
290
     0
  0
SCALE
  5
4371
102
{ACAD_REACTORS
330
436D
102
}
330
436D
100
AcDbScale
 70
     0
300
1:5
140
1.0
141
5.0
290
     0
  0
SCALE
  5
4372
102
{ACAD_REACTORS
330
436D
102
}
330
436D
100
AcDbScale
 70
     0
300
1:8
140
1.0
141
8.0
290
     0
  0
SCALE
  5
4373
102
{ACAD_REACTORS
330
436D
102
}
330
436D
100
AcDbScale
 70
     0
300
1:10
140
1.0
141
10.0
290
     0
  0
SCALE
  5
4374
102
{ACAD_REACTORS
330
436D
102
}
330
436D
100
AcDbScale
 70
     0
300
1:16
140
1.0
141
16.0
290
     0
  0
SCALE
  5
4375
102
{ACAD_REACTORS
330
436D
102
}
330
436D
100
AcDbScale
 70
     0
300
1:20
140
1.0
141
20.0
290
     0
  0
SCALE
  5
4376
102
{ACAD_REACTORS
330
436D
102
}
330
436D
100
AcDbScale
 70
     0
300
1:30
140
1.0
141
30.0
290
     0
  0
SCALE
  5
4377
102
{ACAD_REACTORS
330
436D
102
}
330
436D
100
AcDbScale
 70
     0
300
1:40
140
1.0
141
40.0
290
     0
  0
SCALE
  5
4378
102
{ACAD_REACTORS
330
436D
102
}
330
436D
100
AcDbScale
 70
     0
300
1:50
140
1.0
141
50.0
290
     0
  0
SCALE
  5
4379
102
{ACAD_REACTORS
330
436D
102
}
330
436D
100
AcDbScale
 70
     0
300
1:100
140
1.0
141
100.0
290
     0
  0
SCALE
  5
437A
102
{ACAD_REACTORS
330
436D
102
}
330
436D
100
AcDbScale
 70
     0
300
2:1
140
2.0
141
1.0
290
     0
  0
SCALE
  5
437B
102
{ACAD_REACTORS
330
436D
102
}
330
436D
100
AcDbScale
 70
     0
300
4:1
140
4.0
141
1.0
290
     0
  0
SCALE
  5
437C
102
{ACAD_REACTORS
330
436D
102
}
330
436D
100
AcDbScale
 70
     0
300
8:1
140
8.0
141
1.0
290
     0
  0
SCALE
  5
437D
102
{ACAD_REACTORS
330
436D
102
}
330
436D
100
AcDbScale
 70
     0
300
10:1
140
10.0
141
1.0
290
     0
  0
SCALE
  5
437E
102
{ACAD_REACTORS
330
436D
102
}
330
436D
100
AcDbScale
 70
     0
300
100:1
140
100.0
141
1.0
290
     0
  0
ACDBSECTIONVIEWSTYLE
  5
4767
102
{ACAD_XDICTIONARY
360
58F8
102
}
102
{ACAD_REACTORS
330
4766
102
}
330
4766
100
AcDbModelDocViewStyle
 70
     0
  3
Metric50
290
     0
100
AcDbSectionViewStyle
 70
     0
 71
     0
 90
      102
 71
     1
340
11
 40
5.0
340
0
340
0
 40
5.0
300
I, O, Q, S, X, Z
 40
10.0
 90
        0
 40
2.5
 90
        0
 71
     2
340
16
 90
       25
340
16
 90
       50
 40
5.0
 40
2.5
 40
5.0
 71
     3
340
11
 40
5.0
 90
        0
 40
15.0
 90
        1
300
%<\AcVar ViewSectionStartId>%-%<\AcVar ViewSectionEndId>% (%<\AcVar ViewScale \f "%sn">%)
 71
     4
300
ANSI31
 40
1.0
 90
        0
290
     0
290
     0
 90
        6
 40
0.0
 40
1.570796326794896
 40
0.2617993877991494
 40
1.308996938995747
 40
-0.2617993877991494
 40
1.832595714594046
1001
ACAD
1000
AcRTDxfName
1000
ACDBSECTIONVIEWSTYLE
1000
AcRTDxfName
1000
ACDBSECTIONVIEWSTYLE
  0
TABLESTYLE
  5
436C
102
{ACAD_XDICTIONARY
360
44F2
102
}
102
{ACAD_REACTORS
330
436B
102
}
330
436B
100
AcDbTableStyle
  3
Standard
 70
     0
 71
     0
 40
1.5
 41
1.5
280
     0
281
     0
  7
Standard
140
4.5
170
     2
 62
     0
 63
     7
283
     0
274
    -2
284
     1
 64
     0
275
    -2
285
     1
 65
     0
276
    -2
286
     1
 66
     0
277
    -2
287
     1
 67
     0
278
    -2
288
     1
 68
     0
279
    -2
289
     1
 69
     0
  7
Standard
140
6.0
170
     5
 62
     0
 63
     7
283
     0
274
    -2
284
     1
 64
     0
275
    -2
285
     1
 65
     0
276
    -2
286
     1
 66
     0
277
    -2
287
     1
 67
     0
278
    -2
288
     1
 68
     0
279
    -2
289
     1
 69
     0
  7
Standard
140
4.5
170
     5
 62
     0
 63
     7
283
     0
274
    -2
284
     1
 64
     0
275
    -2
285
     1
 65
     0
276
    -2
286
     1
 66
     0
277
    -2
287
     1
 67
     0
278
    -2
288
     1
 68
     0
279
    -2
289
     1
 69
     0
  0
VISUALSTYLE
  5
435C
102
{ACAD_XDICTIONARY
360
58CD
102
}
102
{ACAD_REACTORS
330
4356
102
}
330
4356
100
AcDbVisualStyle
  2
2dWireframe
 70
     4
 71
     0
 72
     2
 73
     0
 90
        0
 40
-0.6
 41
-30.0
 62
     5
 63
     7
 74
     1
 91
        4
 64
     7
 65
   257
 75
     1
175
     1
 42
1.0
 92
        0
 66
   257
 43
1.0
 76
     1
 77
     6
 78
     2
 67
     7
 79
     5
170
     0
171
     0
290
     0
174
     0
 93
        1
 44
0.0
173
     0
291
     0
 45
0.0
1001
ACAD
1000
AcDbSavedByObjectVersion
1070
     0
  0
VISUALSTYLE
  5
435E
102
{ACAD_XDICTIONARY
360
58D1
102
}
102
{ACAD_REACTORS
330
4356
102
}
330
4356
100
AcDbVisualStyle
  2
3D Hidden
 70
     6
 71
     1
 72
     2
 73
     2
 90
        0
 40
-0.6
 41
-30.0
 62
     5
 63
     7
 74
     2
 91
        2
 64
     7
 65
   257
 75
     2
175
     1
 42
179.0
 92
        0
 66
   257
 43
1.0
 76
     1
 77
     6
 78
     2
 67
     7
 79
     3
170
     0
171
     0
290
     0
174
     0
 93
        1
 44
0.0
173
     0
291
     0
 45
0.0
1001
ACAD
1000
AcDbSavedByObjectVersion
1070
     0
  0
VISUALSTYLE
  5
435D
102
{ACAD_XDICTIONARY
360
58CF
102
}
102
{ACAD_REACTORS
330
4356
102
}
330
4356
100
AcDbVisualStyle
  2
3dWireframe
 70
     5
 71
     0
 72
     2
 73
     0
 90
        0
 40
-0.6
 41
-30.0
 62
     5
 63
     7
 74
     1
 91
        4
 64
     7
 65
   257
 75
     1
175
     1
 42
1.0
 92
        0
 66
   257
 43
1.0
 76
     1
 77
     6
 78
     2
 67
     7
 79
     5
170
     0
171
     0
290
     0
174
     0
 93
        1
 44
0.0
173
     0
291
     0
 45
0.0
1001
ACAD
1000
AcDbSavedByObjectVersion
1070
     0
  0
VISUALSTYLE
  5
435B
102
{ACAD_XDICTIONARY
360
58CB
102
}
102
{ACAD_REACTORS
330
4356
102
}
330
4356
100
AcDbVisualStyle
  2
Basic
 70
     7
 71
     1
 72
     0
 73
     1
 90
        0
 40
-0.6
 41
-30.0
 62
     5
 63
     7
 74
     0
 91
        4
 64
     7
 65
   257
 75
     1
175
     1
 42
1.0
 92
        8
 66
     7
 43
1.0
 76
     1
 77
     6
 78
     2
 67
     7
 79
     5
170
     0
171
     0
290
     0
174
     0
 93
        1
 44
0.0
173
     0
291
     1
 45
0.0
1001
ACAD
1000
AcDbSavedByObjectVersion
1070
     0
  0
VISUALSTYLE
  5
4362
102
{ACAD_XDICTIONARY
360
58D9
102
}
102
{ACAD_REACTORS
330
4356
102
}
330
4356
100
AcDbVisualStyle
  2
Brighten
 70
    12
 71
     2
 72
     2
 73
     0
 90
        0
 40
-0.6
 41
-30.0
 62
     5
 63
     7
 74
     1
 91
        4
 64
     7
 65
   257
 75
     1
175
     1
 42
1.0
 92
        8
 66
     7
 43
1.0
 76
     1
 77
     6
 78
     2
 67
     7
 79
     5
170
     0
171
     0
290
     0
174
     0
 93
        1
 44
50.0
173
     0
291
     1
 45
0.0
1001
ACAD
1000
AcDbSavedByObjectVersion
1070
     0
  0
VISUALSTYLE
  5
4366
102
{ACAD_XDICTIONARY
360
58E1
102
}
102
{ACAD_REACTORS
330
4356
102
}
330
4356
100
AcDbVisualStyle
  2
ColorChange
 70
    16
 71
     2
 72
     2
 73
     3
 90
        0
 40
-0.6
 41
-30.0
 62
     5
 63
     8
 74
     1
 91
        4
 64
     7
 65
   257
 75
     1
175
     1
 42
1.0
 92
        8
 66
     8
 43
1.0
 76
     1
 77
     6
 78
     2
 67
     7
 79
     5
170
     0
171
     0
290
     0
174
     0
 93
        1
 44
0.0
173
     0
291
     1
 45
0.0
1001
ACAD
1000
AcDbSavedByObjectVersion
1070
     0
  0
VISUALSTYLE
  5
435F
102
{ACAD_XDICTIONARY
360
58D3
102
}
102
{ACAD_REACTORS
330
4356
102
}
330
4356
100
AcDbVisualStyle
  2
Conceptual
 70
     9
 71
     3
 72
     2
 73
     0
 90
        0
 40
-0.6
 41
-30.0
 62
     5
 63
     7
 74
     2
 91
        2
 64
     7
 65
   257
 75
     1
175
     1
 42
179.0
 92
        8
 66
     7
 43
1.0
 76
     1
 77
     6
 78
     2
 67
     7
 79
     3
170
     0
171
     0
290
     0
174
     0
 93
        1
 44
0.0
173
     0
291
     0
 45
0.0
1001
ACAD
1000
AcDbSavedByObjectVersion
1070
     0
  0
VISUALSTYLE
  5
4361
102
{ACAD_XDICTIONARY
360
58D7
102
}
102
{ACAD_REACTORS
330
4356
102
}
330
4356
100
AcDbVisualStyle
  2
Dim
 70
    11
 71
     2
 72
     2
 73
     0
 90
        0
 40
-0.6
 41
-30.0
 62
     5
 63
     7
 74
     1
 91
        4
 64
     7
 65
   257
 75
     1
175
     1
 42
1.0
 92
        8
 66
     7
 43
1.0
 76
     1
 77
     6
 78
     2
 67
     7
 79
     5
170
     0
171
     0
290
     0
174
     0
 93
        1
 44
-50.0
173
     0
291
     1
 45
0.0
1001
ACAD
1000
AcDbSavedByObjectVersion
1070
     0
  0
VISUALSTYLE
  5
4369
102
{ACAD_XDICTIONARY
360
58E7
102
}
102
{ACAD_REACTORS
330
4356
102
}
330
4356
100
AcDbVisualStyle
  2
EdgeColorOff
 70
    22
 71
     2
 72
     2
 73
     0
 90
        0
 40
-0.6
 41
-30.0
 62
     5
 63
     7
 74
     1
 91
        4
 64
     7
 65
   257
 75
     1
175
     1
 42
1.0
 92
        8
 66
     7
 43
1.0
 76
     1
 77
     6
 78
     2
 67
     7
 79
     5
170
     0
171
     0
290
     0
174
     0
 93
        1
 44
0.0
173
     0
291
     1
 45
0.0
1001
ACAD
1000
AcDbSavedByObjectVersion
1070
     0
  0
VISUALSTYLE
  5
4365
102
{ACAD_XDICTIONARY
360
58DF
102
}
102
{ACAD_REACTORS
330
4356
102
}
330
4356
100
AcDbVisualStyle
  2
Facepattern
 70
    15
 71
     2
 72
     2
 73
     0
 90
        0
 40
-0.6
 41
-30.0
 62
     5
 63
     7
 74
     1
 91
        4
 64
     7
 65
   257
 75
     1
175
     1
 42
1.0
 92
        8
 66
     7
 43
1.0
 76
     1
 77
     6
 78
     2
 67
     7
 79
     5
170
     0
171
     0
290
     0
174
     0
 93
        1
 44
0.0
173
     0
291
     1
 45
0.0
1001
ACAD
1000
AcDbSavedByObjectVersion
1070
     0
  0
VISUALSTYLE
  5
4357
102
{ACAD_XDICTIONARY
360
58C3
102
}
102
{ACAD_REACTORS
330
4356
102
}
330
4356
100
AcDbVisualStyle
  2
Flat
 70
     0
 71
     2
 72
     1
 73
     1
 90
        2
 40
-0.6
 41
30.0
 62
     5
 63
     7
 74
     0
 91
        4
 64
     7
 65
   257
 75
     1
175
     1
 42
1.0
 92
        8
 66
     7
 43
1.0
 76
     1
 77
     6
 78
     2
 67
     7
 79
     5
170
     0
171
     0
290
     0
174
     0
 93
       13
 44
0.0
173
     0
291
     1
 45
0.0
1001
ACAD
1000
AcDbSavedByObjectVersion
1070
     0
  0
VISUALSTYLE
  5
4358
102
{ACAD_XDICTIONARY
360
58C5
102
}
102
{ACAD_REACTORS
330
4356
102
}
330
4356
100
AcDbVisualStyle
  2
FlatWithEdges
 70
     1
 71
     2
 72
     1
 73
     1
 90
        2
 40
-0.6
 41
30.0
 62
     5
 63
     7
 74
     1
 91
        4
 64
     7
 65
   257
 75
     1
175
     1
 42
1.0
 92
        0
 66
   257
 43
1.0
 76
     1
 77
     6
 78
     2
 67
     7
 79
     5
170
     0
171
     0
290
     0
174
     0
 93
       13
 44
0.0
173
     0
291
     1
 45
0.0
1001
ACAD
1000
AcDbSavedByObjectVersion
1070
     0
  0
VISUALSTYLE
  5
4359
102
{ACAD_XDICTIONARY
360
58C7
102
}
102
{ACAD_REACTORS
330
4356
102
}
330
4356
100
AcDbVisualStyle
  2
Gouraud
 70
     2
 71
     2
 72
     2
 73
     1
 90
        2
 40
-0.6
 41
30.0
 62
     5
 63
     7
 74
     0
 91
        4
 64
     7
 65
   257
 75
     1
175
     1
 42
1.0
 92
        0
 66
     7
 43
1.0
 76
     1
 77
     6
 78
     2
 67
     7
 79
     5
170
     0
171
     0
290
     0
174
     0
 93
       13
 44
0.0
173
     0
291
     1
 45
0.0
1001
ACAD
1000
AcDbSavedByObjectVersion
1070
     0
  0
VISUALSTYLE
  5
435A
102
{ACAD_XDICTIONARY
360
58C9
102
}
102
{ACAD_REACTORS
330
4356
102
}
330
4356
100
AcDbVisualStyle
  2
GouraudWithEdges
 70
     3
 71
     2
 72
     2
 73
     1
 90
        2
 40
-0.6
 41
30.0
 62
     5
 63
     7
 74
     1
 91
        4
 64
     7
 65
   257
 75
     1
175
     1
 42
1.0
 92
        0
 66
   257
 43
1.0
 76
     1
 77
     6
 78
     2
 67
     7
 79
     5
170
     0
171
     0
290
     0
174
     0
 93
       13
 44
0.0
173
     0
291
     1
 45
0.0
1001
ACAD
1000
AcDbSavedByObjectVersion
1070
     0
  0
VISUALSTYLE
  5
4760
102
{ACAD_XDICTIONARY
360
58EC
102
}
102
{ACAD_REACTORS
330
4356
102
}
330
4356
100
AcDbVisualStyle
  2
Hidden
 70
     6
 71
     1
 72
     2
 73
     2
 90
        0
 40
-0.6
 41
-30.0
 62
     5
 63
     7
 74
     2
 91
        2
 64
     7
 65
   257
 75
     2
175
     1
 42
40.0
 92
        0
 66
   257
 43
1.0
 76
     1
 77
     6
 78
     2
 67
     7
 79
     3
170
     0
171
     0
290
     0
174
     0
 93
        1
 44
0.0
173
     0
291
     0
 45
0.0
1001
ACAD
1000
AcDbSavedByObjectVersion
1070
     0
  0
VISUALSTYLE
  5
4367
102
{ACAD_XDICTIONARY
360
58E3
102
}
102
{ACAD_REACTORS
330
4356
102
}
330
4356
100
AcDbVisualStyle
  2
JitterOff
 70
    20
 71
     2
 72
     2
 73
     0
 90
        0
 40
-0.6
 41
-30.0
 62
     5
 63
     7
 74
     1
 91
        4
 64
     7
 65
   257
 75
     1
175
     1
 42
1.0
 92
       10
 66
     7
 43
1.0
 76
     1
 77
     6
 78
     2
 67
     7
 79
     5
170
     0
171
     0
290
     0
174
     0
 93
        1
 44
0.0
173
     0
291
     1
 45
0.0
1001
ACAD
1000
AcDbSavedByObjectVersion
1070
     0
  0
VISUALSTYLE
  5
4364
102
{ACAD_XDICTIONARY
360
58DD
102
}
102
{ACAD_REACTORS
330
4356
102
}
330
4356
100
AcDbVisualStyle
  2
Linepattern
 70
    14
 71
     2
 72
     2
 73
     0
 90
        0
 40
-0.6
 41
-30.0
 62
     5
 63
     7
 74
     1
 91
        4
 64
     7
 65
   257
 75
     7
175
     7
 42
1.0
 92
        8
 66
     7
 43
1.0
 76
     1
 77
     6
 78
     2
 67
     7
 79
     5
170
     0
171
     0
290
     0
174
     0
 93
        1
 44
0.0
173
     0
291
     1
 45
0.0
1001
ACAD
1000
AcDbSavedByObjectVersion
1070
     0
  0
VISUALSTYLE
  5
4368
102
{ACAD_XDICTIONARY
360
58E5
102
}
102
{ACAD_REACTORS
330
4356
102
}
330
4356
100
AcDbVisualStyle
  2
OverhangOff
 70
    21
 71
     2
 72
     2
 73
     0
 90
        0
 40
-0.6
 41
-30.0
 62
     5
 63
     7
 74
     1
 91
        4
 64
     7
 65
   257
 75
     1
175
     1
 42
1.0
 92
        9
 66
     7
 43
1.0
 76
     1
 77
     6
 78
     2
 67
     7
 79
     5
170
     0
171
     0
290
     0
174
     0
 93
        1
 44
0.0
173
     0
291
     1
 45
0.0
1001
ACAD
1000
AcDbSavedByObjectVersion
1070
     0
  0
VISUALSTYLE
  5
4360
102
{ACAD_XDICTIONARY
360
58D5
102
}
102
{ACAD_REACTORS
330
4356
102
}
330
4356
100
AcDbVisualStyle
  2
Realistic
 70
     8
 71
     2
 72
     2
 73
     0
 90
        0
 40
-0.6
 41
-30.0
 62
     5
 63
     7
 74
     1
 91
        0
 64
     7
 65
   257
 75
     1
175
     1
 42
1.0
 92
        8
 66
     8
 43
1.0
 76
     1
 77
     6
 78
     2
 67
     7
 79
     5
170
     0
171
     0
290
     0
174
     0
 93
       13
 44
0.0
173
     0
291
     0
 45
0.0
1001
ACAD
1000
AcDbSavedByObjectVersion
1070
     0
  0
VISUALSTYLE
  5
4765
102
{ACAD_XDICTIONARY
360
58F6
102
}
102
{ACAD_REACTORS
330
4356
102
}
330
4356
100
AcDbVisualStyle
  2
Shaded
 70
    27
 71
     2
 72
     2
 73
     1
 90
        2
 40
-0.6
 41
30.0
 62
     5
 63
     7
 74
     0
 91
        4
 64
     7
 65
   257
 75
     1
175
     1
 42
1.0
 92
        8
 66
   257
 43
1.0
 76
     1
 77
     6
 78
     2
 67
     8
 79
     3
170
     0
171
     0
290
     0
174
     0
 93
        5
 44
0.0
173
     0
291
     0
 45
0.0
1001
ACAD
1000
AcDbSavedByObjectVersion
1070
     0
  0
VISUALSTYLE
  5
4764
102
{ACAD_XDICTIONARY
360
58F4
102
}
102
{ACAD_REACTORS
330
4356
102
}
330
4356
100
AcDbVisualStyle
  2
Shaded with edges
 70
    26
 71
     2
 72
     2
 73
     1
 90
        2
 40
-0.6
 41
30.0
 62
     5
 63
     7
 74
     1
 91
        2
 64
     7
 65
   257
 75
     2
175
     1
 42
1.0
 92
        8
 66
   257
 43
1.0
 76
     1
 77
     6
 78
     2
 67
     7
 79
     3
170
     0
171
     0
290
     0
174
     0
 93
        5
 44
0.0
173
     0
291
     0
 45
0.0
1001
ACAD
1000
AcDbSavedByObjectVersion
1070
     0
  0
VISUALSTYLE
  5
4761
102
{ACAD_XDICTIONARY
360
58EE
102
}
102
{ACAD_REACTORS
330
4356
102
}
330
4356
100
AcDbVisualStyle
  2
Shades of Gray
 70
    23
 71
     2
 72
     2
 73
     3
 90
        0
 40
-0.6
 41
-30.0
 62
     5
 63
     7
 74
     2
 91
        2
 64
     7
 65
     7
 75
     1
175
     1
 42
40.0
 92
        8
 66
     7
 43
1.0
 76
     1
 77
     6
 78
     2
 67
     7
 79
     3
170
     0
171
     0
290
     0
174
     0
 93
        1
 44
0.0
173
     0
291
     0
 45
0.0
1001
ACAD
1000
AcDbSavedByObjectVersion
1070
     0
  0
VISUALSTYLE
  5
4762
102
{ACAD_XDICTIONARY
360
58F0
102
}
102
{ACAD_REACTORS
330
4356
102
}
330
4356
100
AcDbVisualStyle
  2
Sketchy
 70
    24
 71
     1
 72
     2
 73
     2
 90
        0
 40
-0.6
 41
-30.0
 62
     5
 63
     7
 74
     2
 91
        2
 64
     7
 65
     7
 75
     1
175
     1
 42
40.0
 92
       11
 66
     7
 43
1.0
 76
     1
 77
     6
 78
     2
 67
     7
 79
     6
170
     0
171
     0
290
     0
174
     0
 93
        1
 44
0.0
173
     0
291
     0
 45
0.0
1001
ACAD
1000
AcDbSavedByObjectVersion
1070
     0
  0
VISUALSTYLE
  5
4363
102
{ACAD_XDICTIONARY
360
58DB
102
}
102
{ACAD_REACTORS
330
4356
102
}
330
4356
100
AcDbVisualStyle
  2
Thicken
 70
    13
 71
     2
 72
     2
 73
     0
 90
        0
 40
-0.6
 41
-30.0
 62
     5
 63
     7
 74
     1
 91
        4
 64
     7
 65
   257
 75
     1
175
     1
 42
1.0
 92
       12
 66
     7
 43
1.0
 76
     1
 77
     6
 78
     2
 67
     7
 79
     5
170
     0
171
     0
290
     0
174
     0
 93
        1
 44
0.0
173
     0
291
     1
 45
0.0
1001
ACAD
1000
AcDbSavedByObjectVersion
1070
     0
  0
VISUALSTYLE
  5
475F
102
{ACAD_XDICTIONARY
360
58EA
102
}
102
{ACAD_REACTORS
330
4356
102
}
330
4356
100
AcDbVisualStyle
  2
Wireframe
 70
     5
 71
     0
 72
     2
 73
     0
 90
        0
 40
-0.6
 41
-30.0
 62
     5
 63
     7
 74
     1
 91
        4
 64
     7
 65
   257
 75
     1
175
     1
 42
1.0
 92
        0
 66
   257
 43
1.0
 76
     1
 77
     6
 78
     2
 67
     7
 79
     3
170
     0
171
     0
290
     0
174
     0
 93
        1
 44
0.0
173
     0
291
     0
 45
0.0
1001
ACAD
1000
AcDbSavedByObjectVersion
1070
     0
  0
VISUALSTYLE
  5
4763
102
{ACAD_XDICTIONARY
360
58F2
102
}
102
{ACAD_REACTORS
330
4356
102
}
330
4356
100
AcDbVisualStyle
  2
X-Ray
 70
    25
 71
     2
 72
     2
 73
     1
 90
        1
 40
0.5
 41
-30.0
 62
     5
 63
     7
 74
     1
 91
        0
 64
     7
 65
   257
 75
     1
175
     1
 42
1.0
 92
        8
 66
     7
 43
1.0
 76
     1
 77
     6
 78
     2
 67
     7
 79
     3
170
     0
171
     0
290
     0
174
     0
 93
       13
 44
0.0
173
     0
291
     0
 45
0.0
1001
ACAD
1000
AcDbSavedByObjectVersion
1070
     0
  0
DICTIONARYVAR
  5
4528
102
{ACAD_REACTORS
330
1835
102
}
330
1835
100
DictionaryVariables
280
     0
  1
1:1
  0
DICTIONARYVAR
  5
4527
102
{ACAD_REACTORS
330
1835
102
}
330
1835
100
DictionaryVariables
280
     0
  1
STANDARD
  0
DICTIONARYVAR
  5
4526
102
{ACAD_REACTORS
330
1835
102
}
330
1835
100
DictionaryVariables
280
     0
  1
STANDARD
  0
DICTIONARYVAR
  5
47B7
102
{ACAD_REACTORS
330
1835
102
}
330
1835
100
DictionaryVariables
280
     0
  1
Metric50
  0
DICTIONARYVAR
  5
47B8
102
{ACAD_REACTORS
330
1835
102
}
330
1835
100
DictionaryVariables
280
     0
  1
Metric50
  0
DICTIONARYVAR
  5
452A
102
{ACAD_REACTORS
330
1835
102
}
330
1835
100
DictionaryVariables
280
     0
  1
1
  0
DICTIONARYVAR
  5
4529
102
{ACAD_REACTORS
330
1835
102
}
330
1835
100
DictionaryVariables
280
     0
  1
0
  0
DICTIONARYVAR
  5
1836
102
{ACAD_REACTORS
330
1835
102
}
330
1835
100
DictionaryVariables
280
     0
  1
127
  0
DICTIONARYVAR
  5
58B8
102
{ACAD_REACTORS
330
1835
102
}
330
1835
100
DictionaryVariables
280
     0
  1
2
  0
DICTIONARY
  5
58FA
330
4769
100
AcDbDictionary
280
     1
281
     1
  3
ACAD_XREC_ROUNDTRIP
360
58FB
  0
DICTIONARY
  5
58BC
330
22
100
AcDbDictionary
280
     1
281
     1
  3
ACAD_XREC_ROUNDTRIP
360
58BD
  0
DICTIONARY
  5
58BE
330
1CD1
100
AcDbDictionary
280
     1
281
     1
  3
ACAD_XREC_ROUNDTRIP
360
58BF
  0
DICTIONARY
  5
4347
330
4346
100
AcDbDictionary
280
     1
281
     1
  3
ACAD_XREC_ROUNDTRIP
360
58C1
  3
BUMPTILE
360
4349
  3
DIFFUSETILE
360
4348
  3
OPACITYTILE
360
434C
  3
REFLECTIONTILE
360
434B
  3
REFRACTIONTILE
360
434D
  3
SPECULARTILE
360
434A
  0
DICTIONARY
  5
433F
330
433E
100
AcDbDictionary
280
     1
281
     1
  3
ACAD_XREC_ROUNDTRIP
360
58C0
  3
BUMPTILE
360
4341
  3
DIFFUSETILE
360
4340
  3
OPACITYTILE
360
4344
  3
REFLECTIONTILE
360
4343
  3
REFRACTIONTILE
360
4345
  3
SPECULARTILE
360
4342
  0
DICTIONARY
  5
434F
330
434E
100
AcDbDictionary
280
     1
281
     1
  3
ACAD_XREC_ROUNDTRIP
360
58C2
  3
BUMPTILE
360
4351
  3
DIFFUSETILE
360
4350
  3
OPACITYTILE
360
4354
  3
REFLECTIONTILE
360
4353
  3
REFRACTIONTILE
360
4355
  3
SPECULARTILE
360
4352
  0
DICTIONARY
  5
58F8
330
4767
100
AcDbDictionary
280
     1
281
     1
  3
ACAD_XREC_ROUNDTRIP
360
58F9
  0
DICTIONARY
  5
44F2
330
436C
100
AcDbDictionary
280
     1
281
     1
  3
ACAD_ROUNDTRIP_2008_TABLESTYLE_CELLSTYLEMAP
360
58B9
  3
ACAD_XREC_ROUNDTRIP
360
58E9
  0
DICTIONARY
  5
58CD
330
435C
100
AcDbDictionary
280
     1
281
     1
  3
ACAD_XREC_ROUNDTRIP
360
58CE
  0
DICTIONARY
  5
58D1
330
435E
100
AcDbDictionary
280
     1
281
     1
  3
ACAD_XREC_ROUNDTRIP
360
58D2
  0
DICTIONARY
  5
58CF
330
435D
100
AcDbDictionary
280
     1
281
     1
  3
ACAD_XREC_ROUNDTRIP
360
58D0
  0
DICTIONARY
  5
58CB
330
435B
100
AcDbDictionary
280
     1
281
     1
  3
ACAD_XREC_ROUNDTRIP
360
58CC
  0
DICTIONARY
  5
58D9
330
4362
100
AcDbDictionary
280
     1
281
     1
  3
ACAD_XREC_ROUNDTRIP
360
58DA
  0
DICTIONARY
  5
58E1
330
4366
100
AcDbDictionary
280
     1
281
     1
  3
ACAD_XREC_ROUNDTRIP
360
58E2
  0
DICTIONARY
  5
58D3
330
435F
100
AcDbDictionary
280
     1
281
     1
  3
ACAD_XREC_ROUNDTRIP
360
58D4
  0
DICTIONARY
  5
58D7
330
4361
100
AcDbDictionary
280
     1
281
     1
  3
ACAD_XREC_ROUNDTRIP
360
58D8
  0
DICTIONARY
  5
58E7
330
4369
100
AcDbDictionary
280
     1
281
     1
  3
ACAD_XREC_ROUNDTRIP
360
58E8
  0
DICTIONARY
  5
58DF
330
4365
100
AcDbDictionary
280
     1
281
     1
  3
ACAD_XREC_ROUNDTRIP
360
58E0
  0
DICTIONARY
  5
58C3
330
4357
100
AcDbDictionary
280
     1
281
     1
  3
ACAD_XREC_ROUNDTRIP
360
58C4
  0
DICTIONARY
  5
58C5
330
4358
100
AcDbDictionary
280
     1
281
     1
  3
ACAD_XREC_ROUNDTRIP
360
58C6
  0
DICTIONARY
  5
58C7
330
4359
100
AcDbDictionary
280
     1
281
     1
  3
ACAD_XREC_ROUNDTRIP
360
58C8
  0
DICTIONARY
  5
58C9
330
435A
100
AcDbDictionary
280
     1
281
     1
  3
ACAD_XREC_ROUNDTRIP
360
58CA
  0
DICTIONARY
  5
58EC
330
4760
100
AcDbDictionary
280
     1
281
     1
  3
ACAD_XREC_ROUNDTRIP
360
58ED
  0
DICTIONARY
  5
58E3
330
4367
100
AcDbDictionary
280
     1
281
     1
  3
ACAD_XREC_ROUNDTRIP
360
58E4
  0
DICTIONARY
  5
58DD
330
4364
100
AcDbDictionary
280
     1
281
     1
  3
ACAD_XREC_ROUNDTRIP
360
58DE
  0
DICTIONARY
  5
58E5
330
4368
100
AcDbDictionary
280
     1
281
     1
  3
ACAD_XREC_ROUNDTRIP
360
58E6
  0
DICTIONARY
  5
58D5
330
4360
100
AcDbDictionary
280
     1
281
     1
  3
ACAD_XREC_ROUNDTRIP
360
58D6
  0
DICTIONARY
  5
58F6
330
4765
100
AcDbDictionary
280
     1
281
     1
  3
ACAD_XREC_ROUNDTRIP
360
58F7
  0
DICTIONARY
  5
58F4
330
4764
100
AcDbDictionary
280
     1
281
     1
  3
ACAD_XREC_ROUNDTRIP
360
58F5
  0
DICTIONARY
  5
58EE
330
4761
100
AcDbDictionary
280
     1
281
     1
  3
ACAD_XREC_ROUNDTRIP
360
58EF
  0
DICTIONARY
  5
58F0
330
4762
100
AcDbDictionary
280
     1
281
     1
  3
ACAD_XREC_ROUNDTRIP
360
58F1
  0
DICTIONARY
  5
58DB
330
4363
100
AcDbDictionary
280
     1
281
     1
  3
ACAD_XREC_ROUNDTRIP
360
58DC
  0
DICTIONARY
  5
58EA
330
475F
100
AcDbDictionary
280
     1
281
     1
  3
ACAD_XREC_ROUNDTRIP
360
58EB
  0
DICTIONARY
  5
58F2
330
4763
100
AcDbDictionary
280
     1
281
     1
  3
ACAD_XREC_ROUNDTRIP
360
58F3
  0
XRECORD
  5
58FB
102
{ACAD_REACTORS
330
58FA
102
}
330
58FA
100
AcDbXrecord
280
     1
102
DISPLAYNAME
  1
Metric50
102
FLAGS
 90
        0
  0
XRECORD
  5
58BD
102
{ACAD_REACTORS
330
58BC
102
}
330
58BC
100
AcDbXrecord
280
     1
102
SHADEPLOT
 70
     0
102
SHADEPLOTRESLEVEL
 70
     2
102
SHADEPLOTCUSTOMDPI
 70
   300
  0
XRECORD
  5
58BF
102
{ACAD_REACTORS
330
58BE
102
}
330
58BE
100
AcDbXrecord
280
     1
102
SHADEPLOT
 70
     0
102
SHADEPLOTRESLEVEL
 70
     2
102
SHADEPLOTCUSTOMDPI
 70
   300
  0
XRECORD
  5
58C1
102
{ACAD_REACTORS
330
4347
102
}
330
4347
100
AcDbXrecord
280
     1
102
MATERIAL
148
0.0
149
0.0
149
0.0
 93
        0
 94
      127
282
     0
 72
     0
 77
     0
171
     0
175
     0
179
     0
273
     0
  0
XRECORD
  5
4349
102
{ACAD_REACTORS
330
4347
102
}
330
4347
100
AcDbXrecord
280
     1
270
     1
271
     1
  0
XRECORD
  5
4348
102
{ACAD_REACTORS
330
4347
102
}
330
4347
100
AcDbXrecord
280
     1
270
     1
271
     1
  0
XRECORD
  5
434C
102
{ACAD_REACTORS
330
4347
102
}
330
4347
100
AcDbXrecord
280
     1
270
     1
271
     1
  0
XRECORD
  5
434B
102
{ACAD_REACTORS
330
4347
102
}
330
4347
100
AcDbXrecord
280
     1
270
     1
271
     1
  0
XRECORD
  5
434D
102
{ACAD_REACTORS
330
4347
102
}
330
4347
100
AcDbXrecord
280
     1
270
     1
271
     1
  0
XRECORD
  5
434A
102
{ACAD_REACTORS
330
4347
102
}
330
4347
100
AcDbXrecord
280
     1
270
     1
271
     1
  0
XRECORD
  5
58C0
102
{ACAD_REACTORS
330
433F
102
}
330
433F
100
AcDbXrecord
280
     1
102
MATERIAL
148
0.0
149
0.0
149
0.0
 93
        0
 94
      127
282
     0
 72
     0
 77
     0
171
     0
175
     0
179
     0
273
     0
  0
XRECORD
  5
4341
102
{ACAD_REACTORS
330
433F
102
}
330
433F
100
AcDbXrecord
280
     1
270
     1
271
     1
  0
XRECORD
  5
4340
102
{ACAD_REACTORS
330
433F
102
}
330
433F
100
AcDbXrecord
280
     1
270
     1
271
     1
  0
XRECORD
  5
4344
102
{ACAD_REACTORS
330
433F
102
}
330
433F
100
AcDbXrecord
280
     1
270
     1
271
     1
  0
XRECORD
  5
4343
102
{ACAD_REACTORS
330
433F
102
}
330
433F
100
AcDbXrecord
280
     1
270
     1
271
     1
  0
XRECORD
  5
4345
102
{ACAD_REACTORS
330
433F
102
}
330
433F
100
AcDbXrecord
280
     1
270
     1
271
     1
  0
XRECORD
  5
4342
102
{ACAD_REACTORS
330
433F
102
}
330
433F
100
AcDbXrecord
280
     1
270
     1
271
     1
  0
XRECORD
  5
58C2
102
{ACAD_REACTORS
330
434F
102
}
330
434F
100
AcDbXrecord
280
     1
102
MATERIAL
148
0.0
149
0.0
149
0.0
 93
        0
 94
      127
282
     0
 72
     0
 77
     0
171
     0
175
     0
179
     0
273
     0
  0
XRECORD
  5
4351
102
{ACAD_REACTORS
330
434F
102
}
330
434F
100
AcDbXrecord
280
     1
270
     1
271
     1
  0
XRECORD
  5
4350
102
{ACAD_REACTORS
330
434F
102
}
330
434F
100
AcDbXrecord
280
     1
270
     1
271
     1
  0
XRECORD
  5
4354
102
{ACAD_REACTORS
330
434F
102
}
330
434F
100
AcDbXrecord
280
     1
270
     1
271
     1
  0
XRECORD
  5
4353
102
{ACAD_REACTORS
330
434F
102
}
330
434F
100
AcDbXrecord
280
     1
270
     1
271
     1
  0
XRECORD
  5
4355
102
{ACAD_REACTORS
330
434F
102
}
330
434F
100
AcDbXrecord
280
     1
270
     1
271
     1
  0
XRECORD
  5
4352
102
{ACAD_REACTORS
330
434F
102
}
330
434F
100
AcDbXrecord
280
     1
270
     1
271
     1
  0
XRECORD
  5
58F9
102
{ACAD_REACTORS
330
58F8
102
}
330
58F8
100
AcDbXrecord
280
     1
102
DISPLAYNAME
  1
Metric50
102
FLAGS
 90
        0
  0
CELLSTYLEMAP
  5
58B9
102
{ACAD_REACTORS
330
44F2
102
}
330
44F2
100
AcDbCellStyleMap
 90
        3
300
CELLSTYLE
  1
TABLEFORMAT_BEGIN
 90
        5
170
     1
 91
        0
 92
    32768
 62
   257
 93
        1
300
CONTENTFORMAT
  1
CONTENTFORMAT_BEGIN
 90
        0
 91
        0
 92
      512
 93
        0
300

 40
0.0
140
1.0
 94
        5
 62
     0
340
11
144
6.0
309
CONTENTFORMAT_END
171
     1
301
MARGIN
  1
CELLMARGIN_BEGIN
 40
1.5
 40
1.5
 40
1.5
 40
1.5
 40
4.5
 40
4.5
309
CELLMARGIN_END
 94
        6
 95
        1
302
GRIDFORMAT
  1
GRIDFORMAT_BEGIN
 90
        0
 91
        1
 62
     0
 92
       -2
340
0
 93
        0
 40
1.125
309
GRIDFORMAT_END
 95
        2
302
GRIDFORMAT
  1
GRIDFORMAT_BEGIN
 90
        0
 91
        1
 62
     0
 92
       -2
340
0
 93
        0
 40
1.125
309
GRIDFORMAT_END
 95
        4
302
GRIDFORMAT
  1
GRIDFORMAT_BEGIN
 90
        0
 91
        1
 62
     0
 92
       -2
340
0
 93
        0
 40
1.125
309
GRIDFORMAT_END
 95
        8
302
GRIDFORMAT
  1
GRIDFORMAT_BEGIN
 90
        0
 91
        1
 62
     0
 92
       -2
340
0
 93
        0
 40
1.125
309
GRIDFORMAT_END
 95
       16
302
GRIDFORMAT
  1
GRIDFORMAT_BEGIN
 90
        0
 91
        1
 62
     0
 92
       -2
340
0
 93
        0
 40
1.125
309
GRIDFORMAT_END
 95
       32
302
GRIDFORMAT
  1
GRIDFORMAT_BEGIN
 90
        0
 91
        1
 62
     0
 92
       -2
340
0
 93
        0
 40
1.125
309
GRIDFORMAT_END
309
TABLEFORMAT_END
  1
CELLSTYLE_BEGIN
 90
        1
 91
        1
300
_TITLE
309
CELLSTYLE_END
300
CELLSTYLE
  1
TABLEFORMAT_BEGIN
 90
        5
170
     1
 91
        0
 92
        0
 62
   257
 93
        1
300
CONTENTFORMAT
  1
CONTENTFORMAT_BEGIN
 90
        0
 91
        0
 92
      512
 93
        0
300

 40
0.0
140
1.0
 94
        5
 62
     0
340
11
144
4.5
309
CONTENTFORMAT_END
171
     1
301
MARGIN
  1
CELLMARGIN_BEGIN
 40
1.5
 40
1.5
 40
1.5
 40
1.5
 40
4.5
 40
4.5
309
CELLMARGIN_END
 94
        6
 95
        1
302
GRIDFORMAT
  1
GRIDFORMAT_BEGIN
 90
        0
 91
        1
 62
     0
 92
       -2
340
0
 93
        0
 40
1.125
309
GRIDFORMAT_END
 95
        2
302
GRIDFORMAT
  1
GRIDFORMAT_BEGIN
 90
        0
 91
        1
 62
     0
 92
       -2
340
0
 93
        0
 40
1.125
309
GRIDFORMAT_END
 95
        4
302
GRIDFORMAT
  1
GRIDFORMAT_BEGIN
 90
        0
 91
        1
 62
     0
 92
       -2
340
0
 93
        0
 40
1.125
309
GRIDFORMAT_END
 95
        8
302
GRIDFORMAT
  1
GRIDFORMAT_BEGIN
 90
        0
 91
        1
 62
     0
 92
       -2
340
0
 93
        0
 40
1.125
309
GRIDFORMAT_END
 95
       16
302
GRIDFORMAT
  1
GRIDFORMAT_BEGIN
 90
        0
 91
        1
 62
     0
 92
       -2
340
0
 93
        0
 40
1.125
309
GRIDFORMAT_END
 95
       32
302
GRIDFORMAT
  1
GRIDFORMAT_BEGIN
 90
        0
 91
        1
 62
     0
 92
       -2
340
0
 93
        0
 40
1.125
309
GRIDFORMAT_END
309
TABLEFORMAT_END
  1
CELLSTYLE_BEGIN
 90
        2
 91
        1
300
_HEADER
309
CELLSTYLE_END
300
CELLSTYLE
  1
TABLEFORMAT_BEGIN
 90
        5
170
     1
 91
        0
 92
        0
 62
   257
 93
        1
300
CONTENTFORMAT
  1
CONTENTFORMAT_BEGIN
 90
        0
 91
        0
 92
      512
 93
        0
300

 40
0.0
140
1.0
 94
        2
 62
     0
340
11
144
4.5
309
CONTENTFORMAT_END
171
     1
301
MARGIN
  1
CELLMARGIN_BEGIN
 40
1.5
 40
1.5
 40
1.5
 40
1.5
 40
4.5
 40
4.5
309
CELLMARGIN_END
 94
        6
 95
        1
302
GRIDFORMAT
  1
GRIDFORMAT_BEGIN
 90
        0
 91
        1
 62
     0
 92
       -2
340
0
 93
        0
 40
1.125
309
GRIDFORMAT_END
 95
        2
302
GRIDFORMAT
  1
GRIDFORMAT_BEGIN
 90
        0
 91
        1
 62
     0
 92
       -2
340
0
 93
        0
 40
1.125
309
GRIDFORMAT_END
 95
        4
302
GRIDFORMAT
  1
GRIDFORMAT_BEGIN
 90
        0
 91
        1
 62
     0
 92
       -2
340
0
 93
        0
 40
1.125
309
GRIDFORMAT_END
 95
        8
302
GRIDFORMAT
  1
GRIDFORMAT_BEGIN
 90
        0
 91
        1
 62
     0
 92
       -2
340
0
 93
        0
 40
1.125
309
GRIDFORMAT_END
 95
       16
302
GRIDFORMAT
  1
GRIDFORMAT_BEGIN
 90
        0
 91
        1
 62
     0
 92
       -2
340
0
 93
        0
 40
1.125
309
GRIDFORMAT_END
 95
       32
302
GRIDFORMAT
  1
GRIDFORMAT_BEGIN
 90
        0
 91
        1
 62
     0
 92
       -2
340
0
 93
        0
 40
1.125
309
GRIDFORMAT_END
309
TABLEFORMAT_END
  1
CELLSTYLE_BEGIN
 90
        3
 91
        2
300
_DATA
309
CELLSTYLE_END
  0
XRECORD
  5
58E9
102
{ACAD_REACTORS
330
44F2
102
}
330
44F2
100
AcDbXrecord
280
     1
102
ACAD_ROUNDTRIP_PRE2007_TABLESTYLE
 90
      512
 91
        0
  1

 92
      512
 93
        0
  2

 94
      512
 95
        0
  3

  0
XRECORD
  5
58CE
102
{ACAD_REACTORS
330
58CD
102
}
330
58CD
100
AcDbXrecord
280
     1
102
RTVSPost2010Prop28
280
     1
102
RTVSPost2010PropOp28
 70
     1
102
RTVSPost2010Prop29
280
     1
102
RTVSPost2010PropOp29
 70
     1
102
RTVSPost2010Prop30
280
     0
102
RTVSPost2010PropOp30
 70
     1
102
RTVSPost2010Prop31
280
     0
102
RTVSPost2010PropOp31
 70
     1
102
RTVSPost2010Prop32
280
     0
102
RTVSPost2010PropOp32
 70
     1
102
RTVSPost2010Prop33
280
     0
102
RTVSPost2010PropOp33
 70
     1
102
RTVSPost2010Prop34
280
     0
102
RTVSPost2010PropOp34
 70
     1
102
RTVSPost2010Prop35
280
     0
102
RTVSPost2010PropOp35
 70
     1
102
RTVSPost2010Prop36
280
     0
102
RTVSPost2010PropOp36
 70
     1
102
RTVSPost2010Prop37
 90
       50
102
RTVSPost2010PropOp37
 70
     1
102
RTVSPost2010Prop38
140
0.0
102
RTVSPost2010PropOp38
 70
     1
102
RTVSPost2010Prop39
140
1.0
102
RTVSPost2010PropOp39
 70
     1
102
RTVSPost2010Prop40
 90
        0
102
RTVSPost2010PropOp40
 70
     1
102
RTVSPost2010Prop41ColorIndex
 90
       18
102
RTVSPost2010Prop41ColorRGB
 90
        0
102
RTVSPost2010PropOp41
 70
     1
102
RTVSPost2010Prop42
 90
       50
102
RTVSPost2010PropOp42
 70
     1
102
RTVSPost2010Prop43
 90
        3
102
RTVSPost2010PropOp43
 70
     1
102
RTVSPost2010Prop44ColorIndex
 90
        5
102
RTVSPost2010Prop44ColorRGB
 90
      255
102
RTVSPost2010PropOp44
 70
     1
102
RTVSPost2010Prop45
280
     0
102
RTVSPost2010PropOp45
 70
     1
102
RTVSPost2010Prop46
 90
       50
102
RTVSPost2010PropOp46
 70
     1
102
RTVSPost2010Prop47
 90
       50
102
RTVSPost2010PropOp47
 70
     1
102
RTVSPost2010Prop48
 90
       50
102
RTVSPost2010PropOp48
 70
     1
102
RTVSPost2010Prop49
280
     0
102
RTVSPost2010PropOp49
 70
     1
102
RTVSPost2010Prop50
 90
       50
102
RTVSPost2010PropOp50
 70
     1
102
RTVSPost2010Prop51ColorIndex
 90
      256
102
RTVSPost2010Prop51ColorRGB
 90
-16777216
102
RTVSPost2010PropOp51
 70
     0
102
RTVSPost2010Prop52
140
1.0
102
RTVSPost2010PropOp52
 70
     0
102
RTVSPost2010Prop53
 90
        2
102
RTVSPost2010PropOp53
 70
     1
102
RTVSPost2010Prop54
  1
strokes_ogs.tif
102
RTVSPost2010PropOp54
 70
     1
102
RTVSPost2010Prop55
280
     0
102
RTVSPost2010PropOp55
 70
     1
102
RTVSPost2010Prop56
140
1.0
102
RTVSPost2010PropOp56
 70
     1
102
RTVSPost2010Prop57
140
1.0
102
RTVSPost2010PropOp57
 70
     1
102
RTVSPropertyOp0
 70
     1
102
RTVSPropertyOp1
 70
     1
102
RTVSPropertyOp2
 70
     1
102
RTVSPropertyOp3
 70
     1
102
RTVSPropertyOp4
 70
     1
102
RTVSPropertyOp5
 70
     1
102
RTVSPropertyOp6
 70
     1
102
RTVSPropertyOp7
 70
     1
102
RTVSPropertyOp8
 70
     1
102
RTVSPropertyOp9
 70
     1
102
RTVSPropertyOp10
 70
     1
102
RTVSPropertyOp11
 70
     1
102
RTVSPropertyOp12
 70
     1
102
RTVSPropertyOp13
 70
     1
102
RTVSPropertyOp14
 70
     1
102
RTVSPropertyOp15
 70
     1
102
RTVSPropertyOp16
 70
     1
102
RTVSPropertyOp17
 70
     1
102
RTVSPropertyOp18
 70
     1
102
RTVSPropertyOp19
 70
     1
102
RTVSPropertyOp20
 70
     1
102
RTVSPropertyOp21
 70
     1
102
RTVSPropertyOp22
 70
     1
102
RTVSPropertyOp23
 70
     1
102
RTVSPropertyOp24
 70
     1
102
RTVSPropertyOp25
 70
     1
102
RTVSPropertyOp26
 70
     1
102
RTVSPropertyOp27
 70
     1
102
RTVSPropertyOp28
 70
     1
102
RTVSPropertyOp29
 70
     1
102
RTVSPropertyOp30
 70
     1
102
RTVSPropertyOp31
 70
     1
102
RTVSPropertyOp32
 70
     1
102
RTVSPropertyOp33
 70
     1
102
RTVSPropertyOp34
 70
     1
102
RTVSPropertyOp35
 70
     1
102
RTVSPropertyOp36
 70
     1
102
RTVSPropertyOp37
 70
     1
102
RTVSPropertyOp38
 70
     1
102
RTVSPropertyOp39
 70
     1
102
RTVSPropertyOp40
 70
     1
102
RTVSPropertyOp41
 70
     1
102
RTVSPropertyOp42
 70
     1
102
RTVSPropertyOp43
 70
     1
102
RTVSPropertyOp44
 70
     1
102
RTVSPropertyOp45
 70
     1
102
RTVSPropertyOp46
 70
     1
102
RTVSPropertyOp47
 70
     1
102
RTVSPropertyOp48
 70
     1
102
RTVSPropertyOp49
 70
     1
102
RTVSPropertyOp50
 70
     1
102
RTVSPropertyOp51
 70
     0
102
RTVSPropertyOp52
 70
     0
102
RTVSPropertyOp53
 70
     1
102
RTVSPropertyOp54
 70
     1
102
RTVSPropertyOp55
 70
     1
102
RTVSPropertyOp56
 70
     1
102
RTVSPropertyOp57
 70
     1
102
RTVSPropertyOp58
 70
     1
102
RTVSPropertyOp59
 70
     1
102
RTVSPropertyOp60
 70
     1
102
RTVSPropertyOp61
 70
     1
102
RTVSPropertyOp62
 70
     1
  0
XRECORD
  5
58D2
102
{ACAD_REACTORS
330
58D1
102
}
330
58D1
100
AcDbXrecord
280
     1
102
RTVSPost2010Prop28
280
     0
102
RTVSPost2010PropOp28
 70
     1
102
RTVSPost2010Prop29
280
     1
102
RTVSPost2010PropOp29
 70
     1
102
RTVSPost2010Prop30
280
     1
102
RTVSPost2010PropOp30
 70
     1
102
RTVSPost2010Prop31
280
     0
102
RTVSPost2010PropOp31
 70
     1
102
RTVSPost2010Prop32
280
     0
102
RTVSPost2010PropOp32
 70
     1
102
RTVSPost2010Prop33
280
     0
102
RTVSPost2010PropOp33
 70
     1
102
RTVSPost2010Prop34
280
     0
102
RTVSPost2010PropOp34
 70
     1
102
RTVSPost2010Prop35
280
     0
102
RTVSPost2010PropOp35
 70
     1
102
RTVSPost2010Prop36
280
     0
102
RTVSPost2010PropOp36
 70
     1
102
RTVSPost2010Prop37
 90
       50
102
RTVSPost2010PropOp37
 70
     1
102
RTVSPost2010Prop38
140
0.0
102
RTVSPost2010PropOp38
 70
     1
102
RTVSPost2010Prop39
140
1.0
102
RTVSPost2010PropOp39
 70
     1
102
RTVSPost2010Prop40
 90
        0
102
RTVSPost2010PropOp40
 70
     1
102
RTVSPost2010Prop41ColorIndex
 90
       18
102
RTVSPost2010Prop41ColorRGB
 90
        0
102
RTVSPost2010PropOp41
 70
     1
102
RTVSPost2010Prop42
 90
       50
102
RTVSPost2010PropOp42
 70
     1
102
RTVSPost2010Prop43
 90
        3
102
RTVSPost2010PropOp43
 70
     1
102
RTVSPost2010Prop44ColorIndex
 90
        5
102
RTVSPost2010Prop44ColorRGB
 90
      255
102
RTVSPost2010PropOp44
 70
     1
102
RTVSPost2010Prop45
280
     0
102
RTVSPost2010PropOp45
 70
     1
102
RTVSPost2010Prop46
 90
       50
102
RTVSPost2010PropOp46
 70
     1
102
RTVSPost2010Prop47
 90
       50
102
RTVSPost2010PropOp47
 70
     1
102
RTVSPost2010Prop48
 90
       50
102
RTVSPost2010PropOp48
 70
     1
102
RTVSPost2010Prop49
280
     0
102
RTVSPost2010PropOp49
 70
     1
102
RTVSPost2010Prop50
 90
       50
102
RTVSPost2010PropOp50
 70
     1
102
RTVSPost2010Prop51ColorIndex
 90
      256
102
RTVSPost2010Prop51ColorRGB
 90
-16777216
102
RTVSPost2010PropOp51
 70
     0
102
RTVSPost2010Prop52
140
1.0
102
RTVSPost2010PropOp52
 70
     0
102
RTVSPost2010Prop53
 90
        2
102
RTVSPost2010PropOp53
 70
     1
102
RTVSPost2010Prop54
  1
strokes_ogs.tif
102
RTVSPost2010PropOp54
 70
     1
102
RTVSPost2010Prop55
280
     0
102
RTVSPost2010PropOp55
 70
     1
102
RTVSPost2010Prop56
140
1.0
102
RTVSPost2010PropOp56
 70
     1
102
RTVSPost2010Prop57
140
1.0
102
RTVSPost2010PropOp57
 70
     1
102
RTVSPropertyOp0
 70
     1
102
RTVSPropertyOp1
 70
     1
102
RTVSPropertyOp2
 70
     1
102
RTVSPropertyOp3
 70
     1
102
RTVSPropertyOp4
 70
     1
102
RTVSPropertyOp5
 70
     1
102
RTVSPropertyOp6
 70
     1
102
RTVSPropertyOp7
 70
     1
102
RTVSPropertyOp8
 70
     1
102
RTVSPropertyOp9
 70
     1
102
RTVSPropertyOp10
 70
     1
102
RTVSPropertyOp11
 70
     1
102
RTVSPropertyOp12
 70
     1
102
RTVSPropertyOp13
 70
     1
102
RTVSPropertyOp14
 70
     1
102
RTVSPropertyOp15
 70
     1
102
RTVSPropertyOp16
 70
     1
102
RTVSPropertyOp17
 70
     1
102
RTVSPropertyOp18
 70
     1
102
RTVSPropertyOp19
 70
     1
102
RTVSPropertyOp20
 70
     1
102
RTVSPropertyOp21
 70
     1
102
RTVSPropertyOp22
 70
     1
102
RTVSPropertyOp23
 70
     1
102
RTVSPropertyOp24
 70
     1
102
RTVSPropertyOp25
 70
     1
102
RTVSPropertyOp26
 70
     1
102
RTVSPropertyOp27
 70
     1
102
RTVSPropertyOp28
 70
     1
102
RTVSPropertyOp29
 70
     1
102
RTVSPropertyOp30
 70
     1
102
RTVSPropertyOp31
 70
     1
102
RTVSPropertyOp32
 70
     1
102
RTVSPropertyOp33
 70
     1
102
RTVSPropertyOp34
 70
     1
102
RTVSPropertyOp35
 70
     1
102
RTVSPropertyOp36
 70
     1
102
RTVSPropertyOp37
 70
     1
102
RTVSPropertyOp38
 70
     1
102
RTVSPropertyOp39
 70
     1
102
RTVSPropertyOp40
 70
     1
102
RTVSPropertyOp41
 70
     1
102
RTVSPropertyOp42
 70
     1
102
RTVSPropertyOp43
 70
     1
102
RTVSPropertyOp44
 70
     1
102
RTVSPropertyOp45
 70
     1
102
RTVSPropertyOp46
 70
     1
102
RTVSPropertyOp47
 70
     1
102
RTVSPropertyOp48
 70
     1
102
RTVSPropertyOp49
 70
     1
102
RTVSPropertyOp50
 70
     1
102
RTVSPropertyOp51
 70
     0
102
RTVSPropertyOp52
 70
     0
102
RTVSPropertyOp53
 70
     1
102
RTVSPropertyOp54
 70
     1
102
RTVSPropertyOp55
 70
     1
102
RTVSPropertyOp56
 70
     1
102
RTVSPropertyOp57
 70
     1
102
RTVSPropertyOp58
 70
     1
102
RTVSPropertyOp59
 70
     1
102
RTVSPropertyOp60
 70
     1
102
RTVSPropertyOp61
 70
     1
102
RTVSPropertyOp62
 70
     1
  0
XRECORD
  5
58D0
102
{ACAD_REACTORS
330
58CF
102
}
330
58CF
100
AcDbXrecord
280
     1
102
RTVSPost2010Prop28
280
     0
102
RTVSPost2010PropOp28
 70
     1
102
RTVSPost2010Prop29
280
     1
102
RTVSPost2010PropOp29
 70
     1
102
RTVSPost2010Prop30
280
     1
102
RTVSPost2010PropOp30
 70
     1
102
RTVSPost2010Prop31
280
     0
102
RTVSPost2010PropOp31
 70
     1
102
RTVSPost2010Prop32
280
     0
102
RTVSPost2010PropOp32
 70
     1
102
RTVSPost2010Prop33
280
     0
102
RTVSPost2010PropOp33
 70
     1
102
RTVSPost2010Prop34
280
     0
102
RTVSPost2010PropOp34
 70
     1
102
RTVSPost2010Prop35
280
     0
102
RTVSPost2010PropOp35
 70
     1
102
RTVSPost2010Prop36
280
     0
102
RTVSPost2010PropOp36
 70
     1
102
RTVSPost2010Prop37
 90
       50
102
RTVSPost2010PropOp37
 70
     1
102
RTVSPost2010Prop38
140
0.0
102
RTVSPost2010PropOp38
 70
     1
102
RTVSPost2010Prop39
140
1.0
102
RTVSPost2010PropOp39
 70
     1
102
RTVSPost2010Prop40
 90
        0
102
RTVSPost2010PropOp40
 70
     1
102
RTVSPost2010Prop41ColorIndex
 90
       18
102
RTVSPost2010Prop41ColorRGB
 90
        0
102
RTVSPost2010PropOp41
 70
     1
102
RTVSPost2010Prop42
 90
       50
102
RTVSPost2010PropOp42
 70
     1
102
RTVSPost2010Prop43
 90
        3
102
RTVSPost2010PropOp43
 70
     1
102
RTVSPost2010Prop44ColorIndex
 90
        5
102
RTVSPost2010Prop44ColorRGB
 90
      255
102
RTVSPost2010PropOp44
 70
     1
102
RTVSPost2010Prop45
280
     0
102
RTVSPost2010PropOp45
 70
     1
102
RTVSPost2010Prop46
 90
       50
102
RTVSPost2010PropOp46
 70
     1
102
RTVSPost2010Prop47
 90
       50
102
RTVSPost2010PropOp47
 70
     1
102
RTVSPost2010Prop48
 90
       50
102
RTVSPost2010PropOp48
 70
     1
102
RTVSPost2010Prop49
280
     0
102
RTVSPost2010PropOp49
 70
     1
102
RTVSPost2010Prop50
 90
       50
102
RTVSPost2010PropOp50
 70
     1
102
RTVSPost2010Prop51ColorIndex
 90
      256
102
RTVSPost2010Prop51ColorRGB
 90
-16777216
102
RTVSPost2010PropOp51
 70
     0
102
RTVSPost2010Prop52
140
1.0
102
RTVSPost2010PropOp52
 70
     0
102
RTVSPost2010Prop53
 90
        2
102
RTVSPost2010PropOp53
 70
     1
102
RTVSPost2010Prop54
  1
strokes_ogs.tif
102
RTVSPost2010PropOp54
 70
     1
102
RTVSPost2010Prop55
280
     0
102
RTVSPost2010PropOp55
 70
     1
102
RTVSPost2010Prop56
140
1.0
102
RTVSPost2010PropOp56
 70
     1
102
RTVSPost2010Prop57
140
1.0
102
RTVSPost2010PropOp57
 70
     1
102
RTVSPropertyOp0
 70
     1
102
RTVSPropertyOp1
 70
     1
102
RTVSPropertyOp2
 70
     1
102
RTVSPropertyOp3
 70
     1
102
RTVSPropertyOp4
 70
     1
102
RTVSPropertyOp5
 70
     1
102
RTVSPropertyOp6
 70
     1
102
RTVSPropertyOp7
 70
     1
102
RTVSPropertyOp8
 70
     1
102
RTVSPropertyOp9
 70
     1
102
RTVSPropertyOp10
 70
     1
102
RTVSPropertyOp11
 70
     1
102
RTVSPropertyOp12
 70
     1
102
RTVSPropertyOp13
 70
     1
102
RTVSPropertyOp14
 70
     1
102
RTVSPropertyOp15
 70
     1
102
RTVSPropertyOp16
 70
     1
102
RTVSPropertyOp17
 70
     1
102
RTVSPropertyOp18
 70
     1
102
RTVSPropertyOp19
 70
     1
102
RTVSPropertyOp20
 70
     1
102
RTVSPropertyOp21
 70
     1
102
RTVSPropertyOp22
 70
     1
102
RTVSPropertyOp23
 70
     1
102
RTVSPropertyOp24
 70
     1
102
RTVSPropertyOp25
 70
     1
102
RTVSPropertyOp26
 70
     1
102
RTVSPropertyOp27
 70
     1
102
RTVSPropertyOp28
 70
     1
102
RTVSPropertyOp29
 70
     1
102
RTVSPropertyOp30
 70
     1
102
RTVSPropertyOp31
 70
     1
102
RTVSPropertyOp32
 70
     1
102
RTVSPropertyOp33
 70
     1
102
RTVSPropertyOp34
 70
     1
102
RTVSPropertyOp35
 70
     1
102
RTVSPropertyOp36
 70
     1
102
RTVSPropertyOp37
 70
     1
102
RTVSPropertyOp38
 70
     1
102
RTVSPropertyOp39
 70
     1
102
RTVSPropertyOp40
 70
     1
102
RTVSPropertyOp41
 70
     1
102
RTVSPropertyOp42
 70
     1
102
RTVSPropertyOp43
 70
     1
102
RTVSPropertyOp44
 70
     1
102
RTVSPropertyOp45
 70
     1
102
RTVSPropertyOp46
 70
     1
102
RTVSPropertyOp47
 70
     1
102
RTVSPropertyOp48
 70
     1
102
RTVSPropertyOp49
 70
     1
102
RTVSPropertyOp50
 70
     1
102
RTVSPropertyOp51
 70
     0
102
RTVSPropertyOp52
 70
     0
102
RTVSPropertyOp53
 70
     1
102
RTVSPropertyOp54
 70
     1
102
RTVSPropertyOp55
 70
     1
102
RTVSPropertyOp56
 70
     1
102
RTVSPropertyOp57
 70
     1
102
RTVSPropertyOp58
 70
     1
102
RTVSPropertyOp59
 70
     1
102
RTVSPropertyOp60
 70
     1
102
RTVSPropertyOp61
 70
     1
102
RTVSPropertyOp62
 70
     1
  0
XRECORD
  5
58CC
102
{ACAD_REACTORS
330
58CB
102
}
330
58CB
100
AcDbXrecord
280
     1
102
RTVSPost2010Prop28
280
     0
102
RTVSPost2010PropOp28
 70
     1
102
RTVSPost2010Prop29
280
     1
102
RTVSPost2010PropOp29
 70
     1
102
RTVSPost2010Prop30
280
     1
102
RTVSPost2010PropOp30
 70
     1
102
RTVSPost2010Prop31
280
     0
102
RTVSPost2010PropOp31
 70
     1
102
RTVSPost2010Prop32
280
     0
102
RTVSPost2010PropOp32
 70
     1
102
RTVSPost2010Prop33
280
     0
102
RTVSPost2010PropOp33
 70
     1
102
RTVSPost2010Prop34
280
     0
102
RTVSPost2010PropOp34
 70
     1
102
RTVSPost2010Prop35
280
     0
102
RTVSPost2010PropOp35
 70
     1
102
RTVSPost2010Prop36
280
     0
102
RTVSPost2010PropOp36
 70
     1
102
RTVSPost2010Prop37
 90
       50
102
RTVSPost2010PropOp37
 70
     1
102
RTVSPost2010Prop38
140
0.0
102
RTVSPost2010PropOp38
 70
     1
102
RTVSPost2010Prop39
140
1.0
102
RTVSPost2010PropOp39
 70
     1
102
RTVSPost2010Prop40
 90
        0
102
RTVSPost2010PropOp40
 70
     1
102
RTVSPost2010Prop41ColorIndex
 90
       18
102
RTVSPost2010Prop41ColorRGB
 90
        0
102
RTVSPost2010PropOp41
 70
     1
102
RTVSPost2010Prop42
 90
       50
102
RTVSPost2010PropOp42
 70
     1
102
RTVSPost2010Prop43
 90
        3
102
RTVSPost2010PropOp43
 70
     1
102
RTVSPost2010Prop44ColorIndex
 90
        5
102
RTVSPost2010Prop44ColorRGB
 90
      255
102
RTVSPost2010PropOp44
 70
     1
102
RTVSPost2010Prop45
280
     0
102
RTVSPost2010PropOp45
 70
     1
102
RTVSPost2010Prop46
 90
       50
102
RTVSPost2010PropOp46
 70
     1
102
RTVSPost2010Prop47
 90
       50
102
RTVSPost2010PropOp47
 70
     1
102
RTVSPost2010Prop48
 90
       50
102
RTVSPost2010PropOp48
 70
     1
102
RTVSPost2010Prop49
280
     0
102
RTVSPost2010PropOp49
 70
     1
102
RTVSPost2010Prop50
 90
       50
102
RTVSPost2010PropOp50
 70
     1
102
RTVSPost2010Prop51ColorIndex
 90
      256
102
RTVSPost2010Prop51ColorRGB
 90
-16777216
102
RTVSPost2010PropOp51
 70
     0
102
RTVSPost2010Prop52
140
1.0
102
RTVSPost2010PropOp52
 70
     0
102
RTVSPost2010Prop53
 90
        2
102
RTVSPost2010PropOp53
 70
     1
102
RTVSPost2010Prop54
  1
strokes_ogs.tif
102
RTVSPost2010PropOp54
 70
     1
102
RTVSPost2010Prop55
280
     0
102
RTVSPost2010PropOp55
 70
     1
102
RTVSPost2010Prop56
140
1.0
102
RTVSPost2010PropOp56
 70
     1
102
RTVSPost2010Prop57
140
1.0
102
RTVSPost2010PropOp57
 70
     1
102
RTVSPropertyOp0
 70
     1
102
RTVSPropertyOp1
 70
     1
102
RTVSPropertyOp2
 70
     1
102
RTVSPropertyOp3
 70
     1
102
RTVSPropertyOp4
 70
     1
102
RTVSPropertyOp5
 70
     1
102
RTVSPropertyOp6
 70
     1
102
RTVSPropertyOp7
 70
     1
102
RTVSPropertyOp8
 70
     1
102
RTVSPropertyOp9
 70
     1
102
RTVSPropertyOp10
 70
     1
102
RTVSPropertyOp11
 70
     1
102
RTVSPropertyOp12
 70
     1
102
RTVSPropertyOp13
 70
     1
102
RTVSPropertyOp14
 70
     1
102
RTVSPropertyOp15
 70
     1
102
RTVSPropertyOp16
 70
     1
102
RTVSPropertyOp17
 70
     1
102
RTVSPropertyOp18
 70
     1
102
RTVSPropertyOp19
 70
     1
102
RTVSPropertyOp20
 70
     1
102
RTVSPropertyOp21
 70
     1
102
RTVSPropertyOp22
 70
     1
102
RTVSPropertyOp23
 70
     1
102
RTVSPropertyOp24
 70
     1
102
RTVSPropertyOp25
 70
     1
102
RTVSPropertyOp26
 70
     1
102
RTVSPropertyOp27
 70
     1
102
RTVSPropertyOp28
 70
     1
102
RTVSPropertyOp29
 70
     1
102
RTVSPropertyOp30
 70
     1
102
RTVSPropertyOp31
 70
     1
102
RTVSPropertyOp32
 70
     1
102
RTVSPropertyOp33
 70
     1
102
RTVSPropertyOp34
 70
     1
102
RTVSPropertyOp35
 70
     1
102
RTVSPropertyOp36
 70
     1
102
RTVSPropertyOp37
 70
     1
102
RTVSPropertyOp38
 70
     1
102
RTVSPropertyOp39
 70
     1
102
RTVSPropertyOp40
 70
     1
102
RTVSPropertyOp41
 70
     1
102
RTVSPropertyOp42
 70
     1
102
RTVSPropertyOp43
 70
     1
102
RTVSPropertyOp44
 70
     1
102
RTVSPropertyOp45
 70
     1
102
RTVSPropertyOp46
 70
     1
102
RTVSPropertyOp47
 70
     1
102
RTVSPropertyOp48
 70
     1
102
RTVSPropertyOp49
 70
     1
102
RTVSPropertyOp50
 70
     1
102
RTVSPropertyOp51
 70
     0
102
RTVSPropertyOp52
 70
     0
102
RTVSPropertyOp53
 70
     1
102
RTVSPropertyOp54
 70
     1
102
RTVSPropertyOp55
 70
     1
102
RTVSPropertyOp56
 70
     1
102
RTVSPropertyOp57
 70
     1
102
RTVSPropertyOp58
 70
     1
102
RTVSPropertyOp59
 70
     1
102
RTVSPropertyOp60
 70
     1
102
RTVSPropertyOp61
 70
     1
102
RTVSPropertyOp62
 70
     1
  0
XRECORD
  5
58DA
102
{ACAD_REACTORS
330
58D9
102
}
330
58D9
100
AcDbXrecord
280
     1
102
RTVSPost2010Prop28
280
     0
102
RTVSPost2010PropOp28
 70
     1
102
RTVSPost2010Prop29
280
     1
102
RTVSPost2010PropOp29
 70
     1
102
RTVSPost2010Prop30
280
     1
102
RTVSPost2010PropOp30
 70
     1
102
RTVSPost2010Prop31
280
     0
102
RTVSPost2010PropOp31
 70
     1
102
RTVSPost2010Prop32
280
     0
102
RTVSPost2010PropOp32
 70
     1
102
RTVSPost2010Prop33
280
     0
102
RTVSPost2010PropOp33
 70
     1
102
RTVSPost2010Prop34
280
     0
102
RTVSPost2010PropOp34
 70
     1
102
RTVSPost2010Prop35
280
     0
102
RTVSPost2010PropOp35
 70
     1
102
RTVSPost2010Prop36
280
     0
102
RTVSPost2010PropOp36
 70
     1
102
RTVSPost2010Prop37
 90
       50
102
RTVSPost2010PropOp37
 70
     1
102
RTVSPost2010Prop38
140
0.0
102
RTVSPost2010PropOp38
 70
     1
102
RTVSPost2010Prop39
140
1.0
102
RTVSPost2010PropOp39
 70
     1
102
RTVSPost2010Prop40
 90
        0
102
RTVSPost2010PropOp40
 70
     1
102
RTVSPost2010Prop41ColorIndex
 90
       18
102
RTVSPost2010Prop41ColorRGB
 90
        0
102
RTVSPost2010PropOp41
 70
     1
102
RTVSPost2010Prop42
 90
       50
102
RTVSPost2010PropOp42
 70
     1
102
RTVSPost2010Prop43
 90
        3
102
RTVSPost2010PropOp43
 70
     1
102
RTVSPost2010Prop44ColorIndex
 90
        5
102
RTVSPost2010Prop44ColorRGB
 90
      255
102
RTVSPost2010PropOp44
 70
     1
102
RTVSPost2010Prop45
280
     0
102
RTVSPost2010PropOp45
 70
     1
102
RTVSPost2010Prop46
 90
       50
102
RTVSPost2010PropOp46
 70
     1
102
RTVSPost2010Prop47
 90
       50
102
RTVSPost2010PropOp47
 70
     1
102
RTVSPost2010Prop48
 90
       50
102
RTVSPost2010PropOp48
 70
     1
102
RTVSPost2010Prop49
280
     0
102
RTVSPost2010PropOp49
 70
     1
102
RTVSPost2010Prop50
 90
       50
102
RTVSPost2010PropOp50
 70
     1
102
RTVSPost2010Prop51ColorIndex
 90
      256
102
RTVSPost2010Prop51ColorRGB
 90
-16777216
102
RTVSPost2010PropOp51
 70
     0
102
RTVSPost2010Prop52
140
1.0
102
RTVSPost2010PropOp52
 70
     0
102
RTVSPost2010Prop53
 90
        2
102
RTVSPost2010PropOp53
 70
     1
102
RTVSPost2010Prop54
  1
strokes_ogs.tif
102
RTVSPost2010PropOp54
 70
     1
102
RTVSPost2010Prop55
280
     0
102
RTVSPost2010PropOp55
 70
     1
102
RTVSPost2010Prop56
140
1.0
102
RTVSPost2010PropOp56
 70
     1
102
RTVSPost2010Prop57
140
1.0
102
RTVSPost2010PropOp57
 70
     1
102
RTVSPropertyOp0
 70
     1
102
RTVSPropertyOp1
 70
     1
102
RTVSPropertyOp2
 70
     1
102
RTVSPropertyOp3
 70
     1
102
RTVSPropertyOp4
 70
     1
102
RTVSPropertyOp5
 70
     1
102
RTVSPropertyOp6
 70
     1
102
RTVSPropertyOp7
 70
     1
102
RTVSPropertyOp8
 70
     1
102
RTVSPropertyOp9
 70
     1
102
RTVSPropertyOp10
 70
     1
102
RTVSPropertyOp11
 70
     1
102
RTVSPropertyOp12
 70
     1
102
RTVSPropertyOp13
 70
     1
102
RTVSPropertyOp14
 70
     1
102
RTVSPropertyOp15
 70
     1
102
RTVSPropertyOp16
 70
     1
102
RTVSPropertyOp17
 70
     1
102
RTVSPropertyOp18
 70
     1
102
RTVSPropertyOp19
 70
     1
102
RTVSPropertyOp20
 70
     1
102
RTVSPropertyOp21
 70
     1
102
RTVSPropertyOp22
 70
     1
102
RTVSPropertyOp23
 70
     1
102
RTVSPropertyOp24
 70
     1
102
RTVSPropertyOp25
 70
     1
102
RTVSPropertyOp26
 70
     1
102
RTVSPropertyOp27
 70
     1
102
RTVSPropertyOp28
 70
     1
102
RTVSPropertyOp29
 70
     1
102
RTVSPropertyOp30
 70
     1
102
RTVSPropertyOp31
 70
     1
102
RTVSPropertyOp32
 70
     1
102
RTVSPropertyOp33
 70
     1
102
RTVSPropertyOp34
 70
     1
102
RTVSPropertyOp35
 70
     1
102
RTVSPropertyOp36
 70
     1
102
RTVSPropertyOp37
 70
     1
102
RTVSPropertyOp38
 70
     1
102
RTVSPropertyOp39
 70
     1
102
RTVSPropertyOp40
 70
     1
102
RTVSPropertyOp41
 70
     1
102
RTVSPropertyOp42
 70
     1
102
RTVSPropertyOp43
 70
     1
102
RTVSPropertyOp44
 70
     1
102
RTVSPropertyOp45
 70
     1
102
RTVSPropertyOp46
 70
     1
102
RTVSPropertyOp47
 70
     1
102
RTVSPropertyOp48
 70
     1
102
RTVSPropertyOp49
 70
     1
102
RTVSPropertyOp50
 70
     1
102
RTVSPropertyOp51
 70
     0
102
RTVSPropertyOp52
 70
     0
102
RTVSPropertyOp53
 70
     1
102
RTVSPropertyOp54
 70
     1
102
RTVSPropertyOp55
 70
     1
102
RTVSPropertyOp56
 70
     1
102
RTVSPropertyOp57
 70
     1
102
RTVSPropertyOp58
 70
     1
102
RTVSPropertyOp59
 70
     1
102
RTVSPropertyOp60
 70
     1
102
RTVSPropertyOp61
 70
     1
102
RTVSPropertyOp62
 70
     1
  0
XRECORD
  5
58E2
102
{ACAD_REACTORS
330
58E1
102
}
330
58E1
100
AcDbXrecord
280
     1
102
RTVSPost2010Prop28
280
     0
102
RTVSPost2010PropOp28
 70
     1
102
RTVSPost2010Prop29
280
     1
102
RTVSPost2010PropOp29
 70
     1
102
RTVSPost2010Prop30
280
     1
102
RTVSPost2010PropOp30
 70
     1
102
RTVSPost2010Prop31
280
     0
102
RTVSPost2010PropOp31
 70
     1
102
RTVSPost2010Prop32
280
     0
102
RTVSPost2010PropOp32
 70
     1
102
RTVSPost2010Prop33
280
     0
102
RTVSPost2010PropOp33
 70
     1
102
RTVSPost2010Prop34
280
     0
102
RTVSPost2010PropOp34
 70
     1
102
RTVSPost2010Prop35
280
     0
102
RTVSPost2010PropOp35
 70
     1
102
RTVSPost2010Prop36
280
     0
102
RTVSPost2010PropOp36
 70
     1
102
RTVSPost2010Prop37
 90
       50
102
RTVSPost2010PropOp37
 70
     1
102
RTVSPost2010Prop38
140
0.0
102
RTVSPost2010PropOp38
 70
     1
102
RTVSPost2010Prop39
140
1.0
102
RTVSPost2010PropOp39
 70
     1
102
RTVSPost2010Prop40
 90
        0
102
RTVSPost2010PropOp40
 70
     1
102
RTVSPost2010Prop41ColorIndex
 90
       18
102
RTVSPost2010Prop41ColorRGB
 90
        0
102
RTVSPost2010PropOp41
 70
     1
102
RTVSPost2010Prop42
 90
       50
102
RTVSPost2010PropOp42
 70
     1
102
RTVSPost2010Prop43
 90
        3
102
RTVSPost2010PropOp43
 70
     1
102
RTVSPost2010Prop44ColorIndex
 90
        5
102
RTVSPost2010Prop44ColorRGB
 90
      255
102
RTVSPost2010PropOp44
 70
     1
102
RTVSPost2010Prop45
280
     0
102
RTVSPost2010PropOp45
 70
     1
102
RTVSPost2010Prop46
 90
       50
102
RTVSPost2010PropOp46
 70
     1
102
RTVSPost2010Prop47
 90
       50
102
RTVSPost2010PropOp47
 70
     1
102
RTVSPost2010Prop48
 90
       50
102
RTVSPost2010PropOp48
 70
     1
102
RTVSPost2010Prop49
280
     0
102
RTVSPost2010PropOp49
 70
     1
102
RTVSPost2010Prop50
 90
       50
102
RTVSPost2010PropOp50
 70
     1
102
RTVSPost2010Prop51ColorIndex
 90
      256
102
RTVSPost2010Prop51ColorRGB
 90
-16777216
102
RTVSPost2010PropOp51
 70
     0
102
RTVSPost2010Prop52
140
1.0
102
RTVSPost2010PropOp52
 70
     0
102
RTVSPost2010Prop53
 90
        2
102
RTVSPost2010PropOp53
 70
     1
102
RTVSPost2010Prop54
  1
strokes_ogs.tif
102
RTVSPost2010PropOp54
 70
     1
102
RTVSPost2010Prop55
280
     0
102
RTVSPost2010PropOp55
 70
     1
102
RTVSPost2010Prop56
140
1.0
102
RTVSPost2010PropOp56
 70
     1
102
RTVSPost2010Prop57
140
1.0
102
RTVSPost2010PropOp57
 70
     1
102
RTVSPropertyOp0
 70
     1
102
RTVSPropertyOp1
 70
     1
102
RTVSPropertyOp2
 70
     1
102
RTVSPropertyOp3
 70
     1
102
RTVSPropertyOp4
 70
     1
102
RTVSPropertyOp5
 70
     1
102
RTVSPropertyOp6
 70
     1
102
RTVSPropertyOp7
 70
     1
102
RTVSPropertyOp8
 70
     1
102
RTVSPropertyOp9
 70
     1
102
RTVSPropertyOp10
 70
     1
102
RTVSPropertyOp11
 70
     1
102
RTVSPropertyOp12
 70
     1
102
RTVSPropertyOp13
 70
     1
102
RTVSPropertyOp14
 70
     1
102
RTVSPropertyOp15
 70
     1
102
RTVSPropertyOp16
 70
     1
102
RTVSPropertyOp17
 70
     1
102
RTVSPropertyOp18
 70
     1
102
RTVSPropertyOp19
 70
     1
102
RTVSPropertyOp20
 70
     1
102
RTVSPropertyOp21
 70
     1
102
RTVSPropertyOp22
 70
     1
102
RTVSPropertyOp23
 70
     1
102
RTVSPropertyOp24
 70
     1
102
RTVSPropertyOp25
 70
     1
102
RTVSPropertyOp26
 70
     1
102
RTVSPropertyOp27
 70
     1
102
RTVSPropertyOp28
 70
     1
102
RTVSPropertyOp29
 70
     1
102
RTVSPropertyOp30
 70
     1
102
RTVSPropertyOp31
 70
     1
102
RTVSPropertyOp32
 70
     1
102
RTVSPropertyOp33
 70
     1
102
RTVSPropertyOp34
 70
     1
102
RTVSPropertyOp35
 70
     1
102
RTVSPropertyOp36
 70
     1
102
RTVSPropertyOp37
 70
     1
102
RTVSPropertyOp38
 70
     1
102
RTVSPropertyOp39
 70
     1
102
RTVSPropertyOp40
 70
     1
102
RTVSPropertyOp41
 70
     1
102
RTVSPropertyOp42
 70
     1
102
RTVSPropertyOp43
 70
     1
102
RTVSPropertyOp44
 70
     1
102
RTVSPropertyOp45
 70
     1
102
RTVSPropertyOp46
 70
     1
102
RTVSPropertyOp47
 70
     1
102
RTVSPropertyOp48
 70
     1
102
RTVSPropertyOp49
 70
     1
102
RTVSPropertyOp50
 70
     1
102
RTVSPropertyOp51
 70
     0
102
RTVSPropertyOp52
 70
     0
102
RTVSPropertyOp53
 70
     1
102
RTVSPropertyOp54
 70
     1
102
RTVSPropertyOp55
 70
     1
102
RTVSPropertyOp56
 70
     1
102
RTVSPropertyOp57
 70
     1
102
RTVSPropertyOp58
 70
     1
102
RTVSPropertyOp59
 70
     1
102
RTVSPropertyOp60
 70
     1
102
RTVSPropertyOp61
 70
     1
102
RTVSPropertyOp62
 70
     1
  0
XRECORD
  5
58D4
102
{ACAD_REACTORS
330
58D3
102
}
330
58D3
100
AcDbXrecord
280
     1
102
RTVSPost2010Prop28
280
     0
102
RTVSPost2010PropOp28
 70
     1
102
RTVSPost2010Prop29
280
     1
102
RTVSPost2010PropOp29
 70
     1
102
RTVSPost2010Prop30
280
     1
102
RTVSPost2010PropOp30
 70
     1
102
RTVSPost2010Prop31
280
     0
102
RTVSPost2010PropOp31
 70
     1
102
RTVSPost2010Prop32
280
     0
102
RTVSPost2010PropOp32
 70
     1
102
RTVSPost2010Prop33
280
     0
102
RTVSPost2010PropOp33
 70
     1
102
RTVSPost2010Prop34
280
     0
102
RTVSPost2010PropOp34
 70
     1
102
RTVSPost2010Prop35
280
     0
102
RTVSPost2010PropOp35
 70
     1
102
RTVSPost2010Prop36
280
     0
102
RTVSPost2010PropOp36
 70
     1
102
RTVSPost2010Prop37
 90
       50
102
RTVSPost2010PropOp37
 70
     1
102
RTVSPost2010Prop38
140
0.0
102
RTVSPost2010PropOp38
 70
     1
102
RTVSPost2010Prop39
140
1.0
102
RTVSPost2010PropOp39
 70
     1
102
RTVSPost2010Prop40
 90
        0
102
RTVSPost2010PropOp40
 70
     1
102
RTVSPost2010Prop41ColorIndex
 90
       18
102
RTVSPost2010Prop41ColorRGB
 90
        0
102
RTVSPost2010PropOp41
 70
     1
102
RTVSPost2010Prop42
 90
       50
102
RTVSPost2010PropOp42
 70
     1
102
RTVSPost2010Prop43
 90
        3
102
RTVSPost2010PropOp43
 70
     1
102
RTVSPost2010Prop44ColorIndex
 90
        5
102
RTVSPost2010Prop44ColorRGB
 90
      255
102
RTVSPost2010PropOp44
 70
     1
102
RTVSPost2010Prop45
280
     0
102
RTVSPost2010PropOp45
 70
     1
102
RTVSPost2010Prop46
 90
       50
102
RTVSPost2010PropOp46
 70
     1
102
RTVSPost2010Prop47
 90
       50
102
RTVSPost2010PropOp47
 70
     1
102
RTVSPost2010Prop48
 90
       50
102
RTVSPost2010PropOp48
 70
     1
102
RTVSPost2010Prop49
280
     0
102
RTVSPost2010PropOp49
 70
     1
102
RTVSPost2010Prop50
 90
       50
102
RTVSPost2010PropOp50
 70
     1
102
RTVSPost2010Prop51ColorIndex
 90
      256
102
RTVSPost2010Prop51ColorRGB
 90
-16777216
102
RTVSPost2010PropOp51
 70
     0
102
RTVSPost2010Prop52
140
1.0
102
RTVSPost2010PropOp52
 70
     0
102
RTVSPost2010Prop53
 90
        2
102
RTVSPost2010PropOp53
 70
     1
102
RTVSPost2010Prop54
  1
strokes_ogs.tif
102
RTVSPost2010PropOp54
 70
     1
102
RTVSPost2010Prop55
280
     0
102
RTVSPost2010PropOp55
 70
     1
102
RTVSPost2010Prop56
140
1.0
102
RTVSPost2010PropOp56
 70
     1
102
RTVSPost2010Prop57
140
1.0
102
RTVSPost2010PropOp57
 70
     1
102
RTVSPropertyOp0
 70
     1
102
RTVSPropertyOp1
 70
     1
102
RTVSPropertyOp2
 70
     1
102
RTVSPropertyOp3
 70
     1
102
RTVSPropertyOp4
 70
     1
102
RTVSPropertyOp5
 70
     1
102
RTVSPropertyOp6
 70
     1
102
RTVSPropertyOp7
 70
     1
102
RTVSPropertyOp8
 70
     1
102
RTVSPropertyOp9
 70
     1
102
RTVSPropertyOp10
 70
     1
102
RTVSPropertyOp11
 70
     1
102
RTVSPropertyOp12
 70
     1
102
RTVSPropertyOp13
 70
     1
102
RTVSPropertyOp14
 70
     1
102
RTVSPropertyOp15
 70
     1
102
RTVSPropertyOp16
 70
     1
102
RTVSPropertyOp17
 70
     1
102
RTVSPropertyOp18
 70
     1
102
RTVSPropertyOp19
 70
     1
102
RTVSPropertyOp20
 70
     1
102
RTVSPropertyOp21
 70
     1
102
RTVSPropertyOp22
 70
     1
102
RTVSPropertyOp23
 70
     1
102
RTVSPropertyOp24
 70
     1
102
RTVSPropertyOp25
 70
     1
102
RTVSPropertyOp26
 70
     1
102
RTVSPropertyOp27
 70
     1
102
RTVSPropertyOp28
 70
     1
102
RTVSPropertyOp29
 70
     1
102
RTVSPropertyOp30
 70
     1
102
RTVSPropertyOp31
 70
     1
102
RTVSPropertyOp32
 70
     1
102
RTVSPropertyOp33
 70
     1
102
RTVSPropertyOp34
 70
     1
102
RTVSPropertyOp35
 70
     1
102
RTVSPropertyOp36
 70
     1
102
RTVSPropertyOp37
 70
     1
102
RTVSPropertyOp38
 70
     1
102
RTVSPropertyOp39
 70
     1
102
RTVSPropertyOp40
 70
     1
102
RTVSPropertyOp41
 70
     1
102
RTVSPropertyOp42
 70
     1
102
RTVSPropertyOp43
 70
     1
102
RTVSPropertyOp44
 70
     1
102
RTVSPropertyOp45
 70
     1
102
RTVSPropertyOp46
 70
     1
102
RTVSPropertyOp47
 70
     1
102
RTVSPropertyOp48
 70
     1
102
RTVSPropertyOp49
 70
     1
102
RTVSPropertyOp50
 70
     1
102
RTVSPropertyOp51
 70
     0
102
RTVSPropertyOp52
 70
     0
102
RTVSPropertyOp53
 70
     1
102
RTVSPropertyOp54
 70
     1
102
RTVSPropertyOp55
 70
     1
102
RTVSPropertyOp56
 70
     1
102
RTVSPropertyOp57
 70
     1
102
RTVSPropertyOp58
 70
     1
102
RTVSPropertyOp59
 70
     1
102
RTVSPropertyOp60
 70
     1
102
RTVSPropertyOp61
 70
     1
102
RTVSPropertyOp62
 70
     1
  0
XRECORD
  5
58D8
102
{ACAD_REACTORS
330
58D7
102
}
330
58D7
100
AcDbXrecord
280
     1
102
RTVSPost2010Prop28
280
     0
102
RTVSPost2010PropOp28
 70
     1
102
RTVSPost2010Prop29
280
     1
102
RTVSPost2010PropOp29
 70
     1
102
RTVSPost2010Prop30
280
     1
102
RTVSPost2010PropOp30
 70
     1
102
RTVSPost2010Prop31
280
     0
102
RTVSPost2010PropOp31
 70
     1
102
RTVSPost2010Prop32
280
     0
102
RTVSPost2010PropOp32
 70
     1
102
RTVSPost2010Prop33
280
     0
102
RTVSPost2010PropOp33
 70
     1
102
RTVSPost2010Prop34
280
     0
102
RTVSPost2010PropOp34
 70
     1
102
RTVSPost2010Prop35
280
     0
102
RTVSPost2010PropOp35
 70
     1
102
RTVSPost2010Prop36
280
     0
102
RTVSPost2010PropOp36
 70
     1
102
RTVSPost2010Prop37
 90
       50
102
RTVSPost2010PropOp37
 70
     1
102
RTVSPost2010Prop38
140
0.0
102
RTVSPost2010PropOp38
 70
     1
102
RTVSPost2010Prop39
140
1.0
102
RTVSPost2010PropOp39
 70
     1
102
RTVSPost2010Prop40
 90
        0
102
RTVSPost2010PropOp40
 70
     1
102
RTVSPost2010Prop41ColorIndex
 90
       18
102
RTVSPost2010Prop41ColorRGB
 90
        0
102
RTVSPost2010PropOp41
 70
     1
102
RTVSPost2010Prop42
 90
       50
102
RTVSPost2010PropOp42
 70
     1
102
RTVSPost2010Prop43
 90
        3
102
RTVSPost2010PropOp43
 70
     1
102
RTVSPost2010Prop44ColorIndex
 90
        5
102
RTVSPost2010Prop44ColorRGB
 90
      255
102
RTVSPost2010PropOp44
 70
     1
102
RTVSPost2010Prop45
280
     0
102
RTVSPost2010PropOp45
 70
     1
102
RTVSPost2010Prop46
 90
       50
102
RTVSPost2010PropOp46
 70
     1
102
RTVSPost2010Prop47
 90
       50
102
RTVSPost2010PropOp47
 70
     1
102
RTVSPost2010Prop48
 90
       50
102
RTVSPost2010PropOp48
 70
     1
102
RTVSPost2010Prop49
280
     0
102
RTVSPost2010PropOp49
 70
     1
102
RTVSPost2010Prop50
 90
       50
102
RTVSPost2010PropOp50
 70
     1
102
RTVSPost2010Prop51ColorIndex
 90
      256
102
RTVSPost2010Prop51ColorRGB
 90
-16777216
102
RTVSPost2010PropOp51
 70
     0
102
RTVSPost2010Prop52
140
1.0
102
RTVSPost2010PropOp52
 70
     0
102
RTVSPost2010Prop53
 90
        2
102
RTVSPost2010PropOp53
 70
     1
102
RTVSPost2010Prop54
  1
strokes_ogs.tif
102
RTVSPost2010PropOp54
 70
     1
102
RTVSPost2010Prop55
280
     0
102
RTVSPost2010PropOp55
 70
     1
102
RTVSPost2010Prop56
140
1.0
102
RTVSPost2010PropOp56
 70
     1
102
RTVSPost2010Prop57
140
1.0
102
RTVSPost2010PropOp57
 70
     1
102
RTVSPropertyOp0
 70
     1
102
RTVSPropertyOp1
 70
     1
102
RTVSPropertyOp2
 70
     1
102
RTVSPropertyOp3
 70
     1
102
RTVSPropertyOp4
 70
     1
102
RTVSPropertyOp5
 70
     1
102
RTVSPropertyOp6
 70
     1
102
RTVSPropertyOp7
 70
     1
102
RTVSPropertyOp8
 70
     1
102
RTVSPropertyOp9
 70
     1
102
RTVSPropertyOp10
 70
     1
102
RTVSPropertyOp11
 70
     1
102
RTVSPropertyOp12
 70
     1
102
RTVSPropertyOp13
 70
     1
102
RTVSPropertyOp14
 70
     1
102
RTVSPropertyOp15
 70
     1
102
RTVSPropertyOp16
 70
     1
102
RTVSPropertyOp17
 70
     1
102
RTVSPropertyOp18
 70
     1
102
RTVSPropertyOp19
 70
     1
102
RTVSPropertyOp20
 70
     1
102
RTVSPropertyOp21
 70
     1
102
RTVSPropertyOp22
 70
     1
102
RTVSPropertyOp23
 70
     1
102
RTVSPropertyOp24
 70
     1
102
RTVSPropertyOp25
 70
     1
102
RTVSPropertyOp26
 70
     1
102
RTVSPropertyOp27
 70
     1
102
RTVSPropertyOp28
 70
     1
102
RTVSPropertyOp29
 70
     1
102
RTVSPropertyOp30
 70
     1
102
RTVSPropertyOp31
 70
     1
102
RTVSPropertyOp32
 70
     1
102
RTVSPropertyOp33
 70
     1
102
RTVSPropertyOp34
 70
     1
102
RTVSPropertyOp35
 70
     1
102
RTVSPropertyOp36
 70
     1
102
RTVSPropertyOp37
 70
     1
102
RTVSPropertyOp38
 70
     1
102
RTVSPropertyOp39
 70
     1
102
RTVSPropertyOp40
 70
     1
102
RTVSPropertyOp41
 70
     1
102
RTVSPropertyOp42
 70
     1
102
RTVSPropertyOp43
 70
     1
102
RTVSPropertyOp44
 70
     1
102
RTVSPropertyOp45
 70
     1
102
RTVSPropertyOp46
 70
     1
102
RTVSPropertyOp47
 70
     1
102
RTVSPropertyOp48
 70
     1
102
RTVSPropertyOp49
 70
     1
102
RTVSPropertyOp50
 70
     1
102
RTVSPropertyOp51
 70
     0
102
RTVSPropertyOp52
 70
     0
102
RTVSPropertyOp53
 70
     1
102
RTVSPropertyOp54
 70
     1
102
RTVSPropertyOp55
 70
     1
102
RTVSPropertyOp56
 70
     1
102
RTVSPropertyOp57
 70
     1
102
RTVSPropertyOp58
 70
     1
102
RTVSPropertyOp59
 70
     1
102
RTVSPropertyOp60
 70
     1
102
RTVSPropertyOp61
 70
     1
102
RTVSPropertyOp62
 70
     1
  0
XRECORD
  5
58E8
102
{ACAD_REACTORS
330
58E7
102
}
330
58E7
100
AcDbXrecord
280
     1
102
RTVSPost2010Prop28
280
     0
102
RTVSPost2010PropOp28
 70
     1
102
RTVSPost2010Prop29
280
     1
102
RTVSPost2010PropOp29
 70
     1
102
RTVSPost2010Prop30
280
     1
102
RTVSPost2010PropOp30
 70
     1
102
RTVSPost2010Prop31
280
     0
102
RTVSPost2010PropOp31
 70
     1
102
RTVSPost2010Prop32
280
     0
102
RTVSPost2010PropOp32
 70
     1
102
RTVSPost2010Prop33
280
     0
102
RTVSPost2010PropOp33
 70
     1
102
RTVSPost2010Prop34
280
     0
102
RTVSPost2010PropOp34
 70
     1
102
RTVSPost2010Prop35
280
     0
102
RTVSPost2010PropOp35
 70
     1
102
RTVSPost2010Prop36
280
     0
102
RTVSPost2010PropOp36
 70
     1
102
RTVSPost2010Prop37
 90
       50
102
RTVSPost2010PropOp37
 70
     1
102
RTVSPost2010Prop38
140
0.0
102
RTVSPost2010PropOp38
 70
     1
102
RTVSPost2010Prop39
140
1.0
102
RTVSPost2010PropOp39
 70
     1
102
RTVSPost2010Prop40
 90
        0
102
RTVSPost2010PropOp40
 70
     1
102
RTVSPost2010Prop41ColorIndex
 90
       18
102
RTVSPost2010Prop41ColorRGB
 90
        0
102
RTVSPost2010PropOp41
 70
     1
102
RTVSPost2010Prop42
 90
       50
102
RTVSPost2010PropOp42
 70
     1
102
RTVSPost2010Prop43
 90
        3
102
RTVSPost2010PropOp43
 70
     1
102
RTVSPost2010Prop44ColorIndex
 90
        5
102
RTVSPost2010Prop44ColorRGB
 90
      255
102
RTVSPost2010PropOp44
 70
     1
102
RTVSPost2010Prop45
280
     0
102
RTVSPost2010PropOp45
 70
     1
102
RTVSPost2010Prop46
 90
       50
102
RTVSPost2010PropOp46
 70
     1
102
RTVSPost2010Prop47
 90
       50
102
RTVSPost2010PropOp47
 70
     1
102
RTVSPost2010Prop48
 90
       50
102
RTVSPost2010PropOp48
 70
     1
102
RTVSPost2010Prop49
280
     0
102
RTVSPost2010PropOp49
 70
     1
102
RTVSPost2010Prop50
 90
       50
102
RTVSPost2010PropOp50
 70
     1
102
RTVSPost2010Prop51ColorIndex
 90
      256
102
RTVSPost2010Prop51ColorRGB
 90
-16777216
102
RTVSPost2010PropOp51
 70
     0
102
RTVSPost2010Prop52
140
1.0
102
RTVSPost2010PropOp52
 70
     0
102
RTVSPost2010Prop53
 90
        2
102
RTVSPost2010PropOp53
 70
     1
102
RTVSPost2010Prop54
  1
strokes_ogs.tif
102
RTVSPost2010PropOp54
 70
     1
102
RTVSPost2010Prop55
280
     0
102
RTVSPost2010PropOp55
 70
     1
102
RTVSPost2010Prop56
140
1.0
102
RTVSPost2010PropOp56
 70
     1
102
RTVSPost2010Prop57
140
1.0
102
RTVSPost2010PropOp57
 70
     1
102
RTVSPropertyOp0
 70
     0
102
RTVSPropertyOp1
 70
     0
102
RTVSPropertyOp2
 70
     0
102
RTVSPropertyOp3
 70
     0
102
RTVSPropertyOp4
 70
     0
102
RTVSPropertyOp5
 70
     0
102
RTVSPropertyOp6
 70
     0
102
RTVSPropertyOp7
 70
     0
102
RTVSPropertyOp8
 70
     0
102
RTVSPropertyOp9
 70
     0
102
RTVSPropertyOp10
 70
     0
102
RTVSPropertyOp11
 70
     0
102
RTVSPropertyOp12
 70
     0
102
RTVSPropertyOp13
 70
     0
102
RTVSPropertyOp14
 70
     2
102
RTVSPropertyOp15
 70
     0
102
RTVSPropertyOp16
 70
     0
102
RTVSPropertyOp17
 70
     0
102
RTVSPropertyOp18
 70
     0
102
RTVSPropertyOp19
 70
     0
102
RTVSPropertyOp20
 70
     0
102
RTVSPropertyOp21
 70
     0
102
RTVSPropertyOp22
 70
     0
102
RTVSPropertyOp23
 70
     0
102
RTVSPropertyOp24
 70
     0
102
RTVSPropertyOp25
 70
     0
102
RTVSPropertyOp26
 70
     0
102
RTVSPropertyOp27
 70
     0
102
RTVSPropertyOp28
 70
     1
102
RTVSPropertyOp29
 70
     1
102
RTVSPropertyOp30
 70
     1
102
RTVSPropertyOp31
 70
     1
102
RTVSPropertyOp32
 70
     1
102
RTVSPropertyOp33
 70
     1
102
RTVSPropertyOp34
 70
     1
102
RTVSPropertyOp35
 70
     1
102
RTVSPropertyOp36
 70
     1
102
RTVSPropertyOp37
 70
     1
102
RTVSPropertyOp38
 70
     1
102
RTVSPropertyOp39
 70
     1
102
RTVSPropertyOp40
 70
     1
102
RTVSPropertyOp41
 70
     1
102
RTVSPropertyOp42
 70
     1
102
RTVSPropertyOp43
 70
     1
102
RTVSPropertyOp44
 70
     1
102
RTVSPropertyOp45
 70
     1
102
RTVSPropertyOp46
 70
     1
102
RTVSPropertyOp47
 70
     1
102
RTVSPropertyOp48
 70
     1
102
RTVSPropertyOp49
 70
     1
102
RTVSPropertyOp50
 70
     1
102
RTVSPropertyOp51
 70
     0
102
RTVSPropertyOp52
 70
     0
102
RTVSPropertyOp53
 70
     1
102
RTVSPropertyOp54
 70
     1
102
RTVSPropertyOp55
 70
     1
102
RTVSPropertyOp56
 70
     1
102
RTVSPropertyOp57
 70
     1
102
RTVSPropertyOp58
 70
     1
102
RTVSPropertyOp59
 70
     1
102
RTVSPropertyOp60
 70
     1
102
RTVSPropertyOp61
 70
     1
102
RTVSPropertyOp62
 70
     1
  0
XRECORD
  5
58E0
102
{ACAD_REACTORS
330
58DF
102
}
330
58DF
100
AcDbXrecord
280
     1
102
RTVSPost2010Prop28
280
     0
102
RTVSPost2010PropOp28
 70
     1
102
RTVSPost2010Prop29
280
     1
102
RTVSPost2010PropOp29
 70
     1
102
RTVSPost2010Prop30
280
     1
102
RTVSPost2010PropOp30
 70
     1
102
RTVSPost2010Prop31
280
     0
102
RTVSPost2010PropOp31
 70
     1
102
RTVSPost2010Prop32
280
     0
102
RTVSPost2010PropOp32
 70
     1
102
RTVSPost2010Prop33
280
     0
102
RTVSPost2010PropOp33
 70
     1
102
RTVSPost2010Prop34
280
     0
102
RTVSPost2010PropOp34
 70
     1
102
RTVSPost2010Prop35
280
     0
102
RTVSPost2010PropOp35
 70
     1
102
RTVSPost2010Prop36
280
     0
102
RTVSPost2010PropOp36
 70
     1
102
RTVSPost2010Prop37
 90
       50
102
RTVSPost2010PropOp37
 70
     1
102
RTVSPost2010Prop38
140
0.0
102
RTVSPost2010PropOp38
 70
     1
102
RTVSPost2010Prop39
140
1.0
102
RTVSPost2010PropOp39
 70
     1
102
RTVSPost2010Prop40
 90
        0
102
RTVSPost2010PropOp40
 70
     1
102
RTVSPost2010Prop41ColorIndex
 90
       18
102
RTVSPost2010Prop41ColorRGB
 90
        0
102
RTVSPost2010PropOp41
 70
     1
102
RTVSPost2010Prop42
 90
       50
102
RTVSPost2010PropOp42
 70
     1
102
RTVSPost2010Prop43
 90
        3
102
RTVSPost2010PropOp43
 70
     1
102
RTVSPost2010Prop44ColorIndex
 90
        5
102
RTVSPost2010Prop44ColorRGB
 90
      255
102
RTVSPost2010PropOp44
 70
     1
102
RTVSPost2010Prop45
280
     0
102
RTVSPost2010PropOp45
 70
     1
102
RTVSPost2010Prop46
 90
       50
102
RTVSPost2010PropOp46
 70
     1
102
RTVSPost2010Prop47
 90
       50
102
RTVSPost2010PropOp47
 70
     1
102
RTVSPost2010Prop48
 90
       50
102
RTVSPost2010PropOp48
 70
     1
102
RTVSPost2010Prop49
280
     0
102
RTVSPost2010PropOp49
 70
     1
102
RTVSPost2010Prop50
 90
       50
102
RTVSPost2010PropOp50
 70
     1
102
RTVSPost2010Prop51ColorIndex
 90
      256
102
RTVSPost2010Prop51ColorRGB
 90
-16777216
102
RTVSPost2010PropOp51
 70
     0
102
RTVSPost2010Prop52
140
1.0
102
RTVSPost2010PropOp52
 70
     0
102
RTVSPost2010Prop53
 90
        2
102
RTVSPost2010PropOp53
 70
     1
102
RTVSPost2010Prop54
  1
strokes_ogs.tif
102
RTVSPost2010PropOp54
 70
     1
102
RTVSPost2010Prop55
280
     0
102
RTVSPost2010PropOp55
 70
     1
102
RTVSPost2010Prop56
140
1.0
102
RTVSPost2010PropOp56
 70
     1
102
RTVSPost2010Prop57
140
1.0
102
RTVSPost2010PropOp57
 70
     1
102
RTVSPropertyOp0
 70
     1
102
RTVSPropertyOp1
 70
     1
102
RTVSPropertyOp2
 70
     1
102
RTVSPropertyOp3
 70
     1
102
RTVSPropertyOp4
 70
     1
102
RTVSPropertyOp5
 70
     1
102
RTVSPropertyOp6
 70
     1
102
RTVSPropertyOp7
 70
     1
102
RTVSPropertyOp8
 70
     1
102
RTVSPropertyOp9
 70
     1
102
RTVSPropertyOp10
 70
     1
102
RTVSPropertyOp11
 70
     1
102
RTVSPropertyOp12
 70
     1
102
RTVSPropertyOp13
 70
     1
102
RTVSPropertyOp14
 70
     1
102
RTVSPropertyOp15
 70
     1
102
RTVSPropertyOp16
 70
     1
102
RTVSPropertyOp17
 70
     1
102
RTVSPropertyOp18
 70
     1
102
RTVSPropertyOp19
 70
     1
102
RTVSPropertyOp20
 70
     1
102
RTVSPropertyOp21
 70
     1
102
RTVSPropertyOp22
 70
     1
102
RTVSPropertyOp23
 70
     1
102
RTVSPropertyOp24
 70
     1
102
RTVSPropertyOp25
 70
     1
102
RTVSPropertyOp26
 70
     1
102
RTVSPropertyOp27
 70
     1
102
RTVSPropertyOp28
 70
     1
102
RTVSPropertyOp29
 70
     1
102
RTVSPropertyOp30
 70
     1
102
RTVSPropertyOp31
 70
     1
102
RTVSPropertyOp32
 70
     1
102
RTVSPropertyOp33
 70
     1
102
RTVSPropertyOp34
 70
     1
102
RTVSPropertyOp35
 70
     1
102
RTVSPropertyOp36
 70
     1
102
RTVSPropertyOp37
 70
     1
102
RTVSPropertyOp38
 70
     1
102
RTVSPropertyOp39
 70
     1
102
RTVSPropertyOp40
 70
     1
102
RTVSPropertyOp41
 70
     1
102
RTVSPropertyOp42
 70
     1
102
RTVSPropertyOp43
 70
     1
102
RTVSPropertyOp44
 70
     1
102
RTVSPropertyOp45
 70
     1
102
RTVSPropertyOp46
 70
     1
102
RTVSPropertyOp47
 70
     1
102
RTVSPropertyOp48
 70
     1
102
RTVSPropertyOp49
 70
     1
102
RTVSPropertyOp50
 70
     1
102
RTVSPropertyOp51
 70
     0
102
RTVSPropertyOp52
 70
     0
102
RTVSPropertyOp53
 70
     1
102
RTVSPropertyOp54
 70
     1
102
RTVSPropertyOp55
 70
     1
102
RTVSPropertyOp56
 70
     1
102
RTVSPropertyOp57
 70
     1
102
RTVSPropertyOp58
 70
     1
102
RTVSPropertyOp59
 70
     1
102
RTVSPropertyOp60
 70
     1
102
RTVSPropertyOp61
 70
     1
102
RTVSPropertyOp62
 70
     1
  0
XRECORD
  5
58C4
102
{ACAD_REACTORS
330
58C3
102
}
330
58C3
100
AcDbXrecord
280
     1
102
RTVSPost2010Prop28
280
     0
102
RTVSPost2010PropOp28
 70
     1
102
RTVSPost2010Prop29
280
     1
102
RTVSPost2010PropOp29
 70
     1
102
RTVSPost2010Prop30
280
     1
102
RTVSPost2010PropOp30
 70
     1
102
RTVSPost2010Prop31
280
     0
102
RTVSPost2010PropOp31
 70
     1
102
RTVSPost2010Prop32
280
     0
102
RTVSPost2010PropOp32
 70
     1
102
RTVSPost2010Prop33
280
     0
102
RTVSPost2010PropOp33
 70
     1
102
RTVSPost2010Prop34
280
     0
102
RTVSPost2010PropOp34
 70
     1
102
RTVSPost2010Prop35
280
     0
102
RTVSPost2010PropOp35
 70
     1
102
RTVSPost2010Prop36
280
     0
102
RTVSPost2010PropOp36
 70
     1
102
RTVSPost2010Prop37
 90
       50
102
RTVSPost2010PropOp37
 70
     1
102
RTVSPost2010Prop38
140
0.0
102
RTVSPost2010PropOp38
 70
     1
102
RTVSPost2010Prop39
140
1.0
102
RTVSPost2010PropOp39
 70
     1
102
RTVSPost2010Prop40
 90
        0
102
RTVSPost2010PropOp40
 70
     1
102
RTVSPost2010Prop41ColorIndex
 90
       18
102
RTVSPost2010Prop41ColorRGB
 90
        0
102
RTVSPost2010PropOp41
 70
     1
102
RTVSPost2010Prop42
 90
       50
102
RTVSPost2010PropOp42
 70
     1
102
RTVSPost2010Prop43
 90
        3
102
RTVSPost2010PropOp43
 70
     1
102
RTVSPost2010Prop44ColorIndex
 90
        5
102
RTVSPost2010Prop44ColorRGB
 90
      255
102
RTVSPost2010PropOp44
 70
     1
102
RTVSPost2010Prop45
280
     0
102
RTVSPost2010PropOp45
 70
     1
102
RTVSPost2010Prop46
 90
       50
102
RTVSPost2010PropOp46
 70
     1
102
RTVSPost2010Prop47
 90
       50
102
RTVSPost2010PropOp47
 70
     1
102
RTVSPost2010Prop48
 90
       50
102
RTVSPost2010PropOp48
 70
     1
102
RTVSPost2010Prop49
280
     0
102
RTVSPost2010PropOp49
 70
     1
102
RTVSPost2010Prop50
 90
       50
102
RTVSPost2010PropOp50
 70
     1
102
RTVSPost2010Prop51ColorIndex
 90
      256
102
RTVSPost2010Prop51ColorRGB
 90
-16777216
102
RTVSPost2010PropOp51
 70
     0
102
RTVSPost2010Prop52
140
1.0
102
RTVSPost2010PropOp52
 70
     0
102
RTVSPost2010Prop53
 90
        2
102
RTVSPost2010PropOp53
 70
     1
102
RTVSPost2010Prop54
  1
strokes_ogs.tif
102
RTVSPost2010PropOp54
 70
     1
102
RTVSPost2010Prop55
280
     0
102
RTVSPost2010PropOp55
 70
     1
102
RTVSPost2010Prop56
140
1.0
102
RTVSPost2010PropOp56
 70
     1
102
RTVSPost2010Prop57
140
1.0
102
RTVSPost2010PropOp57
 70
     1
102
RTVSPropertyOp0
 70
     1
102
RTVSPropertyOp1
 70
     1
102
RTVSPropertyOp2
 70
     1
102
RTVSPropertyOp3
 70
     1
102
RTVSPropertyOp4
 70
     1
102
RTVSPropertyOp5
 70
     1
102
RTVSPropertyOp6
 70
     1
102
RTVSPropertyOp7
 70
     1
102
RTVSPropertyOp8
 70
     1
102
RTVSPropertyOp9
 70
     1
102
RTVSPropertyOp10
 70
     1
102
RTVSPropertyOp11
 70
     1
102
RTVSPropertyOp12
 70
     1
102
RTVSPropertyOp13
 70
     1
102
RTVSPropertyOp14
 70
     1
102
RTVSPropertyOp15
 70
     1
102
RTVSPropertyOp16
 70
     1
102
RTVSPropertyOp17
 70
     1
102
RTVSPropertyOp18
 70
     1
102
RTVSPropertyOp19
 70
     1
102
RTVSPropertyOp20
 70
     1
102
RTVSPropertyOp21
 70
     1
102
RTVSPropertyOp22
 70
     1
102
RTVSPropertyOp23
 70
     1
102
RTVSPropertyOp24
 70
     1
102
RTVSPropertyOp25
 70
     1
102
RTVSPropertyOp26
 70
     1
102
RTVSPropertyOp27
 70
     1
102
RTVSPropertyOp28
 70
     1
102
RTVSPropertyOp29
 70
     1
102
RTVSPropertyOp30
 70
     1
102
RTVSPropertyOp31
 70
     1
102
RTVSPropertyOp32
 70
     1
102
RTVSPropertyOp33
 70
     1
102
RTVSPropertyOp34
 70
     1
102
RTVSPropertyOp35
 70
     1
102
RTVSPropertyOp36
 70
     1
102
RTVSPropertyOp37
 70
     1
102
RTVSPropertyOp38
 70
     1
102
RTVSPropertyOp39
 70
     1
102
RTVSPropertyOp40
 70
     1
102
RTVSPropertyOp41
 70
     1
102
RTVSPropertyOp42
 70
     1
102
RTVSPropertyOp43
 70
     1
102
RTVSPropertyOp44
 70
     1
102
RTVSPropertyOp45
 70
     1
102
RTVSPropertyOp46
 70
     1
102
RTVSPropertyOp47
 70
     1
102
RTVSPropertyOp48
 70
     1
102
RTVSPropertyOp49
 70
     1
102
RTVSPropertyOp50
 70
     1
102
RTVSPropertyOp51
 70
     0
102
RTVSPropertyOp52
 70
     0
102
RTVSPropertyOp53
 70
     1
102
RTVSPropertyOp54
 70
     1
102
RTVSPropertyOp55
 70
     1
102
RTVSPropertyOp56
 70
     1
102
RTVSPropertyOp57
 70
     1
102
RTVSPropertyOp58
 70
     1
102
RTVSPropertyOp59
 70
     1
102
RTVSPropertyOp60
 70
     1
102
RTVSPropertyOp61
 70
     1
102
RTVSPropertyOp62
 70
     1
  0
XRECORD
  5
58C6
102
{ACAD_REACTORS
330
58C5
102
}
330
58C5
100
AcDbXrecord
280
     1
102
RTVSPost2010Prop28
280
     0
102
RTVSPost2010PropOp28
 70
     1
102
RTVSPost2010Prop29
280
     1
102
RTVSPost2010PropOp29
 70
     1
102
RTVSPost2010Prop30
280
     1
102
RTVSPost2010PropOp30
 70
     1
102
RTVSPost2010Prop31
280
     0
102
RTVSPost2010PropOp31
 70
     1
102
RTVSPost2010Prop32
280
     0
102
RTVSPost2010PropOp32
 70
     1
102
RTVSPost2010Prop33
280
     0
102
RTVSPost2010PropOp33
 70
     1
102
RTVSPost2010Prop34
280
     0
102
RTVSPost2010PropOp34
 70
     1
102
RTVSPost2010Prop35
280
     0
102
RTVSPost2010PropOp35
 70
     1
102
RTVSPost2010Prop36
280
     0
102
RTVSPost2010PropOp36
 70
     1
102
RTVSPost2010Prop37
 90
       50
102
RTVSPost2010PropOp37
 70
     1
102
RTVSPost2010Prop38
140
0.0
102
RTVSPost2010PropOp38
 70
     1
102
RTVSPost2010Prop39
140
1.0
102
RTVSPost2010PropOp39
 70
     1
102
RTVSPost2010Prop40
 90
        0
102
RTVSPost2010PropOp40
 70
     1
102
RTVSPost2010Prop41ColorIndex
 90
       18
102
RTVSPost2010Prop41ColorRGB
 90
        0
102
RTVSPost2010PropOp41
 70
     1
102
RTVSPost2010Prop42
 90
       50
102
RTVSPost2010PropOp42
 70
     1
102
RTVSPost2010Prop43
 90
        3
102
RTVSPost2010PropOp43
 70
     1
102
RTVSPost2010Prop44ColorIndex
 90
        5
102
RTVSPost2010Prop44ColorRGB
 90
      255
102
RTVSPost2010PropOp44
 70
     1
102
RTVSPost2010Prop45
280
     0
102
RTVSPost2010PropOp45
 70
     1
102
RTVSPost2010Prop46
 90
       50
102
RTVSPost2010PropOp46
 70
     1
102
RTVSPost2010Prop47
 90
       50
102
RTVSPost2010PropOp47
 70
     1
102
RTVSPost2010Prop48
 90
       50
102
RTVSPost2010PropOp48
 70
     1
102
RTVSPost2010Prop49
280
     0
102
RTVSPost2010PropOp49
 70
     1
102
RTVSPost2010Prop50
 90
       50
102
RTVSPost2010PropOp50
 70
     1
102
RTVSPost2010Prop51ColorIndex
 90
      256
102
RTVSPost2010Prop51ColorRGB
 90
-16777216
102
RTVSPost2010PropOp51
 70
     0
102
RTVSPost2010Prop52
140
1.0
102
RTVSPost2010PropOp52
 70
     0
102
RTVSPost2010Prop53
 90
        2
102
RTVSPost2010PropOp53
 70
     1
102
RTVSPost2010Prop54
  1
strokes_ogs.tif
102
RTVSPost2010PropOp54
 70
     1
102
RTVSPost2010Prop55
280
     0
102
RTVSPost2010PropOp55
 70
     1
102
RTVSPost2010Prop56
140
1.0
102
RTVSPost2010PropOp56
 70
     1
102
RTVSPost2010Prop57
140
1.0
102
RTVSPost2010PropOp57
 70
     1
102
RTVSPropertyOp0
 70
     1
102
RTVSPropertyOp1
 70
     1
102
RTVSPropertyOp2
 70
     1
102
RTVSPropertyOp3
 70
     1
102
RTVSPropertyOp4
 70
     1
102
RTVSPropertyOp5
 70
     1
102
RTVSPropertyOp6
 70
     1
102
RTVSPropertyOp7
 70
     1
102
RTVSPropertyOp8
 70
     1
102
RTVSPropertyOp9
 70
     1
102
RTVSPropertyOp10
 70
     1
102
RTVSPropertyOp11
 70
     1
102
RTVSPropertyOp12
 70
     1
102
RTVSPropertyOp13
 70
     1
102
RTVSPropertyOp14
 70
     1
102
RTVSPropertyOp15
 70
     1
102
RTVSPropertyOp16
 70
     1
102
RTVSPropertyOp17
 70
     1
102
RTVSPropertyOp18
 70
     1
102
RTVSPropertyOp19
 70
     1
102
RTVSPropertyOp20
 70
     1
102
RTVSPropertyOp21
 70
     1
102
RTVSPropertyOp22
 70
     1
102
RTVSPropertyOp23
 70
     1
102
RTVSPropertyOp24
 70
     1
102
RTVSPropertyOp25
 70
     1
102
RTVSPropertyOp26
 70
     1
102
RTVSPropertyOp27
 70
     1
102
RTVSPropertyOp28
 70
     1
102
RTVSPropertyOp29
 70
     1
102
RTVSPropertyOp30
 70
     1
102
RTVSPropertyOp31
 70
     1
102
RTVSPropertyOp32
 70
     1
102
RTVSPropertyOp33
 70
     1
102
RTVSPropertyOp34
 70
     1
102
RTVSPropertyOp35
 70
     1
102
RTVSPropertyOp36
 70
     1
102
RTVSPropertyOp37
 70
     1
102
RTVSPropertyOp38
 70
     1
102
RTVSPropertyOp39
 70
     1
102
RTVSPropertyOp40
 70
     1
102
RTVSPropertyOp41
 70
     1
102
RTVSPropertyOp42
 70
     1
102
RTVSPropertyOp43
 70
     1
102
RTVSPropertyOp44
 70
     1
102
RTVSPropertyOp45
 70
     1
102
RTVSPropertyOp46
 70
     1
102
RTVSPropertyOp47
 70
     1
102
RTVSPropertyOp48
 70
     1
102
RTVSPropertyOp49
 70
     1
102
RTVSPropertyOp50
 70
     1
102
RTVSPropertyOp51
 70
     0
102
RTVSPropertyOp52
 70
     0
102
RTVSPropertyOp53
 70
     1
102
RTVSPropertyOp54
 70
     1
102
RTVSPropertyOp55
 70
     1
102
RTVSPropertyOp56
 70
     1
102
RTVSPropertyOp57
 70
     1
102
RTVSPropertyOp58
 70
     1
102
RTVSPropertyOp59
 70
     1
102
RTVSPropertyOp60
 70
     1
102
RTVSPropertyOp61
 70
     1
102
RTVSPropertyOp62
 70
     1
  0
XRECORD
  5
58C8
102
{ACAD_REACTORS
330
58C7
102
}
330
58C7
100
AcDbXrecord
280
     1
102
RTVSPost2010Prop28
280
     0
102
RTVSPost2010PropOp28
 70
     1
102
RTVSPost2010Prop29
280
     1
102
RTVSPost2010PropOp29
 70
     1
102
RTVSPost2010Prop30
280
     1
102
RTVSPost2010PropOp30
 70
     1
102
RTVSPost2010Prop31
280
     0
102
RTVSPost2010PropOp31
 70
     1
102
RTVSPost2010Prop32
280
     0
102
RTVSPost2010PropOp32
 70
     1
102
RTVSPost2010Prop33
280
     0
102
RTVSPost2010PropOp33
 70
     1
102
RTVSPost2010Prop34
280
     0
102
RTVSPost2010PropOp34
 70
     1
102
RTVSPost2010Prop35
280
     0
102
RTVSPost2010PropOp35
 70
     1
102
RTVSPost2010Prop36
280
     0
102
RTVSPost2010PropOp36
 70
     1
102
RTVSPost2010Prop37
 90
       50
102
RTVSPost2010PropOp37
 70
     1
102
RTVSPost2010Prop38
140
0.0
102
RTVSPost2010PropOp38
 70
     1
102
RTVSPost2010Prop39
140
1.0
102
RTVSPost2010PropOp39
 70
     1
102
RTVSPost2010Prop40
 90
        0
102
RTVSPost2010PropOp40
 70
     1
102
RTVSPost2010Prop41ColorIndex
 90
       18
102
RTVSPost2010Prop41ColorRGB
 90
        0
102
RTVSPost2010PropOp41
 70
     1
102
RTVSPost2010Prop42
 90
       50
102
RTVSPost2010PropOp42
 70
     1
102
RTVSPost2010Prop43
 90
        3
102
RTVSPost2010PropOp43
 70
     1
102
RTVSPost2010Prop44ColorIndex
 90
        5
102
RTVSPost2010Prop44ColorRGB
 90
      255
102
RTVSPost2010PropOp44
 70
     1
102
RTVSPost2010Prop45
280
     0
102
RTVSPost2010PropOp45
 70
     1
102
RTVSPost2010Prop46
 90
       50
102
RTVSPost2010PropOp46
 70
     1
102
RTVSPost2010Prop47
 90
       50
102
RTVSPost2010PropOp47
 70
     1
102
RTVSPost2010Prop48
 90
       50
102
RTVSPost2010PropOp48
 70
     1
102
RTVSPost2010Prop49
280
     0
102
RTVSPost2010PropOp49
 70
     1
102
RTVSPost2010Prop50
 90
       50
102
RTVSPost2010PropOp50
 70
     1
102
RTVSPost2010Prop51ColorIndex
 90
      256
102
RTVSPost2010Prop51ColorRGB
 90
-16777216
102
RTVSPost2010PropOp51
 70
     0
102
RTVSPost2010Prop52
140
1.0
102
RTVSPost2010PropOp52
 70
     0
102
RTVSPost2010Prop53
 90
        2
102
RTVSPost2010PropOp53
 70
     1
102
RTVSPost2010Prop54
  1
strokes_ogs.tif
102
RTVSPost2010PropOp54
 70
     1
102
RTVSPost2010Prop55
280
     0
102
RTVSPost2010PropOp55
 70
     1
102
RTVSPost2010Prop56
140
1.0
102
RTVSPost2010PropOp56
 70
     1
102
RTVSPost2010Prop57
140
1.0
102
RTVSPost2010PropOp57
 70
     1
102
RTVSPropertyOp0
 70
     1
102
RTVSPropertyOp1
 70
     1
102
RTVSPropertyOp2
 70
     1
102
RTVSPropertyOp3
 70
     1
102
RTVSPropertyOp4
 70
     1
102
RTVSPropertyOp5
 70
     1
102
RTVSPropertyOp6
 70
     1
102
RTVSPropertyOp7
 70
     1
102
RTVSPropertyOp8
 70
     1
102
RTVSPropertyOp9
 70
     1
102
RTVSPropertyOp10
 70
     1
102
RTVSPropertyOp11
 70
     1
102
RTVSPropertyOp12
 70
     1
102
RTVSPropertyOp13
 70
     1
102
RTVSPropertyOp14
 70
     1
102
RTVSPropertyOp15
 70
     1
102
RTVSPropertyOp16
 70
     1
102
RTVSPropertyOp17
 70
     1
102
RTVSPropertyOp18
 70
     1
102
RTVSPropertyOp19
 70
     1
102
RTVSPropertyOp20
 70
     1
102
RTVSPropertyOp21
 70
     1
102
RTVSPropertyOp22
 70
     1
102
RTVSPropertyOp23
 70
     1
102
RTVSPropertyOp24
 70
     1
102
RTVSPropertyOp25
 70
     1
102
RTVSPropertyOp26
 70
     1
102
RTVSPropertyOp27
 70
     1
102
RTVSPropertyOp28
 70
     1
102
RTVSPropertyOp29
 70
     1
102
RTVSPropertyOp30
 70
     1
102
RTVSPropertyOp31
 70
     1
102
RTVSPropertyOp32
 70
     1
102
RTVSPropertyOp33
 70
     1
102
RTVSPropertyOp34
 70
     1
102
RTVSPropertyOp35
 70
     1
102
RTVSPropertyOp36
 70
     1
102
RTVSPropertyOp37
 70
     1
102
RTVSPropertyOp38
 70
     1
102
RTVSPropertyOp39
 70
     1
102
RTVSPropertyOp40
 70
     1
102
RTVSPropertyOp41
 70
     1
102
RTVSPropertyOp42
 70
     1
102
RTVSPropertyOp43
 70
     1
102
RTVSPropertyOp44
 70
     1
102
RTVSPropertyOp45
 70
     1
102
RTVSPropertyOp46
 70
     1
102
RTVSPropertyOp47
 70
     1
102
RTVSPropertyOp48
 70
     1
102
RTVSPropertyOp49
 70
     1
102
RTVSPropertyOp50
 70
     1
102
RTVSPropertyOp51
 70
     0
102
RTVSPropertyOp52
 70
     0
102
RTVSPropertyOp53
 70
     1
102
RTVSPropertyOp54
 70
     1
102
RTVSPropertyOp55
 70
     1
102
RTVSPropertyOp56
 70
     1
102
RTVSPropertyOp57
 70
     1
102
RTVSPropertyOp58
 70
     1
102
RTVSPropertyOp59
 70
     1
102
RTVSPropertyOp60
 70
     1
102
RTVSPropertyOp61
 70
     1
102
RTVSPropertyOp62
 70
     1
  0
XRECORD
  5
58CA
102
{ACAD_REACTORS
330
58C9
102
}
330
58C9
100
AcDbXrecord
280
     1
102
RTVSPost2010Prop28
280
     0
102
RTVSPost2010PropOp28
 70
     1
102
RTVSPost2010Prop29
280
     1
102
RTVSPost2010PropOp29
 70
     1
102
RTVSPost2010Prop30
280
     1
102
RTVSPost2010PropOp30
 70
     1
102
RTVSPost2010Prop31
280
     0
102
RTVSPost2010PropOp31
 70
     1
102
RTVSPost2010Prop32
280
     0
102
RTVSPost2010PropOp32
 70
     1
102
RTVSPost2010Prop33
280
     0
102
RTVSPost2010PropOp33
 70
     1
102
RTVSPost2010Prop34
280
     0
102
RTVSPost2010PropOp34
 70
     1
102
RTVSPost2010Prop35
280
     0
102
RTVSPost2010PropOp35
 70
     1
102
RTVSPost2010Prop36
280
     0
102
RTVSPost2010PropOp36
 70
     1
102
RTVSPost2010Prop37
 90
       50
102
RTVSPost2010PropOp37
 70
     1
102
RTVSPost2010Prop38
140
0.0
102
RTVSPost2010PropOp38
 70
     1
102
RTVSPost2010Prop39
140
1.0
102
RTVSPost2010PropOp39
 70
     1
102
RTVSPost2010Prop40
 90
        0
102
RTVSPost2010PropOp40
 70
     1
102
RTVSPost2010Prop41ColorIndex
 90
       18
102
RTVSPost2010Prop41ColorRGB
 90
        0
102
RTVSPost2010PropOp41
 70
     1
102
RTVSPost2010Prop42
 90
       50
102
RTVSPost2010PropOp42
 70
     1
102
RTVSPost2010Prop43
 90
        3
102
RTVSPost2010PropOp43
 70
     1
102
RTVSPost2010Prop44ColorIndex
 90
        5
102
RTVSPost2010Prop44ColorRGB
 90
      255
102
RTVSPost2010PropOp44
 70
     1
102
RTVSPost2010Prop45
280
     0
102
RTVSPost2010PropOp45
 70
     1
102
RTVSPost2010Prop46
 90
       50
102
RTVSPost2010PropOp46
 70
     1
102
RTVSPost2010Prop47
 90
       50
102
RTVSPost2010PropOp47
 70
     1
102
RTVSPost2010Prop48
 90
       50
102
RTVSPost2010PropOp48
 70
     1
102
RTVSPost2010Prop49
280
     0
102
RTVSPost2010PropOp49
 70
     1
102
RTVSPost2010Prop50
 90
       50
102
RTVSPost2010PropOp50
 70
     1
102
RTVSPost2010Prop51ColorIndex
 90
      256
102
RTVSPost2010Prop51ColorRGB
 90
-16777216
102
RTVSPost2010PropOp51
 70
     0
102
RTVSPost2010Prop52
140
1.0
102
RTVSPost2010PropOp52
 70
     0
102
RTVSPost2010Prop53
 90
        2
102
RTVSPost2010PropOp53
 70
     1
102
RTVSPost2010Prop54
  1
strokes_ogs.tif
102
RTVSPost2010PropOp54
 70
     1
102
RTVSPost2010Prop55
280
     0
102
RTVSPost2010PropOp55
 70
     1
102
RTVSPost2010Prop56
140
1.0
102
RTVSPost2010PropOp56
 70
     1
102
RTVSPost2010Prop57
140
1.0
102
RTVSPost2010PropOp57
 70
     1
102
RTVSPropertyOp0
 70
     1
102
RTVSPropertyOp1
 70
     1
102
RTVSPropertyOp2
 70
     1
102
RTVSPropertyOp3
 70
     1
102
RTVSPropertyOp4
 70
     1
102
RTVSPropertyOp5
 70
     1
102
RTVSPropertyOp6
 70
     1
102
RTVSPropertyOp7
 70
     1
102
RTVSPropertyOp8
 70
     1
102
RTVSPropertyOp9
 70
     1
102
RTVSPropertyOp10
 70
     1
102
RTVSPropertyOp11
 70
     1
102
RTVSPropertyOp12
 70
     1
102
RTVSPropertyOp13
 70
     1
102
RTVSPropertyOp14
 70
     1
102
RTVSPropertyOp15
 70
     1
102
RTVSPropertyOp16
 70
     1
102
RTVSPropertyOp17
 70
     1
102
RTVSPropertyOp18
 70
     1
102
RTVSPropertyOp19
 70
     1
102
RTVSPropertyOp20
 70
     1
102
RTVSPropertyOp21
 70
     1
102
RTVSPropertyOp22
 70
     1
102
RTVSPropertyOp23
 70
     1
102
RTVSPropertyOp24
 70
     1
102
RTVSPropertyOp25
 70
     1
102
RTVSPropertyOp26
 70
     1
102
RTVSPropertyOp27
 70
     1
102
RTVSPropertyOp28
 70
     1
102
RTVSPropertyOp29
 70
     1
102
RTVSPropertyOp30
 70
     1
102
RTVSPropertyOp31
 70
     1
102
RTVSPropertyOp32
 70
     1
102
RTVSPropertyOp33
 70
     1
102
RTVSPropertyOp34
 70
     1
102
RTVSPropertyOp35
 70
     1
102
RTVSPropertyOp36
 70
     1
102
RTVSPropertyOp37
 70
     1
102
RTVSPropertyOp38
 70
     1
102
RTVSPropertyOp39
 70
     1
102
RTVSPropertyOp40
 70
     1
102
RTVSPropertyOp41
 70
     1
102
RTVSPropertyOp42
 70
     1
102
RTVSPropertyOp43
 70
     1
102
RTVSPropertyOp44
 70
     1
102
RTVSPropertyOp45
 70
     1
102
RTVSPropertyOp46
 70
     1
102
RTVSPropertyOp47
 70
     1
102
RTVSPropertyOp48
 70
     1
102
RTVSPropertyOp49
 70
     1
102
RTVSPropertyOp50
 70
     1
102
RTVSPropertyOp51
 70
     0
102
RTVSPropertyOp52
 70
     0
102
RTVSPropertyOp53
 70
     1
102
RTVSPropertyOp54
 70
     1
102
RTVSPropertyOp55
 70
     1
102
RTVSPropertyOp56
 70
     1
102
RTVSPropertyOp57
 70
     1
102
RTVSPropertyOp58
 70
     1
102
RTVSPropertyOp59
 70
     1
102
RTVSPropertyOp60
 70
     1
102
RTVSPropertyOp61
 70
     1
102
RTVSPropertyOp62
 70
     1
  0
XRECORD
  5
58ED
102
{ACAD_REACTORS
330
58EC
102
}
330
58EC
100
AcDbXrecord
280
     1
102
RTVSPost2010Prop28
280
     0
102
RTVSPost2010PropOp28
 70
     1
102
RTVSPost2010Prop29
280
     1
102
RTVSPost2010PropOp29
 70
     1
102
RTVSPost2010Prop30
280
     1
102
RTVSPost2010PropOp30
 70
     1
102
RTVSPost2010Prop31
280
     0
102
RTVSPost2010PropOp31
 70
     1
102
RTVSPost2010Prop32
280
     0
102
RTVSPost2010PropOp32
 70
     1
102
RTVSPost2010Prop33
280
     0
102
RTVSPost2010PropOp33
 70
     1
102
RTVSPost2010Prop34
280
     0
102
RTVSPost2010PropOp34
 70
     1
102
RTVSPost2010Prop35
280
     0
102
RTVSPost2010PropOp35
 70
     1
102
RTVSPost2010Prop36
280
     0
102
RTVSPost2010PropOp36
 70
     1
102
RTVSPost2010Prop37
 90
       50
102
RTVSPost2010PropOp37
 70
     1
102
RTVSPost2010Prop38
140
0.0
102
RTVSPost2010PropOp38
 70
     1
102
RTVSPost2010Prop39
140
1.0
102
RTVSPost2010PropOp39
 70
     1
102
RTVSPost2010Prop40
 90
        0
102
RTVSPost2010PropOp40
 70
     1
102
RTVSPost2010Prop41ColorIndex
 90
       18
102
RTVSPost2010Prop41ColorRGB
 90
        0
102
RTVSPost2010PropOp41
 70
     1
102
RTVSPost2010Prop42
 90
       50
102
RTVSPost2010PropOp42
 70
     1
102
RTVSPost2010Prop43
 90
        3
102
RTVSPost2010PropOp43
 70
     1
102
RTVSPost2010Prop44ColorIndex
 90
        5
102
RTVSPost2010Prop44ColorRGB
 90
      255
102
RTVSPost2010PropOp44
 70
     1
102
RTVSPost2010Prop45
280
     0
102
RTVSPost2010PropOp45
 70
     1
102
RTVSPost2010Prop46
 90
       50
102
RTVSPost2010PropOp46
 70
     1
102
RTVSPost2010Prop47
 90
       50
102
RTVSPost2010PropOp47
 70
     1
102
RTVSPost2010Prop48
 90
       50
102
RTVSPost2010PropOp48
 70
     1
102
RTVSPost2010Prop49
280
     0
102
RTVSPost2010PropOp49
 70
     1
102
RTVSPost2010Prop50
 90
       50
102
RTVSPost2010PropOp50
 70
     1
102
RTVSPost2010Prop51ColorIndex
 90
      256
102
RTVSPost2010Prop51ColorRGB
 90
-16777216
102
RTVSPost2010PropOp51
 70
     0
102
RTVSPost2010Prop52
140
1.0
102
RTVSPost2010PropOp52
 70
     0
102
RTVSPost2010Prop53
 90
        2
102
RTVSPost2010PropOp53
 70
     1
102
RTVSPost2010Prop54
  1
strokes_ogs.tif
102
RTVSPost2010PropOp54
 70
     1
102
RTVSPost2010Prop55
280
     0
102
RTVSPost2010PropOp55
 70
     1
102
RTVSPost2010Prop56
140
1.0
102
RTVSPost2010PropOp56
 70
     1
102
RTVSPost2010Prop57
140
1.0
102
RTVSPost2010PropOp57
 70
     1
102
RTVSPropertyOp0
 70
     1
102
RTVSPropertyOp1
 70
     1
102
RTVSPropertyOp2
 70
     1
102
RTVSPropertyOp3
 70
     1
102
RTVSPropertyOp4
 70
     1
102
RTVSPropertyOp5
 70
     1
102
RTVSPropertyOp6
 70
     1
102
RTVSPropertyOp7
 70
     1
102
RTVSPropertyOp8
 70
     1
102
RTVSPropertyOp9
 70
     1
102
RTVSPropertyOp10
 70
     1
102
RTVSPropertyOp11
 70
     1
102
RTVSPropertyOp12
 70
     1
102
RTVSPropertyOp13
 70
     1
102
RTVSPropertyOp14
 70
     1
102
RTVSPropertyOp15
 70
     1
102
RTVSPropertyOp16
 70
     1
102
RTVSPropertyOp17
 70
     1
102
RTVSPropertyOp18
 70
     1
102
RTVSPropertyOp19
 70
     1
102
RTVSPropertyOp20
 70
     1
102
RTVSPropertyOp21
 70
     1
102
RTVSPropertyOp22
 70
     1
102
RTVSPropertyOp23
 70
     1
102
RTVSPropertyOp24
 70
     1
102
RTVSPropertyOp25
 70
     1
102
RTVSPropertyOp26
 70
     1
102
RTVSPropertyOp27
 70
     1
102
RTVSPropertyOp28
 70
     1
102
RTVSPropertyOp29
 70
     1
102
RTVSPropertyOp30
 70
     1
102
RTVSPropertyOp31
 70
     1
102
RTVSPropertyOp32
 70
     1
102
RTVSPropertyOp33
 70
     1
102
RTVSPropertyOp34
 70
     1
102
RTVSPropertyOp35
 70
     1
102
RTVSPropertyOp36
 70
     1
102
RTVSPropertyOp37
 70
     1
102
RTVSPropertyOp38
 70
     1
102
RTVSPropertyOp39
 70
     1
102
RTVSPropertyOp40
 70
     1
102
RTVSPropertyOp41
 70
     1
102
RTVSPropertyOp42
 70
     1
102
RTVSPropertyOp43
 70
     1
102
RTVSPropertyOp44
 70
     1
102
RTVSPropertyOp45
 70
     1
102
RTVSPropertyOp46
 70
     1
102
RTVSPropertyOp47
 70
     1
102
RTVSPropertyOp48
 70
     1
102
RTVSPropertyOp49
 70
     1
102
RTVSPropertyOp50
 70
     1
102
RTVSPropertyOp51
 70
     0
102
RTVSPropertyOp52
 70
     0
102
RTVSPropertyOp53
 70
     1
102
RTVSPropertyOp54
 70
     1
102
RTVSPropertyOp55
 70
     1
102
RTVSPropertyOp56
 70
     1
102
RTVSPropertyOp57
 70
     1
102
RTVSPropertyOp58
 70
     1
102
RTVSPropertyOp59
 70
     1
102
RTVSPropertyOp60
 70
     1
102
RTVSPropertyOp61
 70
     1
102
RTVSPropertyOp62
 70
     1
  0
XRECORD
  5
58E4
102
{ACAD_REACTORS
330
58E3
102
}
330
58E3
100
AcDbXrecord
280
     1
102
RTVSPost2010Prop28
280
     0
102
RTVSPost2010PropOp28
 70
     1
102
RTVSPost2010Prop29
280
     1
102
RTVSPost2010PropOp29
 70
     1
102
RTVSPost2010Prop30
280
     1
102
RTVSPost2010PropOp30
 70
     1
102
RTVSPost2010Prop31
280
     0
102
RTVSPost2010PropOp31
 70
     1
102
RTVSPost2010Prop32
280
     0
102
RTVSPost2010PropOp32
 70
     1
102
RTVSPost2010Prop33
280
     0
102
RTVSPost2010PropOp33
 70
     1
102
RTVSPost2010Prop34
280
     0
102
RTVSPost2010PropOp34
 70
     1
102
RTVSPost2010Prop35
280
     0
102
RTVSPost2010PropOp35
 70
     1
102
RTVSPost2010Prop36
280
     0
102
RTVSPost2010PropOp36
 70
     1
102
RTVSPost2010Prop37
 90
       50
102
RTVSPost2010PropOp37
 70
     1
102
RTVSPost2010Prop38
140
0.0
102
RTVSPost2010PropOp38
 70
     1
102
RTVSPost2010Prop39
140
1.0
102
RTVSPost2010PropOp39
 70
     1
102
RTVSPost2010Prop40
 90
        0
102
RTVSPost2010PropOp40
 70
     1
102
RTVSPost2010Prop41ColorIndex
 90
       18
102
RTVSPost2010Prop41ColorRGB
 90
        0
102
RTVSPost2010PropOp41
 70
     1
102
RTVSPost2010Prop42
 90
       50
102
RTVSPost2010PropOp42
 70
     1
102
RTVSPost2010Prop43
 90
        3
102
RTVSPost2010PropOp43
 70
     1
102
RTVSPost2010Prop44ColorIndex
 90
        5
102
RTVSPost2010Prop44ColorRGB
 90
      255
102
RTVSPost2010PropOp44
 70
     1
102
RTVSPost2010Prop45
280
     0
102
RTVSPost2010PropOp45
 70
     1
102
RTVSPost2010Prop46
 90
       50
102
RTVSPost2010PropOp46
 70
     1
102
RTVSPost2010Prop47
 90
       50
102
RTVSPost2010PropOp47
 70
     1
102
RTVSPost2010Prop48
 90
       50
102
RTVSPost2010PropOp48
 70
     1
102
RTVSPost2010Prop49
280
     0
102
RTVSPost2010PropOp49
 70
     1
102
RTVSPost2010Prop50
 90
       50
102
RTVSPost2010PropOp50
 70
     1
102
RTVSPost2010Prop51ColorIndex
 90
      256
102
RTVSPost2010Prop51ColorRGB
 90
-16777216
102
RTVSPost2010PropOp51
 70
     0
102
RTVSPost2010Prop52
140
1.0
102
RTVSPost2010PropOp52
 70
     0
102
RTVSPost2010Prop53
 90
        2
102
RTVSPost2010PropOp53
 70
     1
102
RTVSPost2010Prop54
  1
strokes_ogs.tif
102
RTVSPost2010PropOp54
 70
     1
102
RTVSPost2010Prop55
280
     0
102
RTVSPost2010PropOp55
 70
     1
102
RTVSPost2010Prop56
140
1.0
102
RTVSPost2010PropOp56
 70
     1
102
RTVSPost2010Prop57
140
1.0
102
RTVSPost2010PropOp57
 70
     1
102
RTVSPropertyOp0
 70
     0
102
RTVSPropertyOp1
 70
     0
102
RTVSPropertyOp2
 70
     0
102
RTVSPropertyOp3
 70
     0
102
RTVSPropertyOp4
 70
     0
102
RTVSPropertyOp5
 70
     0
102
RTVSPropertyOp6
 70
     0
102
RTVSPropertyOp7
 70
     0
102
RTVSPropertyOp8
 70
     0
102
RTVSPropertyOp9
 70
     0
102
RTVSPropertyOp10
 70
     0
102
RTVSPropertyOp11
 70
     0
102
RTVSPropertyOp12
 70
     0
102
RTVSPropertyOp13
 70
     0
102
RTVSPropertyOp14
 70
     2
102
RTVSPropertyOp15
 70
     0
102
RTVSPropertyOp16
 70
     0
102
RTVSPropertyOp17
 70
     0
102
RTVSPropertyOp18
 70
     0
102
RTVSPropertyOp19
 70
     0
102
RTVSPropertyOp20
 70
     0
102
RTVSPropertyOp21
 70
     0
102
RTVSPropertyOp22
 70
     0
102
RTVSPropertyOp23
 70
     0
102
RTVSPropertyOp24
 70
     0
102
RTVSPropertyOp25
 70
     0
102
RTVSPropertyOp26
 70
     0
102
RTVSPropertyOp27
 70
     0
102
RTVSPropertyOp28
 70
     1
102
RTVSPropertyOp29
 70
     1
102
RTVSPropertyOp30
 70
     1
102
RTVSPropertyOp31
 70
     1
102
RTVSPropertyOp32
 70
     1
102
RTVSPropertyOp33
 70
     1
102
RTVSPropertyOp34
 70
     1
102
RTVSPropertyOp35
 70
     1
102
RTVSPropertyOp36
 70
     1
102
RTVSPropertyOp37
 70
     1
102
RTVSPropertyOp38
 70
     1
102
RTVSPropertyOp39
 70
     1
102
RTVSPropertyOp40
 70
     1
102
RTVSPropertyOp41
 70
     1
102
RTVSPropertyOp42
 70
     1
102
RTVSPropertyOp43
 70
     1
102
RTVSPropertyOp44
 70
     1
102
RTVSPropertyOp45
 70
     1
102
RTVSPropertyOp46
 70
     1
102
RTVSPropertyOp47
 70
     1
102
RTVSPropertyOp48
 70
     1
102
RTVSPropertyOp49
 70
     1
102
RTVSPropertyOp50
 70
     1
102
RTVSPropertyOp51
 70
     0
102
RTVSPropertyOp52
 70
     0
102
RTVSPropertyOp53
 70
     1
102
RTVSPropertyOp54
 70
     1
102
RTVSPropertyOp55
 70
     1
102
RTVSPropertyOp56
 70
     1
102
RTVSPropertyOp57
 70
     1
102
RTVSPropertyOp58
 70
     1
102
RTVSPropertyOp59
 70
     1
102
RTVSPropertyOp60
 70
     1
102
RTVSPropertyOp61
 70
     1
102
RTVSPropertyOp62
 70
     1
  0
XRECORD
  5
58DE
102
{ACAD_REACTORS
330
58DD
102
}
330
58DD
100
AcDbXrecord
280
     1
102
RTVSPost2010Prop28
280
     0
102
RTVSPost2010PropOp28
 70
     1
102
RTVSPost2010Prop29
280
     1
102
RTVSPost2010PropOp29
 70
     1
102
RTVSPost2010Prop30
280
     1
102
RTVSPost2010PropOp30
 70
     1
102
RTVSPost2010Prop31
280
     0
102
RTVSPost2010PropOp31
 70
     1
102
RTVSPost2010Prop32
280
     0
102
RTVSPost2010PropOp32
 70
     1
102
RTVSPost2010Prop33
280
     0
102
RTVSPost2010PropOp33
 70
     1
102
RTVSPost2010Prop34
280
     0
102
RTVSPost2010PropOp34
 70
     1
102
RTVSPost2010Prop35
280
     0
102
RTVSPost2010PropOp35
 70
     1
102
RTVSPost2010Prop36
280
     0
102
RTVSPost2010PropOp36
 70
     1
102
RTVSPost2010Prop37
 90
       50
102
RTVSPost2010PropOp37
 70
     1
102
RTVSPost2010Prop38
140
0.0
102
RTVSPost2010PropOp38
 70
     1
102
RTVSPost2010Prop39
140
1.0
102
RTVSPost2010PropOp39
 70
     1
102
RTVSPost2010Prop40
 90
        0
102
RTVSPost2010PropOp40
 70
     1
102
RTVSPost2010Prop41ColorIndex
 90
       18
102
RTVSPost2010Prop41ColorRGB
 90
        0
102
RTVSPost2010PropOp41
 70
     1
102
RTVSPost2010Prop42
 90
       50
102
RTVSPost2010PropOp42
 70
     1
102
RTVSPost2010Prop43
 90
        3
102
RTVSPost2010PropOp43
 70
     1
102
RTVSPost2010Prop44ColorIndex
 90
        5
102
RTVSPost2010Prop44ColorRGB
 90
      255
102
RTVSPost2010PropOp44
 70
     1
102
RTVSPost2010Prop45
280
     0
102
RTVSPost2010PropOp45
 70
     1
102
RTVSPost2010Prop46
 90
       50
102
RTVSPost2010PropOp46
 70
     1
102
RTVSPost2010Prop47
 90
       50
102
RTVSPost2010PropOp47
 70
     1
102
RTVSPost2010Prop48
 90
       50
102
RTVSPost2010PropOp48
 70
     1
102
RTVSPost2010Prop49
280
     0
102
RTVSPost2010PropOp49
 70
     1
102
RTVSPost2010Prop50
 90
       50
102
RTVSPost2010PropOp50
 70
     1
102
RTVSPost2010Prop51ColorIndex
 90
      256
102
RTVSPost2010Prop51ColorRGB
 90
-16777216
102
RTVSPost2010PropOp51
 70
     0
102
RTVSPost2010Prop52
140
1.0
102
RTVSPost2010PropOp52
 70
     0
102
RTVSPost2010Prop53
 90
        2
102
RTVSPost2010PropOp53
 70
     1
102
RTVSPost2010Prop54
  1
strokes_ogs.tif
102
RTVSPost2010PropOp54
 70
     1
102
RTVSPost2010Prop55
280
     0
102
RTVSPost2010PropOp55
 70
     1
102
RTVSPost2010Prop56
140
1.0
102
RTVSPost2010PropOp56
 70
     1
102
RTVSPost2010Prop57
140
1.0
102
RTVSPost2010PropOp57
 70
     1
102
RTVSPropertyOp0
 70
     1
102
RTVSPropertyOp1
 70
     1
102
RTVSPropertyOp2
 70
     1
102
RTVSPropertyOp3
 70
     1
102
RTVSPropertyOp4
 70
     1
102
RTVSPropertyOp5
 70
     1
102
RTVSPropertyOp6
 70
     1
102
RTVSPropertyOp7
 70
     1
102
RTVSPropertyOp8
 70
     1
102
RTVSPropertyOp9
 70
     1
102
RTVSPropertyOp10
 70
     1
102
RTVSPropertyOp11
 70
     1
102
RTVSPropertyOp12
 70
     1
102
RTVSPropertyOp13
 70
     1
102
RTVSPropertyOp14
 70
     1
102
RTVSPropertyOp15
 70
     1
102
RTVSPropertyOp16
 70
     1
102
RTVSPropertyOp17
 70
     1
102
RTVSPropertyOp18
 70
     1
102
RTVSPropertyOp19
 70
     1
102
RTVSPropertyOp20
 70
     1
102
RTVSPropertyOp21
 70
     1
102
RTVSPropertyOp22
 70
     1
102
RTVSPropertyOp23
 70
     1
102
RTVSPropertyOp24
 70
     1
102
RTVSPropertyOp25
 70
     1
102
RTVSPropertyOp26
 70
     1
102
RTVSPropertyOp27
 70
     1
102
RTVSPropertyOp28
 70
     1
102
RTVSPropertyOp29
 70
     1
102
RTVSPropertyOp30
 70
     1
102
RTVSPropertyOp31
 70
     1
102
RTVSPropertyOp32
 70
     1
102
RTVSPropertyOp33
 70
     1
102
RTVSPropertyOp34
 70
     1
102
RTVSPropertyOp35
 70
     1
102
RTVSPropertyOp36
 70
     1
102
RTVSPropertyOp37
 70
     1
102
RTVSPropertyOp38
 70
     1
102
RTVSPropertyOp39
 70
     1
102
RTVSPropertyOp40
 70
     1
102
RTVSPropertyOp41
 70
     1
102
RTVSPropertyOp42
 70
     1
102
RTVSPropertyOp43
 70
     1
102
RTVSPropertyOp44
 70
     1
102
RTVSPropertyOp45
 70
     1
102
RTVSPropertyOp46
 70
     1
102
RTVSPropertyOp47
 70
     1
102
RTVSPropertyOp48
 70
     1
102
RTVSPropertyOp49
 70
     1
102
RTVSPropertyOp50
 70
     1
102
RTVSPropertyOp51
 70
     0
102
RTVSPropertyOp52
 70
     0
102
RTVSPropertyOp53
 70
     1
102
RTVSPropertyOp54
 70
     1
102
RTVSPropertyOp55
 70
     1
102
RTVSPropertyOp56
 70
     1
102
RTVSPropertyOp57
 70
     1
102
RTVSPropertyOp58
 70
     1
102
RTVSPropertyOp59
 70
     1
102
RTVSPropertyOp60
 70
     1
102
RTVSPropertyOp61
 70
     1
102
RTVSPropertyOp62
 70
     1
  0
XRECORD
  5
58E6
102
{ACAD_REACTORS
330
58E5
102
}
330
58E5
100
AcDbXrecord
280
     1
102
RTVSPost2010Prop28
280
     0
102
RTVSPost2010PropOp28
 70
     1
102
RTVSPost2010Prop29
280
     1
102
RTVSPost2010PropOp29
 70
     1
102
RTVSPost2010Prop30
280
     1
102
RTVSPost2010PropOp30
 70
     1
102
RTVSPost2010Prop31
280
     0
102
RTVSPost2010PropOp31
 70
     1
102
RTVSPost2010Prop32
280
     0
102
RTVSPost2010PropOp32
 70
     1
102
RTVSPost2010Prop33
280
     0
102
RTVSPost2010PropOp33
 70
     1
102
RTVSPost2010Prop34
280
     0
102
RTVSPost2010PropOp34
 70
     1
102
RTVSPost2010Prop35
280
     0
102
RTVSPost2010PropOp35
 70
     1
102
RTVSPost2010Prop36
280
     0
102
RTVSPost2010PropOp36
 70
     1
102
RTVSPost2010Prop37
 90
       50
102
RTVSPost2010PropOp37
 70
     1
102
RTVSPost2010Prop38
140
0.0
102
RTVSPost2010PropOp38
 70
     1
102
RTVSPost2010Prop39
140
1.0
102
RTVSPost2010PropOp39
 70
     1
102
RTVSPost2010Prop40
 90
        0
102
RTVSPost2010PropOp40
 70
     1
102
RTVSPost2010Prop41ColorIndex
 90
       18
102
RTVSPost2010Prop41ColorRGB
 90
        0
102
RTVSPost2010PropOp41
 70
     1
102
RTVSPost2010Prop42
 90
       50
102
RTVSPost2010PropOp42
 70
     1
102
RTVSPost2010Prop43
 90
        3
102
RTVSPost2010PropOp43
 70
     1
102
RTVSPost2010Prop44ColorIndex
 90
        5
102
RTVSPost2010Prop44ColorRGB
 90
      255
102
RTVSPost2010PropOp44
 70
     1
102
RTVSPost2010Prop45
280
     0
102
RTVSPost2010PropOp45
 70
     1
102
RTVSPost2010Prop46
 90
       50
102
RTVSPost2010PropOp46
 70
     1
102
RTVSPost2010Prop47
 90
       50
102
RTVSPost2010PropOp47
 70
     1
102
RTVSPost2010Prop48
 90
       50
102
RTVSPost2010PropOp48
 70
     1
102
RTVSPost2010Prop49
280
     0
102
RTVSPost2010PropOp49
 70
     1
102
RTVSPost2010Prop50
 90
       50
102
RTVSPost2010PropOp50
 70
     1
102
RTVSPost2010Prop51ColorIndex
 90
      256
102
RTVSPost2010Prop51ColorRGB
 90
-16777216
102
RTVSPost2010PropOp51
 70
     0
102
RTVSPost2010Prop52
140
1.0
102
RTVSPost2010PropOp52
 70
     0
102
RTVSPost2010Prop53
 90
        2
102
RTVSPost2010PropOp53
 70
     1
102
RTVSPost2010Prop54
  1
strokes_ogs.tif
102
RTVSPost2010PropOp54
 70
     1
102
RTVSPost2010Prop55
280
     0
102
RTVSPost2010PropOp55
 70
     1
102
RTVSPost2010Prop56
140
1.0
102
RTVSPost2010PropOp56
 70
     1
102
RTVSPost2010Prop57
140
1.0
102
RTVSPost2010PropOp57
 70
     1
102
RTVSPropertyOp0
 70
     0
102
RTVSPropertyOp1
 70
     0
102
RTVSPropertyOp2
 70
     0
102
RTVSPropertyOp3
 70
     0
102
RTVSPropertyOp4
 70
     0
102
RTVSPropertyOp5
 70
     0
102
RTVSPropertyOp6
 70
     0
102
RTVSPropertyOp7
 70
     0
102
RTVSPropertyOp8
 70
     0
102
RTVSPropertyOp9
 70
     0
102
RTVSPropertyOp10
 70
     0
102
RTVSPropertyOp11
 70
     0
102
RTVSPropertyOp12
 70
     0
102
RTVSPropertyOp13
 70
     0
102
RTVSPropertyOp14
 70
     2
102
RTVSPropertyOp15
 70
     0
102
RTVSPropertyOp16
 70
     0
102
RTVSPropertyOp17
 70
     0
102
RTVSPropertyOp18
 70
     0
102
RTVSPropertyOp19
 70
     0
102
RTVSPropertyOp20
 70
     0
102
RTVSPropertyOp21
 70
     0
102
RTVSPropertyOp22
 70
     0
102
RTVSPropertyOp23
 70
     0
102
RTVSPropertyOp24
 70
     0
102
RTVSPropertyOp25
 70
     0
102
RTVSPropertyOp26
 70
     0
102
RTVSPropertyOp27
 70
     0
102
RTVSPropertyOp28
 70
     1
102
RTVSPropertyOp29
 70
     1
102
RTVSPropertyOp30
 70
     1
102
RTVSPropertyOp31
 70
     1
102
RTVSPropertyOp32
 70
     1
102
RTVSPropertyOp33
 70
     1
102
RTVSPropertyOp34
 70
     1
102
RTVSPropertyOp35
 70
     1
102
RTVSPropertyOp36
 70
     1
102
RTVSPropertyOp37
 70
     1
102
RTVSPropertyOp38
 70
     1
102
RTVSPropertyOp39
 70
     1
102
RTVSPropertyOp40
 70
     1
102
RTVSPropertyOp41
 70
     1
102
RTVSPropertyOp42
 70
     1
102
RTVSPropertyOp43
 70
     1
102
RTVSPropertyOp44
 70
     1
102
RTVSPropertyOp45
 70
     1
102
RTVSPropertyOp46
 70
     1
102
RTVSPropertyOp47
 70
     1
102
RTVSPropertyOp48
 70
     1
102
RTVSPropertyOp49
 70
     1
102
RTVSPropertyOp50
 70
     1
102
RTVSPropertyOp51
 70
     0
102
RTVSPropertyOp52
 70
     0
102
RTVSPropertyOp53
 70
     1
102
RTVSPropertyOp54
 70
     1
102
RTVSPropertyOp55
 70
     1
102
RTVSPropertyOp56
 70
     1
102
RTVSPropertyOp57
 70
     1
102
RTVSPropertyOp58
 70
     1
102
RTVSPropertyOp59
 70
     1
102
RTVSPropertyOp60
 70
     1
102
RTVSPropertyOp61
 70
     1
102
RTVSPropertyOp62
 70
     1
  0
XRECORD
  5
58D6
102
{ACAD_REACTORS
330
58D5
102
}
330
58D5
100
AcDbXrecord
280
     1
102
RTVSPost2010Prop28
280
     0
102
RTVSPost2010PropOp28
 70
     1
102
RTVSPost2010Prop29
280
     1
102
RTVSPost2010PropOp29
 70
     1
102
RTVSPost2010Prop30
280
     1
102
RTVSPost2010PropOp30
 70
     1
102
RTVSPost2010Prop31
280
     0
102
RTVSPost2010PropOp31
 70
     1
102
RTVSPost2010Prop32
280
     0
102
RTVSPost2010PropOp32
 70
     1
102
RTVSPost2010Prop33
280
     0
102
RTVSPost2010PropOp33
 70
     1
102
RTVSPost2010Prop34
280
     0
102
RTVSPost2010PropOp34
 70
     1
102
RTVSPost2010Prop35
280
     0
102
RTVSPost2010PropOp35
 70
     1
102
RTVSPost2010Prop36
280
     0
102
RTVSPost2010PropOp36
 70
     1
102
RTVSPost2010Prop37
 90
       50
102
RTVSPost2010PropOp37
 70
     1
102
RTVSPost2010Prop38
140
0.0
102
RTVSPost2010PropOp38
 70
     1
102
RTVSPost2010Prop39
140
1.0
102
RTVSPost2010PropOp39
 70
     1
102
RTVSPost2010Prop40
 90
        0
102
RTVSPost2010PropOp40
 70
     1
102
RTVSPost2010Prop41ColorIndex
 90
       18
102
RTVSPost2010Prop41ColorRGB
 90
        0
102
RTVSPost2010PropOp41
 70
     1
102
RTVSPost2010Prop42
 90
       50
102
RTVSPost2010PropOp42
 70
     1
102
RTVSPost2010Prop43
 90
        3
102
RTVSPost2010PropOp43
 70
     1
102
RTVSPost2010Prop44ColorIndex
 90
        5
102
RTVSPost2010Prop44ColorRGB
 90
      255
102
RTVSPost2010PropOp44
 70
     1
102
RTVSPost2010Prop45
280
     0
102
RTVSPost2010PropOp45
 70
     1
102
RTVSPost2010Prop46
 90
       50
102
RTVSPost2010PropOp46
 70
     1
102
RTVSPost2010Prop47
 90
       50
102
RTVSPost2010PropOp47
 70
     1
102
RTVSPost2010Prop48
 90
       50
102
RTVSPost2010PropOp48
 70
     1
102
RTVSPost2010Prop49
280
     0
102
RTVSPost2010PropOp49
 70
     1
102
RTVSPost2010Prop50
 90
       50
102
RTVSPost2010PropOp50
 70
     1
102
RTVSPost2010Prop51ColorIndex
 90
      256
102
RTVSPost2010Prop51ColorRGB
 90
-16777216
102
RTVSPost2010PropOp51
 70
     0
102
RTVSPost2010Prop52
140
1.0
102
RTVSPost2010PropOp52
 70
     0
102
RTVSPost2010Prop53
 90
        2
102
RTVSPost2010PropOp53
 70
     1
102
RTVSPost2010Prop54
  1
strokes_ogs.tif
102
RTVSPost2010PropOp54
 70
     1
102
RTVSPost2010Prop55
280
     0
102
RTVSPost2010PropOp55
 70
     1
102
RTVSPost2010Prop56
140
1.0
102
RTVSPost2010PropOp56
 70
     1
102
RTVSPost2010Prop57
140
1.0
102
RTVSPost2010PropOp57
 70
     1
102
RTVSPropertyOp0
 70
     1
102
RTVSPropertyOp1
 70
     1
102
RTVSPropertyOp2
 70
     1
102
RTVSPropertyOp3
 70
     1
102
RTVSPropertyOp4
 70
     1
102
RTVSPropertyOp5
 70
     1
102
RTVSPropertyOp6
 70
     1
102
RTVSPropertyOp7
 70
     1
102
RTVSPropertyOp8
 70
     1
102
RTVSPropertyOp9
 70
     1
102
RTVSPropertyOp10
 70
     1
102
RTVSPropertyOp11
 70
     1
102
RTVSPropertyOp12
 70
     1
102
RTVSPropertyOp13
 70
     1
102
RTVSPropertyOp14
 70
     1
102
RTVSPropertyOp15
 70
     1
102
RTVSPropertyOp16
 70
     1
102
RTVSPropertyOp17
 70
     1
102
RTVSPropertyOp18
 70
     1
102
RTVSPropertyOp19
 70
     1
102
RTVSPropertyOp20
 70
     1
102
RTVSPropertyOp21
 70
     1
102
RTVSPropertyOp22
 70
     1
102
RTVSPropertyOp23
 70
     1
102
RTVSPropertyOp24
 70
     1
102
RTVSPropertyOp25
 70
     1
102
RTVSPropertyOp26
 70
     1
102
RTVSPropertyOp27
 70
     1
102
RTVSPropertyOp28
 70
     1
102
RTVSPropertyOp29
 70
     1
102
RTVSPropertyOp30
 70
     1
102
RTVSPropertyOp31
 70
     1
102
RTVSPropertyOp32
 70
     1
102
RTVSPropertyOp33
 70
     1
102
RTVSPropertyOp34
 70
     1
102
RTVSPropertyOp35
 70
     1
102
RTVSPropertyOp36
 70
     1
102
RTVSPropertyOp37
 70
     1
102
RTVSPropertyOp38
 70
     1
102
RTVSPropertyOp39
 70
     1
102
RTVSPropertyOp40
 70
     1
102
RTVSPropertyOp41
 70
     1
102
RTVSPropertyOp42
 70
     1
102
RTVSPropertyOp43
 70
     1
102
RTVSPropertyOp44
 70
     1
102
RTVSPropertyOp45
 70
     1
102
RTVSPropertyOp46
 70
     1
102
RTVSPropertyOp47
 70
     1
102
RTVSPropertyOp48
 70
     1
102
RTVSPropertyOp49
 70
     1
102
RTVSPropertyOp50
 70
     1
102
RTVSPropertyOp51
 70
     0
102
RTVSPropertyOp52
 70
     0
102
RTVSPropertyOp53
 70
     1
102
RTVSPropertyOp54
 70
     1
102
RTVSPropertyOp55
 70
     1
102
RTVSPropertyOp56
 70
     1
102
RTVSPropertyOp57
 70
     1
102
RTVSPropertyOp58
 70
     1
102
RTVSPropertyOp59
 70
     1
102
RTVSPropertyOp60
 70
     1
102
RTVSPropertyOp61
 70
     1
102
RTVSPropertyOp62
 70
     1
  0
XRECORD
  5
58F7
102
{ACAD_REACTORS
330
58F6
102
}
330
58F6
100
AcDbXrecord
280
     1
102
RTVSPost2010Prop28
280
     0
102
RTVSPost2010PropOp28
 70
     1
102
RTVSPost2010Prop29
280
     1
102
RTVSPost2010PropOp29
 70
     1
102
RTVSPost2010Prop30
280
     1
102
RTVSPost2010PropOp30
 70
     1
102
RTVSPost2010Prop31
280
     0
102
RTVSPost2010PropOp31
 70
     1
102
RTVSPost2010Prop32
280
     0
102
RTVSPost2010PropOp32
 70
     1
102
RTVSPost2010Prop33
280
     0
102
RTVSPost2010PropOp33
 70
     1
102
RTVSPost2010Prop34
280
     0
102
RTVSPost2010PropOp34
 70
     1
102
RTVSPost2010Prop35
280
     0
102
RTVSPost2010PropOp35
 70
     1
102
RTVSPost2010Prop36
280
     0
102
RTVSPost2010PropOp36
 70
     1
102
RTVSPost2010Prop37
 90
       50
102
RTVSPost2010PropOp37
 70
     1
102
RTVSPost2010Prop38
140
0.0
102
RTVSPost2010PropOp38
 70
     1
102
RTVSPost2010Prop39
140
1.0
102
RTVSPost2010PropOp39
 70
     1
102
RTVSPost2010Prop40
 90
        0
102
RTVSPost2010PropOp40
 70
     1
102
RTVSPost2010Prop41ColorIndex
 90
       18
102
RTVSPost2010Prop41ColorRGB
 90
        0
102
RTVSPost2010PropOp41
 70
     1
102
RTVSPost2010Prop42
 90
       50
102
RTVSPost2010PropOp42
 70
     1
102
RTVSPost2010Prop43
 90
        3
102
RTVSPost2010PropOp43
 70
     1
102
RTVSPost2010Prop44ColorIndex
 90
        5
102
RTVSPost2010Prop44ColorRGB
 90
      255
102
RTVSPost2010PropOp44
 70
     1
102
RTVSPost2010Prop45
280
     0
102
RTVSPost2010PropOp45
 70
     1
102
RTVSPost2010Prop46
 90
       50
102
RTVSPost2010PropOp46
 70
     1
102
RTVSPost2010Prop47
 90
       50
102
RTVSPost2010PropOp47
 70
     1
102
RTVSPost2010Prop48
 90
       50
102
RTVSPost2010PropOp48
 70
     1
102
RTVSPost2010Prop49
280
     0
102
RTVSPost2010PropOp49
 70
     1
102
RTVSPost2010Prop50
 90
       50
102
RTVSPost2010PropOp50
 70
     1
102
RTVSPost2010Prop51ColorIndex
 90
      256
102
RTVSPost2010Prop51ColorRGB
 90
-16777216
102
RTVSPost2010PropOp51
 70
     0
102
RTVSPost2010Prop52
140
1.0
102
RTVSPost2010PropOp52
 70
     0
102
RTVSPost2010Prop53
 90
        2
102
RTVSPost2010PropOp53
 70
     1
102
RTVSPost2010Prop54
  1
strokes_ogs.tif
102
RTVSPost2010PropOp54
 70
     1
102
RTVSPost2010Prop55
280
     0
102
RTVSPost2010PropOp55
 70
     1
102
RTVSPost2010Prop56
140
1.0
102
RTVSPost2010PropOp56
 70
     1
102
RTVSPost2010Prop57
140
1.0
102
RTVSPost2010PropOp57
 70
     1
102
RTVSPropertyOp0
 70
     1
102
RTVSPropertyOp1
 70
     1
102
RTVSPropertyOp2
 70
     1
102
RTVSPropertyOp3
 70
     1
102
RTVSPropertyOp4
 70
     1
102
RTVSPropertyOp5
 70
     1
102
RTVSPropertyOp6
 70
     1
102
RTVSPropertyOp7
 70
     1
102
RTVSPropertyOp8
 70
     1
102
RTVSPropertyOp9
 70
     1
102
RTVSPropertyOp10
 70
     1
102
RTVSPropertyOp11
 70
     1
102
RTVSPropertyOp12
 70
     1
102
RTVSPropertyOp13
 70
     1
102
RTVSPropertyOp14
 70
     1
102
RTVSPropertyOp15
 70
     1
102
RTVSPropertyOp16
 70
     1
102
RTVSPropertyOp17
 70
     1
102
RTVSPropertyOp18
 70
     1
102
RTVSPropertyOp19
 70
     1
102
RTVSPropertyOp20
 70
     1
102
RTVSPropertyOp21
 70
     1
102
RTVSPropertyOp22
 70
     1
102
RTVSPropertyOp23
 70
     1
102
RTVSPropertyOp24
 70
     1
102
RTVSPropertyOp25
 70
     1
102
RTVSPropertyOp26
 70
     1
102
RTVSPropertyOp27
 70
     1
102
RTVSPropertyOp28
 70
     1
102
RTVSPropertyOp29
 70
     1
102
RTVSPropertyOp30
 70
     1
102
RTVSPropertyOp31
 70
     1
102
RTVSPropertyOp32
 70
     1
102
RTVSPropertyOp33
 70
     1
102
RTVSPropertyOp34
 70
     1
102
RTVSPropertyOp35
 70
     1
102
RTVSPropertyOp36
 70
     1
102
RTVSPropertyOp37
 70
     1
102
RTVSPropertyOp38
 70
     1
102
RTVSPropertyOp39
 70
     1
102
RTVSPropertyOp40
 70
     1
102
RTVSPropertyOp41
 70
     1
102
RTVSPropertyOp42
 70
     1
102
RTVSPropertyOp43
 70
     1
102
RTVSPropertyOp44
 70
     1
102
RTVSPropertyOp45
 70
     1
102
RTVSPropertyOp46
 70
     1
102
RTVSPropertyOp47
 70
     1
102
RTVSPropertyOp48
 70
     1
102
RTVSPropertyOp49
 70
     1
102
RTVSPropertyOp50
 70
     1
102
RTVSPropertyOp51
 70
     0
102
RTVSPropertyOp52
 70
     0
102
RTVSPropertyOp53
 70
     1
102
RTVSPropertyOp54
 70
     1
102
RTVSPropertyOp55
 70
     1
102
RTVSPropertyOp56
 70
     1
102
RTVSPropertyOp57
 70
     1
102
RTVSPropertyOp58
 70
     1
102
RTVSPropertyOp59
 70
     1
102
RTVSPropertyOp60
 70
     1
102
RTVSPropertyOp61
 70
     1
102
RTVSPropertyOp62
 70
     1
  0
XRECORD
  5
58F5
102
{ACAD_REACTORS
330
58F4
102
}
330
58F4
100
AcDbXrecord
280
     1
102
RTVSPost2010Prop28
280
     0
102
RTVSPost2010PropOp28
 70
     1
102
RTVSPost2010Prop29
280
     1
102
RTVSPost2010PropOp29
 70
     1
102
RTVSPost2010Prop30
280
     1
102
RTVSPost2010PropOp30
 70
     1
102
RTVSPost2010Prop31
280
     0
102
RTVSPost2010PropOp31
 70
     1
102
RTVSPost2010Prop32
280
     0
102
RTVSPost2010PropOp32
 70
     1
102
RTVSPost2010Prop33
280
     0
102
RTVSPost2010PropOp33
 70
     1
102
RTVSPost2010Prop34
280
     0
102
RTVSPost2010PropOp34
 70
     1
102
RTVSPost2010Prop35
280
     0
102
RTVSPost2010PropOp35
 70
     1
102
RTVSPost2010Prop36
280
     0
102
RTVSPost2010PropOp36
 70
     1
102
RTVSPost2010Prop37
 90
       50
102
RTVSPost2010PropOp37
 70
     1
102
RTVSPost2010Prop38
140
0.0
102
RTVSPost2010PropOp38
 70
     1
102
RTVSPost2010Prop39
140
1.0
102
RTVSPost2010PropOp39
 70
     1
102
RTVSPost2010Prop40
 90
        0
102
RTVSPost2010PropOp40
 70
     1
102
RTVSPost2010Prop41ColorIndex
 90
       18
102
RTVSPost2010Prop41ColorRGB
 90
        0
102
RTVSPost2010PropOp41
 70
     1
102
RTVSPost2010Prop42
 90
       50
102
RTVSPost2010PropOp42
 70
     1
102
RTVSPost2010Prop43
 90
        3
102
RTVSPost2010PropOp43
 70
     1
102
RTVSPost2010Prop44ColorIndex
 90
        5
102
RTVSPost2010Prop44ColorRGB
 90
      255
102
RTVSPost2010PropOp44
 70
     1
102
RTVSPost2010Prop45
280
     0
102
RTVSPost2010PropOp45
 70
     1
102
RTVSPost2010Prop46
 90
       50
102
RTVSPost2010PropOp46
 70
     1
102
RTVSPost2010Prop47
 90
       50
102
RTVSPost2010PropOp47
 70
     1
102
RTVSPost2010Prop48
 90
       50
102
RTVSPost2010PropOp48
 70
     1
102
RTVSPost2010Prop49
280
     0
102
RTVSPost2010PropOp49
 70
     1
102
RTVSPost2010Prop50
 90
       50
102
RTVSPost2010PropOp50
 70
     1
102
RTVSPost2010Prop51ColorIndex
 90
      256
102
RTVSPost2010Prop51ColorRGB
 90
-16777216
102
RTVSPost2010PropOp51
 70
     0
102
RTVSPost2010Prop52
140
1.0
102
RTVSPost2010PropOp52
 70
     0
102
RTVSPost2010Prop53
 90
        2
102
RTVSPost2010PropOp53
 70
     1
102
RTVSPost2010Prop54
  1
strokes_ogs.tif
102
RTVSPost2010PropOp54
 70
     1
102
RTVSPost2010Prop55
280
     0
102
RTVSPost2010PropOp55
 70
     1
102
RTVSPost2010Prop56
140
1.0
102
RTVSPost2010PropOp56
 70
     1
102
RTVSPost2010Prop57
140
1.0
102
RTVSPost2010PropOp57
 70
     1
102
RTVSPropertyOp0
 70
     1
102
RTVSPropertyOp1
 70
     1
102
RTVSPropertyOp2
 70
     1
102
RTVSPropertyOp3
 70
     1
102
RTVSPropertyOp4
 70
     1
102
RTVSPropertyOp5
 70
     1
102
RTVSPropertyOp6
 70
     1
102
RTVSPropertyOp7
 70
     1
102
RTVSPropertyOp8
 70
     1
102
RTVSPropertyOp9
 70
     1
102
RTVSPropertyOp10
 70
     1
102
RTVSPropertyOp11
 70
     1
102
RTVSPropertyOp12
 70
     1
102
RTVSPropertyOp13
 70
     1
102
RTVSPropertyOp14
 70
     1
102
RTVSPropertyOp15
 70
     1
102
RTVSPropertyOp16
 70
     1
102
RTVSPropertyOp17
 70
     1
102
RTVSPropertyOp18
 70
     1
102
RTVSPropertyOp19
 70
     1
102
RTVSPropertyOp20
 70
     1
102
RTVSPropertyOp21
 70
     1
102
RTVSPropertyOp22
 70
     1
102
RTVSPropertyOp23
 70
     1
102
RTVSPropertyOp24
 70
     1
102
RTVSPropertyOp25
 70
     1
102
RTVSPropertyOp26
 70
     1
102
RTVSPropertyOp27
 70
     1
102
RTVSPropertyOp28
 70
     1
102
RTVSPropertyOp29
 70
     1
102
RTVSPropertyOp30
 70
     1
102
RTVSPropertyOp31
 70
     1
102
RTVSPropertyOp32
 70
     1
102
RTVSPropertyOp33
 70
     1
102
RTVSPropertyOp34
 70
     1
102
RTVSPropertyOp35
 70
     1
102
RTVSPropertyOp36
 70
     1
102
RTVSPropertyOp37
 70
     1
102
RTVSPropertyOp38
 70
     1
102
RTVSPropertyOp39
 70
     1
102
RTVSPropertyOp40
 70
     1
102
RTVSPropertyOp41
 70
     1
102
RTVSPropertyOp42
 70
     1
102
RTVSPropertyOp43
 70
     1
102
RTVSPropertyOp44
 70
     1
102
RTVSPropertyOp45
 70
     1
102
RTVSPropertyOp46
 70
     1
102
RTVSPropertyOp47
 70
     1
102
RTVSPropertyOp48
 70
     1
102
RTVSPropertyOp49
 70
     1
102
RTVSPropertyOp50
 70
     1
102
RTVSPropertyOp51
 70
     0
102
RTVSPropertyOp52
 70
     0
102
RTVSPropertyOp53
 70
     1
102
RTVSPropertyOp54
 70
     1
102
RTVSPropertyOp55
 70
     1
102
RTVSPropertyOp56
 70
     1
102
RTVSPropertyOp57
 70
     1
102
RTVSPropertyOp58
 70
     1
102
RTVSPropertyOp59
 70
     1
102
RTVSPropertyOp60
 70
     1
102
RTVSPropertyOp61
 70
     1
102
RTVSPropertyOp62
 70
     1
  0
XRECORD
  5
58EF
102
{ACAD_REACTORS
330
58EE
102
}
330
58EE
100
AcDbXrecord
280
     1
102
RTVSPost2010Prop28
280
     0
102
RTVSPost2010PropOp28
 70
     1
102
RTVSPost2010Prop29
280
     1
102
RTVSPost2010PropOp29
 70
     1
102
RTVSPost2010Prop30
280
     1
102
RTVSPost2010PropOp30
 70
     1
102
RTVSPost2010Prop31
280
     0
102
RTVSPost2010PropOp31
 70
     1
102
RTVSPost2010Prop32
280
     0
102
RTVSPost2010PropOp32
 70
     1
102
RTVSPost2010Prop33
280
     0
102
RTVSPost2010PropOp33
 70
     1
102
RTVSPost2010Prop34
280
     0
102
RTVSPost2010PropOp34
 70
     1
102
RTVSPost2010Prop35
280
     0
102
RTVSPost2010PropOp35
 70
     1
102
RTVSPost2010Prop36
280
     0
102
RTVSPost2010PropOp36
 70
     1
102
RTVSPost2010Prop37
 90
       50
102
RTVSPost2010PropOp37
 70
     1
102
RTVSPost2010Prop38
140
0.0
102
RTVSPost2010PropOp38
 70
     1
102
RTVSPost2010Prop39
140
1.0
102
RTVSPost2010PropOp39
 70
     1
102
RTVSPost2010Prop40
 90
        0
102
RTVSPost2010PropOp40
 70
     1
102
RTVSPost2010Prop41ColorIndex
 90
       18
102
RTVSPost2010Prop41ColorRGB
 90
        0
102
RTVSPost2010PropOp41
 70
     1
102
RTVSPost2010Prop42
 90
       50
102
RTVSPost2010PropOp42
 70
     1
102
RTVSPost2010Prop43
 90
        3
102
RTVSPost2010PropOp43
 70
     1
102
RTVSPost2010Prop44ColorIndex
 90
        5
102
RTVSPost2010Prop44ColorRGB
 90
      255
102
RTVSPost2010PropOp44
 70
     1
102
RTVSPost2010Prop45
280
     0
102
RTVSPost2010PropOp45
 70
     1
102
RTVSPost2010Prop46
 90
       50
102
RTVSPost2010PropOp46
 70
     1
102
RTVSPost2010Prop47
 90
       50
102
RTVSPost2010PropOp47
 70
     1
102
RTVSPost2010Prop48
 90
       50
102
RTVSPost2010PropOp48
 70
     1
102
RTVSPost2010Prop49
280
     0
102
RTVSPost2010PropOp49
 70
     1
102
RTVSPost2010Prop50
 90
       50
102
RTVSPost2010PropOp50
 70
     1
102
RTVSPost2010Prop51ColorIndex
 90
      256
102
RTVSPost2010Prop51ColorRGB
 90
-16777216
102
RTVSPost2010PropOp51
 70
     0
102
RTVSPost2010Prop52
140
1.0
102
RTVSPost2010PropOp52
 70
     0
102
RTVSPost2010Prop53
 90
        2
102
RTVSPost2010PropOp53
 70
     1
102
RTVSPost2010Prop54
  1
strokes_ogs.tif
102
RTVSPost2010PropOp54
 70
     1
102
RTVSPost2010Prop55
280
     0
102
RTVSPost2010PropOp55
 70
     1
102
RTVSPost2010Prop56
140
1.0
102
RTVSPost2010PropOp56
 70
     1
102
RTVSPost2010Prop57
140
1.0
102
RTVSPost2010PropOp57
 70
     1
102
RTVSPropertyOp0
 70
     1
102
RTVSPropertyOp1
 70
     1
102
RTVSPropertyOp2
 70
     1
102
RTVSPropertyOp3
 70
     1
102
RTVSPropertyOp4
 70
     1
102
RTVSPropertyOp5
 70
     1
102
RTVSPropertyOp6
 70
     1
102
RTVSPropertyOp7
 70
     1
102
RTVSPropertyOp8
 70
     1
102
RTVSPropertyOp9
 70
     1
102
RTVSPropertyOp10
 70
     1
102
RTVSPropertyOp11
 70
     1
102
RTVSPropertyOp12
 70
     1
102
RTVSPropertyOp13
 70
     1
102
RTVSPropertyOp14
 70
     1
102
RTVSPropertyOp15
 70
     1
102
RTVSPropertyOp16
 70
     1
102
RTVSPropertyOp17
 70
     1
102
RTVSPropertyOp18
 70
     1
102
RTVSPropertyOp19
 70
     1
102
RTVSPropertyOp20
 70
     1
102
RTVSPropertyOp21
 70
     1
102
RTVSPropertyOp22
 70
     1
102
RTVSPropertyOp23
 70
     1
102
RTVSPropertyOp24
 70
     1
102
RTVSPropertyOp25
 70
     1
102
RTVSPropertyOp26
 70
     1
102
RTVSPropertyOp27
 70
     1
102
RTVSPropertyOp28
 70
     1
102
RTVSPropertyOp29
 70
     1
102
RTVSPropertyOp30
 70
     1
102
RTVSPropertyOp31
 70
     1
102
RTVSPropertyOp32
 70
     1
102
RTVSPropertyOp33
 70
     1
102
RTVSPropertyOp34
 70
     1
102
RTVSPropertyOp35
 70
     1
102
RTVSPropertyOp36
 70
     1
102
RTVSPropertyOp37
 70
     1
102
RTVSPropertyOp38
 70
     1
102
RTVSPropertyOp39
 70
     1
102
RTVSPropertyOp40
 70
     1
102
RTVSPropertyOp41
 70
     1
102
RTVSPropertyOp42
 70
     1
102
RTVSPropertyOp43
 70
     1
102
RTVSPropertyOp44
 70
     1
102
RTVSPropertyOp45
 70
     1
102
RTVSPropertyOp46
 70
     1
102
RTVSPropertyOp47
 70
     1
102
RTVSPropertyOp48
 70
     1
102
RTVSPropertyOp49
 70
     1
102
RTVSPropertyOp50
 70
     1
102
RTVSPropertyOp51
 70
     0
102
RTVSPropertyOp52
 70
     0
102
RTVSPropertyOp53
 70
     1
102
RTVSPropertyOp54
 70
     1
102
RTVSPropertyOp55
 70
     1
102
RTVSPropertyOp56
 70
     1
102
RTVSPropertyOp57
 70
     1
102
RTVSPropertyOp58
 70
     1
102
RTVSPropertyOp59
 70
     1
102
RTVSPropertyOp60
 70
     1
102
RTVSPropertyOp61
 70
     1
102
RTVSPropertyOp62
 70
     1
  0
XRECORD
  5
58F1
102
{ACAD_REACTORS
330
58F0
102
}
330
58F0
100
AcDbXrecord
280
     1
102
RTVSPost2010Prop28
280
     0
102
RTVSPost2010PropOp28
 70
     1
102
RTVSPost2010Prop29
280
     1
102
RTVSPost2010PropOp29
 70
     1
102
RTVSPost2010Prop30
280
     1
102
RTVSPost2010PropOp30
 70
     1
102
RTVSPost2010Prop31
280
     0
102
RTVSPost2010PropOp31
 70
     1
102
RTVSPost2010Prop32
280
     0
102
RTVSPost2010PropOp32
 70
     1
102
RTVSPost2010Prop33
280
     0
102
RTVSPost2010PropOp33
 70
     1
102
RTVSPost2010Prop34
280
     0
102
RTVSPost2010PropOp34
 70
     1
102
RTVSPost2010Prop35
280
     0
102
RTVSPost2010PropOp35
 70
     1
102
RTVSPost2010Prop36
280
     0
102
RTVSPost2010PropOp36
 70
     1
102
RTVSPost2010Prop37
 90
       50
102
RTVSPost2010PropOp37
 70
     1
102
RTVSPost2010Prop38
140
0.0
102
RTVSPost2010PropOp38
 70
     1
102
RTVSPost2010Prop39
140
1.0
102
RTVSPost2010PropOp39
 70
     1
102
RTVSPost2010Prop40
 90
        0
102
RTVSPost2010PropOp40
 70
     1
102
RTVSPost2010Prop41ColorIndex
 90
       18
102
RTVSPost2010Prop41ColorRGB
 90
        0
102
RTVSPost2010PropOp41
 70
     1
102
RTVSPost2010Prop42
 90
       50
102
RTVSPost2010PropOp42
 70
     1
102
RTVSPost2010Prop43
 90
        3
102
RTVSPost2010PropOp43
 70
     1
102
RTVSPost2010Prop44ColorIndex
 90
        5
102
RTVSPost2010Prop44ColorRGB
 90
      255
102
RTVSPost2010PropOp44
 70
     1
102
RTVSPost2010Prop45
280
     0
102
RTVSPost2010PropOp45
 70
     1
102
RTVSPost2010Prop46
 90
       50
102
RTVSPost2010PropOp46
 70
     1
102
RTVSPost2010Prop47
 90
       50
102
RTVSPost2010PropOp47
 70
     1
102
RTVSPost2010Prop48
 90
       50
102
RTVSPost2010PropOp48
 70
     1
102
RTVSPost2010Prop49
280
     0
102
RTVSPost2010PropOp49
 70
     1
102
RTVSPost2010Prop50
 90
       50
102
RTVSPost2010PropOp50
 70
     1
102
RTVSPost2010Prop51ColorIndex
 90
      256
102
RTVSPost2010Prop51ColorRGB
 90
-16777216
102
RTVSPost2010PropOp51
 70
     0
102
RTVSPost2010Prop52
140
1.0
102
RTVSPost2010PropOp52
 70
     0
102
RTVSPost2010Prop53
 90
        2
102
RTVSPost2010PropOp53
 70
     1
102
RTVSPost2010Prop54
  1
strokes_ogs.tif
102
RTVSPost2010PropOp54
 70
     1
102
RTVSPost2010Prop55
280
     0
102
RTVSPost2010PropOp55
 70
     1
102
RTVSPost2010Prop56
140
1.0
102
RTVSPost2010PropOp56
 70
     1
102
RTVSPost2010Prop57
140
1.0
102
RTVSPost2010PropOp57
 70
     1
102
RTVSPropertyOp0
 70
     1
102
RTVSPropertyOp1
 70
     1
102
RTVSPropertyOp2
 70
     1
102
RTVSPropertyOp3
 70
     1
102
RTVSPropertyOp4
 70
     1
102
RTVSPropertyOp5
 70
     1
102
RTVSPropertyOp6
 70
     1
102
RTVSPropertyOp7
 70
     1
102
RTVSPropertyOp8
 70
     1
102
RTVSPropertyOp9
 70
     1
102
RTVSPropertyOp10
 70
     1
102
RTVSPropertyOp11
 70
     1
102
RTVSPropertyOp12
 70
     1
102
RTVSPropertyOp13
 70
     1
102
RTVSPropertyOp14
 70
     1
102
RTVSPropertyOp15
 70
     1
102
RTVSPropertyOp16
 70
     1
102
RTVSPropertyOp17
 70
     1
102
RTVSPropertyOp18
 70
     1
102
RTVSPropertyOp19
 70
     1
102
RTVSPropertyOp20
 70
     1
102
RTVSPropertyOp21
 70
     1
102
RTVSPropertyOp22
 70
     1
102
RTVSPropertyOp23
 70
     1
102
RTVSPropertyOp24
 70
     1
102
RTVSPropertyOp25
 70
     1
102
RTVSPropertyOp26
 70
     1
102
RTVSPropertyOp27
 70
     1
102
RTVSPropertyOp28
 70
     1
102
RTVSPropertyOp29
 70
     1
102
RTVSPropertyOp30
 70
     1
102
RTVSPropertyOp31
 70
     1
102
RTVSPropertyOp32
 70
     1
102
RTVSPropertyOp33
 70
     1
102
RTVSPropertyOp34
 70
     1
102
RTVSPropertyOp35
 70
     1
102
RTVSPropertyOp36
 70
     1
102
RTVSPropertyOp37
 70
     1
102
RTVSPropertyOp38
 70
     1
102
RTVSPropertyOp39
 70
     1
102
RTVSPropertyOp40
 70
     1
102
RTVSPropertyOp41
 70
     1
102
RTVSPropertyOp42
 70
     1
102
RTVSPropertyOp43
 70
     1
102
RTVSPropertyOp44
 70
     1
102
RTVSPropertyOp45
 70
     1
102
RTVSPropertyOp46
 70
     1
102
RTVSPropertyOp47
 70
     1
102
RTVSPropertyOp48
 70
     1
102
RTVSPropertyOp49
 70
     1
102
RTVSPropertyOp50
 70
     1
102
RTVSPropertyOp51
 70
     0
102
RTVSPropertyOp52
 70
     0
102
RTVSPropertyOp53
 70
     1
102
RTVSPropertyOp54
 70
     1
102
RTVSPropertyOp55
 70
     1
102
RTVSPropertyOp56
 70
     1
102
RTVSPropertyOp57
 70
     1
102
RTVSPropertyOp58
 70
     1
102
RTVSPropertyOp59
 70
     1
102
RTVSPropertyOp60
 70
     1
102
RTVSPropertyOp61
 70
     1
102
RTVSPropertyOp62
 70
     1
  0
XRECORD
  5
58DC
102
{ACAD_REACTORS
330
58DB
102
}
330
58DB
100
AcDbXrecord
280
     1
102
RTVSPost2010Prop28
280
     0
102
RTVSPost2010PropOp28
 70
     1
102
RTVSPost2010Prop29
280
     1
102
RTVSPost2010PropOp29
 70
     1
102
RTVSPost2010Prop30
280
     1
102
RTVSPost2010PropOp30
 70
     1
102
RTVSPost2010Prop31
280
     0
102
RTVSPost2010PropOp31
 70
     1
102
RTVSPost2010Prop32
280
     0
102
RTVSPost2010PropOp32
 70
     1
102
RTVSPost2010Prop33
280
     0
102
RTVSPost2010PropOp33
 70
     1
102
RTVSPost2010Prop34
280
     0
102
RTVSPost2010PropOp34
 70
     1
102
RTVSPost2010Prop35
280
     0
102
RTVSPost2010PropOp35
 70
     1
102
RTVSPost2010Prop36
280
     0
102
RTVSPost2010PropOp36
 70
     1
102
RTVSPost2010Prop37
 90
       50
102
RTVSPost2010PropOp37
 70
     1
102
RTVSPost2010Prop38
140
0.0
102
RTVSPost2010PropOp38
 70
     1
102
RTVSPost2010Prop39
140
1.0
102
RTVSPost2010PropOp39
 70
     1
102
RTVSPost2010Prop40
 90
        0
102
RTVSPost2010PropOp40
 70
     1
102
RTVSPost2010Prop41ColorIndex
 90
       18
102
RTVSPost2010Prop41ColorRGB
 90
        0
102
RTVSPost2010PropOp41
 70
     1
102
RTVSPost2010Prop42
 90
       50
102
RTVSPost2010PropOp42
 70
     1
102
RTVSPost2010Prop43
 90
        3
102
RTVSPost2010PropOp43
 70
     1
102
RTVSPost2010Prop44ColorIndex
 90
        5
102
RTVSPost2010Prop44ColorRGB
 90
      255
102
RTVSPost2010PropOp44
 70
     1
102
RTVSPost2010Prop45
280
     0
102
RTVSPost2010PropOp45
 70
     1
102
RTVSPost2010Prop46
 90
       50
102
RTVSPost2010PropOp46
 70
     1
102
RTVSPost2010Prop47
 90
       50
102
RTVSPost2010PropOp47
 70
     1
102
RTVSPost2010Prop48
 90
       50
102
RTVSPost2010PropOp48
 70
     1
102
RTVSPost2010Prop49
280
     0
102
RTVSPost2010PropOp49
 70
     1
102
RTVSPost2010Prop50
 90
       50
102
RTVSPost2010PropOp50
 70
     1
102
RTVSPost2010Prop51ColorIndex
 90
      256
102
RTVSPost2010Prop51ColorRGB
 90
-16777216
102
RTVSPost2010PropOp51
 70
     0
102
RTVSPost2010Prop52
140
1.0
102
RTVSPost2010PropOp52
 70
     0
102
RTVSPost2010Prop53
 90
        2
102
RTVSPost2010PropOp53
 70
     1
102
RTVSPost2010Prop54
  1
strokes_ogs.tif
102
RTVSPost2010PropOp54
 70
     1
102
RTVSPost2010Prop55
280
     0
102
RTVSPost2010PropOp55
 70
     1
102
RTVSPost2010Prop56
140
1.0
102
RTVSPost2010PropOp56
 70
     1
102
RTVSPost2010Prop57
140
1.0
102
RTVSPost2010PropOp57
 70
     1
102
RTVSPropertyOp0
 70
     1
102
RTVSPropertyOp1
 70
     1
102
RTVSPropertyOp2
 70
     1
102
RTVSPropertyOp3
 70
     1
102
RTVSPropertyOp4
 70
     1
102
RTVSPropertyOp5
 70
     1
102
RTVSPropertyOp6
 70
     1
102
RTVSPropertyOp7
 70
     1
102
RTVSPropertyOp8
 70
     1
102
RTVSPropertyOp9
 70
     1
102
RTVSPropertyOp10
 70
     1
102
RTVSPropertyOp11
 70
     1
102
RTVSPropertyOp12
 70
     1
102
RTVSPropertyOp13
 70
     1
102
RTVSPropertyOp14
 70
     1
102
RTVSPropertyOp15
 70
     1
102
RTVSPropertyOp16
 70
     1
102
RTVSPropertyOp17
 70
     1
102
RTVSPropertyOp18
 70
     1
102
RTVSPropertyOp19
 70
     1
102
RTVSPropertyOp20
 70
     1
102
RTVSPropertyOp21
 70
     1
102
RTVSPropertyOp22
 70
     1
102
RTVSPropertyOp23
 70
     1
102
RTVSPropertyOp24
 70
     1
102
RTVSPropertyOp25
 70
     1
102
RTVSPropertyOp26
 70
     1
102
RTVSPropertyOp27
 70
     1
102
RTVSPropertyOp28
 70
     1
102
RTVSPropertyOp29
 70
     1
102
RTVSPropertyOp30
 70
     1
102
RTVSPropertyOp31
 70
     1
102
RTVSPropertyOp32
 70
     1
102
RTVSPropertyOp33
 70
     1
102
RTVSPropertyOp34
 70
     1
102
RTVSPropertyOp35
 70
     1
102
RTVSPropertyOp36
 70
     1
102
RTVSPropertyOp37
 70
     1
102
RTVSPropertyOp38
 70
     1
102
RTVSPropertyOp39
 70
     1
102
RTVSPropertyOp40
 70
     1
102
RTVSPropertyOp41
 70
     1
102
RTVSPropertyOp42
 70
     1
102
RTVSPropertyOp43
 70
     1
102
RTVSPropertyOp44
 70
     1
102
RTVSPropertyOp45
 70
     1
102
RTVSPropertyOp46
 70
     1
102
RTVSPropertyOp47
 70
     1
102
RTVSPropertyOp48
 70
     1
102
RTVSPropertyOp49
 70
     1
102
RTVSPropertyOp50
 70
     1
102
RTVSPropertyOp51
 70
     0
102
RTVSPropertyOp52
 70
     0
102
RTVSPropertyOp53
 70
     1
102
RTVSPropertyOp54
 70
     1
102
RTVSPropertyOp55
 70
     1
102
RTVSPropertyOp56
 70
     1
102
RTVSPropertyOp57
 70
     1
102
RTVSPropertyOp58
 70
     1
102
RTVSPropertyOp59
 70
     1
102
RTVSPropertyOp60
 70
     1
102
RTVSPropertyOp61
 70
     1
102
RTVSPropertyOp62
 70
     1
  0
XRECORD
  5
58EB
102
{ACAD_REACTORS
330
58EA
102
}
330
58EA
100
AcDbXrecord
280
     1
102
RTVSPost2010Prop28
280
     0
102
RTVSPost2010PropOp28
 70
     1
102
RTVSPost2010Prop29
280
     1
102
RTVSPost2010PropOp29
 70
     1
102
RTVSPost2010Prop30
280
     1
102
RTVSPost2010PropOp30
 70
     1
102
RTVSPost2010Prop31
280
     0
102
RTVSPost2010PropOp31
 70
     1
102
RTVSPost2010Prop32
280
     0
102
RTVSPost2010PropOp32
 70
     1
102
RTVSPost2010Prop33
280
     0
102
RTVSPost2010PropOp33
 70
     1
102
RTVSPost2010Prop34
280
     0
102
RTVSPost2010PropOp34
 70
     1
102
RTVSPost2010Prop35
280
     0
102
RTVSPost2010PropOp35
 70
     1
102
RTVSPost2010Prop36
280
     0
102
RTVSPost2010PropOp36
 70
     1
102
RTVSPost2010Prop37
 90
       50
102
RTVSPost2010PropOp37
 70
     1
102
RTVSPost2010Prop38
140
0.0
102
RTVSPost2010PropOp38
 70
     1
102
RTVSPost2010Prop39
140
1.0
102
RTVSPost2010PropOp39
 70
     1
102
RTVSPost2010Prop40
 90
        0
102
RTVSPost2010PropOp40
 70
     1
102
RTVSPost2010Prop41ColorIndex
 90
       18
102
RTVSPost2010Prop41ColorRGB
 90
        0
102
RTVSPost2010PropOp41
 70
     1
102
RTVSPost2010Prop42
 90
       50
102
RTVSPost2010PropOp42
 70
     1
102
RTVSPost2010Prop43
 90
        3
102
RTVSPost2010PropOp43
 70
     1
102
RTVSPost2010Prop44ColorIndex
 90
        5
102
RTVSPost2010Prop44ColorRGB
 90
      255
102
RTVSPost2010PropOp44
 70
     1
102
RTVSPost2010Prop45
280
     0
102
RTVSPost2010PropOp45
 70
     1
102
RTVSPost2010Prop46
 90
       50
102
RTVSPost2010PropOp46
 70
     1
102
RTVSPost2010Prop47
 90
       50
102
RTVSPost2010PropOp47
 70
     1
102
RTVSPost2010Prop48
 90
       50
102
RTVSPost2010PropOp48
 70
     1
102
RTVSPost2010Prop49
280
     0
102
RTVSPost2010PropOp49
 70
     1
102
RTVSPost2010Prop50
 90
       50
102
RTVSPost2010PropOp50
 70
     1
102
RTVSPost2010Prop51ColorIndex
 90
      256
102
RTVSPost2010Prop51ColorRGB
 90
-16777216
102
RTVSPost2010PropOp51
 70
     0
102
RTVSPost2010Prop52
140
1.0
102
RTVSPost2010PropOp52
 70
     0
102
RTVSPost2010Prop53
 90
        2
102
RTVSPost2010PropOp53
 70
     1
102
RTVSPost2010Prop54
  1
strokes_ogs.tif
102
RTVSPost2010PropOp54
 70
     1
102
RTVSPost2010Prop55
280
     0
102
RTVSPost2010PropOp55
 70
     1
102
RTVSPost2010Prop56
140
1.0
102
RTVSPost2010PropOp56
 70
     1
102
RTVSPost2010Prop57
140
1.0
102
RTVSPost2010PropOp57
 70
     1
102
RTVSPropertyOp0
 70
     1
102
RTVSPropertyOp1
 70
     1
102
RTVSPropertyOp2
 70
     1
102
RTVSPropertyOp3
 70
     1
102
RTVSPropertyOp4
 70
     1
102
RTVSPropertyOp5
 70
     1
102
RTVSPropertyOp6
 70
     1
102
RTVSPropertyOp7
 70
     1
102
RTVSPropertyOp8
 70
     1
102
RTVSPropertyOp9
 70
     1
102
RTVSPropertyOp10
 70
     1
102
RTVSPropertyOp11
 70
     1
102
RTVSPropertyOp12
 70
     1
102
RTVSPropertyOp13
 70
     1
102
RTVSPropertyOp14
 70
     1
102
RTVSPropertyOp15
 70
     1
102
RTVSPropertyOp16
 70
     1
102
RTVSPropertyOp17
 70
     1
102
RTVSPropertyOp18
 70
     1
102
RTVSPropertyOp19
 70
     1
102
RTVSPropertyOp20
 70
     1
102
RTVSPropertyOp21
 70
     1
102
RTVSPropertyOp22
 70
     1
102
RTVSPropertyOp23
 70
     1
102
RTVSPropertyOp24
 70
     1
102
RTVSPropertyOp25
 70
     1
102
RTVSPropertyOp26
 70
     1
102
RTVSPropertyOp27
 70
     1
102
RTVSPropertyOp28
 70
     1
102
RTVSPropertyOp29
 70
     1
102
RTVSPropertyOp30
 70
     1
102
RTVSPropertyOp31
 70
     1
102
RTVSPropertyOp32
 70
     1
102
RTVSPropertyOp33
 70
     1
102
RTVSPropertyOp34
 70
     1
102
RTVSPropertyOp35
 70
     1
102
RTVSPropertyOp36
 70
     1
102
RTVSPropertyOp37
 70
     1
102
RTVSPropertyOp38
 70
     1
102
RTVSPropertyOp39
 70
     1
102
RTVSPropertyOp40
 70
     1
102
RTVSPropertyOp41
 70
     1
102
RTVSPropertyOp42
 70
     1
102
RTVSPropertyOp43
 70
     1
102
RTVSPropertyOp44
 70
     1
102
RTVSPropertyOp45
 70
     1
102
RTVSPropertyOp46
 70
     1
102
RTVSPropertyOp47
 70
     1
102
RTVSPropertyOp48
 70
     1
102
RTVSPropertyOp49
 70
     1
102
RTVSPropertyOp50
 70
     1
102
RTVSPropertyOp51
 70
     0
102
RTVSPropertyOp52
 70
     0
102
RTVSPropertyOp53
 70
     1
102
RTVSPropertyOp54
 70
     1
102
RTVSPropertyOp55
 70
     1
102
RTVSPropertyOp56
 70
     1
102
RTVSPropertyOp57
 70
     1
102
RTVSPropertyOp58
 70
     1
102
RTVSPropertyOp59
 70
     1
102
RTVSPropertyOp60
 70
     1
102
RTVSPropertyOp61
 70
     1
102
RTVSPropertyOp62
 70
     1
  0
XRECORD
  5
58F3
102
{ACAD_REACTORS
330
58F2
102
}
330
58F2
100
AcDbXrecord
280
     1
102
RTVSPost2010Prop28
280
     0
102
RTVSPost2010PropOp28
 70
     1
102
RTVSPost2010Prop29
280
     1
102
RTVSPost2010PropOp29
 70
     1
102
RTVSPost2010Prop30
280
     1
102
RTVSPost2010PropOp30
 70
     1
102
RTVSPost2010Prop31
280
     0
102
RTVSPost2010PropOp31
 70
     1
102
RTVSPost2010Prop32
280
     0
102
RTVSPost2010PropOp32
 70
     1
102
RTVSPost2010Prop33
280
     0
102
RTVSPost2010PropOp33
 70
     1
102
RTVSPost2010Prop34
280
     0
102
RTVSPost2010PropOp34
 70
     1
102
RTVSPost2010Prop35
280
     0
102
RTVSPost2010PropOp35
 70
     1
102
RTVSPost2010Prop36
280
     0
102
RTVSPost2010PropOp36
 70
     1
102
RTVSPost2010Prop37
 90
       50
102
RTVSPost2010PropOp37
 70
     1
102
RTVSPost2010Prop38
140
0.0
102
RTVSPost2010PropOp38
 70
     1
102
RTVSPost2010Prop39
140
1.0
102
RTVSPost2010PropOp39
 70
     1
102
RTVSPost2010Prop40
 90
        0
102
RTVSPost2010PropOp40
 70
     1
102
RTVSPost2010Prop41ColorIndex
 90
       18
102
RTVSPost2010Prop41ColorRGB
 90
        0
102
RTVSPost2010PropOp41
 70
     1
102
RTVSPost2010Prop42
 90
       50
102
RTVSPost2010PropOp42
 70
     1
102
RTVSPost2010Prop43
 90
        3
102
RTVSPost2010PropOp43
 70
     1
102
RTVSPost2010Prop44ColorIndex
 90
        5
102
RTVSPost2010Prop44ColorRGB
 90
      255
102
RTVSPost2010PropOp44
 70
     1
102
RTVSPost2010Prop45
280
     0
102
RTVSPost2010PropOp45
 70
     1
102
RTVSPost2010Prop46
 90
       50
102
RTVSPost2010PropOp46
 70
     1
102
RTVSPost2010Prop47
 90
       50
102
RTVSPost2010PropOp47
 70
     1
102
RTVSPost2010Prop48
 90
       50
102
RTVSPost2010PropOp48
 70
     1
102
RTVSPost2010Prop49
280
     0
102
RTVSPost2010PropOp49
 70
     1
102
RTVSPost2010Prop50
 90
       50
102
RTVSPost2010PropOp50
 70
     1
102
RTVSPost2010Prop51ColorIndex
 90
      256
102
RTVSPost2010Prop51ColorRGB
 90
-16777216
102
RTVSPost2010PropOp51
 70
     0
102
RTVSPost2010Prop52
140
1.0
102
RTVSPost2010PropOp52
 70
     0
102
RTVSPost2010Prop53
 90
        2
102
RTVSPost2010PropOp53
 70
     1
102
RTVSPost2010Prop54
  1
strokes_ogs.tif
102
RTVSPost2010PropOp54
 70
     1
102
RTVSPost2010Prop55
280
     0
102
RTVSPost2010PropOp55
 70
     1
102
RTVSPost2010Prop56
140
1.0
102
RTVSPost2010PropOp56
 70
     1
102
RTVSPost2010Prop57
140
1.0
102
RTVSPost2010PropOp57
 70
     1
102
RTVSPropertyOp0
 70
     1
102
RTVSPropertyOp1
 70
     1
102
RTVSPropertyOp2
 70
     1
102
RTVSPropertyOp3
 70
     1
102
RTVSPropertyOp4
 70
     1
102
RTVSPropertyOp5
 70
     1
102
RTVSPropertyOp6
 70
     1
102
RTVSPropertyOp7
 70
     1
102
RTVSPropertyOp8
 70
     1
102
RTVSPropertyOp9
 70
     1
102
RTVSPropertyOp10
 70
     1
102
RTVSPropertyOp11
 70
     1
102
RTVSPropertyOp12
 70
     1
102
RTVSPropertyOp13
 70
     1
102
RTVSPropertyOp14
 70
     1
102
RTVSPropertyOp15
 70
     1
102
RTVSPropertyOp16
 70
     1
102
RTVSPropertyOp17
 70
     1
102
RTVSPropertyOp18
 70
     1
102
RTVSPropertyOp19
 70
     1
102
RTVSPropertyOp20
 70
     1
102
RTVSPropertyOp21
 70
     1
102
RTVSPropertyOp22
 70
     1
102
RTVSPropertyOp23
 70
     1
102
RTVSPropertyOp24
 70
     1
102
RTVSPropertyOp25
 70
     1
102
RTVSPropertyOp26
 70
     1
102
RTVSPropertyOp27
 70
     1
102
RTVSPropertyOp28
 70
     1
102
RTVSPropertyOp29
 70
     1
102
RTVSPropertyOp30
 70
     1
102
RTVSPropertyOp31
 70
     1
102
RTVSPropertyOp32
 70
     1
102
RTVSPropertyOp33
 70
     1
102
RTVSPropertyOp34
 70
     1
102
RTVSPropertyOp35
 70
     1
102
RTVSPropertyOp36
 70
     1
102
RTVSPropertyOp37
 70
     1
102
RTVSPropertyOp38
 70
     1
102
RTVSPropertyOp39
 70
     1
102
RTVSPropertyOp40
 70
     1
102
RTVSPropertyOp41
 70
     1
102
RTVSPropertyOp42
 70
     1
102
RTVSPropertyOp43
 70
     1
102
RTVSPropertyOp44
 70
     1
102
RTVSPropertyOp45
 70
     1
102
RTVSPropertyOp46
 70
     1
102
RTVSPropertyOp47
 70
     1
102
RTVSPropertyOp48
 70
     1
102
RTVSPropertyOp49
 70
     1
102
RTVSPropertyOp50
 70
     1
102
RTVSPropertyOp51
 70
     0
102
RTVSPropertyOp52
 70
     0
102
RTVSPropertyOp53
 70
     1
102
RTVSPropertyOp54
 70
     1
102
RTVSPropertyOp55
 70
     1
102
RTVSPropertyOp56
 70
     1
102
RTVSPropertyOp57
 70
     1
102
RTVSPropertyOp58
 70
     1
102
RTVSPropertyOp59
 70
     1
102
RTVSPropertyOp60
 70
     1
102
RTVSPropertyOp61
 70
     1
102
RTVSPropertyOp62
 70
     1
  0
ENDSEC
  0
EOF
