  0
SECTION
  2
HEADER
  9
$ACADVER
  1
AC1015
  9
$ACADMAINTVER
 70
    20
  9
$DWGCODEPAGE
  3
ANSI_932
  9
$INSBASE
 10
0.0
 20
0.0
 30
0.0
  9
$EXTMIN
 10
-0.2166417405669563
 20
-0.1502761369429209
 30
-0.0015258207003583
  9
$EXTMAX
 10
2760.130018376729
 20
1910.088052527807
 30
0.0000000349246037
  9
$LIMMIN
 10
0.0
 20
0.0
  9
$LIMMAX
 10
2840.0
 20
1970.0
  9
$ORTHOMODE
 70
     0
  9
$REGENMODE
 70
     1
  9
$FILLMODE
 70
     1
  9
$QTEXTMODE
 70
     0
  9
$MIRRTEXT
 70
     1
  9
$LTSCALE
 40
1.0
  9
$ATTMODE
 70
     1
  9
$TEXTSIZE
 40
2.5
  9
$TRACEWID
 40
1.0
  9
$TEXTSTYLE
  7
Standard
  9
$CLAYER
  8
sunpo
  9
$CELTYPE
  6
ByLayer
  9
$CECOLOR
 62
   256
  9
$CELTSCALE
 40
1.0
  9
$DISPSILH
 70
     0
  9
$DIMSCALE
 40
10.0
  9
$DIMASZ
 40
0.8
  9
$DIMEXO
 40
1.0
  9
$DIMDLI
 40
0.0
  9
$DIMRND
 40
0.0
  9
$DIMDLE
 40
0.0
  9
$DIMEXE
 40
0.0
  9
$DIMTP
 40
0.0
  9
$DIMTM
 40
0.0
  9
$DIMTXT
 40
2.0
  9
$DIMCEN
 40
2.5
  9
$DIMTSZ
 40
0.0
  9
$DIMTOL
 70
     0
  9
$DIMLIM
 70
     0
  9
$DIMTIH
 70
     0
  9
$DIMTOH
 70
     0
  9
$DIMSE1
 70
     0
  9
$DIMSE2
 70
     0
  9
$DIMTAD
 70
     2
  9
$DIMZIN
 70
     8
  9
$DIMBLK
  1

  9
$DIMASO
 70
     1
  9
$DIMSHO
 70
     1
  9
$DIMPOST
  1

  9
$DIMAPOST
  1

  9
$DIMALT
 70
     0
  9
$DIMALTD
 70
     4
  9
$DIMALTF
 40
0.0394
  9
$DIMLFAC
 40
1.0
  9
$DIMTOFL
 70
     1
  9
$DIMTVP
 40
0.0
  9
$DIMTIX
 70
     0
  9
$DIMSOXD
 70
     0
  9
$DIMSAH
 70
     1
  9
$DIMBLK1
  1
DOT
  9
$DIMBLK2
  1
DOT
  9
$DIMSTYLE
  2
STANDARD
  9
$DIMCLRD
 70
     0
  9
$DIMCLRE
 70
     0
  9
$DIMCLRT
 70
     0
  9
$DIMTFAC
 40
1.0
  9
$DIMGAP
 40
0.1
  9
$DIMJUST
 70
     0
  9
$DIMSD1
 70
     0
  9
$DIMSD2
 70
     0
  9
$DIMTOLJ
 70
     1
  9
$DIMTZIN
 70
     0
  9
$DIMALTZ
 70
     0
  9
$DIMALTTZ
 70
     0
  9
$DIMUPT
 70
     0
  9
$DIMDEC
 70
     8
  9
$DIMTDEC
 70
     8
  9
$DIMALTU
 70
     8
  9
$DIMALTTD
 70
     4
  9
$DIMTXSTY
  7
Standard
  9
$DIMAUNIT
 70
     0
  9
$DIMADEC
 70
     0
  9
$DIMALTRND
 40
0.0
  9
$DIMAZIN
 70
     0
  9
$DIMDSEP
 70
    46
  9
$DIMATFIT
 70
     3
  9
$DIMFRAC
 70
     0
  9
$DIMLDRBLK
  1
DOT
  9
$DIMLUNIT
 70
     2
  9
$DIMLWD
 70
    -2
  9
$DIMLWE
 70
    -2
  9
$DIMTMOVE
 70
     1
  9
$LUNITS
 70
     2
  9
$LUPREC
 70
     8
  9
$SKETCHINC
 40
1.0
  9
$FILLETRAD
 40
0.0
  9
$AUNITS
 70
     0
  9
$AUPREC
 70
     8
  9
$MENU
  1
.
  9
$ELEVATION
 40
0.0
  9
$PELEVATION
 40
0.0
  9
$THICKNESS
 40
0.0
  9
$LIMCHECK
 70
     0
  9
$CHAMFERA
 40
20.0
  9
$CHAMFERB
 40
20.0
  9
$CHAMFERC
 40
20.0
  9
$CHAMFERD
 40
0.0
  9
$SKPOLY
 70
     0
  9
$TDCREATE
 40
2453276.413761574
  9
$TDUCREATE
 40
2453276.038766620
  9
$TDUPDATE
 40
2459971.694548611
  9
$TDUUPDATE
 40
2459971.319548611
  9
$TDINDWG
 40
0.3533662269
  9
$TDUSRTIMER
 40
0.3533662269
  9
$USRTIMER
 70
     1
  9
$ANGBASE
 50
0.0
  9
$ANGDIR
 70
     0
  9
$PDMODE
 70
     0
  9
$PDSIZE
 40
0.0
  9
$PLINEWID
 40
0.0
  9
$SPLFRAME
 70
     0
  9
$SPLINETYPE
 70
     6
  9
$SPLINESEGS
 70
     8
  9
$HANDSEED
  5
6A26
  9
$SURFTAB1
 70
     6
  9
$SURFTAB2
 70
     6
  9
$SURFTYPE
 70
     6
  9
$SURFU
 70
     6
  9
$SURFV
 70
     6
  9
$UCSBASE
  2

  9
$UCSNAME
  2

  9
$UCSORG
 10
0.0
 20
0.0
 30
0.0
  9
$UCSXDIR
 10
1.0
 20
0.0
 30
0.0
  9
$UCSYDIR
 10
0.0
 20
1.0
 30
0.0
  9
$UCSORTHOREF
  2

  9
$UCSORTHOVIEW
 70
     0
  9
$UCSORGTOP
 10
0.0
 20
0.0
 30
0.0
  9
$UCSORGBOTTOM
 10
0.0
 20
0.0
 30
0.0
  9
$UCSORGLEFT
 10
0.0
 20
0.0
 30
0.0
  9
$UCSORGRIGHT
 10
0.0
 20
0.0
 30
0.0
  9
$UCSORGFRONT
 10
0.0
 20
0.0
 30
0.0
  9
$UCSORGBACK
 10
0.0
 20
0.0
 30
0.0
  9
$PUCSBASE
  2

  9
$PUCSNAME
  2

  9
$PUCSORG
 10
0.0
 20
0.0
 30
0.0
  9
$PUCSXDIR
 10
1.0
 20
0.0
 30
0.0
  9
$PUCSYDIR
 10
0.0
 20
1.0
 30
0.0
  9
$PUCSORTHOREF
  2

  9
$PUCSORTHOVIEW
 70
     0
  9
$PUCSORGTOP
 10
0.0
 20
0.0
 30
0.0
  9
$PUCSORGBOTTOM
 10
0.0
 20
0.0
 30
0.0
  9
$PUCSORGLEFT
 10
0.0
 20
0.0
 30
0.0
  9
$PUCSORGRIGHT
 10
0.0
 20
0.0
 30
0.0
  9
$PUCSORGFRONT
 10
0.0
 20
0.0
 30
0.0
  9
$PUCSORGBACK
 10
0.0
 20
0.0
 30
0.0
  9
$USERI1
 70
     0
  9
$USERI2
 70
     0
  9
$USERI3
 70
     0
  9
$USERI4
 70
     0
  9
$USERI5
 70
     0
  9
$USERR1
 40
0.0
  9
$USERR2
 40
0.0
  9
$USERR3
 40
0.0
  9
$USERR4
 40
0.0
  9
$USERR5
 40
0.0
  9
$WORLDVIEW
 70
     1
  9
$SHADEDGE
 70
     2
  9
$SHADEDIF
 70
    70
  9
$TILEMODE
 70
     1
  9
$MAXACTVP
 70
    64
  9
$PINSBASE
 10
0.0
 20
0.0
 30
0.0
  9
$PLIMCHECK
 70
     0
  9
$PEXTMIN
 10
0.0
 20
0.0
 30
0.0
  9
$PEXTMAX
 10
0.0
 20
0.0
 30
0.0
  9
$PLIMMIN
 10
0.0
 20
0.0
  9
$PLIMMAX
 10
12.0
 20
9.0
  9
$UNITMODE
 70
     0
  9
$VISRETAIN
 70
     1
  9
$PLINEGEN
 70
     0
  9
$PSLTSCALE
 70
     1
  9
$TREEDEPTH
 70
  3020
  9
$CMLSTYLE
  2
Standard
  9
$CMLJUST
 70
     0
  9
$CMLSCALE
 40
20.0
  9
$PROXYGRAPHICS
 70
     1
  9
$MEASUREMENT
 70
     1
  9
$CELWEIGHT
370
    -1
  9
$ENDCAPS
280
     0
  9
$JOINSTYLE
280
     0
  9
$LWDISPLAY
290
     0
  9
$INSUNITS
 70
     4
  9
$HYPERLINKBASE
  1

  9
$STYLESHEET
  1
monochrome.stb
  9
$XEDIT
290
     1
  9
$CEPSNTYPE
380
     0
  9
$PSTYLEMODE
290
     1
  9
$FINGERPRINTGUID
  2
{B4E61C12-08AD-407D-A83C-7C7812CA1D8B}
  9
$VERSIONGUID
  2
{588FB37F-0D12-7744-AA6A-C75525A612B5}
  9
$EXTNAMES
290
     1
  9
$PSVPSCALE
 40
0.0
  9
$OLESTARTUP
290
     0
  0
ENDSEC
  0
SECTION
  2
CLASSES
  0
CLASS
  1
ACDBDICTIONARYWDFLT
  2
AcDbDictionaryWithDefault
  3
ObjectDBX Classes
 90
        0
280
     0
281
     0
  0
CLASS
  1
ACDBPLACEHOLDER
  2
AcDbPlaceHolder
  3
ObjectDBX Classes
 90
        0
280
     0
281
     0
  0
CLASS
  1
LAYOUT
  2
AcDbLayout
  3
ObjectDBX Classes
 90
        0
280
     0
281
     0
  0
CLASS
  1
DICTIONARYVAR
  2
AcDbDictionaryVar
  3
ObjectDBX Classes
 90
        0
280
     0
281
     0
  0
CLASS
  1
SORTENTSTABLE
  2
AcDbSortentsTable
  3
ObjectDBX Classes
 90
        0
280
     0
281
     0
  0
CLASS
  1
MATERIAL
  2
AcDbMaterial
  3
ObjectDBX Classes
 90
     1153
280
     0
281
     0
  0
CLASS
  1
VISUALSTYLE
  2
AcDbVisualStyle
  3
ObjectDBX Classes
 90
     4095
280
     0
281
     0
  0
CLASS
  1
TABLESTYLE
  2
AcDbTableStyle
  3
ObjectDBX Classes
 90
     4095
280
     0
281
     0
  0
CLASS
  1
SCALE
  2
AcDbScale
  3
ObjectDBX Classes
 90
     1153
280
     0
281
     0
  0
CLASS
  1
MLEADERSTYLE
  2
AcDbMLeaderStyle
  3
ACDB_MLEADERSTYLE_CLASS
 90
     4095
280
     0
281
     0
  0
CLASS
  1
CELLSTYLEMAP
  2
AcDbCellStyleMap
  3
ObjectDBX Classes
 90
     1152
280
     0
281
     0
  0
CLASS
  1
ACDBSECTIONVIEWSTYLE
  2
AcDbSectionViewStyle
  3
ObjectDBX Classes
 90
     1025
280
     0
281
     0
  0
CLASS
  1
ACDBDETAILVIEWSTYLE
  2
AcDbDetailViewStyle
  3
ObjectDBX Classes
 90
     1025
280
     0
281
     0
  0
ENDSEC
  0
SECTION
  2
TABLES
  0
TABLE
  2
VPORT
  5
8
102
{ACAD_XDICTIONARY
360
3B67
102
}
330
0
100
AcDbSymbolTable
 70
     1
  0
VPORT
  5
3AF7
330
8
100
AcDbSymbolTableRecord
100
AcDbViewportTableRecord
  2
*Active
 70
     0
 10
0.0
 20
0.0
 11
1.0
 21
1.0
 12
1379.956688318081
 22
954.968888195432
 13
0.0
 23
0.0
 14
10.0
 24
10.0
 15
10.0
 25
10.0
 16
0.0
 26
0.0
 36
1.0
 17
0.0
 27
0.0
 37
0.0
 40
1926.541927486924
 41
1.846153846153846
 42
50.0
 43
0.0
 44
0.0
 50
0.0
 51
0.0
 71
     0
 72
   100
 73
     1
 74
     3
 75
     0
 76
     0
 77
     0
 78
     0
281
     0
 65
     1
110
0.0
120
0.0
130
0.0
111
1.0
121
0.0
131
0.0
112
0.0
122
1.0
132
0.0
 79
     0
146
0.0
1001
ACAD_NAV_VCDISPLAY
1070
     3
  0
ENDTAB
  0
TABLE
  2
LTYPE
  5
5
330
0
100
AcDbSymbolTable
 70
     3
  0
LTYPE
  5
14
330
5
100
AcDbSymbolTableRecord
100
AcDbLinetypeTableRecord
  2
ByBlock
 70
     0
  3

 72
    65
 73
     0
 40
0.0
  0
LTYPE
  5
15
330
5
100
AcDbSymbolTableRecord
100
AcDbLinetypeTableRecord
  2
ByLayer
 70
     0
  3

 72
    65
 73
     0
 40
0.0
  0
LTYPE
  5
16
330
5
100
AcDbSymbolTableRecord
100
AcDbLinetypeTableRecord
  2
Continuous
 70
     0
  3
Solid line
 72
    65
 73
     0
 40
0.0
  0
LTYPE
  5
255D
330
5
100
AcDbSymbolTableRecord
100
AcDbLinetypeTableRecord
  2
DASHED
 70
     0
  3
Dashed __ __ __ __ __ __ __ __ __ __ __ __ __ _
 72
    65
 73
     2
 40
19.05
 49
12.7
 74
     0
 49
-6.349999999999999
 74
     0
  0
LTYPE
  5
2E59
330
5
100
AcDbSymbolTableRecord
100
AcDbLinetypeTableRecord
  2
DASHED2
 70
     0
  3
Dashed (.5x) _ _ _ _ _ _ _ _ _ _ _ _ _ _ _ _ _
 72
    65
 73
     2
 40
9.524999999999998
 49
6.349999999999999
 74
     0
 49
-3.174999999999999
 74
     0
  0
ENDTAB
  0
TABLE
  2
LAYER
  5
2
102
{ACAD_XDICTIONARY
360
2D
102
}
330
0
100
AcDbSymbolTable
 70
    14
  0
LAYER
  5
10
102
{ACAD_XDICTIONARY
360
3B4B
102
}
330
2
100
AcDbSymbolTableRecord
100
AcDbLayerTableRecord
  2
0
 70
     0
 62
     7
  6
Continuous
290
     0
370
    -3
390
29
  0
LAYER
  5
2294
102
{ACAD_XDICTIONARY
360
3B4D
102
}
330
2
100
AcDbSymbolTableRecord
100
AcDbLayerTableRecord
  2
HATCH
 70
     0
 62
     9
  6
Continuous
370
    -3
390
29
  0
LAYER
  5
2301
330
2
100
AcDbSymbolTableRecord
100
AcDbLayerTableRecord
  2
Defpoints
 70
     0
 62
     7
  6
Continuous
290
     0
370
    -3
390
F
  0
LAYER
  5
235F
102
{ACAD_XDICTIONARY
360
3B4F
102
}
330
2
100
AcDbSymbolTableRecord
100
AcDbLayerTableRecord
  2
KUTAI
 70
     0
 62
     3
  6
Continuous
370
    -3
390
29
  0
LAYER
  5
2360
102
{ACAD_XDICTIONARY
360
3B51
102
}
330
2
100
AcDbSymbolTableRecord
100
AcDbLayerTableRecord
  2
BOUSUI
 70
     0
 62
     1
  6
Continuous
370
    -3
390
29
  0
LAYER
  5
2361
102
{ACAD_XDICTIONARY
360
3B53
102
}
330
2
100
AcDbSymbolTableRecord
100
AcDbLayerTableRecord
  2
MOJI
 70
     0
 62
     7
  6
Continuous
370
    -3
390
29
  0
LAYER
  5
2363
102
{ACAD_XDICTIONARY
360
3B55
102
}
330
2
100
AcDbSymbolTableRecord
100
AcDbLayerTableRecord
  2
sunpo
 70
     0
 62
     7
  6
Continuous
370
    -3
390
29
  0
LAYER
  5
2364
102
{ACAD_XDICTIONARY
360
3B57
102
}
330
2
100
AcDbSymbolTableRecord
100
AcDbLayerTableRecord
  2
KANAMONO_SCREW
 70
     0
 62
     4
  6
Continuous
370
    -3
390
29
  0
LAYER
  5
2501
102
{ACAD_XDICTIONARY
360
3B59
102
}
330
2
100
AcDbSymbolTableRecord
100
AcDbLayerTableRecord
  2
dannnetu
 70
     0
 62
     6
  6
Continuous
370
    -3
390
F
  0
LAYER
  5
27C0
102
{ACAD_XDICTIONARY
360
3B5B
102
}
330
2
100
AcDbSymbolTableRecord
100
AcDbLayerTableRecord
  2
KANAMONO
 70
     0
 62
     4
  6
Continuous
370
    -3
390
29
  0
LAYER
  5
2E5A
102
{ACAD_XDICTIONARY
360
3B5D
102
}
330
2
100
AcDbSymbolTableRecord
100
AcDbLayerTableRecord
  2
TENSEN
 70
     0
 62
     4
  6
DASHED2
370
    -3
390
29
  0
LAYER
  5
2E5B
102
{ACAD_XDICTIONARY
360
3B5F
102
}
330
2
100
AcDbSymbolTableRecord
100
AcDbLayerTableRecord
  2
BUHIN
 70
     0
 62
    50
  6
Continuous
370
    -3
390
29
  0
LAYER
  5
2E5C
102
{ACAD_XDICTIONARY
360
3B61
102
}
330
2
100
AcDbSymbolTableRecord
100
AcDbLayerTableRecord
  2
WAKU
 70
     0
 62
     7
  6
Continuous
370
    -3
390
29
  0
LAYER
  5
5DA8
330
2
100
AcDbSymbolTableRecord
100
AcDbLayerTableRecord
  2
bousui2
 70
     0
 62
    40
  6
DASHED
370
     5
390
F
1001
AcAecLayerStandard
1000

1000

  0
ENDTAB
  0
TABLE
  2
STYLE
  5
3
330
0
100
AcDbSymbolTable
 70
     2
  0
STYLE
  5
11
330
3
100
AcDbSymbolTableRecord
100
AcDbTextStyleTableRecord
  2
Standard
 70
     0
 40
0.0
 41
1.0
 50
0.0
 71
     0
 42
2.5
  3

  4

1001
ACAD
1000
MS Gothic
1071
    32817
  0
STYLE
  5
3E20
330
3
100
AcDbSymbolTableRecord
100
AcDbTextStyleTableRecord
  2
MSゴシック
 70
     0
 40
0.0
 41
1.0
 50
0.0
 71
     0
 42
2.5
  3

  4

1001
ACAD
1000
MS Gothic
1071
    32817
  0
ENDTAB
  0
TABLE
  2
VIEW
  5
6
330
0
100
AcDbSymbolTable
 70
     0
  0
ENDTAB
  0
TABLE
  2
UCS
  5
7
330
0
100
AcDbSymbolTable
 70
     0
  0
ENDTAB
  0
TABLE
  2
APPID
  5
9
330
0
100
AcDbSymbolTable
 70
    10
  0
APPID
  5
12
330
9
100
AcDbSymbolTableRecord
100
AcDbRegAppTableRecord
  2
ACAD
 70
     0
  0
APPID
  5
3B40
330
9
100
AcDbSymbolTableRecord
100
AcDbRegAppTableRecord
  2
ACAD_EXEMPT_FROM_CAD_STANDARDS
 70
     0
  0
APPID
  5
3B97
330
9
100
AcDbSymbolTableRecord
100
AcDbRegAppTableRecord
  2
ACAD_MLEADERVER
 70
     0
  0
APPID
  5
3DD6
330
9
100
AcDbSymbolTableRecord
100
AcDbRegAppTableRecord
  2
ACAD_NAV_VCDISPLAY
 70
     0
  0
APPID
  5
3E22
330
9
100
AcDbSymbolTableRecord
100
AcDbRegAppTableRecord
  2
ACAD_PSEXT
 70
     0
  0
APPID
  5
3E23
330
9
100
AcDbSymbolTableRecord
100
AcDbRegAppTableRecord
  2
ACAD_DSTYLE_DIMJAG
 70
     0
  0
APPID
  5
3E24
330
9
100
AcDbSymbolTableRecord
100
AcDbRegAppTableRecord
  2
ACAD_DSTYLE_DIMTALN
 70
     0
  0
APPID
  5
5DA9
330
9
100
AcDbSymbolTableRecord
100
AcDbRegAppTableRecord
  2
AcAecLayerStandard
 70
     0
  0
APPID
  5
664B
330
9
100
AcDbSymbolTableRecord
100
AcDbRegAppTableRecord
  2
AcadAnnoPO
 70
     0
  0
APPID
  5
6695
330
9
100
AcDbSymbolTableRecord
100
AcDbRegAppTableRecord
  2
Acad_TC
 70
     0
  0
ENDTAB
  0
TABLE
  2
DIMSTYLE
  5
A
330
0
100
AcDbSymbolTable
 70
     1
100
AcDbDimStyleTable
 71
     1
340
22E4
  0
DIMSTYLE
105
22E4
330
A
100
AcDbSymbolTableRecord
100
AcDbDimStyleTableRecord
  2
STANDARD
 70
     0
 40
10.0
 41
0.8
 42
1.0
 43
0.0
 44
0.0
 73
     0
 74
     0
 77
     2
 78
     8
140
2.0
141
2.5
143
0.0394
147
0.1
171
     4
172
     1
173
     1
271
     8
272
     8
273
     8
274
     4
279
     1
340
11
341
903
343
903
344
903
  0
ENDTAB
  0
TABLE
  2
BLOCK_RECORD
  5
1
330
0
100
AcDbSymbolTable
 70
     8
  0
BLOCK_RECORD
  5
1F
102
{ACAD_XDICTIONARY
360
1C62
102
}
330
1
100
AcDbSymbolTableRecord
100
AcDbBlockTableRecord
  2
*Model_Space
340
22
  0
BLOCK_RECORD
  5
1CD0
330
1
100
AcDbSymbolTableRecord
100
AcDbBlockTableRecord
  2
*Paper_Space
340
1CD1
  0
BLOCK_RECORD
  5
903
330
1
100
AcDbSymbolTableRecord
100
AcDbBlockTableRecord
  2
_DOT
340
0
102
{BLKREFS
331
6860
331
6861
331
6866
331
6867
331
67F2
331
67F3
331
67F7
331
67F8
331
6800
331
6801
331
677C
331
677D
331
6784
331
6785
331
678E
331
678F
331
6797
331
6798
331
67A0
331
67A1
102
}
  0
BLOCK_RECORD
  5
25B1
330
1
100
AcDbSymbolTableRecord
100
AcDbBlockTableRecord
  2
*D1
340
0
  0
BLOCK_RECORD
  5
26D4
330
1
100
AcDbSymbolTableRecord
100
AcDbBlockTableRecord
  2
*D2
340
0
  0
BLOCK_RECORD
  5
2A1C
330
1
100
AcDbSymbolTableRecord
100
AcDbBlockTableRecord
  2
hps-5-10-30
340
0
310
2800000020000000200000000100080000000000000400000000000000000000000000000000000000000000000080000080000000808000800000008000800080800000C0C0C000C0DCC000F0CAA6000020400000206000002080000020A0000020C0000020E00000400000004020000040400000406000004080000040A0
310
000040C0000040E00000600000006020000060400000606000006080000060A0000060C0000060E00000800000008020000080400000806000008080000080A0000080C0000080E00000A0000000A0200000A0400000A0600000A0800000A0A00000A0C00000A0E00000C0000000C0200000C0400000C0600000C0800000C0
310
A00000C0C00000C0E00000E0000000E0200000E0400000E0600000E0800000E0A00000E0C00000E0E00040000000400020004000400040006000400080004000A0004000C0004000E00040200000402020004020400040206000402080004020A0004020C0004020E000404000004040200040404000404060004040800040
310
40A0004040C0004040E00040600000406020004060400040606000406080004060A0004060C0004060E00040800000408020004080400040806000408080004080A0004080C0004080E00040A0000040A0200040A0400040A0600040A0800040A0A00040A0C00040A0E00040C0000040C0200040C0400040C0600040C08000
310
40C0A00040C0C00040C0E00040E0000040E0200040E0400040E0600040E0800040E0A00040E0C00040E0E00080000000800020008000400080006000800080008000A0008000C0008000E00080200000802020008020400080206000802080008020A0008020C0008020E00080400000804020008040400080406000804080
310
008040A0008040C0008040E00080600000806020008060400080606000806080008060A0008060C0008060E00080800000808020008080400080806000808080008080A0008080C0008080E00080A0000080A0200080A0400080A0600080A0800080A0A00080A0C00080A0E00080C0000080C0200080C0400080C0600080C0
310
800080C0A00080C0C00080C0E00080E0000080E0200080E0400080E0600080E0800080E0A00080E0C00080E0E000C0000000C0002000C0004000C0006000C0008000C000A000C000C000C000E000C0200000C0202000C0204000C0206000C0208000C020A000C020C000C020E000C0400000C0402000C0404000C0406000C0
310
408000C040A000C040C000C040E000C0600000C0602000C0604000C0606000C0608000C060A000C060C000C060E000C0800000C0802000C0804000C0806000C0808000C080A000C080C000C080E000C0A00000C0A02000C0A04000C0A06000C0A08000C0A0A000C0A0C000C0A0E000C0C00000C0C02000C0C04000C0C06000
310
C0C08000C0C0A000F0FBFF00A4A0A000808080000000FF0000FF000000FFFF00FF000000FF00FF00FFFF0000FFFFFF00FFFFFFFFFFFFFFFFFFFFFFFFFFFFFFFFFFFFFFFFFFFFFFFFFFFFFFFFFFFFFFFFFFFFFFFFFFFFFFFFFFFFFFFFFFFFFFFFFFFFFFFFFFFFFFFFFFFFFFFFFFFFFFFFFFFFFFFFFFFFFFFFFFFFFFFFFFFFFF
310
FEFEFFFFFFFFFFFFFFFFFFFFFFFFFFFFFFFFFFFFFFFFFFFFFFFFFFFFFFFFFFFFFEFFFEFFFFFFFFFFFFFFFFFFFFFFFFFFFFFFFFFFFFFFFFFFFFFFFFFFFFFFFEFEFEFEFEFEFFFFFFFFFFFFFFFFFFFFFFFFFFFFFFFFFFFFFFFFFFFFFFFFFFFFFEFFFEFEFFFEFFFFFFFFFFFFFFFFFFFFFFFFFFFFFFFFFFFFFFFFFFFFFFFFFFFFFE
310
FFFEFEFFFEFFFFFFFFFFFFFFFFFFFFFFFFFFFFFFFFFFFFFFFFFFFFFFFFFFFFFEFFFEFEFFFEFFFFFFFFFFFFFFFFFFFFFFFFFFFFFFFFFFFFFFFFFFFFFFFFFFFFFEFFFEFEFFFEFFFFFFFFFFFFFFFFFFFFFFFFFFFFFFFFFFFFFFFFFFFFFFFFFFFFFEFFFEFEFFFEFFFFFFFFFFFFFFFFFFFFFFFFFFFFFFFFFFFFFFFFFFFFFFFFFFFF
310
FEFFFEFEFFFEFFFFFFFFFFFFFFFFFFFFFFFFFFFFFFFFFFFFFFFFFFFFFFFFFFFFFEFFFEFEFFFEFFFFFFFFFFFFFFFFFFFFFFFFFFFFFFFFFFFFFFFFFFFFFFFFFFFFFEFFFEFEFFFEFFFFFFFFFFFFFFFFFFFFFFFFFFFFFFFFFFFFFFFFFFFFFFFFFFFFFEFFFEFEFFFEFFFFFFFFFFFFFFFFFFFFFFFFFFFFFFFFFFFFFFFFFFFFFFFFFF
310
FFFEFFFEFEFFFEFFFFFFFFFFFFFFFFFFFFFFFFFFFFFFFFFFFFFFFFFFFFFFFFFFFFFEFFFEFEFFFEFFFFFFFFFFFFFFFFFFFFFFFFFFFFFFFFFFFFFFFFFFFFFFFFFFFFFEFFFEFEFFFEFFFFFFFFFFFFFFFFFFFFFFFFFFFFFFFFFFFFFFFFFFFFFFFFFFFFFEFFFEFEFFFEFFFFFFFFFFFFFFFFFFFFFFFFFFFFFFFFFFFFFFFFFFFFFFFF
310
FFFFFEFEFEFEFEFEFFFFFFFFFFFFFFFFFFFFFFFFFFFFFFFFFFFFFFFFFFFFFFFFFFFFFEFFFFFFFFFEFFFFFFFFFFFFFFFFFFFFFFFFFFFFFFFFFFFFFFFFFFFFFFFFFFFFFEFEFEFEFEFEFFFFFFFFFFFFFFFFFFFFFFFFFFFFFFFFFFFFFFFFFFFFFFFFFFFFFEFFFFFFFFFEFFFFFFFFFFFFFFFFFFFFFFFFFFFFFFFFFFFFFFFFFFFFFF
310
FFFFFFFEFFFFFFFFFEFFFFFFFFFFFFFFFFFFFFFFFFFFFFFFFFFFFFFFFFFFFFFFFFFFFFFEFFFFFFFFFEFFFFFFFFFFFFFFFFFFFFFFFFFFFFFFFFFFFFFFFFFFFFFFFFFFFFFEFFFFFFFFFEFFFFFFFFFFFFFFFFFFFFFFFFFFFFFFFFFFFFFFFFFFFFFFFFFFFFFEFFFFFFFFFEFFFFFFFFFFFFFFFFFFFFFFFFFFFFFFFFFFFFFFFFFFFF
310
FFFFFFFFFEFFFFFFFFFEFFFFFFFFFFFFFFFFFFFFFFFFFFFFFFFFFFFFFFFFFFFFFFFFFFFFFEFFFFFFFFFEFFFFFFFFFFFFFFFFFFFFFFFFFFFFFFFFFFFFFFFFFFFFFFFFFEFEFEFEFEFEFEFEFEFEFFFFFFFFFFFFFFFFFFFFFFFFFFFFFFFFFFFFFFFFFFFFFEFEFEFEFEFEFEFEFEFEFFFFFFFFFFFFFFFFFFFFFFFFFFFFFFFFFFFFFF
310
FFFFFFFFFFFEFEFEFEFEFEFFFFFFFFFFFFFFFFFFFFFFFFFFFFFFFFFFFFFFFFFFFFFFFFFFFFFFFFFFFFFFFFFFFFFFFFFFFFFFFFFFFFFFFFFF
1001
ACAD
1000
DesignCenter Data
1002
{
1070
     1
1070
     4
1002
}
  0
BLOCK_RECORD
  5
33EF
330
1
100
AcDbSymbolTableRecord
100
AcDbBlockTableRecord
  2
*D4
340
0
  0
BLOCK_RECORD
  5
344C
330
1
100
AcDbSymbolTableRecord
100
AcDbBlockTableRecord
  2
*D5
340
0
  0
BLOCK_RECORD
  5
3458
330
1
100
AcDbSymbolTableRecord
100
AcDbBlockTableRecord
  2
*D6
340
0
  0
BLOCK_RECORD
  5
3531
330
1
100
AcDbSymbolTableRecord
100
AcDbBlockTableRecord
  2
hps6-15-40
340
0
310
2800000020000000200000000100080000000000000400000000000000000000000000000000000000000000000080000080000000808000800000008000800080800000C0C0C000C0DCC000F0CAA6000020400000206000002080000020A0000020C0000020E00000400000004020000040400000406000004080000040A0
310
000040C0000040E00000600000006020000060400000606000006080000060A0000060C0000060E00000800000008020000080400000806000008080000080A0000080C0000080E00000A0000000A0200000A0400000A0600000A0800000A0A00000A0C00000A0E00000C0000000C0200000C0400000C0600000C0800000C0
310
A00000C0C00000C0E00000E0000000E0200000E0400000E0600000E0800000E0A00000E0C00000E0E00040000000400020004000400040006000400080004000A0004000C0004000E00040200000402020004020400040206000402080004020A0004020C0004020E000404000004040200040404000404060004040800040
310
40A0004040C0004040E00040600000406020004060400040606000406080004060A0004060C0004060E00040800000408020004080400040806000408080004080A0004080C0004080E00040A0000040A0200040A0400040A0600040A0800040A0A00040A0C00040A0E00040C0000040C0200040C0400040C0600040C08000
310
40C0A00040C0C00040C0E00040E0000040E0200040E0400040E0600040E0800040E0A00040E0C00040E0E00080000000800020008000400080006000800080008000A0008000C0008000E00080200000802020008020400080206000802080008020A0008020C0008020E00080400000804020008040400080406000804080
310
008040A0008040C0008040E00080600000806020008060400080606000806080008060A0008060C0008060E00080800000808020008080400080806000808080008080A0008080C0008080E00080A0000080A0200080A0400080A0600080A0800080A0A00080A0C00080A0E00080C0000080C0200080C0400080C0600080C0
310
800080C0A00080C0C00080C0E00080E0000080E0200080E0400080E0600080E0800080E0A00080E0C00080E0E000C0000000C0002000C0004000C0006000C0008000C000A000C000C000C000E000C0200000C0202000C0204000C0206000C0208000C020A000C020C000C020E000C0400000C0402000C0404000C0406000C0
310
408000C040A000C040C000C040E000C0600000C0602000C0604000C0606000C0608000C060A000C060C000C060E000C0800000C0802000C0804000C0806000C0808000C080A000C080C000C080E000C0A00000C0A02000C0A04000C0A06000C0A08000C0A0A000C0A0C000C0A0E000C0C00000C0C02000C0C04000C0C06000
310
C0C08000C0C0A000F0FBFF00A4A0A000808080000000FF0000FF000000FFFF00FF000000FF00FF00FFFF0000FFFFFF00FFFFFFFFFFFFFFFFFFFFFFFFFFFFFFFFFFFFFFFFFFFFFFFFFFFFFFFFFFFFFFFFFFFFFFFFFFFFFFFFFFFFFFFFFFFFFFFFFFFFFFFFFFFFFFFFFFFFFFFFFFFFFFFFFFFFFFFFFFFFFFFFFFFFFFFFFFFFFF
310
FEFEFFFFFFFFFFFFFFFFFFFFFFFFFFFFFFFFFFFFFFFFFFFFFFFFFFFFFFFFFFFFFEFFFEFFFFFFFFFFFFFFFFFFFFFFFFFFFFFFFFFFFFFFFFFFFFFFFFFFFFFFFFFEFEFEFEFFFFFFFFFFFFFFFFFFFFFFFFFFFFFFFFFFFFFFFFFFFFFFFFFFFFFFFEFFFEFEFFFEFFFFFFFFFFFFFFFFFFFFFFFFFFFFFFFFFFFFFFFFFFFFFFFFFFFFFE
310
FFFEFEFFFEFFFFFFFFFFFFFFFFFFFFFFFFFFFFFFFFFFFFFFFFFFFFFFFFFFFFFEFFFEFEFFFEFFFFFFFFFFFFFFFFFFFFFFFFFFFFFFFFFFFFFFFFFFFFFFFFFFFFFEFFFEFEFFFEFFFFFFFFFFFFFFFFFFFFFFFFFFFFFFFFFFFFFFFFFFFFFFFFFFFFFFFEFEFEFEFFFFFFFFFFFFFFFFFFFFFFFFFFFFFFFFFFFFFFFFFFFFFFFFFFFFFF
310
FFFEFEFEFEFFFFFFFFFFFFFFFFFFFFFFFFFFFFFFFFFFFFFFFFFFFFFFFFFFFFFFFFFEFEFEFEFFFFFFFFFFFFFFFFFFFFFFFFFFFFFFFFFFFFFFFFFFFFFFFFFFFFFFFFFEFEFEFEFFFFFFFFFFFFFFFFFFFFFFFFFFFFFFFFFFFFFFFFFFFFFFFFFFFFFFFFFEFEFEFEFFFFFFFFFFFFFFFFFFFFFFFFFFFFFFFFFFFFFFFFFFFFFFFFFFFF
310
FFFFFEFEFEFEFFFFFFFFFFFFFFFFFFFFFFFFFFFFFFFFFFFFFFFFFFFFFFFFFFFFFFFFFEFEFEFEFFFFFFFFFFFFFFFFFFFFFFFFFFFFFFFFFFFFFFFFFFFFFFFFFFFFFFFFFEFFFFFEFFFFFFFFFFFFFFFFFFFFFFFFFFFFFFFFFFFFFFFFFFFFFFFFFFFFFFFFFEFEFEFEFFFFFFFFFFFFFFFFFFFFFFFFFFFFFFFFFFFFFFFFFFFFFFFFFF
310
FFFFFFFEFFFFFEFFFFFFFFFFFFFFFFFFFFFFFFFFFFFFFFFFFFFFFFFFFFFFFFFFFFFFFFFEFFFFFEFFFFFFFFFFFFFFFFFFFFFFFFFFFFFFFFFFFFFFFFFFFFFFFFFFFFFFFFFEFFFFFEFFFFFFFFFFFFFFFFFFFFFFFFFFFFFFFFFFFFFFFFFFFFFFFFFFFFFFFFFEFFFFFEFFFFFFFFFFFFFFFFFFFFFFFFFFFFFFFFFFFFFFFFFFFFFFFF
310
FFFFFFFFFEFFFFFEFFFFFFFFFFFFFFFFFFFFFFFFFFFFFFFFFFFFFFFFFFFFFFFFFFFFFFFFFEFFFFFEFFFFFFFFFFFFFFFFFFFFFFFFFFFFFFFFFFFFFFFFFFFFFFFFFFFFFFFFFEFFFFFEFFFFFFFFFFFFFFFFFFFFFFFFFFFFFFFFFFFFFFFFFFFFFFFFFFFFFFFFFEFFFFFEFFFFFFFFFFFFFFFFFFFFFFFFFFFFFFFFFFFFFFFFFFFFFF
310
FFFFFFFFFFFEFFFFFEFFFFFFFFFFFFFFFFFFFFFFFFFFFFFFFFFFFFFFFFFFFFFFFFFFFFFFFFFEFFFFFEFFFFFFFFFFFFFFFFFFFFFFFFFFFFFFFFFFFFFFFFFFFFFFFFFFFFFEFEFEFEFEFEFEFEFFFFFFFFFFFFFFFFFFFFFFFFFFFFFFFFFFFFFFFFFFFFFFFFFEFEFEFEFEFEFEFEFFFFFFFFFFFFFFFFFFFFFFFFFFFFFFFFFFFFFFFF
310
FFFFFFFFFFFFFEFEFEFEFFFFFFFFFFFFFFFFFFFFFFFFFFFFFFFFFFFFFFFFFFFFFFFFFFFFFFFFFFFFFFFFFFFFFFFFFFFFFFFFFFFFFFFFFFFF
1001
ACAD
1000
DesignCenter Data
1002
{
1070
     1
1070
     4
1002
}
  0
ENDTAB
  0
ENDSEC
  0
SECTION
  2
BLOCKS
  0
BLOCK
  5
20
330
1F
100
AcDbEntity
  8
0
100
AcDbBlockBegin
  2
*Model_Space
 70
     0
 10
0.0
 20
0.0
 30
0.0
  3
*Model_Space
  1

  0
ENDBLK
  5
21
330
1F
100
AcDbEntity
  8
0
100
AcDbBlockEnd
  0
BLOCK
  5
1CD2
330
1CD0
100
AcDbEntity
 67
     1
  8
0
100
AcDbBlockBegin
  2
*Paper_Space
 70
     0
 10
0.0
 20
0.0
 30
0.0
  3
*Paper_Space
  1

  0
ENDBLK
  5
1CD3
330
1CD0
100
AcDbEntity
 67
     1
  8
0
100
AcDbBlockEnd
  0
BLOCK
  5
906
330
903
100
AcDbEntity
  8
0
100
AcDbBlockBegin
  2
_DOT
 70
     0
 10
0.0
 20
0.0
 30
0.0
  3
_DOT
  1

  0
LWPOLYLINE
  5
904
330
903
100
AcDbEntity
  8
0
  6
ByBlock
 62
     0
100
AcDbPolyline
 90
        2
 70
     1
 43
0.5
 10
-0.25
 20
0.0
 42
1.0
 10
0.25
 20
0.0
 42
1.0
  0
LINE
  5
905
330
903
100
AcDbEntity
  8
0
  6
ByBlock
 62
     0
100
AcDbLine
 10
-0.5
 20
0.0
 30
0.0
 11
-1.0
 21
0.0
 31
0.0
  0
ENDBLK
  5
907
330
903
100
AcDbEntity
  8
0
100
AcDbBlockEnd
  0
BLOCK
  5
25BB
330
25B1
100
AcDbEntity
  8
0
100
AcDbBlockBegin
  2
*D1
 70
     1
 10
0.0
 20
0.0
 30
0.0
  3
*D1
  1

  0
LINE
  5
6778
330
25B1
100
AcDbEntity
  8
sunpo
 62
     0
370
    -2
100
AcDbLine
 10
800.0
 20
1052.574047658528
 30
0.0
 11
800.0
 21
1030.29551190026
 31
0.0
  0
LINE
  5
6779
330
25B1
100
AcDbEntity
  8
sunpo
 62
     0
370
    -2
100
AcDbLine
 10
980.0
 20
1052.574047658528
 30
0.0
 11
980.0
 21
1030.29551190026
 31
0.0
  0
LINE
  5
677A
330
25B1
100
AcDbEntity
  8
sunpo
 62
     0
370
    -2
100
AcDbLine
 10
808.0
 20
1030.29551190026
 30
0.0
 11
972.0
 21
1030.29551190026
 31
0.0
  0
MTEXT
  5
677B
330
25B1
100
AcDbEntity
  8
sunpo
 62
     0
100
AcDbMText
 10
889.4812711233043
 20
1046.174926234368
 30
0.0
 40
20.0
 41
0.0
 71
     5
 72
     1
  1
\A1;≧180
  7
MSゴシック
 73
     1
 44
1.0
1001
ACAD
1000
MTEXTBEGIN
1070
    73
1070
     1
1070
    44
1040
1.0
1070
    74
1070
     0
1000
MTEXTEND
  0
INSERT
  5
677C
330
25B1
100
AcDbEntity
  8
sunpo
 62
     0
370
    -2
100
AcDbBlockReference
  2
_DOT
 10
800.0
 20
1030.29551190026
 30
0.0
 41
8.0
 42
8.0
 43
8.0
 50
180.0
  0
INSERT
  5
677D
330
25B1
100
AcDbEntity
  8
sunpo
 62
     0
370
    -2
100
AcDbBlockReference
  2
_DOT
 10
980.0
 20
1030.29551190026
 30
0.0
 41
8.0
 42
8.0
 43
8.0
  0
POINT
  5
677E
330
25B1
100
AcDbEntity
  8
Defpoints
 62
     0
100
AcDbPoint
 10
800.0
 20
1057.574047658528
 30
0.0
  0
POINT
  5
677F
330
25B1
100
AcDbEntity
  8
Defpoints
 62
     0
100
AcDbPoint
 10
980.0
 20
1057.574047658528
 30
0.0
  0
POINT
  5
6780
330
25B1
100
AcDbEntity
  8
Defpoints
 62
     0
100
AcDbPoint
 10
980.0
 20
1030.29551190026
 30
0.0
  0
ENDBLK
  5
25BC
330
25B1
100
AcDbEntity
  8
0
100
AcDbBlockEnd
  0
BLOCK
  5
26DE
330
26D4
100
AcDbEntity
  8
0
100
AcDbBlockBegin
  2
*D2
 70
     1
 10
0.0
 20
0.0
 30
0.0
  3
*D2
  1

  0
LINE
  5
6781
330
26D4
100
AcDbEntity
  8
sunpo
 62
     0
 48
0.5
370
    -2
100
AcDbLine
 10
959.058634642743
 20
635.0000000000002
 30
0.0
 11
904.8814049038465
 21
635.0000000000002
 31
0.0
  0
LINE
  5
6782
330
26D4
100
AcDbEntity
  8
sunpo
 62
     0
 48
0.5
370
    -2
100
AcDbLine
 10
959.058634642743
 20
924.9999999999987
 30
0.0
 11
904.8814049038465
 21
924.9999999999987
 31
0.0
  0
LINE
  5
6783
330
26D4
100
AcDbEntity
  8
sunpo
 62
     0
 48
0.5
370
    -2
100
AcDbLine
 10
904.8814049038465
 20
643.0000000000002
 30
0.0
 11
904.8814049038465
 21
916.9999999999987
 31
0.0
  0
INSERT
  5
6784
330
26D4
100
AcDbEntity
  8
sunpo
 62
     0
 48
0.5
370
    -2
100
AcDbBlockReference
  2
_DOT
 10
904.8814049038465
 20
635.0000000000002
 30
0.0
 41
8.0
 42
8.0
 43
8.0
 50
270.0
  0
INSERT
  5
6785
330
26D4
100
AcDbEntity
  8
sunpo
 62
     0
 48
0.5
370
    -2
100
AcDbBlockReference
  2
_DOT
 10
904.8814049038465
 20
924.9999999999987
 30
0.0
 41
8.0
 42
8.0
 43
8.0
 50
90.0
  0
MTEXT
  5
6786
330
26D4
100
AcDbEntity
  8
sunpo
 62
     0
 48
0.5
100
AcDbMText
 10
892.4093236855723
 20
779.999999999999
 30
0.0
 40
20.0
 41
0.0
 71
     5
 72
     1
  1
\A1;150以上（水上）
  7
MSゴシック
 11
0.0000000000000001
 21
1.0
 31
0.0
 73
     1
 44
1.0
1001
ACAD
1000
MTEXTBEGIN
1070
    73
1070
     1
1070
    44
1040
1.0
1070
    74
1070
     0
1000
MTEXTEND
  0
POINT
  5
6787
330
26D4
100
AcDbEntity
  8
Defpoints
 62
     0
 48
0.5
100
AcDbPoint
 10
964.0586346427431
 20
635.0000000000002
 30
0.0
  0
POINT
  5
6788
330
26D4
100
AcDbEntity
  8
Defpoints
 62
     0
 48
0.5
100
AcDbPoint
 10
964.0586346427431
 20
924.9999999999987
 30
0.0
  0
POINT
  5
6789
330
26D4
100
AcDbEntity
  8
Defpoints
 62
     0
 48
0.5
100
AcDbPoint
 10
904.8814049038465
 20
924.9999999999987
 30
0.0
  0
ENDBLK
  5
26DF
330
26D4
100
AcDbEntity
  8
0
100
AcDbBlockEnd
  0
BLOCK
  5
2A53
330
2A1C
100
AcDbEntity
  8
0
 48
20.0
100
AcDbBlockBegin
  2
hps-5-10-30
 70
     0
 10
0.0
 20
0.0
 30
0.0
  3
hps-5-10-30
  1

  0
LINE
  5
2A1D
330
2A1C
100
AcDbEntity
  8
KANAMONO_SCREW
 48
20.0
100
AcDbLine
 10
-2.628551427289778
 20
-15.56980343716732
 30
0.0
 11
-3.074324324324322
 21
-25.67398910328466
 31
0.0
  0
LINE
  5
2A1E
330
2A1C
100
AcDbEntity
  8
KANAMONO_SCREW
 48
20.0
100
AcDbLine
 10
2.628551427297225
 20
-15.56980343716701
 30
0.0
 11
3.074324324324322
 21
-25.67398910328466
 31
0.0
  0
LINE
  5
2A1F
330
2A1C
100
AcDbEntity
  8
KANAMONO_SCREW
 48
20.0
100
AcDbLine
 10
0.2083333333333144
 20
-12.65597108526664
 30
0.0
 11
0.8333333333333143
 21
-26.8226377519333
 31
0.0
  0
LINE
  5
2A20
330
2A1C
100
AcDbEntity
  8
KANAMONO_SCREW
 48
20.0
100
AcDbLine
 10
-0.2083333333333144
 20
-12.65597108526664
 30
0.0
 11
-0.8333333333333143
 21
-26.8226377519333
 31
0.0
  0
LINE
  5
2A21
330
2A1C
100
AcDbEntity
  8
KANAMONO_SCREW
 48
20.0
100
AcDbLine
 10
-1.594514301521201
 20
-26.8226377519333
 30
0.0
 11
-0.3849498143908931
 21
-29.74278476348546
 31
0.0
  0
LINE
  5
2A22
330
2A1C
100
AcDbEntity
  8
KANAMONO_SCREW
 48
20.0
100
AcDbLine
 10
1.594514301521201
 20
-26.8226377519333
 30
0.0
 11
0.38494979603513
 21
-29.74278476348546
 31
0.0
  0
ARC
  5
2A23
330
2A1C
100
AcDbEntity
  8
KANAMONO_SCREW
 48
20.0
100
AcDbCircle
 10
-0.0000000091778816
 20
-29.58333333333333
 30
0.0
 40
0.4166666666666667
100
AcDbArc
 50
202.5000000000006
 51
337.4999999999994
  0
LINE
  5
2A24
330
2A1C
100
AcDbEntity
  8
KANAMONO_SCREW
 48
20.0
100
AcDbLine
 10
0.8333333333333143
 20
-26.8226377519333
 30
0.0
 11
2.5
 21
-26.8226377519333
 31
0.0
  0
LINE
  5
2A25
330
2A1C
100
AcDbEntity
  8
KANAMONO_SCREW
 48
20.0
100
AcDbLine
 10
-0.8333333333333143
 20
-26.8226377519333
 30
0.0
 11
-2.5
 21
-26.8226377519333
 31
0.0
  0
LINE
  5
2A26
330
2A1C
100
AcDbEntity
  8
KANAMONO_SCREW
 48
20.0
100
AcDbLine
 10
-2.5
 20
-26.8226377519333
 30
0.0
 11
-3.074324324324322
 21
-25.67398910328466
 31
0.0
  0
LINE
  5
2A27
330
2A1C
100
AcDbEntity
  8
KANAMONO_SCREW
 48
20.0
100
AcDbLine
 10
-0.7984944745110738
 20
-26.03295695196111
 30
0.0
 11
0.7810727768853099
 21
-25.63806513911202
 31
0.0
  0
LINE
  5
2A28
330
2A1C
100
AcDbEntity
  8
KANAMONO_SCREW
 48
20.0
100
AcDbLine
 10
-0.7427323927266798
 20
-24.76901643151503
 30
0.0
 11
0.7265273223398481
 21
-24.40170150274837
 31
0.0
  0
LINE
  5
2A29
330
2A1C
100
AcDbEntity
  8
KANAMONO_SCREW
 48
20.0
100
AcDbLine
 10
-1.347040089409006
 20
-27.42009335568558
 30
0.0
 11
1.042782325600171
 21
-26.8226377519333
 31
0.0
  0
LINE
  5
2A2A
330
2A1C
100
AcDbEntity
  8
KANAMONO_SCREW
 48
20.0
100
AcDbLine
 10
-0.6869703109422858
 20
-23.50507591106889
 30
0.0
 11
0.6719818677943863
 21
-23.16533786638472
 31
0.0
  0
LINE
  5
2A2B
330
2A1C
100
AcDbEntity
  8
KANAMONO_SCREW
 48
20.0
100
AcDbLine
 10
-0.4639219838047098
 20
-18.44931382928449
 30
0.0
 11
0.4538000496125961
 21
-18.21988332093018
 31
0.0
  0
LINE
  5
2A2C
330
2A1C
100
AcDbEntity
  8
KANAMONO_SCREW
 48
20.0
100
AcDbLine
 10
-0.6312082291578918
 20
-22.2411353906228
 30
0.0
 11
0.6174364132489245
 21
-21.92897423002107
 31
0.0
  0
LINE
  5
2A2D
330
2A1C
100
AcDbEntity
  8
KANAMONO_SCREW
 48
20.0
100
AcDbLine
 10
-0.5754461473734978
 20
-20.97719487017669
 30
0.0
 11
0.5628909587035196
 21
-20.69261059365742
 31
0.0
  0
LINE
  5
2A2E
330
2A1C
100
AcDbEntity
  8
KANAMONO_SCREW
 48
20.0
100
AcDbLine
 10
-0.5196840655891038
 20
-19.71325434973063
 30
0.0
 11
0.5083455041580578
 21
-19.45624695729383
 31
0.0
  0
LINE
  5
2A2F
330
2A1C
100
AcDbEntity
  8
KANAMONO_SCREW
 48
20.0
100
AcDbLine
 10
2.5
 20
-26.8226377519333
 30
0.0
 11
3.074324324324322
 21
-25.67398910328466
 31
0.0
  0
LINE
  5
2A30
330
2A1C
100
AcDbEntity
  8
KANAMONO_SCREW
 48
20.0
100
AcDbLine
 10
-2.5
 20
-0.8333333333333285
 30
0.0
 11
-2.5
 21
-12.6559710852661
 31
0.0
  0
LINE
  5
2A31
330
2A1C
100
AcDbEntity
  8
KANAMONO_SCREW
 48
20.0
100
AcDbLine
 10
2.5
 20
-0.833333333333357
 30
0.0
 11
2.5
 21
-12.6559710852661
 31
0.0
  0
LINE
  5
2A32
330
2A1C
100
AcDbEntity
  8
KANAMONO_SCREW
 48
20.0
100
AcDbLine
 10
-2.5
 20
-10.98930441859944
 30
0.0
 11
2.5
 21
-10.98930441859944
 31
0.0
  0
LINE
  5
2A33
330
2A1C
100
AcDbEntity
  8
KANAMONO_SCREW
 48
20.0
100
AcDbLine
 10
-2.5
 20
-8.489304418599445
 30
0.0
 11
2.5
 21
-8.489304418599445
 31
0.0
  0
LINE
  5
2A34
330
2A1C
100
AcDbEntity
  8
KANAMONO_SCREW
 48
20.0
100
AcDbLine
 10
-2.291869117721319
 20
-12.66515333007304
 30
0.0
 11
-2.5
 21
-12.6559710852661
 31
0.0
  0
LINE
  5
2A35
330
2A1C
100
AcDbEntity
  8
KANAMONO_SCREW
 48
20.0
100
AcDbLine
 10
-2.301051362528312
 20
-12.87328421235169
 30
0.0
 11
-2.509182244806879
 21
-12.86410196754472
 31
0.0
  0
LINE
  5
2A36
330
2A1C
100
AcDbEntity
  8
KANAMONO_SCREW
 48
20.0
100
AcDbLine
 10
-2.411238300211664
 20
-15.37085479969532
 30
0.0
 11
-2.619369182490231
 21
-15.36167255488836
 31
0.0
  0
LINE
  5
2A37
330
2A1C
100
AcDbEntity
  8
KANAMONO_SCREW
 48
20.0
100
AcDbLine
 10
-2.420420545018544
 20
-15.57898568197394
 30
0.0
 11
-2.628551427297225
 21
-15.56980343716701
 31
0.0
  0
LINE
  5
2A38
330
2A1C
100
AcDbEntity
  8
KANAMONO_SCREW
 48
20.0
100
AcDbLine
 10
-2.509182244806424
 20
-12.86410196754475
 30
0.0
 11
-2.619369182483353
 21
-15.3616725548887
 31
0.0
  0
LINE
  5
2A39
330
2A1C
100
AcDbEntity
  8
KANAMONO_SCREW
 48
20.0
100
AcDbLine
 10
-2.291869117721319
 20
-12.66515333007304
 30
0.0
 11
-2.420420545011097
 21
-15.57898568197429
 31
0.0
  0
LINE
  5
2A3A
330
2A1C
100
AcDbEntity
  8
KANAMONO_SCREW
 48
20.0
100
AcDbLine
 10
-0.2083333333333144
 20
-12.65597108526664
 30
0.0
 11
0.2083333333333144
 21
-12.65597108526664
 31
0.0
  0
LINE
  5
2A3B
330
2A1C
100
AcDbEntity
  8
KANAMONO_SCREW
 48
20.0
100
AcDbLine
 10
-0.2408736566671905
 20
-13.39355174750015
 30
0.0
 11
0.2356182314308057
 21
-13.27442877547567
 31
0.0
  0
LINE
  5
2A3C
330
2A1C
100
AcDbEntity
  8
KANAMONO_SCREW
 48
20.0
100
AcDbLine
 10
-0.4081599020203158
 20
-17.18537330883843
 30
0.0
 11
0.3992545950671342
 21
-16.98351968456656
 31
0.0
  0
LINE
  5
2A3D
330
2A1C
100
AcDbEntity
  8
KANAMONO_SCREW
 48
20.0
100
AcDbLine
 10
-0.3523978202359785
 20
-15.92143278839232
 30
0.0
 11
0.3447091405216724
 21
-15.74715604820291
 31
0.0
  0
LINE
  5
2A3E
330
2A1C
100
AcDbEntity
  8
KANAMONO_SCREW
 48
20.0
100
AcDbLine
 10
-0.2966357384515845
 20
-14.65749226794621
 30
0.0
 11
0.2901636859762107
 21
-14.51079241183926
 31
0.0
  0
LINE
  5
2A3F
330
2A1C
100
AcDbEntity
  8
KANAMONO_SCREW
 48
20.0
100
AcDbLine
 10
2.301051362528312
 20
-12.87328421235169
 30
0.0
 11
2.509182244806879
 21
-12.86410196754472
 31
0.0
  0
LINE
  5
2A40
330
2A1C
100
AcDbEntity
  8
KANAMONO_SCREW
 48
20.0
100
AcDbLine
 10
2.291869117721319
 20
-12.66515333007304
 30
0.0
 11
2.5
 21
-12.6559710852661
 31
0.0
  0
LINE
  5
2A41
330
2A1C
100
AcDbEntity
  8
KANAMONO_SCREW
 48
20.0
100
AcDbLine
 10
2.420420545018544
 20
-15.57898568197394
 30
0.0
 11
2.628551427297225
 21
-15.56980343716701
 31
0.0
  0
LINE
  5
2A42
330
2A1C
100
AcDbEntity
  8
KANAMONO_SCREW
 48
20.0
100
AcDbLine
 10
2.411238300211664
 20
-15.37085479969532
 30
0.0
 11
2.619369182490231
 21
-15.36167255488836
 31
0.0
  0
LINE
  5
2A43
330
2A1C
100
AcDbEntity
  8
KANAMONO_SCREW
 48
20.0
100
AcDbLine
 10
2.291869117721319
 20
-12.66515333007304
 30
0.0
 11
2.420420545011097
 21
-15.57898568197429
 31
0.0
  0
LINE
  5
2A44
330
2A1C
100
AcDbEntity
  8
KANAMONO_SCREW
 48
20.0
100
AcDbLine
 10
2.509182244806424
 20
-12.86410196754475
 30
0.0
 11
2.619369182483353
 21
-15.3616725548887
 31
0.0
  0
LINE
  5
2A45
330
2A1C
100
AcDbEntity
  8
KANAMONO_SCREW
 48
20.0
100
AcDbLine
 10
-3.333333333333314
 20
0.0000000000000142
 30
0.0
 11
3.333333333333314
 21
-0.0000000000000142
 31
0.0
  0
LINE
  5
2A46
330
2A1C
100
AcDbEntity
  8
KANAMONO_SCREW
 48
20.0
100
AcDbLine
 10
3.541666666666685
 20
2.083333333333328
 30
0.0
 11
-3.541666666666685
 21
2.083333333333328
 31
0.0
  0
LINE
  5
2A47
330
2A1C
100
AcDbEntity
  8
KANAMONO_SCREW
 48
20.0
100
AcDbLine
 10
2.5
 20
2.291666666666642
 30
0.0
 11
-2.5
 21
2.291666666666642
 31
0.0
  0
LINE
  5
2A48
330
2A1C
100
AcDbEntity
  8
KANAMONO_SCREW
 48
20.0
100
AcDbLine
 10
-4.583333333333314
 20
1.666666666666642
 30
0.0
 11
4.583333333333314
 21
1.666666666666642
 31
0.0
  0
LINE
  5
2A49
330
2A1C
100
AcDbEntity
  8
KANAMONO_SCREW
 48
20.0
100
AcDbLine
 10
-3.541666666666685
 20
2.083333333333328
 30
0.0
 11
-3.541666666666685
 21
1.666666666666642
 31
0.0
  0
LINE
  5
2A4A
330
2A1C
100
AcDbEntity
  8
KANAMONO_SCREW
 48
20.0
100
AcDbLine
 10
-3.541666666666685
 20
2.083333333333328
 30
0.0
 11
-2.5
 21
2.291666666666642
 31
0.0
  0
ARC
  5
2A4B
330
2A1C
100
AcDbEntity
  8
KANAMONO_SCREW
 48
20.0
100
AcDbCircle
 10
-3.333333333333314
 20
-0.8333333333333285
 30
0.0
 40
0.8333333333333333
100
AcDbArc
 50
0.0
 51
90.0
  0
LINE
  5
2A4C
330
2A1C
100
AcDbEntity
  8
KANAMONO_SCREW
 48
20.0
100
AcDbLine
 10
-4.583333333333314
 20
-0.0000000000000142
 30
0.0
 11
-3.333333333333314
 21
0.0000000000000142
 31
0.0
  0
LINE
  5
2A4D
330
2A1C
100
AcDbEntity
  8
KANAMONO_SCREW
 48
20.0
100
AcDbLine
 10
-4.583333333333314
 20
-0.0000000000000142
 30
0.0
 11
-4.583333333333314
 21
1.666666666666642
 31
0.0
  0
LINE
  5
2A4E
330
2A1C
100
AcDbEntity
  8
KANAMONO_SCREW
 48
20.0
100
AcDbLine
 10
4.583333333333314
 20
1.666666666666642
 30
0.0
 11
4.583333333333314
 21
-0.0000000000000142
 31
0.0
  0
LINE
  5
2A4F
330
2A1C
100
AcDbEntity
  8
KANAMONO_SCREW
 48
20.0
100
AcDbLine
 10
3.541666666666685
 20
1.666666666666642
 30
0.0
 11
3.541666666666685
 21
2.083333333333328
 31
0.0
  0
LINE
  5
2A50
330
2A1C
100
AcDbEntity
  8
KANAMONO_SCREW
 48
20.0
100
AcDbLine
 10
2.5
 20
2.291666666666642
 30
0.0
 11
3.541666666666685
 21
2.083333333333328
 31
0.0
  0
ARC
  5
2A51
330
2A1C
100
AcDbEntity
  8
KANAMONO_SCREW
 48
20.0
100
AcDbCircle
 10
3.333333333333314
 20
-0.833333333333357
 30
0.0
 40
0.8333333333333333
100
AcDbArc
 50
90.0
 51
180.0
  0
LINE
  5
2A52
330
2A1C
100
AcDbEntity
  8
KANAMONO_SCREW
 48
20.0
100
AcDbLine
 10
3.333333333333314
 20
-0.0000000000000142
 30
0.0
 11
4.583333333333314
 21
-0.0000000000000142
 31
0.0
  0
ENDBLK
  5
2A54
330
2A1C
100
AcDbEntity
  8
0
 48
20.0
100
AcDbBlockEnd
  0
BLOCK
  5
33FB
330
33EF
100
AcDbEntity
  8
0
100
AcDbBlockBegin
  2
*D4
 70
     1
 10
0.0
 20
0.0
 30
0.0
  3
*D4
  1

  0
LINE
  5
678A
330
33EF
100
AcDbEntity
  8
sunpo
 62
     0
370
    -2
100
AcDbLine
 10
980.0
 20
1054.574047658528
 30
0.0
 11
980.0
 21
1030.191637368377
 31
0.0
  0
LINE
  5
678B
330
33EF
100
AcDbEntity
  8
sunpo
 62
     0
370
    -2
100
AcDbLine
 10
1000.0
 20
1054.574047658528
 30
0.0
 11
1000.0
 21
1030.191637368377
 31
0.0
  0
LINE
  5
678C
330
33EF
100
AcDbEntity
  8
sunpo
 62
     0
370
    -2
100
AcDbLine
 10
988.0
 20
1030.191637368377
 30
0.0
 11
992.0
 21
1030.191637368377
 31
0.0
  0
MTEXT
  5
678D
330
33EF
100
AcDbEntity
  8
sunpo
 62
     0
100
AcDbMText
 10
1020.495286274287
 20
1048.174926234368
 30
0.0
 40
20.0
 41
0.0
 71
     5
 72
     1
  1
\A1;20
  7
MSゴシック
 73
     1
 44
1.0
1001
ACAD
1000
MTEXTBEGIN
1070
    73
1070
     1
1070
    44
1040
1.0
1070
    74
1070
     0
1000
MTEXTEND
  0
INSERT
  5
678E
330
33EF
100
AcDbEntity
  8
sunpo
 62
     0
370
    -2
100
AcDbBlockReference
  2
_DOT
 10
980.0
 20
1030.191637368377
 30
0.0
 41
8.0
 42
8.0
 43
8.0
 50
180.0
  0
INSERT
  5
678F
330
33EF
100
AcDbEntity
  8
sunpo
 62
     0
370
    -2
100
AcDbBlockReference
  2
_DOT
 10
1000.0
 20
1030.191637368377
 30
0.0
 41
8.0
 42
8.0
 43
8.0
  0
POINT
  5
6790
330
33EF
100
AcDbEntity
  8
Defpoints
 62
     0
100
AcDbPoint
 10
980.0
 20
1059.574047658528
 30
0.0
  0
POINT
  5
6791
330
33EF
100
AcDbEntity
  8
Defpoints
 62
     0
100
AcDbPoint
 10
1000.0
 20
1059.574047658528
 30
0.0
  0
POINT
  5
6792
330
33EF
100
AcDbEntity
  8
Defpoints
 62
     0
100
AcDbPoint
 10
1000.0
 20
1030.191637368377
 30
0.0
  0
ENDBLK
  5
33FC
330
33EF
100
AcDbEntity
  8
0
100
AcDbBlockEnd
  0
BLOCK
  5
3456
330
344C
100
AcDbEntity
  8
0
100
AcDbBlockBegin
  2
*D5
 70
     1
 10
0.0
 20
0.0
 30
0.0
  3
*D5
  1

  0
LINE
  5
679C
330
344C
100
AcDbEntity
  8
sunpo
 62
     0
370
    -2
100
AcDbLine
 10
976.4644660940673
 20
590.9619407771256
 30
0.0
 11
926.1409355330179
 21
540.6384102160759
 31
0.0
  0
LINE
  5
679D
330
344C
100
AcDbEntity
  8
sunpo
 62
     0
370
    -2
100
AcDbLine
 10
1025.961940777126
 20
541.4644660940673
 30
0.0
 11
975.6384102160764
 21
491.1409355330176
 31
0.0
  0
LINE
  5
679E
330
344C
100
AcDbEntity
  8
sunpo
 62
     0
370
    -2
100
AcDbLine
 10
931.7977897825103
 20
534.9815559665834
 30
0.0
 11
969.9815559665841
 21
496.79778978251
 31
0.0
  0
MTEXT
  5
679F
330
344C
100
AcDbEntity
  8
sunpo
 62
     0
100
AcDbMText
 10
934.4546062979301
 20
501.5531784945051
 30
0.0
 40
20.0
 41
0.0
 71
     5
 72
     1
  1
\A1;70程度
  7
MSゴシック
 11
0.7071067811865495
 21
-0.7071067811865457
 31
0.0
 73
     1
 44
1.0
1001
ACAD
1000
MTEXTBEGIN
1070
    73
1070
     1
1070
    44
1040
1.0
1070
    74
1070
     0
1000
MTEXTEND
  0
INSERT
  5
67A0
330
344C
100
AcDbEntity
  8
sunpo
 62
     0
370
    -2
100
AcDbBlockReference
  2
_DOT
 10
926.1409355330179
 20
540.6384102160759
 30
0.0
 41
8.0
 42
8.0
 43
8.0
 50
135.0000000000001
  0
INSERT
  5
67A1
330
344C
100
AcDbEntity
  8
sunpo
 62
     0
370
    -2
100
AcDbBlockReference
  2
_DOT
 10
975.6384102160764
 20
491.1409355330176
 30
0.0
 41
8.0
 42
8.0
 43
8.0
 50
315.0000000000002
  0
POINT
  5
67A2
330
344C
100
AcDbEntity
  8
Defpoints
 62
     0
100
AcDbPoint
 10
980.0
 20
594.4974746830584
 30
0.0
  0
POINT
  5
67A3
330
344C
100
AcDbEntity
  8
Defpoints
 62
     0
100
AcDbPoint
 10
1029.497474683058
 20
545.0000000000001
 30
0.0
  0
POINT
  5
67A4
330
344C
100
AcDbEntity
  8
Defpoints
 62
     0
100
AcDbPoint
 10
975.6384102160764
 20
491.1409355330176
 30
0.0
  0
ENDBLK
  5
3457
330
344C
100
AcDbEntity
  8
0
100
AcDbBlockEnd
  0
BLOCK
  5
3462
330
3458
100
AcDbEntity
  8
0
100
AcDbBlockBegin
  2
*D6
 70
     1
 10
0.0
 20
0.0
 30
0.0
  3
*D6
  1

  0
LINE
  5
6793
330
3458
100
AcDbEntity
  8
sunpo
 62
     0
 48
0.5
370
    -2
100
AcDbLine
 10
980.0
 20
703.6479041509701
 30
0.0
 11
980.0
 21
732.8974235504174
 31
0.0
  0
LINE
  5
6794
330
3458
100
AcDbEntity
  8
sunpo
 62
     0
 48
0.5
370
    -2
100
AcDbLine
 10
1340.0
 20
639.5
 30
0.0
 11
1340.0
 21
732.8974235504174
 31
0.0
  0
LINE
  5
6795
330
3458
100
AcDbEntity
  8
sunpo
 62
     0
 48
0.5
370
    -2
100
AcDbLine
 10
988.0
 20
732.8974235504174
 30
0.0
 11
1332.0
 21
732.8974235504174
 31
0.0
  0
MTEXT
  5
6796
330
3458
100
AcDbEntity
  8
sunpo
 62
     0
 48
0.5
100
AcDbMText
 10
1137.324679146018
 20
751.2903321137827
 30
0.0
 40
20.0
 41
0.0
 71
     5
 72
     1
  1
\A1;300～600
  7
MSゴシック
 73
     1
 44
1.0
1001
ACAD
1000
MTEXTBEGIN
1070
    73
1070
     1
1070
    44
1040
1.0
1070
    74
1070
     0
1000
MTEXTEND
  0
INSERT
  5
6797
330
3458
100
AcDbEntity
  8
sunpo
 62
     0
 48
0.5
370
    -2
100
AcDbBlockReference
  2
_DOT
 10
980.0
 20
732.8974235504174
 30
0.0
 41
8.0
 42
8.0
 43
8.0
 50
180.0
  0
INSERT
  5
6798
330
3458
100
AcDbEntity
  8
sunpo
 62
     0
 48
0.5
370
    -2
100
AcDbBlockReference
  2
_DOT
 10
1340.0
 20
732.8974235504174
 30
0.0
 41
8.0
 42
8.0
 43
8.0
  0
POINT
  5
6799
330
3458
100
AcDbEntity
  8
Defpoints
 62
     0
 48
0.5
100
AcDbPoint
 10
980.0
 20
698.6479041509701
 30
0.0
  0
POINT
  5
679A
330
3458
100
AcDbEntity
  8
Defpoints
 62
     0
 48
0.5
100
AcDbPoint
 10
1340.0
 20
634.4999999999999
 30
0.0
  0
POINT
  5
679B
330
3458
100
AcDbEntity
  8
Defpoints
 62
     0
 48
0.5
100
AcDbPoint
 10
1340.0
 20
732.8974235504174
 30
0.0
  0
ENDBLK
  5
3463
330
3458
100
AcDbEntity
  8
0
100
AcDbBlockEnd
  0
BLOCK
  5
3568
330
3531
100
AcDbEntity
  8
0
 48
20.0
100
AcDbBlockBegin
  2
hps6-15-40
 70
     0
 10
0.0
 20
0.0
 30
0.0
  3
hps6-15-40
  1

  0
LINE
  5
3532
330
3531
100
AcDbEntity
  8
KANAMONO_SCREW
 48
20.0
100
AcDbLine
 10
3.000000000000028
 20
-1.000000000000028
 30
0.0
 11
3.0
 21
-23.00000000000003
 31
0.0
  0
LINE
  5
3533
330
3531
100
AcDbEntity
  8
KANAMONO_SCREW
 48
20.0
100
AcDbLine
 10
-2.999999999999971
 20
-1.0
 30
0.0
 11
-2.999999999999971
 21
-23.00000000000006
 31
0.0
  0
LINE
  5
3534
330
3531
100
AcDbEntity
  8
KANAMONO_SCREW
 48
20.0
100
AcDbLine
 10
-0.9581933694132658
 20
-39.05238304003339
 30
0.0
 11
0.9372873322623718
 21
-38.57851286461448
 31
0.0
  0
LINE
  5
3535
330
3531
100
AcDbEntity
  8
KANAMONO_SCREW
 48
20.0
100
AcDbLine
 10
-0.25
 20
-23.00000000000006
 30
0.0
 11
-1.0
 21
-40.00000000000002
 31
0.0
  0
LINE
  5
3536
330
3531
100
AcDbEntity
  8
KANAMONO_SCREW
 48
20.0
100
AcDbLine
 10
-3.0
 20
-40.00000000000002
 30
0.0
 11
-3.689189189189193
 21
-38.62162162162164
 31
0.0
  0
LINE
  5
3537
330
3531
100
AcDbEntity
  8
KANAMONO_SCREW
 48
20.0
100
AcDbLine
 10
0.25
 20
-23.00000000000006
 30
0.0
 11
1.0
 21
-40.00000000000002
 31
0.0
  0
LINE
  5
3538
330
3531
100
AcDbEntity
  8
KANAMONO_SCREW
 48
20.0
100
AcDbLine
 10
3.0
 20
-40.00000000000002
 30
0.0
 11
3.689189189189193
 21
-38.62162162162164
 31
0.0
  0
LINE
  5
3539
330
3531
100
AcDbEntity
  8
KANAMONO_SCREW
 48
20.0
100
AcDbLine
 10
-1.616448107290779
 20
-40.71694672450277
 30
0.0
 11
1.251338790720183
 21
-40.00000000000002
 31
0.0
  0
ARC
  5
353A
330
3531
100
AcDbEntity
  8
KANAMONO_SCREW
 48
20.0
100
AcDbCircle
 10
-0.0000000110134692
 20
-43.31283469768007
 30
0.0
 40
0.5
100
AcDbArc
 50
202.5000000000006
 51
337.4999999999994
  0
LINE
  5
353B
330
3531
100
AcDbEntity
  8
KANAMONO_SCREW
 48
20.0
100
AcDbLine
 10
-0.9999999999999715
 20
-40.00000000000002
 30
0.0
 11
-3.0
 21
-40.00000000000002
 31
0.0
  0
LINE
  5
353C
330
3531
100
AcDbEntity
  8
KANAMONO_SCREW
 48
20.0
100
AcDbLine
 10
-1.913417161825464
 20
-40.00000000000002
 30
0.0
 11
-0.461939777269123
 21
-43.5041764138626
 31
0.0
  0
LINE
  5
353D
330
3531
100
AcDbEntity
  8
KANAMONO_SCREW
 48
20.0
100
AcDbLine
 10
0.9999999999999715
 20
-40.00000000000002
 30
0.0
 11
3.0
 21
-40.00000000000002
 31
0.0
  0
LINE
  5
353E
330
3531
100
AcDbEntity
  8
KANAMONO_SCREW
 48
20.0
100
AcDbLine
 10
1.913417161825464
 20
-40.00000000000002
 30
0.0
 11
0.4619397552421845
 21
-43.5041764138626
 31
0.0
  0
LINE
  5
353F
330
3531
100
AcDbEntity
  8
KANAMONO_SCREW
 48
20.0
100
AcDbLine
 10
-3.154261712747711
 20
-26.49659882228088
 30
0.0
 11
-3.689189189189193
 21
-38.62162162162164
 31
0.0
  0
LINE
  5
3540
330
3531
100
AcDbEntity
  8
KANAMONO_SCREW
 48
20.0
100
AcDbLine
 10
-0.489791882424413
 20
-28.43528266828619
 30
0.0
 11
0.4791055140805725
 21
-28.19305831915995
 31
0.0
  0
LINE
  5
3541
330
3531
100
AcDbEntity
  8
KANAMONO_SCREW
 48
20.0
100
AcDbLine
 10
3.154261712756664
 20
-26.49659882228048
 30
0.0
 11
3.689189189189193
 21
-38.62162162162164
 31
0.0
  0
LINE
  5
3542
330
3531
100
AcDbEntity
  8
KANAMONO_SCREW
 48
20.0
100
AcDbLine
 10
-0.7574498749894758
 20
-34.50219716642744
 30
0.0
 11
0.7409236958987436
 21
-34.12760377370537
 31
0.0
  0
LINE
  5
3543
330
3531
100
AcDbEntity
  8
KANAMONO_SCREW
 48
20.0
100
AcDbLine
 10
-0.8243643731307201
 20
-36.01892579096276
 30
0.0
 11
0.8063782413532862
 21
-35.61124013734172
 31
0.0
  0
LINE
  5
3544
330
3531
100
AcDbEntity
  8
KANAMONO_SCREW
 48
20.0
100
AcDbLine
 10
-0.891278871271993
 20
-37.5356544154981
 30
0.0
 11
0.871832786807829
 21
-37.0948765009781
 31
0.0
  0
LINE
  5
3545
330
3531
100
AcDbEntity
  8
KANAMONO_SCREW
 48
20.0
100
AcDbLine
 10
-0.5567063805656574
 20
-29.95201129282148
 30
0.0
 11
0.5445600595351153
 21
-29.6766946827963
 31
0.0
  0
LINE
  5
3546
330
3531
100
AcDbEntity
  8
KANAMONO_SCREW
 48
20.0
100
AcDbLine
 10
-0.6236208787069586
 20
-31.46873991735683
 30
0.0
 11
0.610014604989658
 21
-31.16033104643268
 31
0.0
  0
LINE
  5
3547
330
3531
100
AcDbEntity
  8
KANAMONO_SCREW
 48
20.0
100
AcDbLine
 10
-0.690535376848203
 20
-32.98546854189209
 30
0.0
 11
0.6754691504442008
 21
-32.643967410069
 31
0.0
  0
LINE
  5
3548
330
3531
100
AcDbEntity
  8
KANAMONO_SCREW
 48
20.0
100
AcDbLine
 10
-0.4228773842831402
 20
-26.91855404375085
 30
0.0
 11
0.4136509686260297
 21
-26.70942195552357
 31
0.0
  0
LINE
  5
3549
330
3531
100
AcDbEntity
  8
KANAMONO_SCREW
 48
20.0
100
AcDbLine
 10
-2.904504654022304
 20
-26.50761751604881
 30
0.0
 11
-3.154261712756664
 21
-26.49659882228048
 31
0.0
  0
LINE
  5
354A
330
3531
100
AcDbEntity
  8
KANAMONO_SCREW
 48
20.0
100
AcDbLine
 10
-2.893485960253968
 20
-26.25786045731445
 30
0.0
 11
-3.143243018988329
 21
-26.24684176354612
 31
0.0
  0
LINE
  5
354B
330
3531
100
AcDbEntity
  8
KANAMONO_SCREW
 48
20.0
100
AcDbLine
 10
-2.761261635033946
 20
-23.2607757525021
 30
0.0
 11
-3.011018693768306
 21
-23.24975705873376
 31
0.0
  0
LINE
  5
354C
330
3531
100
AcDbEntity
  8
KANAMONO_SCREW
 48
20.0
100
AcDbLine
 10
-2.750242941265611
 20
-23.01101869376774
 30
0.0
 11
-2.999999999999971
 21
-22.9999999999994
 31
0.0
  0
LINE
  5
354D
330
3531
100
AcDbEntity
  8
KANAMONO_SCREW
 48
20.0
100
AcDbLine
 10
-2.750242941265611
 20
-23.01101869376774
 30
0.0
 11
-2.904504654013322
 21
-26.50761751604924
 31
0.0
  0
LINE
  5
354E
330
3531
100
AcDbEntity
  8
KANAMONO_SCREW
 48
20.0
100
AcDbLine
 10
-3.011018693767681
 20
-23.24975705873379
 30
0.0
 11
-3.143243018980001
 21
-26.24684176354652
 31
0.0
  0
LINE
  5
354F
330
3531
100
AcDbEntity
  8
KANAMONO_SCREW
 48
20.0
100
AcDbLine
 10
2.750242941265611
 20
-23.01101869376774
 30
0.0
 11
2.999999999999971
 21
-22.9999999999994
 31
0.0
  0
LINE
  5
3550
330
3531
100
AcDbEntity
  8
KANAMONO_SCREW
 48
20.0
100
AcDbLine
 10
2.761261635033946
 20
-23.2607757525021
 30
0.0
 11
3.011018693768306
 21
-23.24975705873376
 31
0.0
  0
LINE
  5
3551
330
3531
100
AcDbEntity
  8
KANAMONO_SCREW
 48
20.0
100
AcDbLine
 10
2.893485960253968
 20
-26.25786045731445
 30
0.0
 11
3.143243018988329
 21
-26.24684176354612
 31
0.0
  0
LINE
  5
3552
330
3531
100
AcDbEntity
  8
KANAMONO_SCREW
 48
20.0
100
AcDbLine
 10
2.904504654022304
 20
-26.50761751604881
 30
0.0
 11
3.154261712756664
 21
-26.49659882228048
 31
0.0
  0
LINE
  5
3553
330
3531
100
AcDbEntity
  8
KANAMONO_SCREW
 48
20.0
100
AcDbLine
 10
3.011018693767681
 20
-23.24975705873379
 30
0.0
 11
3.143243018980001
 21
-26.24684176354652
 31
0.0
  0
LINE
  5
3554
330
3531
100
AcDbEntity
  8
KANAMONO_SCREW
 48
20.0
100
AcDbLine
 10
2.750242941265611
 20
-23.01101869376774
 30
0.0
 11
2.904504654013322
 21
-26.50761751604924
 31
0.0
  0
LINE
  5
3555
330
3531
100
AcDbEntity
  8
KANAMONO_SCREW
 48
20.0
100
AcDbLine
 10
-0.2890483880005945
 20
-23.88509679468027
 30
0.0
 11
0.2827418777169157
 21
-23.74214922825087
 31
0.0
  0
LINE
  5
3556
330
3531
100
AcDbEntity
  8
KANAMONO_SCREW
 48
20.0
100
AcDbLine
 10
-0.3559628861419242
 20
-25.40182541921553
 30
0.0
 11
0.3481964231714585
 21
-25.22578559188719
 31
0.0
  0
LINE
  5
3557
330
3531
100
AcDbEntity
  8
KANAMONO_SCREW
 48
20.0
100
AcDbLine
 10
-0.25
 20
-23.00000000000006
 30
0.0
 11
0.25
 21
-23.00000000000006
 31
0.0
  0
LINE
  5
3558
330
3531
100
AcDbEntity
  8
KANAMONO_SCREW
 48
20.0
100
AcDbLine
 10
-2.999999999999971
 20
-17.9999999999994
 30
0.0
 11
3.0
 21
-17.9999999999994
 31
0.0
  0
LINE
  5
3559
330
3531
100
AcDbEntity
  8
KANAMONO_SCREW
 48
20.0
100
AcDbLine
 10
-2.999999999999971
 20
-20.99999999999941
 30
0.0
 11
3.0
 21
-20.99999999999941
 31
0.0
  0
LINE
  5
355A
330
3531
100
AcDbEntity
  8
KANAMONO_SCREW
 48
20.0
100
AcDbLine
 10
-5.5
 20
1.999999999999971
 30
0.0
 11
5.5
 21
1.999999999999971
 31
0.0
  0
LINE
  5
355B
330
3531
100
AcDbEntity
  8
KANAMONO_SCREW
 48
20.0
100
AcDbLine
 10
-5.5
 20
-0.0000000000000284
 30
0.0
 11
-3.999999999999971
 21
0.0
 31
0.0
  0
LINE
  5
355C
330
3531
100
AcDbEntity
  8
KANAMONO_SCREW
 48
20.0
100
AcDbLine
 10
-5.5
 20
-0.0000000000000284
 30
0.0
 11
-5.5
 21
1.999999999999971
 31
0.0
  0
LINE
  5
355D
330
3531
100
AcDbEntity
  8
KANAMONO_SCREW
 48
20.0
100
AcDbLine
 10
3.0
 20
2.749999999999971
 30
0.0
 11
4.25
 21
2.499999999999971
 31
0.0
  0
LINE
  5
355E
330
3531
100
AcDbEntity
  8
KANAMONO_SCREW
 48
20.0
100
AcDbLine
 10
4.25
 20
2.499999999999971
 30
0.0
 11
-4.25
 21
2.499999999999971
 31
0.0
  0
LINE
  5
355F
330
3531
100
AcDbEntity
  8
KANAMONO_SCREW
 48
20.0
100
AcDbLine
 10
-4.0
 20
0.0000000000000284
 30
0.0
 11
4.000000000000028
 21
-0.0000000000000284
 31
0.0
  0
ARC
  5
3560
330
3531
100
AcDbEntity
  8
KANAMONO_SCREW
 48
20.0
100
AcDbCircle
 10
4.000000000000028
 20
-1.000000000000028
 30
0.0
 40
1.0
100
AcDbArc
 50
90.0
 51
180.0
  0
LINE
  5
3561
330
3531
100
AcDbEntity
  8
KANAMONO_SCREW
 48
20.0
100
AcDbLine
 10
3.0
 20
2.749999999999971
 30
0.0
 11
-3.0
 21
2.749999999999971
 31
0.0
  0
LINE
  5
3562
330
3531
100
AcDbEntity
  8
KANAMONO_SCREW
 48
20.0
100
AcDbLine
 10
-4.25
 20
2.499999999999971
 30
0.0
 11
-3.0
 21
2.749999999999971
 31
0.0
  0
LINE
  5
3563
330
3531
100
AcDbEntity
  8
KANAMONO_SCREW
 48
20.0
100
AcDbLine
 10
-4.25
 20
2.499999999999971
 30
0.0
 11
-4.25
 21
1.999999999999971
 31
0.0
  0
ARC
  5
3564
330
3531
100
AcDbEntity
  8
KANAMONO_SCREW
 48
20.0
100
AcDbCircle
 10
-3.999999999999971
 20
-1.0
 30
0.0
 40
1.0
100
AcDbArc
 50
0.0
 51
90.0
  0
LINE
  5
3565
330
3531
100
AcDbEntity
  8
KANAMONO_SCREW
 48
20.0
100
AcDbLine
 10
4.25
 20
1.999999999999971
 30
0.0
 11
4.25
 21
2.499999999999971
 31
0.0
  0
LINE
  5
3566
330
3531
100
AcDbEntity
  8
KANAMONO_SCREW
 48
20.0
100
AcDbLine
 10
4.000000000000028
 20
-0.0000000000000284
 30
0.0
 11
5.5
 21
-0.0000000000000284
 31
0.0
  0
LINE
  5
3567
330
3531
100
AcDbEntity
  8
KANAMONO_SCREW
 48
20.0
100
AcDbLine
 10
5.5
 20
1.999999999999971
 30
0.0
 11
5.5
 21
-0.0000000000000284
 31
0.0
  0
ENDBLK
  5
3569
330
3531
100
AcDbEntity
  8
0
 48
20.0
100
AcDbBlockEnd
  0
ENDSEC
  0
SECTION
  2
ENTITIES
  0
LINE
  5
24F1
330
1F
100
AcDbEntity
  8
KUTAI
100
AcDbLine
 10
2280.0
 20
545.0
 30
0.0
 11
980.0
 21
545.0
 31
0.0
  0
LINE
  5
24F2
330
1F
100
AcDbEntity
  8
KUTAI
100
AcDbLine
 10
980.0
 20
545.0
 30
0.0
 11
980.0
 21
995.0
 31
0.0
  0
LINE
  5
24F4
330
1F
100
AcDbEntity
  8
KUTAI
100
AcDbLine
 10
800.0
 20
1495.0
 30
0.0
 11
800.0
 21
695.0000000000002
 31
0.0
  0
LINE
  5
24F5
330
1F
100
AcDbEntity
  8
KUTAI
100
AcDbLine
 10
2280.0
 20
395.0
 30
0.0
 11
980.0
 21
394.9999999999999
 31
0.0
  0
CIRCLE
  5
28C1
102
{ACAD_REACTORS
330
28C2
102
}
330
1F
100
AcDbEntity
  8
MOJI
100
AcDbCircle
 10
991.1599031707019
 20
1165.913425512951
 30
0.0
 40
4.0
  0
HATCH
  5
28C2
330
1F
100
AcDbEntity
  8
MOJI
100
AcDbHatch
 10
0.0
 20
0.0
 30
0.0
210
0.0
220
0.0
230
1.0
  2
SOLID
 70
     1
 71
     1
 91
        1
 92
        1
 93
        1
 72
     2
 10
991.1599031707019
 20
1165.913425512951
 40
4.0
 50
0.0
 51
360.0
 73
     1
 97
        1
330
28C1
 75
     0
 76
     1
 98
        1
 10
-719.0703822891137
 20
238.7370517865643
  0
TEXT
  5
28CA
330
1F
100
AcDbEntity
  8
MOJI
100
AcDbText
 10
586.0081213952367
 20
987.2513428483712
 30
0.0
 40
20.0
  1
（室内）
  7
MSゴシック
100
AcDbText
  0
TEXT
  5
28D5
330
1F
100
AcDbEntity
  8
MOJI
100
AcDbText
 10
1114.234081011519
 20
1253.548393563798
 30
0.0
 40
20.0
  1
打増し
  7
MSゴシック
 11
1114.234081011519
 21
1263.548393563798
 31
0.0
100
AcDbText
 73
     2
  0
TEXT
  5
28D6
330
1F
100
AcDbEntity
  8
MOJI
100
AcDbText
 10
1114.234081011519
 20
1277.285461831864
 30
0.0
 40
20.0
  1
コンクリート
  7
MSゴシック
 11
1114.234081011519
 21
1287.285461831865
 31
0.0
100
AcDbText
 73
     2
  0
LINE
  5
2A0D
330
1F
100
AcDbEntity
  8
KUTAI
100
AcDbLine
 10
580.0
 20
545.0000000000001
 30
0.0
 11
579.9999999999998
 21
295.0
 31
0.0
  0
LINE
  5
2A0E
330
1F
100
AcDbEntity
  8
KUTAI
100
AcDbLine
 10
980.0
 20
394.9999999999999
 30
0.0
 11
980.0
 21
294.9999999999999
 31
0.0
  0
LINE
  5
2A0F
330
1F
100
AcDbEntity
  8
KUTAI
100
AcDbLine
 10
580.0
 20
545.0000000000001
 30
0.0
 11
479.9999999999998
 21
545.0000000000001
 31
0.0
  0
LINE
  5
2A10
330
1F
100
AcDbEntity
  8
KUTAI
100
AcDbLine
 10
800.0
 20
695.0000000000002
 30
0.0
 11
479.9999999999998
 21
695.0000000000002
 31
0.0
  0
LINE
  5
2A14
330
1F
100
AcDbEntity
  8
KUTAI
100
AcDbLine
 10
980.0
 20
995.0
 30
0.0
 11
1000.0
 21
995.0
 31
0.0
  0
LINE
  5
2A15
330
1F
100
AcDbEntity
  8
KUTAI
100
AcDbLine
 10
1000.0
 20
995.0
 30
0.0
 11
1000.0
 21
1495.0
 31
0.0
  0
LINE
  5
2CAE
330
1F
100
AcDbEntity
  8
KUTAI
  6
DASHED
100
AcDbLine
 10
980.0
 20
995.0
 30
0.0
 11
979.9999999999997
 21
1495.0
 31
0.0
  0
LINE
  5
2DF0
330
1F
100
AcDbEntity
  8
HATCH
100
AcDbLine
 10
800.0
 20
1249.999999088009
 30
0.0
 11
1000.0
 21
1449.999999088008
 31
0.0
  0
LINE
  5
2DF1
330
1F
100
AcDbEntity
  8
HATCH
100
AcDbLine
 10
800.0
 20
1239.999999088009
 30
0.0
 11
1000.0
 21
1439.999999088009
 31
0.0
  0
LINE
  5
2DF2
330
1F
100
AcDbEntity
  8
HATCH
100
AcDbLine
 10
800.0
 20
1229.999999088009
 30
0.0
 11
1000.0
 21
1429.999999088009
 31
0.0
  0
LINE
  5
2DF6
330
1F
100
AcDbEntity
  8
HATCH
100
AcDbLine
 10
845.0000009119913
 20
295.0
 30
0.0
 11
1095.000000911991
 21
545.0
 31
0.0
  0
LINE
  5
2DF7
330
1F
100
AcDbEntity
  8
HATCH
100
AcDbLine
 10
855.0000009119912
 20
295.0
 30
0.0
 11
1105.000000911991
 21
545.0
 31
0.0
  0
LINE
  5
2DF8
330
1F
100
AcDbEntity
  8
HATCH
100
AcDbLine
 10
865.0000009119912
 20
295.0
 30
0.0
 11
1115.000000911991
 21
545.0
 31
0.0
  0
LINE
  5
2E02
330
1F
100
AcDbEntity
  8
HATCH
100
AcDbLine
 10
800.0
 20
749.9999990880086
 30
0.0
 11
980.0
 21
929.9999990880085
 31
0.0
  0
LINE
  5
2E03
330
1F
100
AcDbEntity
  8
HATCH
100
AcDbLine
 10
800.0
 20
729.9999990880086
 30
0.0
 11
980.0
 21
909.9999990880085
 31
0.0
  0
LINE
  5
2E04
330
1F
100
AcDbEntity
  8
HATCH
100
AcDbLine
 10
800.0
 20
739.9999990880086
 30
0.0
 11
980.0
 21
919.9999990880085
 31
0.0
  0
LINE
  5
2E05
330
1F
100
AcDbEntity
  8
HATCH
100
AcDbLine
 10
580.0
 20
519.9999990880087
 30
0.0
 11
755.0000009119916
 21
695.0000000000002
 31
0.0
  0
LINE
  5
2E06
330
1F
100
AcDbEntity
  8
HATCH
100
AcDbLine
 10
580.0
 20
529.9999990880087
 30
0.0
 11
745.0000009119916
 21
695.0000000000002
 31
0.0
  0
LINE
  5
2E07
330
1F
100
AcDbEntity
  8
HATCH
100
AcDbLine
 10
580.0
 20
509.9999990880087
 30
0.0
 11
765.0000009119915
 21
695.0000000000002
 31
0.0
  0
LINE
  5
2E08
330
1F
100
AcDbEntity
  8
HATCH
100
AcDbLine
 10
1465.000000911991
 20
394.9999999999998
 30
0.0
 11
1615.000000911991
 21
545.0
 31
0.0
  0
LINE
  5
2E09
330
1F
100
AcDbEntity
  8
HATCH
100
AcDbLine
 10
1445.000000911991
 20
394.9999999999998
 30
0.0
 11
1595.000000911991
 21
545.0
 31
0.0
  0
LINE
  5
2E0A
330
1F
100
AcDbEntity
  8
HATCH
100
AcDbLine
 10
1455.000000911991
 20
394.9999999999998
 30
0.0
 11
1605.000000911991
 21
545.0
 31
0.0
  0
LINE
  5
2E0B
330
1F
100
AcDbEntity
  8
HATCH
100
AcDbLine
 10
1965.000000911991
 20
394.9999999999999
 30
0.0
 11
2115.000000911992
 21
545.0
 31
0.0
  0
LINE
  5
2E0C
330
1F
100
AcDbEntity
  8
HATCH
100
AcDbLine
 10
1955.000000911991
 20
394.9999999999999
 30
0.0
 11
2105.000000911991
 21
545.0
 31
0.0
  0
LINE
  5
2E0D
330
1F
100
AcDbEntity
  8
HATCH
100
AcDbLine
 10
1945.000000911991
 20
394.9999999999999
 30
0.0
 11
2095.000000911992
 21
545.0
 31
0.0
  0
CIRCLE
  5
328D
102
{ACAD_REACTORS
330
328E
102
}
330
1F
100
AcDbEntity
  8
MOJI
100
AcDbCircle
 10
1009.278389227626
 20
593.3252634505143
 30
0.0
 40
4.0
  0
HATCH
  5
328E
330
1F
100
AcDbEntity
  8
MOJI
100
AcDbHatch
 10
0.0
 20
0.0
 30
0.0
210
0.0
220
0.0
230
1.0
  2
SOLID
 70
     1
 71
     1
 91
        1
 92
        1
 93
        1
 72
     2
 10
1009.278389227626
 20
593.3252634505143
 40
4.0
 50
0.0
 51
360.0
 73
     1
 97
        1
330
328D
 75
     0
 76
     1
 98
        1
 10
-700.9518962321894
 20
-333.8511102758726
  0
CIRCLE
  5
3290
102
{ACAD_REACTORS
330
3291
102
}
330
1F
100
AcDbEntity
  8
MOJI
100
AcDbCircle
 10
1551.509322358136
 20
557.5
 30
0.0
 40
4.0
  0
HATCH
  5
3291
330
1F
100
AcDbEntity
  8
MOJI
100
AcDbHatch
 10
0.0
 20
0.0
 30
0.0
210
0.0
220
0.0
230
1.0
  2
SOLID
 70
     1
 71
     1
 91
        1
 92
        1
 93
        1
 72
     2
 10
1551.509322358136
 20
557.5
 40
4.0
 50
0.0
 51
360.0
 73
     1
 97
        1
330
3290
 75
     0
 76
     1
 98
        1
 10
-158.7209631016803
 20
-369.6763737263873
  0
HATCH
  5
3294
330
1F
100
AcDbEntity
  8
MOJI
100
AcDbHatch
 10
0.0
 20
0.0
 30
0.0
210
0.0
220
0.0
230
1.0
  2
SOLID
 70
     1
 71
     1
 91
        1
 92
        1
 93
        1
 72
     2
 10
1547.122616212036
 20
549.9020020770806
 40
4.0
 50
0.0
 51
360.0
 73
     1
 97
        1
330
3295
 75
     0
 76
     1
 98
        1
 10
-163.1076692477795
 20
-377.2743716493064
  0
CIRCLE
  5
3295
102
{ACAD_REACTORS
330
3294
102
}
330
1F
100
AcDbEntity
  8
MOJI
100
AcDbCircle
 10
1547.122616212036
 20
549.9020020770806
 30
0.0
 40
4.0
  0
CIRCLE
  5
3296
102
{ACAD_REACTORS
330
3297
102
}
330
1F
100
AcDbEntity
  8
MOJI
100
AcDbCircle
 10
1339.25437825772
 20
623.0584264279904
 30
0.0
 40
4.0
  0
HATCH
  5
3297
330
1F
100
AcDbEntity
  8
MOJI
100
AcDbHatch
 10
0.0
 20
0.0
 30
0.0
210
0.0
220
0.0
230
1.0
  2
SOLID
 70
     1
 71
     1
 91
        1
 92
        1
 93
        1
 72
     2
 10
1339.25437825772
 20
623.0584264279904
 40
4.0
 50
0.0
 51
360.0
 73
     1
 97
        1
330
3296
 75
     0
 76
     1
 98
        1
 10
-370.9759072020952
 20
-304.1179472983965
  0
CIRCLE
  5
3298
102
{ACAD_REACTORS
330
3299
102
}
330
1F
100
AcDbEntity
  8
MOJI
100
AcDbCircle
 10
1580.359443955613
 20
607.5832158930711
 30
0.0
 40
4.0
  0
HATCH
  5
3299
330
1F
100
AcDbEntity
  8
MOJI
100
AcDbHatch
 10
0.0
 20
0.0
 30
0.0
210
0.0
220
0.0
230
1.0
  2
SOLID
 70
     1
 71
     1
 91
        1
 92
        1
 93
        1
 72
     2
 10
1580.359443955613
 20
607.5832158930711
 40
4.0
 50
0.0
 51
360.0
 73
     1
 97
        1
330
3298
 75
     0
 76
     1
 98
        1
 10
-129.8708415042024
 20
-319.5931578333159
  0
TEXT
  5
329A
330
1F
100
AcDbEntity
  8
MOJI
100
AcDbText
 10
1754.262563031167
 20
806.880221443782
 30
0.0
 40
20.0
  1
溶接金網（φ3.5～6mm＠100）
  7
MSゴシック
 11
1754.262563031167
 21
816.8802214437819
 31
0.0
100
AcDbText
 73
     2
  0
TEXT
  5
329C
330
1F
100
AcDbEntity
  8
MOJI
100
AcDbText
 10
1731.168552263583
 20
766.8802214437818
 30
0.0
 40
20.0
  1
絶縁クロス1000
  7
MSゴシック
 11
1731.168552263583
 21
776.8802214437819
 31
0.0
100
AcDbText
 73
     2
  0
TEXT
  5
329D
330
1F
100
AcDbEntity
  8
MOJI
100
AcDbText
 10
1561.330878533161
 20
905.9075152709874
 30
0.0
 40
20.0
  1
伸縮目地（W=25）
  7
MSゴシック
 11
1561.330878533161
 21
915.9075152709874
 31
0.0
100
AcDbText
 73
     2
  0
TEXT
  5
329E
330
1F
100
AcDbEntity
  8
MOJI
100
AcDbText
 10
1127.318355663255
 20
695.9777898395986
 30
0.0
 40
20.0
  1
RBキャント1500
  7
MSゴシック
 11
1127.318355663255
 21
705.9777898395987
 31
0.0
100
AcDbText
 73
     2
  0
LINE
  5
329F
330
1F
100
AcDbEntity
  8
MOJI
100
AcDbLine
 10
1655.074541495998
 20
736.8802214437819
 30
0.0
 11
1705.074541495998
 21
736.8802214437819
 31
0.0
  0
LINE
  5
32A1
330
1F
100
AcDbEntity
  8
MOJI
100
AcDbLine
 10
1701.262563031168
 20
816.8802214437819
 30
0.0
 11
1751.262563031168
 21
816.8802214437819
 31
0.0
  0
LINE
  5
32A2
330
1F
100
AcDbEntity
  8
MOJI
100
AcDbLine
 10
1678.168552263582
 20
776.8802214437819
 30
0.0
 11
1728.168552263583
 21
776.8802214437819
 31
0.0
  0
TEXT
  5
32A4
330
1F
100
AcDbEntity
  8
MOJI
100
AcDbText
 10
1920.023571852786
 20
1228.418975184782
 30
0.0
 40
20.0
  1
水勾配
  7
MSゴシック
100
AcDbText
  0
TEXT
  5
32A5
330
1F
100
AcDbEntity
  8
MOJI
100
AcDbText
 10
1959.356480257943
 20
1289.737686902807
 30
0.0
 40
20.0
  1
1/100～1/50
  7
MSゴシック
100
AcDbText
  0
LINE
  5
32A6
330
1F
100
AcDbEntity
  8
MOJI
100
AcDbLine
 10
2027.016965439608
 20
1258.686566197164
 30
0.0
 11
1898.638133135225
 21
1287.192662261892
 31
0.0
  0
LINE
  5
32A7
330
1F
100
AcDbEntity
  8
MOJI
100
AcDbLine
 10
1898.638133135225
 20
1258.686566197164
 30
0.0
 11
2027.016965439608
 21
1258.686566197164
 31
0.0
  0
LINE
  5
32A8
330
1F
100
AcDbEntity
  8
MOJI
100
AcDbLine
 10
1898.638133135225
 20
1287.192662261892
 30
0.0
 11
1898.638133135225
 21
1258.686566197164
 31
0.0
  0
LINE
  5
32A9
330
1F
100
AcDbEntity
  8
KUTAI
100
AcDbLine
 10
1348.214085098607
 20
555.0
 30
0.0
 11
1348.214085098607
 21
631.5
 31
0.0
  0
LINE
  5
32AA
330
1F
100
AcDbEntity
  8
KUTAI
100
AcDbLine
 10
1344.464085098607
 20
555.0
 30
0.0
 11
1344.464085098607
 21
631.5
 31
0.0
  0
LINE
  5
32AB
330
1F
100
AcDbEntity
  8
KUTAI
100
AcDbLine
 10
1340.714085098607
 20
555.0
 30
0.0
 11
1340.714085098607
 21
631.5
 31
0.0
  0
LINE
  5
32AC
330
1F
100
AcDbEntity
  8
KUTAI
100
AcDbLine
 10
1336.964085098607
 20
555.0
 30
0.0
 11
1336.964085098607
 21
631.4999999999995
 31
0.0
  0
LINE
  5
32AD
330
1F
100
AcDbEntity
  8
KUTAI
100
AcDbLine
 10
1333.214085098607
 20
555.0
 30
0.0
 11
1333.214085098607
 21
631.4999999999995
 31
0.0
  0
LINE
  5
32DF
330
1F
100
AcDbEntity
  8
KUTAI
100
AcDbLine
 10
1029.497474683058
 20
545.0
 30
0.0
 11
980.0
 21
594.4974746830582
 31
0.0
  0
LINE
  5
32E3
330
1F
100
AcDbEntity
  8
dannnetu
100
AcDbLine
 10
1083.639610306789
 20
555.0
 30
0.0
 11
1083.639610306789
 21
575.0
 31
0.0
  0
LINE
  5
3390
330
1F
100
AcDbEntity
  8
KUTAI
100
AcDbLine
 10
2280.0
 20
635.0
 30
0.0
 11
1354.0
 21
635.0
 31
0.0
  0
CIRCLE
  5
33B5
102
{ACAD_REACTORS
330
33B6
102
}
330
1F
100
AcDbEntity
  8
MOJI
100
AcDbCircle
 10
995.330580332933
 20
559.4097274699138
 30
0.0
 40
4.0
  0
HATCH
  5
33B6
330
1F
100
AcDbEntity
  8
MOJI
100
AcDbHatch
 10
0.0
 20
0.0
 30
0.0
210
0.0
220
0.0
230
1.0
  2
SOLID
 70
     1
 71
     1
 91
        1
 92
        1
 93
        1
 72
     2
 10
995.330580332933
 20
559.4097274699138
 40
4.0
 50
0.0
 51
360.0
 73
     1
 97
        1
330
33B5
 75
     0
 76
     1
 98
        1
 10
-714.8997051268825
 20
-367.7666462564732
  0
TEXT
  5
33B7
330
1F
100
AcDbEntity
  8
MOJI
100
AcDbText
 10
1116.242516466144
 20
431.7828036468186
 30
0.0
 40
20.0
  1
モルタル
  7
MSゴシック
 11
1116.242516466144
 21
441.7828036468185
 31
0.0
100
AcDbText
 73
     2
  0
CIRCLE
  5
33B8
102
{ACAD_REACTORS
330
33B9
102
}
330
1F
100
AcDbEntity
  8
MOJI
100
AcDbCircle
 10
1571.564529462077
 20
592.3499771420412
 30
0.0
 40
4.0
  0
HATCH
  5
33B9
330
1F
100
AcDbEntity
  8
MOJI
100
AcDbHatch
 10
0.0
 20
0.0
 30
0.0
210
0.0
220
0.0
230
1.0
  2
SOLID
 70
     1
 71
     1
 91
        1
 92
        1
 93
        1
 72
     2
 10
1571.564529462077
 20
592.3499771420412
 40
4.0
 50
0.0
 51
360.0
 73
     1
 97
        1
330
33B8
 75
     0
 76
     1
 98
        1
 10
-138.6657559977393
 20
-334.8263965843458
  0
LINE
  5
33BF
330
1F
100
AcDbEntity
  8
HATCH
100
AcDbLine
 10
1153.391367618123
 20
635.0
 30
0.0
 11
1233.391367618122
 21
555.0
 31
0.0
  0
LINE
  5
33C0
330
1F
100
AcDbEntity
  8
HATCH
100
AcDbLine
 10
1163.391367618123
 20
635.0
 30
0.0
 11
1243.391367618123
 21
555.0
 31
0.0
  0
LINE
  5
33C1
330
1F
100
AcDbEntity
  8
HATCH
100
AcDbLine
 10
1173.391367618123
 20
635.0
 30
0.0
 11
1253.391367618123
 21
555.0
 31
0.0
  0
LINE
  5
33C2
330
1F
100
AcDbEntity
  8
HATCH
100
AcDbLine
 10
1653.391367618123
 20
635.0
 30
0.0
 11
1733.391367618123
 21
555.0
 31
0.0
  0
LINE
  5
33C3
330
1F
100
AcDbEntity
  8
HATCH
100
AcDbLine
 10
1663.391367618124
 20
635.0
 30
0.0
 11
1743.391367618122
 21
555.0
 31
0.0
  0
LINE
  5
33C4
330
1F
100
AcDbEntity
  8
HATCH
100
AcDbLine
 10
1673.391367618124
 20
635.0
 30
0.0
 11
1753.391367618123
 21
555.0
 31
0.0
  0
LINE
  5
33C5
330
1F
100
AcDbEntity
  8
HATCH
100
AcDbLine
 10
2153.391367618124
 20
635.0
 30
0.0
 11
2233.391367618124
 21
555.0
 31
0.0
  0
LINE
  5
33C6
330
1F
100
AcDbEntity
  8
HATCH
100
AcDbLine
 10
2163.391367618123
 20
635.0
 30
0.0
 11
2243.391367618123
 21
555.0
 31
0.0
  0
LINE
  5
33C7
330
1F
100
AcDbEntity
  8
HATCH
100
AcDbLine
 10
2173.391367618124
 20
635.0
 30
0.0
 11
2253.391367618124
 21
555.0
 31
0.0
  0
ARC
  5
35B3
330
1F
100
AcDbEntity
  8
BOUSUI
100
AcDbCircle
 10
997.6760076539658
 20
986.613897530106
 30
0.0
 40
10.95345096829027
100
AcDbArc
 50
130.0384580754172
 51
225.5100288973016
  0
ARC
  5
3659
330
1F
100
AcDbEntity
  8
BOUSUI
100
AcDbCircle
 10
980.5556958095484
 20
914.6455221346869
 30
0.0
 40
21.75860928367773
100
AcDbArc
 50
28.41663490753157
 51
91.46344310574811
  0
LINE
  5
365A
330
1F
100
AcDbEntity
  8
BOUSUI
100
AcDbLine
 10
990.0
 20
924.9999999999982
 30
0.0
 11
980.0
 21
924.9999999999982
 31
0.0
  0
TEXT
  5
36C0
330
1F
100
AcDbEntity
  8
MOJI
100
AcDbText
 10
1148.161511132617
 20
1000.283816046618
 30
0.0
 40
20.0
  1
フラッシュガードＡＰ－ＦＧ
  7
MSゴシック
 11
1148.161511132617
 21
1010.283816046618
 31
0.0
100
AcDbText
 73
     2
  0
TEXT
  5
36C1
330
1F
100
AcDbEntity
  8
MOJI
100
AcDbText
 10
1148.161511132617
 20
935.7390673844516
 30
0.0
 40
20.0
  1
押出成形セメント板（ｔ＝15）
  7
MSゴシック
 11
1148.161511132617
 21
945.7390673844516
 31
0.0
100
AcDbText
 73
     2
  0
TEXT
  5
36C2
330
1F
100
AcDbEntity
  8
MOJI
100
AcDbText
 10
1148.161511132617
 20
1110.169166037949
 30
0.0
 40
20.0
  1
強力ガムシール
  7
MSゴシック
 11
1148.161511132617
 21
1120.169166037949
 31
0.0
100
AcDbText
 73
     2
  0
CIRCLE
  5
36C7
102
{ACAD_REACTORS
330
36C8
102
}
330
1F
100
AcDbEntity
  8
MOJI
100
AcDbCircle
 10
1019.057015
 20
864.3625210000019
 30
0.0
 40
4.0
  0
HATCH
  5
36C8
330
1F
100
AcDbEntity
  8
MOJI
100
AcDbHatch
 10
0.0
 20
0.0
 30
0.0
210
0.0
220
0.0
230
1.0
  2
SOLID
 70
     1
 71
     1
 91
        1
 92
        1
 93
        1
 72
     2
 10
1019.057015
 20
864.3625210000019
 40
4.0
 50
0.0
 51
360.0
 73
     1
 97
        1
330
36C7
 75
     0
 76
     1
 98
        1
 10
-691.1732704598152
 20
-62.81385272638544
  0
CIRCLE
  5
36C9
102
{ACAD_REACTORS
330
36CA
102
}
330
1F
100
AcDbEntity
  8
MOJI
100
AcDbCircle
 10
1032.64234
 20
928.2237125000015
 30
0.0
 40
4.0
  0
HATCH
  5
36CA
330
1F
100
AcDbEntity
  8
MOJI
100
AcDbHatch
 10
0.0
 20
0.0
 30
0.0
210
0.0
220
0.0
230
1.0
  2
SOLID
 70
     1
 71
     1
 91
        1
 92
        1
 93
        1
 72
     2
 10
1032.64234
 20
928.2237125000015
 40
4.0
 50
0.0
 51
360.0
 73
     1
 97
        1
330
36C9
 75
     0
 76
     1
 98
        1
 10
-677.5879454598152
 20
1.047338773614683
  0
CIRCLE
  5
36CB
102
{ACAD_REACTORS
330
36CC
102
}
330
1F
100
AcDbEntity
  8
MOJI
100
AcDbCircle
 10
988.2378292895728
 20
895.5090015639989
 30
0.0
 40
4.0
  0
HATCH
  5
36CC
330
1F
100
AcDbEntity
  8
MOJI
100
AcDbHatch
 10
0.0
 20
0.0
 30
0.0
210
0.0
220
0.0
230
1.0
  2
SOLID
 70
     1
 71
     1
 91
        1
 92
        1
 93
        1
 72
     2
 10
988.2378292895728
 20
895.5090015639989
 40
4.0
 50
0.0
 51
360.0
 73
     1
 97
        1
330
36CB
 75
     0
 76
     1
 98
        1
 10
-721.9924561702428
 20
-31.66737216238835
  0
CIRCLE
  5
36CD
102
{ACAD_REACTORS
330
36CE
102
}
330
1F
100
AcDbEntity
  8
MOJI
100
AcDbCircle
 10
988.1610233890688
 20
934.9478582613333
 30
0.0
 40
4.0
  0
HATCH
  5
36CE
330
1F
100
AcDbEntity
  8
MOJI
100
AcDbHatch
 10
0.0
 20
0.0
 30
0.0
210
0.0
220
0.0
230
1.0
  2
SOLID
 70
     1
 71
     1
 91
        1
 92
        1
 93
        1
 72
     2
 10
988.1610233890688
 20
934.9478582613333
 40
4.0
 50
0.0
 51
360.0
 73
     1
 97
        1
330
36CD
 75
     0
 76
     1
 98
        1
 10
-722.0692620707468
 20
7.771484534946466
  0
TEXT
  5
36CF
330
1F
100
AcDbEntity
  8
MOJI
100
AcDbText
 10
1148.175401194055
 20
1070.730309340614
 30
0.0
 40
20.0
  1
アルミアングル
  7
MSゴシック
 11
1148.175401194055
 21
1080.730309340614
 31
0.0
100
AcDbText
 73
     2
  0
CIRCLE
  5
3A7B
330
1F
100
AcDbEntity
  8
TENSEN
  6
DASHED2
100
AcDbCircle
 10
1155.0
 20
598.0
 30
0.0
 40
3.0
  0
CIRCLE
  5
3A7C
330
1F
100
AcDbEntity
  8
TENSEN
  6
DASHED2
100
AcDbCircle
 10
1255.0
 20
598.0
 30
0.0
 40
3.0
  0
CIRCLE
  5
3A7D
330
1F
100
AcDbEntity
  8
TENSEN
  6
DASHED2
100
AcDbCircle
 10
1425.0
 20
598.0
 30
0.0
 40
3.0
  0
CIRCLE
  5
3A7E
330
1F
100
AcDbEntity
  8
TENSEN
  6
DASHED2
100
AcDbCircle
 10
1525.0
 20
598.0
 30
0.0
 40
3.0
  0
CIRCLE
  5
3A7F
330
1F
100
AcDbEntity
  8
TENSEN
  6
DASHED2
100
AcDbCircle
 10
1624.999999999997
 20
598.0
 30
0.0
 40
3.0
  0
CIRCLE
  5
3A80
330
1F
100
AcDbEntity
  8
TENSEN
  6
DASHED2
100
AcDbCircle
 10
1725.0
 20
598.0
 30
0.0
 40
3.0
  0
CIRCLE
  5
3A81
330
1F
100
AcDbEntity
  8
TENSEN
  6
DASHED2
100
AcDbCircle
 10
1825.0
 20
598.0
 30
0.0
 40
3.0
  0
CIRCLE
  5
3A82
330
1F
100
AcDbEntity
  8
TENSEN
  6
DASHED2
100
AcDbCircle
 10
1924.999999999999
 20
598.0
 30
0.0
 40
3.0
  0
CIRCLE
  5
3A83
330
1F
100
AcDbEntity
  8
TENSEN
  6
DASHED2
100
AcDbCircle
 10
2125.0
 20
598.0
 30
0.0
 40
3.0
  0
CIRCLE
  5
3A84
330
1F
100
AcDbEntity
  8
TENSEN
  6
DASHED2
100
AcDbCircle
 10
2025.0
 20
598.0
 30
0.0
 40
3.0
  0
LINE
  5
3A85
330
1F
100
AcDbEntity
  8
TENSEN
  6
DASHED2
100
AcDbLine
 10
2280.0
 20
595.0
 30
0.0
 11
1400.0
 21
595.0
 31
0.0
  0
LINE
  5
3A86
330
1F
100
AcDbEntity
  8
TENSEN
  6
DASHED2
100
AcDbLine
 10
1400.0
 20
595.0
 30
0.0
 11
1400.0
 21
589.0
 31
0.0
  0
CIRCLE
  5
3A87
330
1F
100
AcDbEntity
  8
TENSEN
  6
DASHED2
100
AcDbCircle
 10
2224.999999999998
 20
598.0
 30
0.0
 40
3.0
  0
LINE
  5
3A88
330
1F
100
AcDbEntity
  8
TENSEN
  6
DASHED2
100
AcDbLine
 10
1060.0
 20
595.0
 30
0.0
 11
1280.0
 21
595.0
 31
0.0
  0
LINE
  5
3A89
330
1F
100
AcDbEntity
  8
TENSEN
  6
DASHED2
100
AcDbLine
 10
1280.0
 20
595.0
 30
0.0
 11
1280.0
 21
589.0
 31
0.0
  0
LINE
  5
3A8A
330
1F
100
AcDbEntity
  8
TENSEN
  6
DASHED2
100
AcDbLine
 10
1060.0
 20
589.0
 30
0.0
 11
1280.0
 21
589.0
 31
0.0
  0
LINE
  5
3A8B
330
1F
100
AcDbEntity
  8
TENSEN
  6
DASHED2
100
AcDbLine
 10
2280.0
 20
589.0
 30
0.0
 11
1400.0
 21
589.0
 31
0.0
  0
LINE
  5
3AF5
330
1F
100
AcDbEntity
  8
TENSEN
  6
DASHED2
100
AcDbLine
 10
1060.0
 20
595.0
 30
0.0
 11
1060.0
 21
589.0
 31
0.0
  0
LINE
  5
3E37
330
1F
100
AcDbEntity
  8
0
100
AcDbLine
 10
0.0
 20
1849.999999999998
 30
0.0
 11
2760.0
 21
1849.999999999995
 31
0.0
  0
TEXT
  5
3E38
330
1F
100
AcDbEntity
  8
WAKU
100
AcDbText
 10
2608.553299492386
 20
1860.0
 30
0.0
 40
30.0
  1
ash-1-6
  7
MSゴシック
 72
     2
 11
2745.0
 21
1860.0
 31
0.0
100
AcDbText
  0
TEXT
  5
3E3A
330
1F
100
AcDbEntity
  8
WAKU
100
AcDbText
 10
15.0
 20
1860.0
 30
0.0
 40
40.0
  1
アスファルト防水／保護仕上げ
  7
MSゴシック
100
AcDbText
  0
TEXT
  5
3E3B
330
1F
100
AcDbEntity
  8
WAKU
100
AcDbText
 10
15.0
 20
1800.000000000004
 30
0.0
 40
30.0
  1
一般部／壁立上り／アルミ水切＋立上り乾式保護
  7
MSゴシック
100
AcDbText
  0
TEXT
  5
3E3C
330
1F
100
AcDbEntity
  8
WAKU
100
AcDbText
 10
2589.060913705584
 20
1800.000000000005
 30
0.0
 40
30.0
  1
1/10(A4)
  7
MSゴシック
 72
     2
 11
2745.0
 21
1800.000000000005
 31
0.0
100
AcDbText
  0
TEXT
  5
609A
330
1F
100
AcDbEntity
  8
MOJI
100
AcDbText
 10
1708.074541495998
 20
726.8802214437819
 30
0.0
 40
20.0
  1
アスファルト防水層
  7
MSゴシック
 11
1708.074541495998
 21
736.8802214437819
 31
0.0
100
AcDbText
 73
     2
  0
TEXT
  5
60AE
330
1F
100
AcDbEntity
  8
MOJI
100
AcDbText
 10
1777.356573798753
 20
846.8802214437818
 30
0.0
 40
20.0
  1
保護コンクリート（t≧80）
  7
MSゴシック
 11
1777.356573798753
 21
856.880221443782
 31
0.0
100
AcDbText
 73
     2
  0
TEXT
  5
61CB
330
1F
100
AcDbEntity
  8
MOJI
100
AcDbText
 10
480.0
 20
265.0
 30
0.0
 40
20.0
  1
※こちらの図は熱工法とストライプ工法の場合の形状です。その他の工法については出入隅の形状等一部が異なります。
  7
MSゴシック
 11
480.0
 21
275.0
 31
0.0
100
AcDbText
 73
     2
  0
LINE
  5
67EA
330
1F
100
AcDbEntity
  8
0
100
AcDbLine
 10
479.9999999999998
 20
295.0
 30
0.0
 11
2280.0
 21
295.0
 31
0.0
  0
LINE
  5
67EB
330
1F
100
AcDbEntity
  8
0
100
AcDbLine
 10
2280.0
 20
295.0
 30
0.0
 11
2280.0
 21
1495.0
 31
0.0
  0
LINE
  5
67EC
330
1F
100
AcDbEntity
  8
0
100
AcDbLine
 10
2280.0
 20
1495.0
 30
0.0
 11
479.9999999999998
 21
1495.0
 31
0.0
  0
LINE
  5
67ED
330
1F
100
AcDbEntity
  8
0
100
AcDbLine
 10
479.9999999999998
 20
1495.0
 30
0.0
 11
479.9999999999998
 21
295.0
 31
0.0
  0
LINE
  5
67EE
330
1F
100
AcDbEntity
  8
sunpo
100
AcDbLine
 10
800.0
 20
1052.574047658528
 30
0.0
 11
800.0
 21
1030.29551190026
 31
0.0
  0
LINE
  5
67EF
330
1F
100
AcDbEntity
  8
sunpo
100
AcDbLine
 10
980.0
 20
1052.574047658528
 30
0.0
 11
980.0
 21
1030.29551190026
 31
0.0
  0
LINE
  5
67F0
330
1F
100
AcDbEntity
  8
sunpo
100
AcDbLine
 10
808.0
 20
1030.29551190026
 30
0.0
 11
972.0
 21
1030.29551190026
 31
0.0
  0
MTEXT
  5
67F1
330
1F
100
AcDbEntity
  8
sunpo
100
AcDbMText
 10
889.4812711233043
 20
1046.174926234368
 30
0.0
 40
20.0
 41
0.0
 71
     5
 72
     1
  1
\A1;≧180
  7
MSゴシック
 73
     1
 44
1.0
1001
ACAD
1000
MTEXTBEGIN
1070
    73
1070
     1
1070
    44
1040
1.0
1070
    74
1070
     0
1000
MTEXTEND
  0
INSERT
  5
67F2
330
1F
100
AcDbEntity
  8
sunpo
100
AcDbBlockReference
  2
_DOT
 10
800.0
 20
1030.29551190026
 30
0.0
 41
8.0
 42
8.0
 43
8.0
 50
180.0
  0
INSERT
  5
67F3
330
1F
100
AcDbEntity
  8
sunpo
100
AcDbBlockReference
  2
_DOT
 10
980.0
 20
1030.29551190026
 30
0.0
 41
8.0
 42
8.0
 43
8.0
  0
LINE
  5
67F4
330
1F
100
AcDbEntity
  8
sunpo
 48
0.5
100
AcDbLine
 10
959.058634642743
 20
635.0000000000002
 30
0.0
 11
904.8814049038465
 21
635.0000000000002
 31
0.0
  0
LINE
  5
67F5
330
1F
100
AcDbEntity
  8
sunpo
 48
0.5
100
AcDbLine
 10
959.058634642743
 20
924.9999999999987
 30
0.0
 11
904.8814049038465
 21
924.9999999999987
 31
0.0
  0
LINE
  5
67F6
330
1F
100
AcDbEntity
  8
sunpo
 48
0.5
100
AcDbLine
 10
904.8814049038465
 20
643.0000000000002
 30
0.0
 11
904.8814049038465
 21
916.9999999999987
 31
0.0
  0
INSERT
  5
67F7
330
1F
100
AcDbEntity
  8
sunpo
 48
0.5
100
AcDbBlockReference
  2
_DOT
 10
904.8814049038465
 20
635.0000000000002
 30
0.0
 41
8.0
 42
8.0
 43
8.0
 50
270.0
  0
INSERT
  5
67F8
330
1F
100
AcDbEntity
  8
sunpo
 48
0.5
100
AcDbBlockReference
  2
_DOT
 10
904.8814049038465
 20
924.9999999999987
 30
0.0
 41
8.0
 42
8.0
 43
8.0
 50
90.0
  0
MTEXT
  5
67F9
330
1F
100
AcDbEntity
  8
sunpo
 48
0.5
100
AcDbMText
 10
892.4093236855723
 20
779.999999999999
 30
0.0
 40
20.0
 41
0.0
 71
     5
 72
     1
  1
\A1;150以上（水上）
  7
MSゴシック
 11
0.0000000000000001
 21
1.0
 31
0.0
 73
     1
 44
1.0
1001
ACAD
1000
MTEXTBEGIN
1070
    73
1070
     1
1070
    44
1040
1.0
1070
    74
1070
     0
1000
MTEXTEND
  0
LINE
  5
67FA
330
1F
100
AcDbEntity
  8
MOJI
100
AcDbLine
 10
1111.234081011519
 20
1287.285461831865
 30
0.0
 11
1061.234081011519
 21
1287.285461831865
 31
0.0
  0
LINE
  5
67FB
330
1F
100
AcDbEntity
  8
MOJI
100
AcDbLine
 10
1061.234081011519
 20
1287.285461831865
 30
0.0
 11
991.1599031707019
 21
1165.913425512951
 31
0.0
  0
LINE
  5
67FC
330
1F
100
AcDbEntity
  8
sunpo
100
AcDbLine
 10
980.0
 20
1054.574047658528
 30
0.0
 11
980.0
 21
1030.191637368377
 31
0.0
  0
LINE
  5
67FD
330
1F
100
AcDbEntity
  8
sunpo
100
AcDbLine
 10
1000.0
 20
1054.574047658528
 30
0.0
 11
1000.0
 21
1030.191637368377
 31
0.0
  0
LINE
  5
67FE
330
1F
100
AcDbEntity
  8
sunpo
100
AcDbLine
 10
988.0
 20
1030.191637368377
 30
0.0
 11
992.0
 21
1030.191637368377
 31
0.0
  0
MTEXT
  5
67FF
330
1F
100
AcDbEntity
  8
sunpo
100
AcDbMText
 10
1020.495286274287
 20
1048.174926234368
 30
0.0
 40
20.0
 41
0.0
 71
     5
 72
     1
  1
\A1;20
  7
MSゴシック
 73
     1
 44
1.0
1001
ACAD
1000
MTEXTBEGIN
1070
    73
1070
     1
1070
    44
1040
1.0
1070
    74
1070
     0
1000
MTEXTEND
  0
INSERT
  5
6800
330
1F
100
AcDbEntity
  8
sunpo
100
AcDbBlockReference
  2
_DOT
 10
980.0
 20
1030.191637368377
 30
0.0
 41
8.0
 42
8.0
 43
8.0
 50
180.0
  0
INSERT
  5
6801
330
1F
100
AcDbEntity
  8
sunpo
100
AcDbBlockReference
  2
_DOT
 10
1000.0
 20
1030.191637368377
 30
0.0
 41
8.0
 42
8.0
 43
8.0
  0
LINE
  5
6802
330
1F
100
AcDbEntity
  8
MOJI
100
AcDbLine
 10
1774.356573798753
 20
856.880221443782
 30
0.0
 11
1724.356573798752
 21
856.880221443782
 31
0.0
  0
LINE
  5
6803
330
1F
100
AcDbEntity
  8
MOJI
100
AcDbLine
 10
1724.356573798752
 20
856.880221443782
 30
0.0
 11
1547.122616212036
 21
549.9020020770806
 31
0.0
  0
LINE
  5
6804
330
1F
100
AcDbEntity
  8
MOJI
100
AcDbLine
 10
1558.330878533161
 20
915.9075152709874
 30
0.0
 11
1508.330878533161
 21
915.9075152709874
 31
0.0
  0
LINE
  5
6805
330
1F
100
AcDbEntity
  8
MOJI
100
AcDbLine
 10
1508.330878533161
 20
915.9075152709874
 30
0.0
 11
1339.25437825772
 21
623.0584264279904
 31
0.0
  0
LINE
  5
6806
330
1F
100
AcDbEntity
  8
MOJI
100
AcDbLine
 10
1124.318355663255
 20
705.9777898395987
 30
0.0
 11
1074.318355663255
 21
705.9777898395987
 31
0.0
  0
LINE
  5
6807
330
1F
100
AcDbEntity
  8
MOJI
100
AcDbLine
 10
1074.318355663255
 20
705.9777898395987
 30
0.0
 11
1009.278389227626
 21
593.3252634505143
 31
0.0
  0
LINE
  5
6808
330
1F
100
AcDbEntity
  8
KUTAI
100
AcDbLine
 10
1330.0
 20
555.0
 30
0.0
 11
1330.0
 21
631.5
 31
0.0
  0
LINE
  5
6809
330
1F
100
AcDbEntity
  8
KUTAI
100
AcDbLine
 10
1330.0
 20
631.5
 30
0.0
 11
1350.0
 21
631.5
 31
0.0
  0
LINE
  5
680A
330
1F
100
AcDbEntity
  8
KUTAI
100
AcDbLine
 10
1350.0
 20
631.5
 30
0.0
 11
1350.0
 21
555.0
 31
0.0
  0
LINE
  5
680B
330
1F
100
AcDbEntity
  8
KUTAI
100
AcDbLine
 10
1351.0
 20
633.0
 30
0.0
 11
1351.0
 21
632.0
 31
0.0
  0
LINE
  5
680C
330
1F
100
AcDbEntity
  8
KUTAI
100
AcDbLine
 10
1351.0
 20
632.0
 30
0.0
 11
1349.0
 21
632.0
 31
0.0
  0
LINE
  5
680D
330
1F
100
AcDbEntity
  8
KUTAI
100
AcDbLine
 10
1349.0
 20
632.0
 30
0.0
 11
1349.0
 21
631.5
 31
0.0
  0
LINE
  5
680E
330
1F
100
AcDbEntity
  8
KUTAI
100
AcDbLine
 10
1349.0
 20
631.5
 30
0.0
 11
1351.0
 21
631.5
 31
0.0
  0
LINE
  5
680F
330
1F
100
AcDbEntity
  8
KUTAI
100
AcDbLine
 10
1351.0
 20
631.5
 30
0.0
 11
1351.0
 21
620.0
 31
0.0
  0
LINE
  5
6810
330
1F
100
AcDbEntity
  8
KUTAI
100
AcDbLine
 10
1351.0
 20
620.0
 30
0.0
 11
1350.5
 21
620.0
 31
0.0
  0
LINE
  5
6811
330
1F
100
AcDbEntity
  8
KUTAI
100
AcDbLine
 10
1350.5
 20
620.0
 30
0.0
 11
1351.0
 21
619.0
 31
0.0
  0
LINE
  5
6812
330
1F
100
AcDbEntity
  8
KUTAI
100
AcDbLine
 10
1351.0
 20
619.0
 30
0.0
 11
1351.0
 21
606.0
 31
0.0
  0
LINE
  5
6813
330
1F
100
AcDbEntity
  8
KUTAI
100
AcDbLine
 10
1351.0
 20
606.0
 30
0.0
 11
1350.5
 21
606.0
 31
0.0
  0
LINE
  5
6814
330
1F
100
AcDbEntity
  8
KUTAI
100
AcDbLine
 10
1350.5
 20
606.0
 30
0.0
 11
1351.0
 21
605.0
 31
0.0
  0
LINE
  5
6815
330
1F
100
AcDbEntity
  8
KUTAI
100
AcDbLine
 10
1351.0
 20
605.0
 30
0.0
 11
1352.0
 21
605.0
 31
0.0
  0
LINE
  5
6816
330
1F
100
AcDbEntity
  8
KUTAI
100
AcDbLine
 10
1352.0
 20
605.0
 30
0.0
 11
1352.0
 21
631.5
 31
0.0
  0
LINE
  5
6817
330
1F
100
AcDbEntity
  8
KUTAI
100
AcDbLine
 10
1352.0
 20
631.5
 30
0.0
 11
1352.5
 21
631.5
 31
0.0
  0
LINE
  5
6818
330
1F
100
AcDbEntity
  8
KUTAI
100
AcDbLine
 10
1352.5
 20
631.5
 30
0.0
 11
1352.5
 21
633.4999999999999
 31
0.0
  0
LINE
  5
6819
330
1F
100
AcDbEntity
  8
KUTAI
100
AcDbLine
 10
1352.5
 20
633.4999999999999
 30
0.0
 11
1327.5
 21
633.4999999999999
 31
0.0
  0
LINE
  5
681A
330
1F
100
AcDbEntity
  8
KUTAI
100
AcDbLine
 10
1327.5
 20
633.4999999999999
 30
0.0
 11
1327.5
 21
631.5
 31
0.0
  0
LINE
  5
681B
330
1F
100
AcDbEntity
  8
KUTAI
100
AcDbLine
 10
1327.5
 20
631.5
 30
0.0
 11
1328.0
 21
631.5
 31
0.0
  0
LINE
  5
681C
330
1F
100
AcDbEntity
  8
KUTAI
100
AcDbLine
 10
1328.0
 20
631.5
 30
0.0
 11
1328.0
 21
605.0
 31
0.0
  0
LINE
  5
681D
330
1F
100
AcDbEntity
  8
KUTAI
100
AcDbLine
 10
1328.0
 20
605.0
 30
0.0
 11
1329.0
 21
605.0
 31
0.0
  0
LINE
  5
681E
330
1F
100
AcDbEntity
  8
KUTAI
100
AcDbLine
 10
1329.0
 20
605.0
 30
0.0
 11
1329.5
 21
606.0
 31
0.0
  0
LINE
  5
681F
330
1F
100
AcDbEntity
  8
KUTAI
100
AcDbLine
 10
1329.5
 20
606.0
 30
0.0
 11
1329.0
 21
606.0
 31
0.0
  0
LINE
  5
6820
330
1F
100
AcDbEntity
  8
KUTAI
100
AcDbLine
 10
1329.0
 20
606.0
 30
0.0
 11
1329.0
 21
619.0
 31
0.0
  0
LINE
  5
6821
330
1F
100
AcDbEntity
  8
KUTAI
100
AcDbLine
 10
1329.0
 20
619.0
 30
0.0
 11
1329.5
 21
620.0
 31
0.0
  0
LINE
  5
6822
330
1F
100
AcDbEntity
  8
KUTAI
100
AcDbLine
 10
1329.5
 20
620.0
 30
0.0
 11
1329.0
 21
620.0
 31
0.0
  0
LINE
  5
6823
330
1F
100
AcDbEntity
  8
KUTAI
100
AcDbLine
 10
1329.0
 20
620.0
 30
0.0
 11
1329.0
 21
631.5
 31
0.0
  0
LINE
  5
6824
330
1F
100
AcDbEntity
  8
KUTAI
100
AcDbLine
 10
1329.0
 20
631.5
 30
0.0
 11
1331.0
 21
631.5
 31
0.0
  0
LINE
  5
6825
330
1F
100
AcDbEntity
  8
KUTAI
100
AcDbLine
 10
1331.0
 20
631.5
 30
0.0
 11
1331.0
 21
632.0
 31
0.0
  0
LINE
  5
6826
330
1F
100
AcDbEntity
  8
KUTAI
100
AcDbLine
 10
1331.0
 20
632.0
 30
0.0
 11
1329.0
 21
632.0
 31
0.0
  0
LINE
  5
6827
330
1F
100
AcDbEntity
  8
KUTAI
100
AcDbLine
 10
1329.0
 20
632.0
 30
0.0
 11
1329.0
 21
633.0
 31
0.0
  0
LINE
  5
6828
330
1F
100
AcDbEntity
  8
KUTAI
100
AcDbLine
 10
1329.0
 20
633.0
 30
0.0
 11
1351.0
 21
633.0
 31
0.0
  0
LINE
  5
6829
330
1F
100
AcDbEntity
  8
KUTAI
100
AcDbLine
 10
1352.5
 20
634.4999999999999
 30
0.0
 11
1353.0
 21
635.0
 31
0.0
  0
LINE
  5
682A
330
1F
100
AcDbEntity
  8
KUTAI
100
AcDbLine
 10
1353.0
 20
635.0
 30
0.0
 11
1354.0
 21
635.0
 31
0.0
  0
LINE
  5
682B
330
1F
100
AcDbEntity
  8
KUTAI
100
AcDbLine
 10
1354.0
 20
635.0
 30
0.0
 11
1354.0
 21
632.0
 31
0.0
  0
LINE
  5
682C
330
1F
100
AcDbEntity
  8
KUTAI
100
AcDbLine
 10
1354.0
 20
632.0
 30
0.0
 11
1353.5
 21
632.0
 31
0.0
  0
LINE
  5
682D
330
1F
100
AcDbEntity
  8
KUTAI
100
AcDbLine
 10
1353.5
 20
632.0
 30
0.0
 11
1353.5
 21
617.0
 31
0.0
  0
LINE
  5
682E
330
1F
100
AcDbEntity
  8
KUTAI
100
AcDbLine
 10
1353.5
 20
617.0
 30
0.0
 11
1354.000000000007
 21
617.0
 31
0.0
  0
LINE
  5
682F
330
1F
100
AcDbEntity
  8
KUTAI
100
AcDbLine
 10
1354.000000000007
 20
617.0
 30
0.0
 11
1354.0
 21
615.0
 31
0.0
  0
LINE
  5
6830
330
1F
100
AcDbEntity
  8
KUTAI
100
AcDbLine
 10
1354.0
 20
615.0
 30
0.0
 11
1352.5
 21
615.0
 31
0.0
  0
LINE
  5
6831
330
1F
100
AcDbEntity
  8
KUTAI
100
AcDbLine
 10
1352.5
 20
615.0
 30
0.0
 11
1352.5
 21
633.4999999999999
 31
0.0
  0
LINE
  5
6832
330
1F
100
AcDbEntity
  8
KUTAI
100
AcDbLine
 10
1352.5
 20
633.4999999999999
 30
0.0
 11
1327.5
 21
633.4999999999999
 31
0.0
  0
LINE
  5
6833
330
1F
100
AcDbEntity
  8
KUTAI
100
AcDbLine
 10
1327.5
 20
633.4999999999999
 30
0.0
 11
1327.5
 21
615.0
 31
0.0
  0
LINE
  5
6834
330
1F
100
AcDbEntity
  8
KUTAI
100
AcDbLine
 10
1327.5
 20
615.0
 30
0.0
 11
1326.0
 21
615.0
 31
0.0
  0
LINE
  5
6835
330
1F
100
AcDbEntity
  8
KUTAI
100
AcDbLine
 10
1326.0
 20
615.0
 30
0.0
 11
1325.999999999992
 21
617.0
 31
0.0
  0
LINE
  5
6836
330
1F
100
AcDbEntity
  8
KUTAI
100
AcDbLine
 10
1325.999999999992
 20
617.0
 30
0.0
 11
1326.5
 21
617.0
 31
0.0
  0
LINE
  5
6837
330
1F
100
AcDbEntity
  8
KUTAI
100
AcDbLine
 10
1326.5
 20
617.0
 30
0.0
 11
1326.5
 21
632.0
 31
0.0
  0
LINE
  5
6838
330
1F
100
AcDbEntity
  8
KUTAI
100
AcDbLine
 10
1326.5
 20
632.0
 30
0.0
 11
1326.0
 21
632.0
 31
0.0
  0
LINE
  5
6839
330
1F
100
AcDbEntity
  8
KUTAI
100
AcDbLine
 10
1326.0
 20
632.0
 30
0.0
 11
1326.0
 21
635.0
 31
0.0
  0
LINE
  5
683A
330
1F
100
AcDbEntity
  8
KUTAI
100
AcDbLine
 10
1326.0
 20
635.0
 30
0.0
 11
1327.0
 21
635.0
 31
0.0
  0
LINE
  5
683B
330
1F
100
AcDbEntity
  8
KUTAI
100
AcDbLine
 10
1327.0
 20
635.0
 30
0.0
 11
1327.5
 21
634.4999999999999
 31
0.0
  0
LINE
  5
683C
330
1F
100
AcDbEntity
  8
KUTAI
100
AcDbLine
 10
1327.5
 20
634.4999999999999
 30
0.0
 11
1340.0
 21
634.4999999999999
 31
0.0
  0
LINE
  5
683D
330
1F
100
AcDbEntity
  8
KUTAI
100
AcDbLine
 10
1340.0
 20
634.4999999999999
 30
0.0
 11
1352.5
 21
634.4999999999999
 31
0.0
  0
LINE
  5
683E
330
1F
100
AcDbEntity
  8
BOUSUI
100
AcDbLine
 10
2280.0
 20
555.0
 30
0.0
 11
1033.639610306789
 21
555.0
 31
0.0
  0
LINE
  5
683F
330
1F
100
AcDbEntity
  8
BOUSUI
100
AcDbLine
 10
1033.639610306789
 20
555.0
 30
0.0
 11
990.0
 21
598.6396103067892
 31
0.0
  0
LINE
  5
6840
330
1F
100
AcDbEntity
  8
BOUSUI
100
AcDbLine
 10
990.0
 20
598.6396103067892
 30
0.0
 11
990.0
 21
885.2999999999981
 31
0.0
  0
LINE
  5
6841
330
1F
100
AcDbEntity
  8
dannnetu
100
AcDbLine
 10
1083.639610306789
 20
575.0
 30
0.0
 11
1041.923881554251
 21
575.0
 31
0.0
  0
LINE
  5
6842
330
1F
100
AcDbEntity
  8
dannnetu
100
AcDbLine
 10
1041.923881554251
 20
575.0
 30
0.0
 11
1010.0
 21
606.9238815542514
 31
0.0
  0
LINE
  5
6843
330
1F
100
AcDbEntity
  8
dannnetu
100
AcDbLine
 10
1010.0
 20
606.9238815542514
 30
0.0
 11
1010.0
 21
635.0
 31
0.0
  0
LINE
  5
6844
330
1F
100
AcDbEntity
  8
dannnetu
100
AcDbLine
 10
1010.0
 20
635.0
 30
0.0
 11
990.0
 21
635.0
 31
0.0
  0
LINE
  5
6845
330
1F
100
AcDbEntity
  8
KUTAI
100
AcDbLine
 10
1326.0
 20
635.0
 30
0.0
 11
1010.0
 21
635.0
 31
0.0
  0
LINE
  5
6846
330
1F
100
AcDbEntity
  8
HATCH
  6
Continuous
100
AcDbLine
 10
990.0000000000003
 20
624.4738530943407
 30
0.0
 11
1000.526146905659
 21
635.0
 31
0.0
  0
LINE
  5
6847
330
1F
100
AcDbEntity
  8
HATCH
  6
Continuous
100
AcDbLine
 10
990.0000000000002
 20
611.0034689127367
 30
0.0
 11
1010.0
 21
631.0034689127367
 31
0.0
  0
LINE
  5
6848
330
1F
100
AcDbEntity
  8
HATCH
  6
Continuous
100
AcDbLine
 10
990.5532627878283
 20
598.0863475189612
 30
0.0
 11
1010.0
 21
617.533084731133
 31
0.0
  0
LINE
  5
6849
330
1F
100
AcDbEntity
  8
HATCH
  6
Continuous
100
AcDbLine
 10
997.28845487863
 20
591.3511554281592
 30
0.0
 11
1011.430590502361
 21
605.4932910518905
 31
0.0
  0
LINE
  5
684A
330
1F
100
AcDbEntity
  8
HATCH
  6
Continuous
100
AcDbLine
 10
1004.023646969432
 20
584.6159633373573
 30
0.0
 11
1018.165782593163
 21
598.7580989610886
 31
0.0
  0
LINE
  5
684B
330
1F
100
AcDbEntity
  8
HATCH
  6
Continuous
100
AcDbLine
 10
1010.758839060234
 20
577.8807712465554
 30
0.0
 11
1024.900974683965
 21
592.0229068702865
 31
0.0
  0
LINE
  5
684C
330
1F
100
AcDbEntity
  8
HATCH
  6
Continuous
100
AcDbLine
 10
1017.494031151035
 20
571.1455791557536
 30
0.0
 11
1031.636166774767
 21
585.2877147794849
 31
0.0
  0
LINE
  5
684D
330
1F
100
AcDbEntity
  8
HATCH
  6
Continuous
100
AcDbLine
 10
1024.229223241837
 20
564.4103870649518
 30
0.0
 11
1038.371358865568
 21
578.5525226886829
 31
0.0
  0
LINE
  5
684E
330
1F
100
AcDbEntity
  8
HATCH
  6
Continuous
100
AcDbLine
 10
1030.964415332639
 20
557.6751949741499
 30
0.0
 11
1048.28922035849
 21
575.0000000000002
 31
0.0
  0
LINE
  5
684F
330
1F
100
AcDbEntity
  8
HATCH
  6
Continuous
100
AcDbLine
 10
1041.759604540093
 20
555.0000000000001
 30
0.0
 11
1061.759604540093
 21
575.0
 31
0.0
  0
LINE
  5
6850
330
1F
100
AcDbEntity
  8
HATCH
  6
Continuous
100
AcDbLine
 10
1055.229988721697
 20
555.0000000000002
 30
0.0
 11
1075.229988721697
 21
575.0
 31
0.0
  0
LINE
  5
6851
330
1F
100
AcDbEntity
  8
HATCH
  6
Continuous
100
AcDbLine
 10
1068.700372903301
 20
555.0000000000001
 30
0.0
 11
1083.639610306789
 21
569.9392374034886
 31
0.0
  0
LINE
  5
6852
330
1F
100
AcDbEntity
  8
HATCH
  6
Continuous
100
AcDbLine
 10
1082.170757084904
 20
555.0
 30
0.0
 11
1083.639610306789
 21
556.4688532218849
 31
0.0
  0
LINE
  5
6853
330
1F
100
AcDbEntity
  8
HATCH
  6
Continuous
100
AcDbLine
 10
1046.972248698107
 20
554.9999999999998
 30
0.0
 11
989.9999999999998
 21
611.972248698107
 31
0.0
  0
LINE
  5
6854
330
1F
100
AcDbEntity
  8
HATCH
  6
Continuous
100
AcDbLine
 10
1060.442632879711
 20
554.9999999999998
 30
0.0
 11
989.9999999999998
 21
625.4426328797108
 31
0.0
  0
LINE
  5
6855
330
1F
100
AcDbEntity
  8
HATCH
  6
Continuous
100
AcDbLine
 10
1073.913017061314
 20
555.0
 30
0.0
 11
1053.913017061314
 21
575.0
 31
0.0
  0
LINE
  5
6856
330
1F
100
AcDbEntity
  8
HATCH
  6
Continuous
100
AcDbLine
 10
1010.0
 20
618.9130170613144
 30
0.0
 11
993.9130170613145
 21
635.0
 31
0.0
  0
LINE
  5
6857
330
1F
100
AcDbEntity
  8
HATCH
  6
Continuous
100
AcDbLine
 10
1083.639610306789
 20
558.7437909361291
 30
0.0
 11
1067.383401242918
 21
574.9999999999999
 31
0.0
  0
LINE
  5
6858
330
1F
100
AcDbEntity
  8
HATCH
  6
Continuous
100
AcDbLine
 10
1010.0
 20
632.383401242918
 30
0.0
 11
1007.383401242918
 21
635.0000000000001
 31
0.0
  0
LINE
  5
6859
330
1F
100
AcDbEntity
  8
HATCH
  6
Continuous
100
AcDbLine
 10
1083.639610306789
 20
572.214175117733
 30
0.0
 11
1080.853785424522
 21
574.9999999999998
 31
0.0
  0
LINE
  5
685A
330
1F
100
AcDbEntity
  8
MOJI
100
AcDbLine
 10
1113.242516466144
 20
441.7828036468185
 30
0.0
 11
1063.242516466144
 21
441.7828036468185
 31
0.0
  0
LINE
  5
685B
330
1F
100
AcDbEntity
  8
MOJI
100
AcDbLine
 10
1063.242516466144
 20
441.7828036468185
 30
0.0
 11
995.330580332933
 21
559.4097274699138
 31
0.0
  0
LINE
  5
685C
330
1F
100
AcDbEntity
  8
sunpo
100
AcDbLine
 10
976.4644660940673
 20
590.9619407771256
 30
0.0
 11
926.1409355330179
 21
540.6384102160759
 31
0.0
  0
LINE
  5
685D
330
1F
100
AcDbEntity
  8
sunpo
100
AcDbLine
 10
1025.961940777126
 20
541.4644660940673
 30
0.0
 11
975.6384102160764
 21
491.1409355330176
 31
0.0
  0
LINE
  5
685E
330
1F
100
AcDbEntity
  8
sunpo
100
AcDbLine
 10
931.7977897825103
 20
534.9815559665834
 30
0.0
 11
969.9815559665841
 21
496.79778978251
 31
0.0
  0
MTEXT
  5
685F
330
1F
100
AcDbEntity
  8
sunpo
100
AcDbMText
 10
934.4546062979301
 20
501.5531784945051
 30
0.0
 40
20.0
 41
0.0
 71
     5
 72
     1
  1
\A1;70程度
  7
MSゴシック
 11
0.7071067811865495
 21
-0.7071067811865457
 31
0.0
 73
     1
 44
1.0
1001
ACAD
1000
MTEXTBEGIN
1070
    73
1070
     1
1070
    44
1040
1.0
1070
    74
1070
     0
1000
MTEXTEND
  0
INSERT
  5
6860
330
1F
100
AcDbEntity
  8
sunpo
100
AcDbBlockReference
  2
_DOT
 10
926.1409355330179
 20
540.6384102160759
 30
0.0
 41
8.0
 42
8.0
 43
8.0
 50
135.0000000000001
  0
INSERT
  5
6861
330
1F
100
AcDbEntity
  8
sunpo
100
AcDbBlockReference
  2
_DOT
 10
975.6384102160764
 20
491.1409355330176
 30
0.0
 41
8.0
 42
8.0
 43
8.0
 50
315.0000000000002
  0
LINE
  5
6862
330
1F
100
AcDbEntity
  8
sunpo
 48
0.5
100
AcDbLine
 10
980.0
 20
703.6479041509701
 30
0.0
 11
980.0
 21
732.8974235504174
 31
0.0
  0
LINE
  5
6863
330
1F
100
AcDbEntity
  8
sunpo
 48
0.5
100
AcDbLine
 10
1340.0
 20
639.5
 30
0.0
 11
1340.0
 21
732.8974235504174
 31
0.0
  0
LINE
  5
6864
330
1F
100
AcDbEntity
  8
sunpo
 48
0.5
100
AcDbLine
 10
988.0
 20
732.8974235504174
 30
0.0
 11
1332.0
 21
732.8974235504174
 31
0.0
  0
MTEXT
  5
6865
330
1F
100
AcDbEntity
  8
sunpo
 48
0.5
100
AcDbMText
 10
1137.324679146018
 20
751.2903321137827
 30
0.0
 40
20.0
 41
0.0
 71
     5
 72
     1
  1
\A1;300～600
  7
MSゴシック
 73
     1
 44
1.0
1001
ACAD
1000
MTEXTBEGIN
1070
    73
1070
     1
1070
    44
1040
1.0
1070
    74
1070
     0
1000
MTEXTEND
  0
INSERT
  5
6866
330
1F
100
AcDbEntity
  8
sunpo
 48
0.5
100
AcDbBlockReference
  2
_DOT
 10
980.0
 20
732.8974235504174
 30
0.0
 41
8.0
 42
8.0
 43
8.0
 50
180.0
  0
INSERT
  5
6867
330
1F
100
AcDbEntity
  8
sunpo
 48
0.5
100
AcDbBlockReference
  2
_DOT
 10
1340.0
 20
732.8974235504174
 30
0.0
 41
8.0
 42
8.0
 43
8.0
  0
LINE
  5
6868
330
1F
100
AcDbEntity
  8
KANAMONO
100
AcDbLine
 10
1002.891910864758
 20
913.2062017478393
 30
0.0
 11
1000.0
 21
933.7999999999997
 31
0.0
  0
LINE
  5
6869
330
1F
100
AcDbEntity
  8
KANAMONO
100
AcDbLine
 10
1000.0
 20
933.7999999999997
 30
0.0
 11
981.4999999999999
 21
953.7999999999996
 31
0.0
  0
LINE
  5
686A
330
1F
100
AcDbEntity
  8
KANAMONO
100
AcDbLine
 10
981.4999999999999
 20
953.7999999999996
 30
0.0
 11
980.0
 21
953.7999999999996
 31
0.0
  0
LINE
  5
686B
330
1F
100
AcDbEntity
  8
KANAMONO
100
AcDbLine
 10
980.0
 20
953.7999999999996
 30
0.0
 11
980.0000000000004
 21
957.7999999999997
 31
0.0
  0
LINE
  5
686C
330
1F
100
AcDbEntity
  8
KANAMONO
100
AcDbLine
 10
980.0000000000004
 20
957.7999999999997
 30
0.0
 11
981.4999999999999
 21
957.7999999999997
 31
0.0
  0
LINE
  5
686D
330
1F
100
AcDbEntity
  8
KANAMONO
100
AcDbLine
 10
981.4999999999999
 20
957.7999999999997
 30
0.0
 11
981.4999999999999
 21
974.7999999999997
 31
0.0
  0
LINE
  5
686E
330
1F
100
AcDbEntity
  8
KANAMONO
100
AcDbLine
 10
981.4999999999999
 20
974.7999999999997
 30
0.0
 11
980.0
 21
974.7999999999997
 31
0.0
  0
LINE
  5
686F
330
1F
100
AcDbEntity
  8
KANAMONO
100
AcDbLine
 10
980.0
 20
974.7999999999997
 30
0.0
 11
980.0
 21
980.0
 31
0.0
  0
LINE
  5
6870
330
1F
100
AcDbEntity
  8
KANAMONO
100
AcDbLine
 10
980.0
 20
980.0
 30
0.0
 11
990.0
 21
978.7999999999996
 31
0.0
  0
LINE
  5
6871
330
1F
100
AcDbEntity
  8
KANAMONO
100
AcDbLine
 10
990.0
 20
978.7999999999996
 30
0.0
 11
990.0
 21
977.2999999999997
 31
0.0
  0
LINE
  5
6872
330
1F
100
AcDbEntity
  8
KANAMONO
100
AcDbLine
 10
990.0
 20
977.2999999999997
 30
0.0
 11
983.0
 21
977.2999999999997
 31
0.0
  0
LINE
  5
6873
330
1F
100
AcDbEntity
  8
KANAMONO
100
AcDbLine
 10
983.0
 20
977.2999999999997
 30
0.0
 11
983.0000000000005
 21
966.5999999999998
 31
0.0
  0
LINE
  5
6874
330
1F
100
AcDbEntity
  8
KANAMONO
100
AcDbLine
 10
983.0000000000005
 20
966.5999999999998
 30
0.0
 11
982.7000000000007
 21
966.3000000000002
 31
0.0
  0
LINE
  5
6875
330
1F
100
AcDbEntity
  8
KANAMONO
100
AcDbLine
 10
982.7000000000007
 20
966.3000000000002
 30
0.0
 11
983.0000000000008
 21
966.0
 31
0.0
  0
LINE
  5
6876
330
1F
100
AcDbEntity
  8
KANAMONO
100
AcDbLine
 10
983.0000000000008
 20
966.0
 30
0.0
 11
983.0000000000008
 21
962.9282660202202
 31
0.0
  0
ARC
  5
6877
330
1F
100
AcDbEntity
  8
KANAMONO
100
AcDbCircle
 10
985.0000000000008
 20
962.9282660202202
 30
0.0
 40
2.0
100
AcDbArc
 50
180.0
 51
255.0000000000056
  0
LINE
  5
6878
330
1F
100
AcDbEntity
  8
KANAMONO
100
AcDbLine
 10
984.482361909796
 20
960.9964143676419
 30
0.0
 11
1030.0
 21
948.7999999999997
 31
0.0
  0
LINE
  5
6879
330
1F
100
AcDbEntity
  8
KANAMONO
100
AcDbLine
 10
1030.0
 20
948.7999999999997
 30
0.0
 11
1030.0
 21
908.4999999999995
 31
0.0
  0
ARC
  5
687A
330
1F
100
AcDbEntity
  8
KANAMONO
100
AcDbCircle
 10
1029.8
 20
908.4999999999995
 30
0.0
 40
0.1999999999998181
100
AcDbArc
 50
270.0
 51
0.0
  0
LINE
  5
687B
330
1F
100
AcDbEntity
  8
KANAMONO
100
AcDbLine
 10
1029.8
 20
908.2999999999996
 30
0.0
 11
1028.899999999999
 21
908.2999999999996
 31
0.0
  0
ARC
  5
687C
330
1F
100
AcDbEntity
  8
KANAMONO
100
AcDbCircle
 10
1028.899999999999
 20
908.4999999999995
 30
0.0
 40
0.1999999999998181
100
AcDbArc
 50
180.0
 51
270.0
  0
LINE
  5
687D
330
1F
100
AcDbEntity
  8
KANAMONO
100
AcDbLine
 10
1028.7
 20
908.4999999999995
 30
0.0
 11
1028.7
 21
908.7999999999997
 31
0.0
  0
LINE
  5
687E
330
1F
100
AcDbEntity
  8
KANAMONO
100
AcDbLine
 10
1028.7
 20
908.7999999999997
 30
0.0
 11
1025.5
 21
908.7999999999997
 31
0.0
  0
ARC
  5
687F
330
1F
100
AcDbEntity
  8
KANAMONO
100
AcDbCircle
 10
1025.5
 20
909.2999999999998
 30
0.0
 40
0.5
100
AcDbArc
 50
180.0
 51
270.0
  0
LINE
  5
6880
330
1F
100
AcDbEntity
  8
KANAMONO
100
AcDbLine
 10
1025.0
 20
909.2999999999998
 30
0.0
 11
1025.0
 21
909.8566243270257
 31
0.0
  0
ARC
  5
6881
330
1F
100
AcDbEntity
  8
KANAMONO
100
AcDbCircle
 10
1025.499999999999
 20
909.8566243270253
 30
0.0
 40
0.4999999999995453
100
AcDbArc
 50
119.999999999907
 51
179.9999999999739
  0
LINE
  5
6882
330
1F
100
AcDbEntity
  8
KANAMONO
100
AcDbLine
 10
1025.25
 20
910.2896370289176
 30
0.0
 11
1025.322949016876
 21
910.3317541634483
 31
0.0
  0
ARC
  5
6883
330
1F
100
AcDbEntity
  8
KANAMONO
100
AcDbCircle
 10
1025.572949016876
 20
909.8987414615562
 30
0.0
 40
0.4999999999997305
100
AcDbArc
 50
44.47751218597155
 51
119.9999999999877
  0
ARC
  5
6884
330
1F
100
AcDbEntity
  8
KANAMONO
100
AcDbCircle
 10
1027.0
 20
911.2999999999999
 30
0.0
 40
1.499999999999552
100
AcDbArc
 50
224.4775121859226
 51
135.5224878140529
  0
ARC
  5
6885
330
1F
100
AcDbEntity
  8
KANAMONO
100
AcDbCircle
 10
1025.572949016876
 20
912.7012585384441
 30
0.0
 40
0.5000000000001438
100
AcDbArc
 50
239.9999999999736
 51
315.5224878140556
  0
LINE
  5
6886
330
1F
100
AcDbEntity
  8
KANAMONO
100
AcDbLine
 10
1025.322949016875
 20
912.268245836552
 30
0.0
 11
1025.25
 21
912.3103629710822
 31
0.0
  0
ARC
  5
6887
330
1F
100
AcDbEntity
  8
KANAMONO
100
AcDbCircle
 10
1025.5
 20
912.7433756729745
 30
0.0
 40
0.5000000000002532
100
AcDbArc
 50
179.999999999987
 51
239.9999999999867
  0
LINE
  5
6888
330
1F
100
AcDbEntity
  8
KANAMONO
100
AcDbLine
 10
1025.0
 20
912.7433756729747
 30
0.0
 11
1024.999999999999
 21
913.2999999999997
 31
0.0
  0
ARC
  5
6889
330
1F
100
AcDbEntity
  8
KANAMONO
100
AcDbCircle
 10
1025.499999999999
 20
913.2999999999999
 30
0.0
 40
0.5
100
AcDbArc
 50
90.0
 51
180.000000000013
  0
LINE
  5
688A
330
1F
100
AcDbEntity
  8
KANAMONO
100
AcDbLine
 10
1025.499999999999
 20
913.7999999999998
 30
0.0
 11
1028.7
 21
913.7999999999998
 31
0.0
  0
LINE
  5
688B
330
1F
100
AcDbEntity
  8
KANAMONO
100
AcDbLine
 10
1028.7
 20
913.7999999999998
 30
0.0
 11
1028.7
 21
947.8024749156274
 31
0.0
  0
LINE
  5
688C
330
1F
100
AcDbEntity
  8
KANAMONO
100
AcDbLine
 10
1028.7
 20
947.8024749156274
 30
0.0
 11
991.3887284351785
 21
957.7999999999997
 31
0.0
  0
LINE
  5
688D
330
1F
100
AcDbEntity
  8
KANAMONO
100
AcDbLine
 10
991.3887284351785
 20
957.7999999999997
 30
0.0
 11
983.0
 21
957.7999999999997
 31
0.0
  0
LINE
  5
688E
330
1F
100
AcDbEntity
  8
KANAMONO
100
AcDbLine
 10
983.0
 20
957.7999999999997
 30
0.0
 11
983.0
 21
954.0928402749809
 31
0.0
  0
LINE
  5
688F
330
1F
100
AcDbEntity
  8
KANAMONO
100
AcDbLine
 10
983.0
 20
954.0928402749809
 30
0.0
 11
1001.230734658847
 21
934.3839379410924
 31
0.0
  0
LINE
  5
6890
330
1F
100
AcDbEntity
  8
KANAMONO
100
AcDbLine
 10
1001.230734658847
 20
934.3839379410924
 30
0.0
 11
1006.920022878531
 21
893.8695309369292
 31
0.0
  0
ARC
  5
6891
330
1F
100
AcDbEntity
  8
KANAMONO
100
AcDbCircle
 10
1006.42488103137
 20
893.7999999999998
 30
0.0
 40
0.500000000000036
100
AcDbArc
 50
270.000000000026
 51
7.993564577710732
  0
LINE
  5
6892
330
1F
100
AcDbEntity
  8
KANAMONO
100
AcDbLine
 10
1006.42488103137
 20
893.2999999999998
 30
0.0
 11
1006.121957767343
 21
893.2999999999998
 31
0.0
  0
ARC
  5
6893
330
1F
100
AcDbEntity
  8
KANAMONO
100
AcDbCircle
 10
1006.121957767343
 20
893.7999999999995
 30
0.0
 40
0.4999999999997727
100
AcDbArc
 50
187.9935645777015
 51
270.0
  0
LINE
  5
6894
330
1F
100
AcDbEntity
  8
KANAMONO
100
AcDbLine
 10
1005.626815920182
 20
893.7304690630703
 30
0.0
 11
1003.090530948618
 21
911.7917937224497
 31
0.0
  0
ARC
  5
6895
330
1F
100
AcDbEntity
  8
KANAMONO
100
AcDbCircle
 10
1002.298022320663
 20
912.4016544234436
 30
0.0
 40
1.000000000000046
100
AcDbArc
 50
322.4205685785301
 51
53.56656057687559
  0
ARC
  5
6896
330
1F
100
AcDbEntity
  8
KANAMONO
100
AcDbCircle
 10
1006.000000000001
 20
638.5999999999999
 30
0.0
 40
0.5999999999999091
100
AcDbArc
 50
269.9999999999783
 51
90.00000000006513
  0
LINE
  5
6897
330
1F
100
AcDbEntity
  8
KANAMONO
100
AcDbLine
 10
1006.000000000001
 20
638.0
 30
0.0
 11
1005.3
 21
638.0000000000004
 31
0.0
  0
ARC
  5
6898
330
1F
100
AcDbEntity
  8
KANAMONO
100
AcDbCircle
 10
1005.3
 20
638.3000000000004
 30
0.0
 40
0.2999999999999545
100
AcDbArc
 50
180.0000000000434
 51
270.0000000000434
  0
LINE
  5
6899
330
1F
100
AcDbEntity
  8
KANAMONO
100
AcDbLine
 10
1005.0
 20
638.3000000000001
 30
0.0
 11
1005.000000000001
 21
663.4999999999999
 31
0.0
  0
ARC
  5
689A
330
1F
100
AcDbEntity
  8
KANAMONO
100
AcDbCircle
 10
1005.500000000001
 20
663.4999999999999
 30
0.0
 40
0.5
100
AcDbArc
 50
90.0
 51
180.0
  0
LINE
  5
689B
330
1F
100
AcDbEntity
  8
KANAMONO
100
AcDbLine
 10
1005.500000000001
 20
664.0
 30
0.0
 11
1005.5
 21
664.0
 31
0.0
  0
ARC
  5
689C
330
1F
100
AcDbEntity
  8
KANAMONO
100
AcDbCircle
 10
1005.5
 20
663.4999999999999
 30
0.0
 40
0.5
100
AcDbArc
 50
0.0
 51
90.0
  0
LINE
  5
689D
330
1F
100
AcDbEntity
  8
KANAMONO
100
AcDbLine
 10
1006.0
 20
663.4999999999999
 30
0.0
 11
1006.000000000001
 21
649.0
 31
0.0
  0
LINE
  5
689E
330
1F
100
AcDbEntity
  8
KANAMONO
100
AcDbLine
 10
1006.000000000001
 20
649.0
 30
0.0
 11
1009.5
 21
649.0
 31
0.0
  0
LINE
  5
689F
330
1F
100
AcDbEntity
  8
KANAMONO
100
AcDbLine
 10
1009.5
 20
649.0
 30
0.0
 11
1009.500000000001
 21
656.5
 31
0.0
  0
ARC
  5
68A0
330
1F
100
AcDbEntity
  8
KANAMONO
100
AcDbCircle
 10
1010.000000000001
 20
656.5
 30
0.0
 40
0.5
100
AcDbArc
 50
90.0
 51
180.0
  0
LINE
  5
68A1
330
1F
100
AcDbEntity
  8
KANAMONO
100
AcDbLine
 10
1010.000000000001
 20
657.0
 30
0.0
 11
1010.000000000001
 21
657.0
 31
0.0
  0
ARC
  5
68A2
330
1F
100
AcDbEntity
  8
KANAMONO
100
AcDbCircle
 10
1010.000000000001
 20
656.5
 30
0.0
 40
0.5
100
AcDbArc
 50
0.0
 51
90.0
  0
LINE
  5
68A3
330
1F
100
AcDbEntity
  8
KANAMONO
100
AcDbLine
 10
1010.500000000001
 20
656.5
 30
0.0
 11
1010.500000000001
 21
649.0
 31
0.0
  0
LINE
  5
68A4
330
1F
100
AcDbEntity
  8
KANAMONO
100
AcDbLine
 10
1010.500000000001
 20
649.0
 30
0.0
 11
1024.000000000001
 21
649.0
 31
0.0
  0
LINE
  5
68A5
330
1F
100
AcDbEntity
  8
KANAMONO
100
AcDbLine
 10
1024.000000000001
 20
649.0
 30
0.0
 11
1024.000000000001
 21
656.0
 31
0.0
  0
LINE
  5
68A6
330
1F
100
AcDbEntity
  8
KANAMONO
100
AcDbLine
 10
1024.000000000001
 20
656.0
 30
0.0
 11
1019.3
 21
656.0
 31
0.0
  0
ARC
  5
68A7
330
1F
100
AcDbEntity
  8
KANAMONO
100
AcDbCircle
 10
1019.3
 20
656.3000000000002
 30
0.0
 40
0.3000000000001819
100
AcDbArc
 50
180.0
 51
270.0
  0
LINE
  5
68A8
330
1F
100
AcDbEntity
  8
KANAMONO
100
AcDbLine
 10
1019.0
 20
656.3000000000002
 30
0.0
 11
1019.0
 21
656.7000000000002
 31
0.0
  0
ARC
  5
68A9
330
1F
100
AcDbEntity
  8
KANAMONO
100
AcDbCircle
 10
1019.3
 20
656.7
 30
0.0
 40
0.2999999999999545
100
AcDbArc
 50
89.99999999995656
 51
179.9999999999566
  0
LINE
  5
68AA
330
1F
100
AcDbEntity
  8
KANAMONO
100
AcDbLine
 10
1019.3
 20
657.0
 30
0.0
 11
1024.000000000001
 21
657.0
 31
0.0
  0
LINE
  5
68AB
330
1F
100
AcDbEntity
  8
KANAMONO
100
AcDbLine
 10
1024.000000000001
 20
657.0
 30
0.0
 11
1024.0
 21
663.4999999999999
 31
0.0
  0
ARC
  5
68AC
330
1F
100
AcDbEntity
  8
KANAMONO
100
AcDbCircle
 10
1024.5
 20
663.4999999999999
 30
0.0
 40
0.5
100
AcDbArc
 50
90.0
 51
180.0
  0
LINE
  5
68AD
330
1F
100
AcDbEntity
  8
KANAMONO
100
AcDbLine
 10
1024.5
 20
664.0
 30
0.0
 11
1024.500000000001
 21
664.0
 31
0.0
  0
ARC
  5
68AE
330
1F
100
AcDbEntity
  8
KANAMONO
100
AcDbCircle
 10
1024.500000000001
 20
663.4999999999999
 30
0.0
 40
0.5
100
AcDbArc
 50
0.0
 51
90.0
  0
LINE
  5
68AF
330
1F
100
AcDbEntity
  8
KANAMONO
100
AcDbLine
 10
1025.000000000001
 20
663.4999999999999
 30
0.0
 11
1025.000000000001
 21
638.3000000000001
 31
0.0
  0
ARC
  5
68B0
330
1F
100
AcDbEntity
  8
KANAMONO
100
AcDbCircle
 10
1024.700000000001
 20
638.3000000000001
 30
0.0
 40
0.3000000000001819
100
AcDbArc
 50
270.0
 51
0.0
  0
LINE
  5
68B1
330
1F
100
AcDbEntity
  8
KANAMONO
100
AcDbLine
 10
1024.700000000001
 20
638.0
 30
0.0
 11
1024.0
 21
638.0
 31
0.0
  0
ARC
  5
68B2
330
1F
100
AcDbEntity
  8
KANAMONO
100
AcDbCircle
 10
1024.0
 20
638.5999999999999
 30
0.0
 40
0.5999999999999091
100
AcDbArc
 50
89.99999999995656
 51
270.0000000000434
  0
LINE
  5
68B3
330
1F
100
AcDbEntity
  8
KANAMONO
100
AcDbLine
 10
1024.0
 20
639.1999999999998
 30
0.0
 11
1024.0
 21
648.0
 31
0.0
  0
LINE
  5
68B4
330
1F
100
AcDbEntity
  8
KANAMONO
100
AcDbLine
 10
1024.0
 20
648.0
 30
0.0
 11
1006.000000000001
 21
648.0
 31
0.0
  0
LINE
  5
68B5
330
1F
100
AcDbEntity
  8
KANAMONO
100
AcDbLine
 10
1006.000000000001
 20
648.0
 30
0.0
 11
1006.0
 21
639.1999999999998
 31
0.0
  0
ARC
  5
68B6
330
1F
100
AcDbEntity
  8
KANAMONO
100
AcDbCircle
 10
1010.925768940425
 20
643.4403866184355
 30
0.0
 40
3.925838837111672
100
AcDbArc
 50
144.6278471265477
 51
180.3419009726276
  0
LINE
  5
68B7
330
1F
100
AcDbEntity
  8
KANAMONO
100
AcDbLine
 10
1007.0
 20
643.4169601084504
 30
0.0
 11
1007.0
 21
639.9856406458402
 31
0.0
  0
ARC
  5
68B8
330
1F
100
AcDbEntity
  8
KANAMONO
100
AcDbCircle
 10
1007.316180285754
 20
639.9926469153176
 30
0.0
 40
0.3162579025281547
100
AcDbArc
 50
181.2694149652763
 51
225.5570339921812
  0
ARC
  5
68B9
330
1F
100
AcDbEntity
  8
KANAMONO
100
AcDbCircle
 10
1006.0
 20
638.6000000000002
 30
0.0
 40
1.599999999999656
100
AcDbArc
 50
350.9152797118541
 51
46.82644888829786
  0
ARC
  5
68BA
330
1F
100
AcDbEntity
  8
KANAMONO
100
AcDbCircle
 10
1007.868291486913
 20
638.2932843334873
 30
0.0
 40
0.2933900356340489
100
AcDbArc
 50
169.3772316665292
 51
271.5380480197846
  0
LINE
  5
68BB
330
1F
100
AcDbEntity
  8
KANAMONO
100
AcDbLine
 10
1007.87616630377
 20
638.0000000000004
 30
0.0
 11
1022.123833696229
 21
638.0000000000004
 31
0.0
  0
ARC
  5
68BC
330
1F
100
AcDbEntity
  8
KANAMONO
100
AcDbCircle
 10
1022.127277287973
 20
638.2970632949597
 30
0.0
 40
0.2970832535438496
100
AcDbArc
 50
269.3358505084342
 51
9.748869805278712
  0
ARC
  5
68BD
330
1F
100
AcDbEntity
  8
KANAMONO
100
AcDbCircle
 10
1024.0
 20
638.6000000000002
 30
0.0
 40
1.599999999999682
100
AcDbArc
 50
133.1735511117021
 51
189.084720288146
  0
ARC
  5
68BE
330
1F
100
AcDbEntity
  8
KANAMONO
100
AcDbCircle
 10
1022.653653930472
 20
640.0057090828746
 30
0.0
 40
0.3469269981459566
100
AcDbArc
 50
316.4897500690132
 51
356.6838009735054
  0
LINE
  5
68BF
330
1F
100
AcDbEntity
  8
KANAMONO
100
AcDbLine
 10
1023.0
 20
639.9856406458402
 30
0.0
 11
1023.0
 21
643.4169601084504
 31
0.0
  0
ARC
  5
68C0
330
1F
100
AcDbEntity
  8
KANAMONO
100
AcDbCircle
 10
1019.0
 20
643.4169601084503
 30
0.0
 40
4.0
100
AcDbArc
 50
0.0000000000016284
 51
35.03025190082446
  0
ARC
  5
68C1
330
1F
100
AcDbEntity
  8
KANAMONO
100
AcDbCircle
 10
1022.684820880133
 20
646.0000000000002
 30
0.0
 40
0.5000000000005131
100
AcDbArc
 50
131.4096221092916
 51
215.030251900829
  0
LINE
  5
68C2
330
1F
100
AcDbEntity
  8
KANAMONO
100
AcDbLine
 10
1022.35410196625
 20
646.3750000000004
 30
0.0
 11
1022.35410196625
 21
646.3750000000004
 31
0.0
  0
ARC
  5
68C3
330
1F
100
AcDbEntity
  8
KANAMONO
100
AcDbCircle
 10
1022.684820880133
 20
646.0000000000003
 30
0.0
 40
0.5000000000000768
100
AcDbArc
 50
35.03025190079057
 51
131.4096221092611
  0
ARC
  5
68C4
330
1F
100
AcDbEntity
  8
KANAMONO
100
AcDbCircle
 10
1019.0
 20
643.4169601084506
 30
0.0
 40
5.000000000000101
100
AcDbArc
 50
359.9999999999974
 51
35.03025190082163
  0
LINE
  5
68C5
330
1F
100
AcDbEntity
  8
KANAMONO
100
AcDbLine
 10
1024.0
 20
643.4169601084504
 30
0.0
 11
1023.999999999999
 21
639.4485281377314
 31
0.0
  0
ARC
  5
68C6
330
1F
100
AcDbEntity
  8
KANAMONO
100
AcDbCircle
 10
1023.68929570841
 20
639.4560972145842
 30
0.0
 40
0.3107964731721054
100
AcDbArc
 50
290.8667289466679
 51
358.604491759682
  0
ARC
  5
68C7
330
1F
100
AcDbEntity
  8
KANAMONO
100
AcDbCircle
 10
1024.0
 20
638.6000000000003
 30
0.0
 40
0.5999999999999219
100
AcDbArc
 50
109.4712206279805
 51
270.0
  0
LINE
  5
68C8
330
1F
100
AcDbEntity
  8
KANAMONO
100
AcDbLine
 10
1024.0
 20
638.0000000000004
 30
0.0
 11
1049.7
 21
638.0000000000004
 31
0.0
  0
LINE
  5
68C9
330
1F
100
AcDbEntity
  8
KANAMONO
100
AcDbLine
 10
1049.7
 20
638.0000000000004
 30
0.0
 11
1050.0
 21
637.7000000000002
 31
0.0
  0
LINE
  5
68CA
330
1F
100
AcDbEntity
  8
KANAMONO
100
AcDbLine
 10
1050.0
 20
637.7000000000002
 30
0.0
 11
1050.3
 21
638.0
 31
0.0
  0
LINE
  5
68CB
330
1F
100
AcDbEntity
  8
KANAMONO
100
AcDbLine
 10
1050.3
 20
638.0
 30
0.0
 11
1064.7
 21
638.0000000000004
 31
0.0
  0
ARC
  5
68CC
330
1F
100
AcDbEntity
  8
KANAMONO
100
AcDbCircle
 10
1064.7
 20
637.7000000000005
 30
0.0
 40
0.2999999999999545
100
AcDbArc
 50
0.0000000000434252
 51
90.00000000004341
  0
LINE
  5
68CD
330
1F
100
AcDbEntity
  8
KANAMONO
100
AcDbLine
 10
1065.0
 20
637.7000000000007
 30
0.0
 11
1065.0
 21
635.3000000000001
 31
0.0
  0
ARC
  5
68CE
330
1F
100
AcDbEntity
  8
KANAMONO
100
AcDbCircle
 10
1064.7
 20
635.3000000000004
 30
0.0
 40
0.2999999999999545
100
AcDbArc
 50
269.9999999999566
 51
359.9999999999566
  0
LINE
  5
68CF
330
1F
100
AcDbEntity
  8
KANAMONO
100
AcDbLine
 10
1064.7
 20
635.0000000000004
 30
0.0
 11
1064.0
 21
635.0
 31
0.0
  0
ARC
  5
68D0
330
1F
100
AcDbEntity
  8
KANAMONO
100
AcDbCircle
 10
1064.0
 20
635.3000000000001
 30
0.0
 40
0.3000000000001819
100
AcDbArc
 50
180.0
 51
270.0
  0
LINE
  5
68D1
330
1F
100
AcDbEntity
  8
KANAMONO
100
AcDbLine
 10
1063.7
 20
635.3000000000001
 30
0.0
 11
1063.7
 21
637.0000000000004
 31
0.0
  0
LINE
  5
68D2
330
1F
100
AcDbEntity
  8
KANAMONO
100
AcDbLine
 10
1063.7
 20
637.0000000000004
 30
0.0
 11
1045.0
 21
637.0000000000008
 31
0.0
  0
LINE
  5
68D3
330
1F
100
AcDbEntity
  8
KANAMONO
100
AcDbLine
 10
1045.0
 20
637.0000000000008
 30
0.0
 11
1045.0
 21
635.3000000000001
 31
0.0
  0
ARC
  5
68D4
330
1F
100
AcDbEntity
  8
KANAMONO
100
AcDbCircle
 10
1044.7
 20
635.3000000000005
 30
0.0
 40
0.2999999999999545
100
AcDbArc
 50
269.9999999999566
 51
359.9999999999349
  0
LINE
  5
68D5
330
1F
100
AcDbEntity
  8
KANAMONO
100
AcDbLine
 10
1044.7
 20
635.0000000000004
 30
0.0
 11
1044.0
 21
635.0
 31
0.0
  0
ARC
  5
68D6
330
1F
100
AcDbEntity
  8
KANAMONO
100
AcDbCircle
 10
1044.0
 20
635.3000000000001
 30
0.0
 40
0.3000000000001819
100
AcDbArc
 50
180.0
 51
270.0
  0
LINE
  5
68D7
330
1F
100
AcDbEntity
  8
KANAMONO
100
AcDbLine
 10
1043.7
 20
635.3000000000001
 30
0.0
 11
1043.7
 21
637.0000000000004
 31
0.0
  0
LINE
  5
68D8
330
1F
100
AcDbEntity
  8
KANAMONO
100
AcDbLine
 10
1043.7
 20
637.0000000000004
 30
0.0
 11
1025.0
 21
637.0000000000008
 31
0.0
  0
LINE
  5
68D9
330
1F
100
AcDbEntity
  8
KANAMONO
100
AcDbLine
 10
1025.0
 20
637.0000000000008
 30
0.0
 11
1025.0
 21
635.3000000000001
 31
0.0
  0
ARC
  5
68DA
330
1F
100
AcDbEntity
  8
KANAMONO
100
AcDbCircle
 10
1024.7
 20
635.3000000000005
 30
0.0
 40
0.2999999999999545
100
AcDbArc
 50
269.9999999999566
 51
359.9999999999349
  0
LINE
  5
68DB
330
1F
100
AcDbEntity
  8
KANAMONO
100
AcDbLine
 10
1024.7
 20
635.0000000000004
 30
0.0
 11
1024.0
 21
635.0
 31
0.0
  0
ARC
  5
68DC
330
1F
100
AcDbEntity
  8
KANAMONO
100
AcDbCircle
 10
1024.0
 20
635.3000000000001
 30
0.0
 40
0.3000000000001819
100
AcDbArc
 50
180.0
 51
270.0
  0
LINE
  5
68DD
330
1F
100
AcDbEntity
  8
KANAMONO
100
AcDbLine
 10
1023.7
 20
635.3000000000001
 30
0.0
 11
1023.7
 21
637.0000000000004
 31
0.0
  0
LINE
  5
68DE
330
1F
100
AcDbEntity
  8
KANAMONO
100
AcDbLine
 10
1023.7
 20
637.0000000000004
 30
0.0
 11
1015.458257569496
 21
637.0000000000008
 31
0.0
  0
ARC
  5
68DF
330
1F
100
AcDbEntity
  8
KANAMONO
100
AcDbCircle
 10
1015.0
 20
636.8000000000009
 30
0.0
 40
0.5000000000002158
100
AcDbArc
 50
23.57817847819673
 51
156.4218215218032
  0
LINE
  5
68E0
330
1F
100
AcDbEntity
  8
KANAMONO
100
AcDbLine
 10
1014.541742430504
 20
637.0000000000008
 30
0.0
 11
1006.299999999999
 21
637.0000000000004
 31
0.0
  0
LINE
  5
68E1
330
1F
100
AcDbEntity
  8
KANAMONO
100
AcDbLine
 10
1006.299999999999
 20
637.0000000000004
 30
0.0
 11
1006.3
 21
635.3000000000001
 31
0.0
  0
ARC
  5
68E2
330
1F
100
AcDbEntity
  8
KANAMONO
100
AcDbCircle
 10
1006.0
 20
635.3000000000004
 30
0.0
 40
0.2999999999999545
100
AcDbArc
 50
269.9999999999566
 51
359.9999999999566
  0
LINE
  5
68E3
330
1F
100
AcDbEntity
  8
KANAMONO
100
AcDbLine
 10
1006.0
 20
635.0000000000004
 30
0.0
 11
1005.3
 21
635.0
 31
0.0
  0
ARC
  5
68E4
330
1F
100
AcDbEntity
  8
KANAMONO
100
AcDbCircle
 10
1005.3
 20
635.3000000000001
 30
0.0
 40
0.3000000000001819
100
AcDbArc
 50
180.0
 51
270.0
  0
LINE
  5
68E5
330
1F
100
AcDbEntity
  8
KANAMONO
100
AcDbLine
 10
1005.0
 20
635.3000000000001
 30
0.0
 11
1005.0
 21
637.7000000000007
 31
0.0
  0
ARC
  5
68E6
330
1F
100
AcDbEntity
  8
KANAMONO
100
AcDbCircle
 10
1005.3
 20
637.7000000000005
 30
0.0
 40
0.2999999999999545
100
AcDbArc
 50
89.99999999995656
 51
179.9999999999566
  0
LINE
  5
68E7
330
1F
100
AcDbEntity
  8
KANAMONO
100
AcDbLine
 10
1005.3
 20
638.0000000000004
 30
0.0
 11
1006.0
 21
638.0000000000004
 31
0.0
  0
ARC
  5
68E8
330
1F
100
AcDbEntity
  8
KANAMONO
100
AcDbCircle
 10
1006.0
 20
638.6000000000003
 30
0.0
 40
0.5999999999999091
100
AcDbArc
 50
270.0
 51
70.52877937201947
  0
ARC
  5
68E9
330
1F
100
AcDbEntity
  8
KANAMONO
100
AcDbCircle
 10
1006.28737669736
 20
639.4396021145385
 30
0.0
 40
0.2875152866818755
100
AcDbArc
 50
178.2209445230904
 51
252.3078347706974
  0
LINE
  5
68EA
330
1F
100
AcDbEntity
  8
KANAMONO
100
AcDbLine
 10
1006.0
 20
639.4485281377314
 30
0.0
 11
1006.0
 21
643.4169601084504
 31
0.0
  0
ARC
  5
68EB
330
1F
100
AcDbEntity
  8
KANAMONO
100
AcDbCircle
 10
1010.941970422029
 20
643.4352736081573
 30
0.0
 40
4.94200435415478
100
AcDbArc
 50
144.7574276381635
 51
180.2123204610155
  0
ARC
  5
68EC
330
1F
100
AcDbEntity
  8
KANAMONO
100
AcDbCircle
 10
1007.315179119867
 20
646.0000000000003
 30
0.0
 40
0.5000000000000006
100
AcDbArc
 50
48.59037789073887
 51
144.9697480992094
  0
ARC
  5
68ED
330
1F
100
AcDbEntity
  8
KANAMONO
100
AcDbCircle
 10
1007.315179119866
 20
646.0000000000002
 30
0.0
 40
0.5000000000004628
100
AcDbArc
 50
324.9697480991711
 51
48.59037789070841
  0
LINE
  5
68EE
330
1F
100
AcDbEntity
  8
BUHIN
100
AcDbLine
 10
1022.500000000001
 20
657.0
 30
0.0
 11
1007.500000000001
 21
657.0
 31
0.0
  0
LINE
  5
68EF
330
1F
100
AcDbEntity
  8
BUHIN
100
AcDbLine
 10
1007.500000000001
 20
657.0
 30
0.0
 11
1007.500000000001
 21
930.2999999999988
 31
0.0
  0
LINE
  5
68F0
330
1F
100
AcDbEntity
  8
BUHIN
100
AcDbLine
 10
1007.500000000001
 20
930.2999999999988
 30
0.0
 11
1022.500000000001
 21
930.2999999999988
 31
0.0
  0
LINE
  5
68F1
330
1F
100
AcDbEntity
  8
BUHIN
100
AcDbLine
 10
1022.500000000001
 20
930.2999999999988
 30
0.0
 11
1022.500000000001
 21
657.0
 31
0.0
  0
LINE
  5
68F2
330
1F
100
AcDbEntity
  8
BOUSUI
  6
Continuous
100
AcDbLine
 10
980.0
 20
991.080411968346
 30
0.0
 11
983.9195880316543
 21
995.0
 31
0.0
  0
LINE
  5
68F3
330
1F
100
AcDbEntity
  8
BOUSUI
  6
Continuous
100
AcDbLine
 10
979.9999999999998
 20
986.6609945859298
 30
0.0
 11
988.3390054140701
 21
995.0000000000001
 31
0.0
  0
LINE
  5
68F4
330
1F
100
AcDbEntity
  8
BOUSUI
  6
Continuous
100
AcDbLine
 10
979.9999999999997
 20
982.2415772035137
 30
0.0
 11
987.0565425452269
 21
989.298119748741
 31
0.0
  0
LINE
  5
68F5
330
1F
100
AcDbEntity
  8
BOUSUI
  6
Continuous
100
AcDbLine
 10
981.9445001597339
 20
979.7666599808319
 30
0.0
 11
986.889073161908
 21
984.7112329830061
 31
0.0
  0
LINE
  5
68F6
330
1F
100
AcDbEntity
  8
BOUSUI
  6
Continuous
100
AcDbLine
 10
985.8904085368909
 20
979.2931509755728
 30
0.0
 11
988.0270244251578
 21
981.4297668638399
 31
0.0
  0
LINE
  5
68F7
330
1F
100
AcDbEntity
  8
BOUSUI
  6
Continuous
100
AcDbLine
 10
989.8363169140479
 20
978.819641970314
 30
0.0
 11
989.9080639233391
 21
978.8913889796054
 31
0.0
  0
LINE
  5
68F8
330
1F
100
AcDbEntity
  8
BOUSUI
  6
Continuous
100
AcDbLine
 10
981.5041257367397
 20
979.8195049115912
 30
0.0
 11
979.9999999999997
 21
981.3236306483311
 31
0.0
  0
LINE
  5
68F9
330
1F
100
AcDbEntity
  8
BOUSUI
  6
Continuous
100
AcDbLine
 10
986.5261909440306
 20
979.2168570867161
 30
0.0
 11
979.9999999999997
 21
985.7430480307469
 31
0.0
  0
LINE
  5
68FA
330
1F
100
AcDbEntity
  8
BOUSUI
  6
Continuous
100
AcDbLine
 10
987.4353544300218
 20
982.7271109831407
 30
0.0
 11
979.9999999999997
 21
990.1624654131628
 31
0.0
  0
LINE
  5
68FB
330
1F
100
AcDbEntity
  8
BOUSUI
  6
Continuous
100
AcDbLine
 10
986.7864667080324
 20
987.7954160875463
 30
0.0
 11
980.0
 21
994.5818827955786
 31
0.0
  0
LINE
  5
68FC
330
1F
100
AcDbEntity
  8
BOUSUI
  6
Continuous
100
AcDbLine
 10
987.751821337995
 20
991.2494788399994
 30
0.0
 11
984.0013001779945
 21
995.0
 31
0.0
  0
LINE
  5
68FD
330
1F
100
AcDbEntity
  8
BOUSUI
  6
Continuous
100
AcDbLine
 10
989.5083567315166
 20
993.9123608288937
 30
0.0
 11
988.4207175604105
 21
995.0
 31
0.0
  0
LINE
  5
68FE
330
1F
100
AcDbEntity
  8
KANAMONO_SCREW
 48
20.0
100
AcDbLine
 10
982.0000000000005
 20
963.3000000000002
 30
0.0
 11
960.0000000000004
 21
963.3000000000002
 31
0.0
  0
LINE
  5
68FF
330
1F
100
AcDbEntity
  8
KANAMONO_SCREW
 48
20.0
100
AcDbLine
 10
982.0000000000005
 20
969.3000000000001
 30
0.0
 11
960.0000000000004
 21
969.3000000000001
 31
0.0
  0
LINE
  5
6900
330
1F
100
AcDbEntity
  8
KANAMONO_SCREW
 48
20.0
100
AcDbLine
 10
943.947616959967
 20
967.2581933694134
 30
0.0
 11
944.421487135386
 21
965.3627126677378
 31
0.0
  0
LINE
  5
6901
330
1F
100
AcDbEntity
  8
KANAMONO_SCREW
 48
20.0
100
AcDbLine
 10
960.0000000000004
 20
966.5500000000001
 30
0.0
 11
943.0000000000005
 21
967.3000000000001
 31
0.0
  0
LINE
  5
6902
330
1F
100
AcDbEntity
  8
KANAMONO_SCREW
 48
20.0
100
AcDbLine
 10
943.0000000000005
 20
969.3000000000001
 30
0.0
 11
944.3783783783787
 21
969.9891891891892
 31
0.0
  0
LINE
  5
6903
330
1F
100
AcDbEntity
  8
KANAMONO_SCREW
 48
20.0
100
AcDbLine
 10
960.0000000000004
 20
966.0500000000002
 30
0.0
 11
943.0000000000005
 21
965.3000000000002
 31
0.0
  0
LINE
  5
6904
330
1F
100
AcDbEntity
  8
KANAMONO_SCREW
 48
20.0
100
AcDbLine
 10
943.0000000000005
 20
963.3000000000002
 30
0.0
 11
944.3783783783787
 21
962.6108108108111
 31
0.0
  0
LINE
  5
6905
330
1F
100
AcDbEntity
  8
KANAMONO_SCREW
 48
20.0
100
AcDbLine
 10
942.2830532754977
 20
967.9164481072909
 30
0.0
 11
943.0000000000005
 21
965.04866120928
 31
0.0
  0
ARC
  5
6906
330
1F
100
AcDbEntity
  8
KANAMONO_SCREW
 48
20.0
100
AcDbCircle
 10
939.6871653023204
 20
966.3000000110137
 30
0.0
 40
0.5
100
AcDbArc
 50
112.4999999999997
 51
247.5000000000002
  0
LINE
  5
6907
330
1F
100
AcDbEntity
  8
KANAMONO_SCREW
 48
20.0
100
AcDbLine
 10
943.0000000000005
 20
967.3000000000001
 30
0.0
 11
943.0000000000005
 21
969.3000000000001
 31
0.0
  0
LINE
  5
6908
330
1F
100
AcDbEntity
  8
KANAMONO_SCREW
 48
20.0
100
AcDbLine
 10
943.0000000000005
 20
968.2134171618256
 30
0.0
 11
939.4958235861379
 21
966.7619397772693
 31
0.0
  0
LINE
  5
6909
330
1F
100
AcDbEntity
  8
KANAMONO_SCREW
 48
20.0
100
AcDbLine
 10
943.0000000000005
 20
965.3000000000002
 30
0.0
 11
943.0000000000005
 21
963.3000000000002
 31
0.0
  0
LINE
  5
690A
330
1F
100
AcDbEntity
  8
KANAMONO_SCREW
 48
20.0
100
AcDbLine
 10
943.0000000000005
 20
964.3865828381747
 30
0.0
 11
939.4958235861379
 21
965.838060244758
 31
0.0
  0
LINE
  5
690B
330
1F
100
AcDbEntity
  8
KANAMONO_SCREW
 48
20.0
100
AcDbLine
 10
956.5034011777195
 20
969.4542617127479
 30
0.0
 11
944.3783783783787
 21
969.9891891891892
 31
0.0
  0
LINE
  5
690C
330
1F
100
AcDbEntity
  8
KANAMONO_SCREW
 48
20.0
100
AcDbLine
 10
954.5647173317142
 20
966.7897918824246
 30
0.0
 11
954.8069416808404
 21
965.8208944859197
 31
0.0
  0
LINE
  5
690D
330
1F
100
AcDbEntity
  8
KANAMONO_SCREW
 48
20.0
100
AcDbLine
 10
956.50340117772
 20
963.1457382872435
 30
0.0
 11
944.3783783783787
 21
962.6108108108111
 31
0.0
  0
LINE
  5
690E
330
1F
100
AcDbEntity
  8
KANAMONO_SCREW
 48
20.0
100
AcDbLine
 10
948.497802833573
 20
967.0574498749896
 30
0.0
 11
948.872396226295
 21
965.5590763041015
 31
0.0
  0
LINE
  5
690F
330
1F
100
AcDbEntity
  8
KANAMONO_SCREW
 48
20.0
100
AcDbLine
 10
946.9810742090377
 20
967.1243643731308
 30
0.0
 11
947.3887598626587
 21
965.4936217586469
 31
0.0
  0
LINE
  5
6910
330
1F
100
AcDbEntity
  8
KANAMONO_SCREW
 48
20.0
100
AcDbLine
 10
945.4643455845022
 20
967.1912788712722
 30
0.0
 11
945.9051234990223
 21
965.4281672131924
 31
0.0
  0
LINE
  5
6911
330
1F
100
AcDbEntity
  8
KANAMONO_SCREW
 48
20.0
100
AcDbLine
 10
953.0479887071789
 20
966.8567063805658
 30
0.0
 11
953.3233053172041
 21
965.755439940465
 31
0.0
  0
LINE
  5
6912
330
1F
100
AcDbEntity
  8
KANAMONO_SCREW
 48
20.0
100
AcDbLine
 10
951.5312600826435
 20
966.9236208787072
 30
0.0
 11
951.8396689535677
 21
965.6899853950106
 31
0.0
  0
LINE
  5
6913
330
1F
100
AcDbEntity
  8
KANAMONO_SCREW
 48
20.0
100
AcDbLine
 10
950.0145314581084
 20
966.9905353768482
 30
0.0
 11
950.3560325899314
 21
965.6245308495559
 31
0.0
  0
LINE
  5
6914
330
1F
100
AcDbEntity
  8
KANAMONO_SCREW
 48
20.0
100
AcDbLine
 10
956.0814459562495
 20
966.7228773842834
 30
0.0
 11
956.2905780444769
 21
965.8863490313741
 31
0.0
  0
LINE
  5
6915
330
1F
100
AcDbEntity
  8
KANAMONO_SCREW
 48
20.0
100
AcDbLine
 10
956.4923824839516
 20
969.2045046540224
 30
0.0
 11
956.50340117772
 21
969.4542617127568
 31
0.0
  0
LINE
  5
6916
330
1F
100
AcDbEntity
  8
KANAMONO_SCREW
 48
20.0
100
AcDbLine
 10
956.742139542686
 20
969.1934859602541
 30
0.0
 11
956.7531582364543
 21
969.4432430189884
 31
0.0
  0
LINE
  5
6917
330
1F
100
AcDbEntity
  8
KANAMONO_SCREW
 48
20.0
100
AcDbLine
 10
959.7392242474983
 20
969.0612616350341
 30
0.0
 11
959.7502429412667
 21
969.3110186937685
 31
0.0
  0
LINE
  5
6918
330
1F
100
AcDbEntity
  8
KANAMONO_SCREW
 48
20.0
100
AcDbLine
 10
959.9889813062327
 20
969.0502429412658
 30
0.0
 11
960.000000000001
 21
969.3000000000001
 31
0.0
  0
LINE
  5
6919
330
1F
100
AcDbEntity
  8
KANAMONO_SCREW
 48
20.0
100
AcDbLine
 10
959.9889813062327
 20
969.0502429412658
 30
0.0
 11
956.4923824839512
 21
969.2045046540135
 31
0.0
  0
LINE
  5
691A
330
1F
100
AcDbEntity
  8
KANAMONO_SCREW
 48
20.0
100
AcDbLine
 10
959.7502429412665
 20
969.3110186937678
 30
0.0
 11
956.7531582364539
 21
969.4432430189802
 31
0.0
  0
LINE
  5
691B
330
1F
100
AcDbEntity
  8
KANAMONO_SCREW
 48
20.0
100
AcDbLine
 10
959.9889813062327
 20
963.5497570587345
 30
0.0
 11
960.000000000001
 21
963.3000000000002
 31
0.0
  0
LINE
  5
691C
330
1F
100
AcDbEntity
  8
KANAMONO_SCREW
 48
20.0
100
AcDbLine
 10
959.7392242474983
 20
963.5387383649662
 30
0.0
 11
959.7502429412667
 21
963.2889813062318
 31
0.0
  0
LINE
  5
691D
330
1F
100
AcDbEntity
  8
KANAMONO_SCREW
 48
20.0
100
AcDbLine
 10
956.742139542686
 20
963.4065140397462
 30
0.0
 11
956.7531582364543
 21
963.1567569810119
 31
0.0
  0
LINE
  5
691E
330
1F
100
AcDbEntity
  8
KANAMONO_SCREW
 48
20.0
100
AcDbLine
 10
956.4923824839516
 20
963.3954953459779
 30
0.0
 11
956.50340117772
 21
963.1457382872435
 31
0.0
  0
LINE
  5
691F
330
1F
100
AcDbEntity
  8
KANAMONO_SCREW
 48
20.0
100
AcDbLine
 10
959.7502429412665
 20
963.2889813062325
 30
0.0
 11
956.7531582364539
 21
963.1567569810201
 31
0.0
  0
LINE
  5
6920
330
1F
100
AcDbEntity
  8
KANAMONO_SCREW
 48
20.0
100
AcDbLine
 10
959.9889813062327
 20
963.5497570587345
 30
0.0
 11
956.4923824839512
 21
963.3954953459868
 31
0.0
  0
LINE
  5
6921
330
1F
100
AcDbEntity
  8
KANAMONO_SCREW
 48
20.0
100
AcDbLine
 10
959.1149032053202
 20
966.5890483880009
 30
0.0
 11
959.2578507717496
 21
966.0172581222832
 31
0.0
  0
LINE
  5
6922
330
1F
100
AcDbEntity
  8
KANAMONO_SCREW
 48
20.0
100
AcDbLine
 10
957.5981745807849
 20
966.6559628861421
 30
0.0
 11
957.7742144081133
 21
965.9518035768288
 31
0.0
  0
LINE
  5
6923
330
1F
100
AcDbEntity
  8
KANAMONO_SCREW
 48
20.0
100
AcDbLine
 10
960.0000000000004
 20
966.5500000000001
 30
0.0
 11
960.0000000000004
 21
966.0500000000002
 31
0.0
  0
LINE
  5
6924
330
1F
100
AcDbEntity
  8
KANAMONO_SCREW
 48
20.0
100
AcDbLine
 10
965.0000000000011
 20
969.3000000000001
 30
0.0
 11
965.0000000000011
 21
963.3000000000002
 31
0.0
  0
LINE
  5
6925
330
1F
100
AcDbEntity
  8
KANAMONO_SCREW
 48
20.0
100
AcDbLine
 10
962.0000000000009
 20
969.3000000000001
 30
0.0
 11
962.0000000000009
 21
963.3000000000002
 31
0.0
  0
LINE
  5
6926
330
1F
100
AcDbEntity
  8
KANAMONO_SCREW
 48
20.0
100
AcDbLine
 10
985.0000000000004
 20
971.8000000000001
 30
0.0
 11
985.0000000000004
 21
960.8000000000002
 31
0.0
  0
LINE
  5
6927
330
1F
100
AcDbEntity
  8
KANAMONO_SCREW
 48
20.0
100
AcDbLine
 10
983.0000000000005
 20
971.8000000000001
 30
0.0
 11
983.0000000000005
 21
970.3000000000001
 31
0.0
  0
LINE
  5
6928
330
1F
100
AcDbEntity
  8
KANAMONO_SCREW
 48
20.0
100
AcDbLine
 10
983.0000000000005
 20
971.8000000000001
 30
0.0
 11
985.0000000000004
 21
971.8000000000001
 31
0.0
  0
LINE
  5
6929
330
1F
100
AcDbEntity
  8
KANAMONO_SCREW
 48
20.0
100
AcDbLine
 10
985.7500000000005
 20
963.3000000000002
 30
0.0
 11
985.5000000000003
 21
962.0500000000001
 31
0.0
  0
LINE
  5
692A
330
1F
100
AcDbEntity
  8
KANAMONO_SCREW
 48
20.0
100
AcDbLine
 10
985.5000000000003
 20
962.0500000000001
 30
0.0
 11
985.5000000000003
 21
970.5500000000002
 31
0.0
  0
LINE
  5
692B
330
1F
100
AcDbEntity
  8
KANAMONO_SCREW
 48
20.0
100
AcDbLine
 10
983.0000000000005
 20
970.3000000000001
 30
0.0
 11
983.0000000000005
 21
962.3000000000002
 31
0.0
  0
ARC
  5
692C
330
1F
100
AcDbEntity
  8
KANAMONO_SCREW
 48
20.0
100
AcDbCircle
 10
982.0000000000005
 20
962.3000000000002
 30
0.0
 40
1.0
100
AcDbArc
 50
0.0
 51
90.0
  0
LINE
  5
692D
330
1F
100
AcDbEntity
  8
KANAMONO_SCREW
 48
20.0
100
AcDbLine
 10
985.7500000000005
 20
963.3000000000002
 30
0.0
 11
985.7500000000005
 21
969.3000000000001
 31
0.0
  0
LINE
  5
692E
330
1F
100
AcDbEntity
  8
KANAMONO_SCREW
 48
20.0
100
AcDbLine
 10
985.5000000000003
 20
970.5500000000002
 30
0.0
 11
985.7500000000005
 21
969.3000000000001
 31
0.0
  0
LINE
  5
692F
330
1F
100
AcDbEntity
  8
KANAMONO_SCREW
 48
20.0
100
AcDbLine
 10
985.5000000000003
 20
970.5500000000002
 30
0.0
 11
985.0000000000004
 21
970.5500000000002
 31
0.0
  0
ARC
  5
6930
330
1F
100
AcDbEntity
  8
KANAMONO_SCREW
 48
20.0
100
AcDbCircle
 10
982.0000000000005
 20
970.3000000000001
 30
0.0
 40
1.0
100
AcDbArc
 50
270.0
 51
0.0
  0
LINE
  5
6931
330
1F
100
AcDbEntity
  8
KANAMONO_SCREW
 48
20.0
100
AcDbLine
 10
985.0000000000004
 20
962.0500000000001
 30
0.0
 11
985.5000000000003
 21
962.0500000000001
 31
0.0
  0
LINE
  5
6932
330
1F
100
AcDbEntity
  8
KANAMONO_SCREW
 48
20.0
100
AcDbLine
 10
983.0000000000005
 20
962.3000000000002
 30
0.0
 11
983.0000000000005
 21
960.8000000000002
 31
0.0
  0
LINE
  5
6933
330
1F
100
AcDbEntity
  8
KANAMONO_SCREW
 48
20.0
100
AcDbLine
 10
985.0000000000004
 20
960.8000000000002
 30
0.0
 11
983.0000000000005
 21
960.8000000000002
 31
0.0
  0
LINE
  5
6934
330
1F
100
AcDbEntity
  8
KANAMONO_SCREW
 48
20.0
100
AcDbLine
 10
1053.0
 20
637.0000000000004
 30
0.0
 11
1053.0
 21
615.0000000000004
 31
0.0
  0
LINE
  5
6935
330
1F
100
AcDbEntity
  8
KANAMONO_SCREW
 48
20.0
100
AcDbLine
 10
1047.0
 20
637.0000000000004
 30
0.0
 11
1047.0
 21
615.0000000000004
 31
0.0
  0
LINE
  5
6936
330
1F
100
AcDbEntity
  8
KANAMONO_SCREW
 48
20.0
100
AcDbLine
 10
1049.041806630587
 20
598.947616959967
 30
0.0
 11
1050.937287332262
 21
599.4214871353859
 31
0.0
  0
LINE
  5
6937
330
1F
100
AcDbEntity
  8
KANAMONO_SCREW
 48
20.0
100
AcDbLine
 10
1049.75
 20
615.0000000000004
 30
0.0
 11
1049.0
 21
598.0000000000004
 31
0.0
  0
LINE
  5
6938
330
1F
100
AcDbEntity
  8
KANAMONO_SCREW
 48
20.0
100
AcDbLine
 10
1047.0
 20
598.0000000000004
 30
0.0
 11
1046.310810810811
 21
599.3783783783787
 31
0.0
  0
LINE
  5
6939
330
1F
100
AcDbEntity
  8
KANAMONO_SCREW
 48
20.0
100
AcDbLine
 10
1050.25
 20
615.0000000000004
 30
0.0
 11
1051.0
 21
598.0000000000004
 31
0.0
  0
LINE
  5
693A
330
1F
100
AcDbEntity
  8
KANAMONO_SCREW
 48
20.0
100
AcDbLine
 10
1053.0
 20
598.0000000000004
 30
0.0
 11
1053.689189189189
 21
599.3783783783787
 31
0.0
  0
LINE
  5
693B
330
1F
100
AcDbEntity
  8
KANAMONO_SCREW
 48
20.0
100
AcDbLine
 10
1048.383551892709
 20
597.2830532754976
 30
0.0
 11
1051.25133879072
 21
598.0000000000004
 31
0.0
  0
ARC
  5
693C
330
1F
100
AcDbEntity
  8
KANAMONO_SCREW
 48
20.0
100
AcDbCircle
 10
1049.999999988986
 20
594.6871653023204
 30
0.0
 40
0.5
100
AcDbArc
 50
202.4999999999972
 51
337.5000000000027
  0
LINE
  5
693D
330
1F
100
AcDbEntity
  8
KANAMONO_SCREW
 48
20.0
100
AcDbLine
 10
1049.0
 20
598.0000000000004
 30
0.0
 11
1047.0
 21
598.0000000000004
 31
0.0
  0
LINE
  5
693E
330
1F
100
AcDbEntity
  8
KANAMONO_SCREW
 48
20.0
100
AcDbLine
 10
1048.086582838174
 20
598.0000000000004
 30
0.0
 11
1049.538060222731
 21
594.4958235861378
 31
0.0
  0
LINE
  5
693F
330
1F
100
AcDbEntity
  8
KANAMONO_SCREW
 48
20.0
100
AcDbLine
 10
1051.0
 20
598.0000000000004
 30
0.0
 11
1053.0
 21
598.0000000000004
 31
0.0
  0
LINE
  5
6940
330
1F
100
AcDbEntity
  8
KANAMONO_SCREW
 48
20.0
100
AcDbLine
 10
1051.913417161825
 20
598.0000000000004
 30
0.0
 11
1050.461939755242
 21
594.4958235861378
 31
0.0
  0
LINE
  5
6941
330
1F
100
AcDbEntity
  8
KANAMONO_SCREW
 48
20.0
100
AcDbLine
 10
1046.845738287252
 20
611.5034011777195
 30
0.0
 11
1046.310810810811
 21
599.3783783783787
 31
0.0
  0
LINE
  5
6942
330
1F
100
AcDbEntity
  8
KANAMONO_SCREW
 48
20.0
100
AcDbLine
 10
1049.510208117575
 20
609.5647173317143
 30
0.0
 11
1050.47910551408
 21
609.8069416808405
 31
0.0
  0
LINE
  5
6943
330
1F
100
AcDbEntity
  8
KANAMONO_SCREW
 48
20.0
100
AcDbLine
 10
1053.154261712756
 20
611.50340117772
 30
0.0
 11
1053.689189189189
 21
599.3783783783787
 31
0.0
  0
LINE
  5
6944
330
1F
100
AcDbEntity
  8
KANAMONO_SCREW
 48
20.0
100
AcDbLine
 10
1049.24255012501
 20
603.4978028335729
 30
0.0
 11
1050.740923695899
 21
603.8723962262951
 31
0.0
  0
LINE
  5
6945
330
1F
100
AcDbEntity
  8
KANAMONO_SCREW
 48
20.0
100
AcDbLine
 10
1049.175635626869
 20
601.9810742090377
 30
0.0
 11
1050.806378241353
 21
602.3887598626587
 31
0.0
  0
LINE
  5
6946
330
1F
100
AcDbEntity
  8
KANAMONO_SCREW
 48
20.0
100
AcDbLine
 10
1049.108721128728
 20
600.4643455845023
 30
0.0
 11
1050.871832786808
 21
600.9051234990224
 31
0.0
  0
LINE
  5
6947
330
1F
100
AcDbEntity
  8
KANAMONO_SCREW
 48
20.0
100
AcDbLine
 10
1049.443293619434
 20
608.0479887071789
 30
0.0
 11
1050.544560059535
 21
608.3233053172041
 31
0.0
  0
LINE
  5
6948
330
1F
100
AcDbEntity
  8
KANAMONO_SCREW
 48
20.0
100
AcDbLine
 10
1049.376379121293
 20
606.5312600826436
 30
0.0
 11
1050.610014604989
 21
606.8396689535677
 31
0.0
  0
LINE
  5
6949
330
1F
100
AcDbEntity
  8
KANAMONO_SCREW
 48
20.0
100
AcDbLine
 10
1049.309464623152
 20
605.0145314581084
 30
0.0
 11
1050.675469150444
 21
605.3560325899314
 31
0.0
  0
LINE
  5
694A
330
1F
100
AcDbEntity
  8
KANAMONO_SCREW
 48
20.0
100
AcDbLine
 10
1049.577122615717
 20
611.0814459562496
 30
0.0
 11
1050.413650968626
 21
611.2905780444768
 31
0.0
  0
LINE
  5
694B
330
1F
100
AcDbEntity
  8
KANAMONO_SCREW
 48
20.0
100
AcDbLine
 10
1047.095495345978
 20
611.4923824839515
 30
0.0
 11
1046.845738287243
 21
611.50340117772
 31
0.0
  0
LINE
  5
694C
330
1F
100
AcDbEntity
  8
KANAMONO_SCREW
 48
20.0
100
AcDbLine
 10
1047.106514039746
 20
611.742139542686
 30
0.0
 11
1046.856756981011
 21
611.7531582364542
 31
0.0
  0
LINE
  5
694D
330
1F
100
AcDbEntity
  8
KANAMONO_SCREW
 48
20.0
100
AcDbLine
 10
1047.238738364966
 20
614.7392242474983
 30
0.0
 11
1046.988981306231
 21
614.7502429412667
 31
0.0
  0
LINE
  5
694E
330
1F
100
AcDbEntity
  8
KANAMONO_SCREW
 48
20.0
100
AcDbLine
 10
1047.249757058734
 20
614.9889813062327
 30
0.0
 11
1047.0
 21
615.000000000001
 31
0.0
  0
LINE
  5
694F
330
1F
100
AcDbEntity
  8
KANAMONO_SCREW
 48
20.0
100
AcDbLine
 10
1047.249757058734
 20
614.9889813062327
 30
0.0
 11
1047.095495345987
 21
611.4923824839512
 31
0.0
  0
LINE
  5
6950
330
1F
100
AcDbEntity
  8
KANAMONO_SCREW
 48
20.0
100
AcDbLine
 10
1046.988981306232
 20
614.7502429412666
 30
0.0
 11
1046.85675698102
 21
611.7531582364539
 31
0.0
  0
LINE
  5
6951
330
1F
100
AcDbEntity
  8
KANAMONO_SCREW
 48
20.0
100
AcDbLine
 10
1052.750242941265
 20
614.9889813062327
 30
0.0
 11
1053.0
 21
615.000000000001
 31
0.0
  0
LINE
  5
6952
330
1F
100
AcDbEntity
  8
KANAMONO_SCREW
 48
20.0
100
AcDbLine
 10
1052.761261635034
 20
614.7392242474983
 30
0.0
 11
1053.011018693768
 21
614.7502429412667
 31
0.0
  0
LINE
  5
6953
330
1F
100
AcDbEntity
  8
KANAMONO_SCREW
 48
20.0
100
AcDbLine
 10
1052.893485960254
 20
611.742139542686
 30
0.0
 11
1053.143243018988
 21
611.7531582364542
 31
0.0
  0
LINE
  5
6954
330
1F
100
AcDbEntity
  8
KANAMONO_SCREW
 48
20.0
100
AcDbLine
 10
1052.904504654022
 20
611.4923824839515
 30
0.0
 11
1053.154261712756
 21
611.50340117772
 31
0.0
  0
LINE
  5
6955
330
1F
100
AcDbEntity
  8
KANAMONO_SCREW
 48
20.0
100
AcDbLine
 10
1053.011018693768
 20
614.7502429412666
 30
0.0
 11
1053.14324301898
 21
611.7531582364539
 31
0.0
  0
LINE
  5
6956
330
1F
100
AcDbEntity
  8
KANAMONO_SCREW
 48
20.0
100
AcDbLine
 10
1052.750242941265
 20
614.9889813062327
 30
0.0
 11
1052.904504654013
 21
611.4923824839512
 31
0.0
  0
LINE
  5
6957
330
1F
100
AcDbEntity
  8
KANAMONO_SCREW
 48
20.0
100
AcDbLine
 10
1049.710951611999
 20
614.1149032053201
 30
0.0
 11
1050.282741877717
 21
614.2578507717496
 31
0.0
  0
LINE
  5
6958
330
1F
100
AcDbEntity
  8
KANAMONO_SCREW
 48
20.0
100
AcDbLine
 10
1049.644037113858
 20
612.5981745807848
 30
0.0
 11
1050.348196423171
 21
612.7742144081132
 31
0.0
  0
LINE
  5
6959
330
1F
100
AcDbEntity
  8
KANAMONO_SCREW
 48
20.0
100
AcDbLine
 10
1049.75
 20
615.0000000000004
 30
0.0
 11
1050.25
 21
615.0000000000004
 31
0.0
  0
LINE
  5
695A
330
1F
100
AcDbEntity
  8
KANAMONO_SCREW
 48
20.0
100
AcDbLine
 10
1047.0
 20
620.0000000000009
 30
0.0
 11
1053.0
 21
620.0000000000009
 31
0.0
  0
LINE
  5
695B
330
1F
100
AcDbEntity
  8
KANAMONO_SCREW
 48
20.0
100
AcDbLine
 10
1047.0
 20
617.000000000001
 30
0.0
 11
1053.0
 21
617.000000000001
 31
0.0
  0
LINE
  5
695C
330
1F
100
AcDbEntity
  8
KANAMONO_SCREW
 48
20.0
100
AcDbLine
 10
1044.5
 20
640.0000000000004
 30
0.0
 11
1055.5
 21
640.0000000000004
 31
0.0
  0
LINE
  5
695D
330
1F
100
AcDbEntity
  8
KANAMONO_SCREW
 48
20.0
100
AcDbLine
 10
1044.5
 20
638.0000000000004
 30
0.0
 11
1046.0
 21
638.0000000000004
 31
0.0
  0
LINE
  5
695E
330
1F
100
AcDbEntity
  8
KANAMONO_SCREW
 48
20.0
100
AcDbLine
 10
1044.5
 20
638.0000000000004
 30
0.0
 11
1044.5
 21
640.0000000000004
 31
0.0
  0
LINE
  5
695F
330
1F
100
AcDbEntity
  8
KANAMONO_SCREW
 48
20.0
100
AcDbLine
 10
1053.0
 20
640.7500000000005
 30
0.0
 11
1054.25
 21
640.5000000000004
 31
0.0
  0
LINE
  5
6960
330
1F
100
AcDbEntity
  8
KANAMONO_SCREW
 48
20.0
100
AcDbLine
 10
1054.25
 20
640.5000000000004
 30
0.0
 11
1045.75
 21
640.5000000000004
 31
0.0
  0
LINE
  5
6961
330
1F
100
AcDbEntity
  8
KANAMONO_SCREW
 48
20.0
100
AcDbLine
 10
1046.0
 20
638.0000000000004
 30
0.0
 11
1054.0
 21
638.0000000000004
 31
0.0
  0
ARC
  5
6962
330
1F
100
AcDbEntity
  8
KANAMONO_SCREW
 48
20.0
100
AcDbCircle
 10
1054.0
 20
637.0000000000004
 30
0.0
 40
1.0
100
AcDbArc
 50
90.0
 51
180.0
  0
LINE
  5
6963
330
1F
100
AcDbEntity
  8
KANAMONO_SCREW
 48
20.0
100
AcDbLine
 10
1053.0
 20
640.7500000000005
 30
0.0
 11
1047.0
 21
640.7500000000005
 31
0.0
  0
LINE
  5
6964
330
1F
100
AcDbEntity
  8
KANAMONO_SCREW
 48
20.0
100
AcDbLine
 10
1045.75
 20
640.5000000000004
 30
0.0
 11
1047.0
 21
640.7500000000005
 31
0.0
  0
LINE
  5
6965
330
1F
100
AcDbEntity
  8
KANAMONO_SCREW
 48
20.0
100
AcDbLine
 10
1045.75
 20
640.5000000000004
 30
0.0
 11
1045.75
 21
640.0000000000004
 31
0.0
  0
ARC
  5
6966
330
1F
100
AcDbEntity
  8
KANAMONO_SCREW
 48
20.0
100
AcDbCircle
 10
1046.0
 20
637.0000000000004
 30
0.0
 40
1.0
100
AcDbArc
 50
0.0
 51
90.0
  0
LINE
  5
6967
330
1F
100
AcDbEntity
  8
KANAMONO_SCREW
 48
20.0
100
AcDbLine
 10
1054.25
 20
640.0000000000004
 30
0.0
 11
1054.25
 21
640.5000000000004
 31
0.0
  0
LINE
  5
6968
330
1F
100
AcDbEntity
  8
KANAMONO_SCREW
 48
20.0
100
AcDbLine
 10
1054.0
 20
638.0000000000004
 30
0.0
 11
1055.5
 21
638.0000000000004
 31
0.0
  0
LINE
  5
6969
330
1F
100
AcDbEntity
  8
KANAMONO_SCREW
 48
20.0
100
AcDbLine
 10
1055.5
 20
640.0000000000004
 30
0.0
 11
1055.5
 21
638.0000000000004
 31
0.0
  0
LINE
  5
696A
330
1F
100
AcDbEntity
  8
BOUSUI
  6
Continuous
100
AcDbLine
 10
980.0000000000002
 20
933.6279859969369
 30
0.0
 11
982.6728945392769
 21
936.3008805362138
 31
0.0
  0
LINE
  5
696B
330
1F
100
AcDbEntity
  8
BOUSUI
  6
Continuous
100
AcDbLine
 10
980.0000000000002
 20
929.208568614521
 30
0.0
 11
986.3968637165775
 21
935.6054323310983
 31
0.0
  0
LINE
  5
696C
330
1F
100
AcDbEntity
  8
BOUSUI
  6
Continuous
100
AcDbLine
 10
980.2108487678937
 20
924.9999999999985
 30
0.0
 11
989.6316928076696
 21
934.4208440397746
 31
0.0
  0
LINE
  5
696D
330
1F
100
AcDbEntity
  8
BOUSUI
  6
Continuous
100
AcDbLine
 10
984.6302661503095
 20
924.9999999999985
 30
0.0
 11
992.4775888580281
 21
932.8473227077171
 31
0.0
  0
LINE
  5
696E
330
1F
100
AcDbEntity
  8
BOUSUI
  6
Continuous
100
AcDbLine
 10
989.0496835327251
 20
924.9999999999982
 30
0.0
 11
994.982963007323
 21
930.933279474596
 31
0.0
  0
LINE
  5
696F
330
1F
100
AcDbEntity
  8
BOUSUI
  6
Continuous
100
AcDbLine
 10
993.4691009151409
 20
924.9999999999982
 30
0.0
 11
997.1675275385173
 21
928.6984266233744
 31
0.0
  0
LINE
  5
6970
330
1F
100
AcDbEntity
  8
BOUSUI
  6
Continuous
100
AcDbLine
 10
997.888518297557
 20
924.9999999999984
 30
0.0
 11
999.0296676044268
 21
926.1411493068681
 31
0.0
  0
LINE
  5
6971
330
1F
100
AcDbEntity
  8
BOUSUI
  6
Continuous
100
AcDbLine
 10
983.2906220593395
 20
924.9999999999984
 30
0.0
 11
980.0
 21
928.2906220593378
 31
0.0
  0
LINE
  5
6972
330
1F
100
AcDbEntity
  8
BOUSUI
  6
Continuous
100
AcDbLine
 10
987.7100394417556
 20
924.9999999999982
 30
0.0
 11
980.0
 21
932.7100394417536
 31
0.0
  0
LINE
  5
6973
330
1F
100
AcDbEntity
  8
BOUSUI
  6
Continuous
100
AcDbLine
 10
992.1294568241714
 20
924.999999999998
 30
0.0
 11
980.7259918358219
 21
936.4034649883477
 31
0.0
  0
LINE
  5
6974
330
1F
100
AcDbEntity
  8
BOUSUI
  6
Continuous
100
AcDbLine
 10
996.5488742065874
 20
924.9999999999982
 30
0.0
 11
985.7816442643491
 21
935.7672299422365
 31
0.0
  0
LINE
  5
6975
330
1F
100
AcDbEntity
  8
BOUSUI
  6
Continuous
100
AcDbLine
 10
996.1948374328548
 20
929.7734541561467
 30
0.0
 11
995.6836278310086
 21
930.2846637579929
 31
0.0
  0
LINE
  5
6976
330
1F
100
AcDbEntity
  8
KANAMONO
100
AcDbLine
 10
989.2000000000003
 20
904.2499999999982
 30
0.0
 11
990.0
 21
903.4999999999982
 31
0.0
  0
LINE
  5
6977
330
1F
100
AcDbEntity
  8
KANAMONO
100
AcDbLine
 10
990.0
 20
903.4999999999982
 30
0.0
 11
990.0
 21
899.9999999999982
 31
0.0
  0
LINE
  5
6978
330
1F
100
AcDbEntity
  8
KANAMONO
100
AcDbLine
 10
990.0
 20
899.9999999999982
 30
0.0
 11
990.0
 21
899.9999999999982
 31
0.0
  0
LINE
  5
6979
330
1F
100
AcDbEntity
  8
KANAMONO
100
AcDbLine
 10
990.0
 20
899.9999999999982
 30
0.0
 11
989.2000000000003
 21
899.2499999999981
 31
0.0
  0
LINE
  5
697A
330
1F
100
AcDbEntity
  8
KANAMONO
100
AcDbLine
 10
989.2000000000003
 20
899.2499999999981
 30
0.0
 11
990.0
 21
898.4999999999981
 31
0.0
  0
LINE
  5
697B
330
1F
100
AcDbEntity
  8
KANAMONO
100
AcDbLine
 10
990.0
 20
898.4999999999981
 30
0.0
 11
990.0
 21
894.9999999999981
 31
0.0
  0
LINE
  5
697C
330
1F
100
AcDbEntity
  8
KANAMONO
100
AcDbLine
 10
990.0
 20
894.9999999999981
 30
0.0
 11
989.2000000000003
 21
894.2499999999981
 31
0.0
  0
LINE
  5
697D
330
1F
100
AcDbEntity
  8
KANAMONO
100
AcDbLine
 10
989.2000000000003
 20
894.2499999999981
 30
0.0
 11
990.0
 21
893.4999999999982
 31
0.0
  0
LINE
  5
697E
330
1F
100
AcDbEntity
  8
KANAMONO
100
AcDbLine
 10
990.0
 20
893.4999999999982
 30
0.0
 11
990.0
 21
889.9999999999982
 31
0.0
  0
LINE
  5
697F
330
1F
100
AcDbEntity
  8
KANAMONO
100
AcDbLine
 10
990.0
 20
889.9999999999982
 30
0.0
 11
989.2000000000003
 21
889.2499999999982
 31
0.0
  0
LINE
  5
6980
330
1F
100
AcDbEntity
  8
KANAMONO
100
AcDbLine
 10
989.2000000000003
 20
889.2499999999982
 30
0.0
 11
990.0
 21
888.4999999999982
 31
0.0
  0
LINE
  5
6981
330
1F
100
AcDbEntity
  8
KANAMONO
100
AcDbLine
 10
990.0
 20
888.4999999999982
 30
0.0
 11
990.0
 21
885.2999999999978
 31
0.0
  0
ARC
  5
6982
330
1F
100
AcDbEntity
  8
KANAMONO
100
AcDbCircle
 10
990.3
 20
885.2999999999981
 30
0.0
 40
0.2999999999999545
100
AcDbArc
 50
180.0000000000434
 51
270.0000000000434
  0
LINE
  5
6983
330
1F
100
AcDbEntity
  8
KANAMONO
100
AcDbLine
 10
990.3000000000002
 20
884.9999999999981
 30
0.0
 11
990.9
 21
884.9999999999981
 31
0.0
  0
ARC
  5
6984
330
1F
100
AcDbEntity
  8
KANAMONO
100
AcDbCircle
 10
990.9000000000004
 20
885.2999999999981
 30
0.0
 40
0.2999999999999545
100
AcDbArc
 50
269.9999999999566
 51
359.9999999999566
  0
LINE
  5
6985
330
1F
100
AcDbEntity
  8
KANAMONO
100
AcDbLine
 10
991.2000000000002
 20
885.2999999999978
 30
0.0
 11
991.2000000000002
 21
923.799999999998
 31
0.0
  0
LINE
  5
6986
330
1F
100
AcDbEntity
  8
KANAMONO
100
AcDbLine
 10
991.2000000000002
 20
923.799999999998
 30
0.0
 11
999.7000000000003
 21
923.799999999998
 31
0.0
  0
ARC
  5
6987
330
1F
100
AcDbEntity
  8
KANAMONO
100
AcDbCircle
 10
999.6999999999999
 20
924.0999999999978
 30
0.0
 40
0.2999999999999545
100
AcDbArc
 50
270.0000000000434
 51
0.0000000000434252
  0
LINE
  5
6988
330
1F
100
AcDbEntity
  8
KANAMONO
100
AcDbLine
 10
1000.0
 20
924.0999999999981
 30
0.0
 11
1000.0
 21
924.699999999998
 31
0.0
  0
ARC
  5
6989
330
1F
100
AcDbEntity
  8
KANAMONO
100
AcDbCircle
 10
999.7000000000003
 20
924.6999999999978
 30
0.0
 40
0.2999999999998408
100
AcDbArc
 50
0.0000000000217126
 51
90.00000000002172
  0
LINE
  5
698A
330
1F
100
AcDbEntity
  8
KANAMONO
100
AcDbLine
 10
999.7000000000003
 20
924.9999999999976
 30
0.0
 11
990.0
 21
924.9999999999982
 31
0.0
  0
LINE
  5
698B
330
1F
100
AcDbEntity
  8
KANAMONO
100
AcDbLine
 10
990.0
 20
924.9999999999982
 30
0.0
 11
989.2000000000003
 21
924.2499999999981
 31
0.0
  0
LINE
  5
698C
330
1F
100
AcDbEntity
  8
KANAMONO
100
AcDbLine
 10
989.2000000000003
 20
924.2499999999981
 30
0.0
 11
990.0
 21
923.4999999999981
 31
0.0
  0
LINE
  5
698D
330
1F
100
AcDbEntity
  8
KANAMONO
100
AcDbLine
 10
990.0
 20
923.4999999999981
 30
0.0
 11
990.0
 21
919.9999999999981
 31
0.0
  0
LINE
  5
698E
330
1F
100
AcDbEntity
  8
KANAMONO
100
AcDbLine
 10
990.0
 20
919.9999999999981
 30
0.0
 11
989.2000000000003
 21
919.2499999999981
 31
0.0
  0
LINE
  5
698F
330
1F
100
AcDbEntity
  8
KANAMONO
100
AcDbLine
 10
989.2000000000003
 20
919.2499999999981
 30
0.0
 11
989.2000000000003
 21
919.2499999999981
 31
0.0
  0
LINE
  5
6990
330
1F
100
AcDbEntity
  8
KANAMONO
100
AcDbLine
 10
989.2000000000003
 20
919.2499999999981
 30
0.0
 11
990.0
 21
918.4999999999982
 31
0.0
  0
LINE
  5
6991
330
1F
100
AcDbEntity
  8
KANAMONO
100
AcDbLine
 10
990.0
 20
918.4999999999982
 30
0.0
 11
990.0
 21
914.9999999999982
 31
0.0
  0
LINE
  5
6992
330
1F
100
AcDbEntity
  8
KANAMONO
100
AcDbLine
 10
990.0
 20
914.9999999999982
 30
0.0
 11
989.2000000000003
 21
914.2499999999982
 31
0.0
  0
LINE
  5
6993
330
1F
100
AcDbEntity
  8
KANAMONO
100
AcDbLine
 10
989.2000000000003
 20
914.2499999999982
 30
0.0
 11
990.0
 21
913.4999999999982
 31
0.0
  0
LINE
  5
6994
330
1F
100
AcDbEntity
  8
KANAMONO
100
AcDbLine
 10
990.0
 20
913.4999999999982
 30
0.0
 11
990.0
 21
909.9999999999981
 31
0.0
  0
LINE
  5
6995
330
1F
100
AcDbEntity
  8
KANAMONO
100
AcDbLine
 10
990.0
 20
909.9999999999981
 30
0.0
 11
989.2000000000003
 21
909.2499999999981
 31
0.0
  0
LINE
  5
6996
330
1F
100
AcDbEntity
  8
KANAMONO
100
AcDbLine
 10
989.2000000000003
 20
909.2499999999981
 30
0.0
 11
990.0
 21
908.4999999999981
 31
0.0
  0
LINE
  5
6997
330
1F
100
AcDbEntity
  8
KANAMONO
100
AcDbLine
 10
990.0
 20
908.4999999999981
 30
0.0
 11
990.0
 21
904.9999999999981
 31
0.0
  0
LINE
  5
6998
330
1F
100
AcDbEntity
  8
KANAMONO
100
AcDbLine
 10
990.0
 20
904.9999999999981
 30
0.0
 11
989.2000000000003
 21
904.2499999999982
 31
0.0
  0
LINE
  5
6999
330
1F
100
AcDbEntity
  8
KANAMONO
100
AcDbLine
 10
989.2000000000003
 20
904.2499999999982
 30
0.0
 11
989.2000000000003
 21
904.2499999999982
 31
0.0
  0
LINE
  5
699A
330
1F
100
AcDbEntity
  8
KANAMONO_SCREW
 48
20.0
100
AcDbLine
 10
975.6301965628329
 20
907.1785514272876
 30
0.0
 11
965.5260108967157
 21
907.6243243243222
 31
0.0
  0
LINE
  5
699B
330
1F
100
AcDbEntity
  8
KANAMONO_SCREW
 48
20.0
100
AcDbLine
 10
975.6301965628333
 20
901.9214485727006
 30
0.0
 11
965.5260108967157
 21
901.4756756756737
 31
0.0
  0
LINE
  5
699C
330
1F
100
AcDbEntity
  8
KANAMONO_SCREW
 48
20.0
100
AcDbLine
 10
978.5440289147336
 20
904.3416666666646
 30
0.0
 11
964.377362248067
 21
903.7166666666646
 31
0.0
  0
LINE
  5
699D
330
1F
100
AcDbEntity
  8
KANAMONO_SCREW
 48
20.0
100
AcDbLine
 10
978.5440289147336
 20
904.7583333333312
 30
0.0
 11
964.377362248067
 21
905.3833333333313
 31
0.0
  0
LINE
  5
699E
330
1F
100
AcDbEntity
  8
KANAMONO_SCREW
 48
20.0
100
AcDbLine
 10
964.377362248067
 20
906.1445143015191
 30
0.0
 11
961.4572152365148
 21
904.9349498143888
 31
0.0
  0
LINE
  5
699F
330
1F
100
AcDbEntity
  8
KANAMONO_SCREW
 48
20.0
100
AcDbLine
 10
964.377362248067
 20
902.9554856984768
 30
0.0
 11
961.4572152365148
 21
904.1650502039628
 31
0.0
  0
ARC
  5
69A0
330
1F
100
AcDbEntity
  8
KANAMONO_SCREW
 48
20.0
100
AcDbCircle
 10
961.616666666667
 20
904.5500000091758
 30
0.0
 40
0.4166666666666667
100
AcDbArc
 50
112.4999999999997
 51
247.5000000000002
  0
LINE
  5
69A1
330
1F
100
AcDbEntity
  8
KANAMONO_SCREW
 48
20.0
100
AcDbLine
 10
964.377362248067
 20
903.7166666666646
 30
0.0
 11
964.377362248067
 21
902.0499999999978
 31
0.0
  0
LINE
  5
69A2
330
1F
100
AcDbEntity
  8
KANAMONO_SCREW
 48
20.0
100
AcDbLine
 10
964.377362248067
 20
905.3833333333313
 30
0.0
 11
964.377362248067
 21
907.0499999999979
 31
0.0
  0
LINE
  5
69A3
330
1F
100
AcDbEntity
  8
KANAMONO_SCREW
 48
20.0
100
AcDbLine
 10
964.377362248067
 20
907.0499999999979
 30
0.0
 11
965.5260108967157
 21
907.6243243243222
 31
0.0
  0
LINE
  5
69A4
330
1F
100
AcDbEntity
  8
KANAMONO_SCREW
 48
20.0
100
AcDbLine
 10
965.1670430480391
 20
905.348494474509
 30
0.0
 11
965.5619348608883
 21
903.7689272231126
 31
0.0
  0
LINE
  5
69A5
330
1F
100
AcDbEntity
  8
KANAMONO_SCREW
 48
20.0
100
AcDbLine
 10
966.4309835684852
 20
905.2927323927246
 30
0.0
 11
966.7982984972519
 21
903.8234726776581
 31
0.0
  0
LINE
  5
69A6
330
1F
100
AcDbEntity
  8
KANAMONO_SCREW
 48
20.0
100
AcDbLine
 10
963.7799066443147
 20
905.8970400894068
 30
0.0
 11
964.377362248067
 21
903.5072176743978
 31
0.0
  0
LINE
  5
69A7
330
1F
100
AcDbEntity
  8
KANAMONO_SCREW
 48
20.0
100
AcDbLine
 10
967.6949240889314
 20
905.2369703109402
 30
0.0
 11
968.0346621336155
 21
903.8780181322035
 31
0.0
  0
LINE
  5
69A8
330
1F
100
AcDbEntity
  8
KANAMONO_SCREW
 48
20.0
100
AcDbLine
 10
972.7506861707157
 20
905.0139219838026
 30
0.0
 11
972.98011667907
 21
904.0961999503853
 31
0.0
  0
LINE
  5
69A9
330
1F
100
AcDbEntity
  8
KANAMONO_SCREW
 48
20.0
100
AcDbLine
 10
968.9588646093774
 20
905.1812082291558
 30
0.0
 11
969.2710257699792
 21
903.932563586749
 31
0.0
  0
LINE
  5
69AA
330
1F
100
AcDbEntity
  8
KANAMONO_SCREW
 48
20.0
100
AcDbLine
 10
970.2228051298234
 20
905.1254461473714
 30
0.0
 11
970.507389406343
 21
903.9871090412944
 31
0.0
  0
LINE
  5
69AB
330
1F
100
AcDbEntity
  8
KANAMONO_SCREW
 48
20.0
100
AcDbLine
 10
971.4867456502696
 20
905.069684065587
 30
0.0
 11
971.7437530427064
 21
904.0416544958398
 31
0.0
  0
LINE
  5
69AC
330
1F
100
AcDbEntity
  8
KANAMONO_SCREW
 48
20.0
100
AcDbLine
 10
964.377362248067
 20
902.0499999999978
 30
0.0
 11
965.5260108967157
 21
901.4756756756737
 31
0.0
  0
LINE
  5
69AD
330
1F
100
AcDbEntity
  8
KANAMONO_SCREW
 48
20.0
100
AcDbLine
 10
990.3666666666669
 20
907.0499999999979
 30
0.0
 11
978.5440289147341
 21
907.0499999999979
 31
0.0
  0
LINE
  5
69AE
330
1F
100
AcDbEntity
  8
KANAMONO_SCREW
 48
20.0
100
AcDbLine
 10
990.3666666666669
 20
902.0499999999978
 30
0.0
 11
978.5440289147341
 21
902.0499999999978
 31
0.0
  0
LINE
  5
69AF
330
1F
100
AcDbEntity
  8
KANAMONO_SCREW
 48
20.0
100
AcDbLine
 10
980.2106955814009
 20
907.0499999999979
 30
0.0
 11
980.2106955814009
 21
902.0499999999978
 31
0.0
  0
LINE
  5
69B0
330
1F
100
AcDbEntity
  8
KANAMONO_SCREW
 48
20.0
100
AcDbLine
 10
982.7106955814008
 20
907.0499999999979
 30
0.0
 11
982.7106955814008
 21
902.0499999999978
 31
0.0
  0
LINE
  5
69B1
330
1F
100
AcDbEntity
  8
KANAMONO_SCREW
 48
20.0
100
AcDbLine
 10
978.5348466699272
 20
906.8418691177193
 30
0.0
 11
978.5440289147341
 21
907.0499999999979
 31
0.0
  0
LINE
  5
69B2
330
1F
100
AcDbEntity
  8
KANAMONO_SCREW
 48
20.0
100
AcDbLine
 10
978.3267157876485
 20
906.8510513625263
 30
0.0
 11
978.3358980324555
 21
907.0591822448047
 31
0.0
  0
LINE
  5
69B3
330
1F
100
AcDbEntity
  8
KANAMONO_SCREW
 48
20.0
100
AcDbLine
 10
975.8291452003049
 20
906.9612383002096
 30
0.0
 11
975.8383274451118
 21
907.1693691824881
 31
0.0
  0
LINE
  5
69B4
330
1F
100
AcDbEntity
  8
KANAMONO_SCREW
 48
20.0
100
AcDbLine
 10
975.6210143180263
 20
906.9704205450165
 30
0.0
 11
975.6301965628333
 21
907.1785514272951
 31
0.0
  0
LINE
  5
69B5
330
1F
100
AcDbEntity
  8
KANAMONO_SCREW
 48
20.0
100
AcDbLine
 10
978.3358980324555
 20
907.0591822448044
 30
0.0
 11
975.8383274451116
 21
907.1693691824814
 31
0.0
  0
LINE
  5
69B6
330
1F
100
AcDbEntity
  8
KANAMONO_SCREW
 48
20.0
100
AcDbLine
 10
978.5348466699272
 20
906.8418691177193
 30
0.0
 11
975.6210143180259
 21
906.970420545009
 31
0.0
  0
LINE
  5
69B7
330
1F
100
AcDbEntity
  8
KANAMONO_SCREW
 48
20.0
100
AcDbLine
 10
978.5440289147336
 20
904.7583333333312
 30
0.0
 11
978.5440289147336
 21
904.3416666666646
 31
0.0
  0
LINE
  5
69B8
330
1F
100
AcDbEntity
  8
KANAMONO_SCREW
 48
20.0
100
AcDbLine
 10
977.8064482525001
 20
904.790873656665
 30
0.0
 11
977.9255712245245
 21
904.3143817685672
 31
0.0
  0
LINE
  5
69B9
330
1F
100
AcDbEntity
  8
KANAMONO_SCREW
 48
20.0
100
AcDbLine
 10
974.0146266911619
 20
904.9581599020182
 30
0.0
 11
974.2164803154336
 21
904.1507454049307
 31
0.0
  0
LINE
  5
69BA
330
1F
100
AcDbEntity
  8
KANAMONO_SCREW
 48
20.0
100
AcDbLine
 10
975.2785672116079
 20
904.9023978202338
 30
0.0
 11
975.4528439517974
 21
904.2052908594762
 31
0.0
  0
LINE
  5
69BB
330
1F
100
AcDbEntity
  8
KANAMONO_SCREW
 48
20.0
100
AcDbLine
 10
976.5425077320541
 20
904.8466357384496
 30
0.0
 11
976.689207588161
 21
904.2598363140218
 31
0.0
  0
LINE
  5
69BC
330
1F
100
AcDbEntity
  8
KANAMONO_SCREW
 48
20.0
100
AcDbLine
 10
978.3267157876485
 20
902.2489486374697
 30
0.0
 11
978.3358980324555
 21
902.040817755191
 31
0.0
  0
LINE
  5
69BD
330
1F
100
AcDbEntity
  8
KANAMONO_SCREW
 48
20.0
100
AcDbLine
 10
978.5348466699272
 20
902.2581308822767
 30
0.0
 11
978.5440289147341
 21
902.0499999999978
 31
0.0
  0
LINE
  5
69BE
330
1F
100
AcDbEntity
  8
KANAMONO_SCREW
 48
20.0
100
AcDbLine
 10
975.6210143180263
 20
902.1295794549795
 30
0.0
 11
975.6301965628333
 21
901.9214485727006
 31
0.0
  0
LINE
  5
69BF
330
1F
100
AcDbEntity
  8
KANAMONO_SCREW
 48
20.0
100
AcDbLine
 10
975.8291452003049
 20
902.1387616997863
 30
0.0
 11
975.8383274451118
 21
901.9306308175076
 31
0.0
  0
LINE
  5
69C0
330
1F
100
AcDbEntity
  8
KANAMONO_SCREW
 48
20.0
100
AcDbLine
 10
978.5348466699272
 20
902.2581308822767
 30
0.0
 11
975.6210143180259
 21
902.1295794549867
 31
0.0
  0
LINE
  5
69C1
330
1F
100
AcDbEntity
  8
KANAMONO_SCREW
 48
20.0
100
AcDbLine
 10
978.3358980324555
 20
902.0408177551914
 30
0.0
 11
975.8383274451116
 21
901.9306308175146
 31
0.0
  0
LINE
  5
69C2
330
1F
100
AcDbEntity
  8
KANAMONO_SCREW
 48
20.0
100
AcDbLine
 10
991.2000000000002
 20
907.8833333333312
 30
0.0
 11
991.2000000000002
 21
901.2166666666646
 31
0.0
  0
LINE
  5
69C3
330
1F
100
AcDbEntity
  8
KANAMONO_SCREW
 48
20.0
100
AcDbLine
 10
993.2833333333336
 20
901.0083333333311
 30
0.0
 11
993.2833333333336
 21
908.0916666666645
 31
0.0
  0
LINE
  5
69C4
330
1F
100
AcDbEntity
  8
KANAMONO_SCREW
 48
20.0
100
AcDbLine
 10
993.4916666666669
 20
902.0499999999978
 30
0.0
 11
993.4916666666669
 21
907.0499999999979
 31
0.0
  0
LINE
  5
69C5
330
1F
100
AcDbEntity
  8
KANAMONO_SCREW
 48
20.0
100
AcDbLine
 10
992.866666666667
 20
909.1333333333311
 30
0.0
 11
992.866666666667
 21
899.9666666666646
 31
0.0
  0
LINE
  5
69C6
330
1F
100
AcDbEntity
  8
KANAMONO_SCREW
 48
20.0
100
AcDbLine
 10
993.2833333333336
 20
908.0916666666645
 30
0.0
 11
992.866666666667
 21
908.0916666666645
 31
0.0
  0
LINE
  5
69C7
330
1F
100
AcDbEntity
  8
KANAMONO_SCREW
 48
20.0
100
AcDbLine
 10
993.2833333333336
 20
908.0916666666645
 30
0.0
 11
993.4916666666669
 21
907.0499999999979
 31
0.0
  0
ARC
  5
69C8
330
1F
100
AcDbEntity
  8
KANAMONO_SCREW
 48
20.0
100
AcDbCircle
 10
990.3666666666669
 20
907.8833333333312
 30
0.0
 40
0.8333333333333333
100
AcDbArc
 50
270.0
 51
0.0
  0
LINE
  5
69C9
330
1F
100
AcDbEntity
  8
KANAMONO_SCREW
 48
20.0
100
AcDbLine
 10
991.2000000000002
 20
909.1333333333311
 30
0.0
 11
991.2000000000002
 21
907.8833333333312
 31
0.0
  0
LINE
  5
69CA
330
1F
100
AcDbEntity
  8
KANAMONO_SCREW
 48
20.0
100
AcDbLine
 10
991.2000000000002
 20
909.1333333333311
 30
0.0
 11
992.866666666667
 21
909.1333333333311
 31
0.0
  0
LINE
  5
69CB
330
1F
100
AcDbEntity
  8
KANAMONO_SCREW
 48
20.0
100
AcDbLine
 10
992.866666666667
 20
899.9666666666646
 30
0.0
 11
991.2000000000002
 21
899.9666666666646
 31
0.0
  0
LINE
  5
69CC
330
1F
100
AcDbEntity
  8
KANAMONO_SCREW
 48
20.0
100
AcDbLine
 10
992.866666666667
 20
901.0083333333311
 30
0.0
 11
993.2833333333336
 21
901.0083333333311
 31
0.0
  0
LINE
  5
69CD
330
1F
100
AcDbEntity
  8
KANAMONO_SCREW
 48
20.0
100
AcDbLine
 10
993.4916666666669
 20
902.0499999999978
 30
0.0
 11
993.2833333333336
 21
901.0083333333311
 31
0.0
  0
ARC
  5
69CE
330
1F
100
AcDbEntity
  8
KANAMONO_SCREW
 48
20.0
100
AcDbCircle
 10
990.3666666666669
 20
901.2166666666646
 30
0.0
 40
0.8333333333333333
100
AcDbArc
 50
0.0
 51
90.0
  0
LINE
  5
69CF
330
1F
100
AcDbEntity
  8
KANAMONO_SCREW
 48
20.0
100
AcDbLine
 10
991.2000000000002
 20
901.2166666666646
 30
0.0
 11
991.2000000000002
 21
899.9666666666646
 31
0.0
  0
LINE
  5
69D0
330
1F
100
AcDbEntity
  8
MOJI
100
AcDbLine
 10
1145.161511132617
 20
1120.169166037949
 30
0.0
 11
1095.098595293551
 21
1120.169166037949
 31
0.0
  0
LINE
  5
69D1
330
1F
100
AcDbEntity
  8
MOJI
100
AcDbLine
 10
1095.098595293551
 20
1120.169166037949
 30
0.0
 11
988.1610233890688
 21
934.9478582613333
 31
0.0
  0
LINE
  5
69D2
330
1F
100
AcDbEntity
  8
MOJI
100
AcDbLine
 10
1145.161511132617
 20
1080.730309340614
 30
0.0
 11
1095.175401194055
 21
1080.730309340614
 31
0.0
  0
LINE
  5
69D3
330
1F
100
AcDbEntity
  8
MOJI
100
AcDbLine
 10
1095.175401194055
 20
1080.730309340614
 30
0.0
 11
988.2378292895728
 21
895.5090015639989
 31
0.0
  0
LINE
  5
69D4
330
1F
100
AcDbEntity
  8
MOJI
100
AcDbLine
 10
1145.161511132617
 20
1010.283816046618
 30
0.0
 11
1080.019762872368
 21
1010.283816046618
 31
0.0
  0
LINE
  5
69D5
330
1F
100
AcDbEntity
  8
MOJI
100
AcDbLine
 10
1080.019762872368
 20
1010.283816046618
 30
0.0
 11
1032.64234
 21
928.2237125000015
 31
0.0
  0
LINE
  5
69D6
330
1F
100
AcDbEntity
  8
MOJI
100
AcDbLine
 10
1145.161511132617
 20
945.7390673844516
 30
0.0
 11
1066.039785960784
 21
945.7390673844516
 31
0.0
  0
LINE
  5
69D7
330
1F
100
AcDbEntity
  8
MOJI
100
AcDbLine
 10
1066.039785960784
 20
945.7390673844516
 30
0.0
 11
1019.057015
 21
864.3625210000019
 31
0.0
  0
LINE
  5
69D8
330
1F
100
AcDbEntity
  8
WAKU
100
AcDbLine
 10
2760.0
 20
1790.0
 30
0.0
 11
0.0
 21
1790.0
 31
0.0
  0
LINE
  5
69D9
330
1F
100
AcDbEntity
  8
WAKU
100
AcDbLine
 10
0.0
 20
1790.0
 30
0.0
 11
0.0
 21
1910.0
 31
0.0
  0
LINE
  5
69DA
330
1F
100
AcDbEntity
  8
WAKU
100
AcDbLine
 10
0.0
 20
1910.0
 30
0.0
 11
2760.0
 21
1910.0
 31
0.0
  0
LINE
  5
69DB
330
1F
100
AcDbEntity
  8
WAKU
100
AcDbLine
 10
2760.0
 20
1910.0
 30
0.0
 11
2760.0
 21
1790.0
 31
0.0
  0
LINE
  5
69DC
330
1F
100
AcDbEntity
  8
WAKU
100
AcDbLine
 10
0.0
 20
0.0
 30
0.0
 11
2760.0
 21
0.0
 31
0.0
  0
LINE
  5
69DD
330
1F
100
AcDbEntity
  8
WAKU
100
AcDbLine
 10
2760.0
 20
0.0
 30
0.0
 11
2760.0
 21
1910.0
 31
0.0
  0
LINE
  5
69DE
330
1F
100
AcDbEntity
  8
WAKU
100
AcDbLine
 10
2760.0
 20
1910.0
 30
0.0
 11
0.0
 21
1910.0
 31
0.0
  0
LINE
  5
69DF
330
1F
100
AcDbEntity
  8
WAKU
100
AcDbLine
 10
0.0
 20
1910.0
 30
0.0
 11
0.0
 21
0.0
 31
0.0
  0
LINE
  5
69E0
330
1F
100
AcDbEntity
  8
bousui2
100
AcDbLine
 10
991.7677669529663
 20
600.4073772597555
 30
0.0
 11
1034.675144212721
 21
557.5
 31
0.0
  0
LINE
  5
69E1
330
1F
100
AcDbEntity
  8
bousui2
100
AcDbLine
 10
1034.675144212721
 20
557.5
 30
0.0
 11
2280.0
 21
557.5
 31
0.0
  0
ENDSEC
  0
SECTION
  2
OBJECTS
  0
DICTIONARY
  5
C
330
0
100
AcDbDictionary
281
     1
  3
ACAD_CIP_PREVIOUS_PRODUCT_INFO
350
3DCF
  3
ACAD_COLOR
350
3B26
  3
ACAD_DETAILVIEWSTYLE
350
3DCA
  3
ACAD_GROUP
350
D
  3
ACAD_LAYOUT
350
1A
  3
ACAD_MATERIAL
350
3AF9
  3
ACAD_MLEADERSTYLE
350
3B3B
  3
ACAD_MLINESTYLE
350
17
  3
ACAD_PLOTSETTINGS
350
19
  3
ACAD_PLOTSTYLENAME
350
E
  3
ACAD_SCALELIST
350
3B29
  3
ACAD_SECTIONVIEWSTYLE
350
3DC8
  3
ACAD_TABLESTYLE
350
3B27
  3
ACAD_VISUALSTYLE
350
3B12
  3
ACDB_RECOMPOSE_DATA
350
69E4
  3
AcDbVariableDictionary
350
1835
  3
DWGPROPS
350
69E5
  0
DICTIONARY
  5
3B67
330
8
100
AcDbDictionary
280
     1
281
     1
  0
DICTIONARY
  5
2D
330
2
100
AcDbDictionary
280
     1
281
     1
  3
ACAD_LAYERFILTERS
360
2E
  3
ACAD_LAYERSTATES
360
918
  0
DICTIONARY
  5
3B4B
330
10
100
AcDbDictionary
280
     1
281
     1
  3
ADSK_XREC_LAYER_RECONCILED
360
3B4C
  0
DICTIONARY
  5
3B4D
330
2294
100
AcDbDictionary
280
     1
281
     1
  3
ADSK_XREC_LAYER_RECONCILED
360
3B4E
  0
DICTIONARY
  5
3B4F
330
235F
100
AcDbDictionary
280
     1
281
     1
  3
ADSK_XREC_LAYER_RECONCILED
360
3B50
  0
DICTIONARY
  5
3B51
330
2360
100
AcDbDictionary
280
     1
281
     1
  3
ADSK_XREC_LAYER_RECONCILED
360
3B52
  0
DICTIONARY
  5
3B53
330
2361
100
AcDbDictionary
280
     1
281
     1
  3
ADSK_XREC_LAYER_RECONCILED
360
3B54
  0
DICTIONARY
  5
3B55
330
2363
100
AcDbDictionary
280
     1
281
     1
  3
ADSK_XREC_LAYER_RECONCILED
360
3B56
  0
DICTIONARY
  5
3B57
330
2364
100
AcDbDictionary
280
     1
281
     1
  3
ADSK_XREC_LAYER_RECONCILED
360
3B58
  0
DICTIONARY
  5
3B59
330
2501
100
AcDbDictionary
280
     1
281
     1
  3
ADSK_XREC_LAYER_RECONCILED
360
3B5A
  0
DICTIONARY
  5
3B5B
330
27C0
100
AcDbDictionary
280
     1
281
     1
  3
ADSK_XREC_LAYER_RECONCILED
360
3B5C
  0
DICTIONARY
  5
3B5D
330
2E5A
100
AcDbDictionary
280
     1
281
     1
  3
ADSK_XREC_LAYER_RECONCILED
360
3B5E
  0
DICTIONARY
  5
3B5F
330
2E5B
100
AcDbDictionary
280
     1
281
     1
  3
ADSK_XREC_LAYER_RECONCILED
360
3B60
  0
DICTIONARY
  5
3B61
330
2E5C
100
AcDbDictionary
280
     1
281
     1
  3
ADSK_XREC_LAYER_RECONCILED
360
3B62
  0
DICTIONARY
  5
1C62
330
1F
100
AcDbDictionary
280
     1
281
     1
  3
ACAD_SORTENTS
360
1C63
  0
XRECORD
  5
3DCF
102
{ACAD_REACTORS
330
C
102
}
330
C
100
AcDbXrecord
280
     1
300
ACD
300
2022
300

  0
DICTIONARY
  5
3B26
102
{ACAD_REACTORS
330
C
102
}
330
C
100
AcDbDictionary
281
     1
  0
DICTIONARY
  5
3DCA
102
{ACAD_REACTORS
330
C
102
}
330
C
100
AcDbDictionary
281
     1
  3
Metric50
350
3DCB
  0
DICTIONARY
  5
D
102
{ACAD_REACTORS
330
C
102
}
330
C
100
AcDbDictionary
281
     1
  0
DICTIONARY
  5
1A
102
{ACAD_REACTORS
330
C
102
}
330
C
100
AcDbDictionary
281
     1
  3
Model
350
22
  3
\U+FF9A\U+FF72\U+FF71\U+FF73\U+FF841
350
1CD1
  0
DICTIONARY
  5
3AF9
102
{ACAD_REACTORS
330
C
102
}
330
C
100
AcDbDictionary
281
     1
  3
ByBlock
350
3B02
  3
ByLayer
350
3AFA
  3
Global
350
3B0A
  0
DICTIONARY
  5
3B3B
102
{ACAD_REACTORS
330
C
102
}
330
C
100
AcDbDictionary
281
     1
  3
Standard
350
3B3C
  0
DICTIONARY
  5
17
102
{ACAD_REACTORS
330
C
102
}
330
C
100
AcDbDictionary
281
     1
  3
Standard
350
18
  0
DICTIONARY
  5
19
102
{ACAD_REACTORS
330
C
102
}
330
C
100
AcDbDictionary
281
     1
  0
ACDBDICTIONARYWDFLT
  5
E
102
{ACAD_REACTORS
330
C
102
}
330
C
100
AcDbDictionary
281
     1
  3
Normal
350
F
  3
通常
350
29
100
AcDbDictionaryWithDefault
340
F
  0
DICTIONARY
  5
3B29
102
{ACAD_REACTORS
330
C
102
}
330
C
100
AcDbDictionary
281
     1
  3
A0
350
3B2A
  3
A1
350
3B2B
  3
A2
350
3B2C
  3
A3
350
3B2D
  3
A4
350
3B2E
  3
A5
350
3B2F
  3
A6
350
3B30
  3
A7
350
3B31
  3
A8
350
3B32
  3
A9
350
3B33
  3
B0
350
3B34
  3
B1
350
3B35
  3
B2
350
3B36
  3
B3
350
3B37
  3
B4
350
3B38
  3
B5
350
3B39
  3
B6
350
3B3A
  0
DICTIONARY
  5
3DC8
102
{ACAD_REACTORS
330
C
102
}
330
C
100
AcDbDictionary
281
     1
  3
Metric50
350
3DC9
  0
DICTIONARY
  5
3B27
102
{ACAD_REACTORS
330
C
102
}
330
C
100
AcDbDictionary
281
     1
  3
Standard
350
3B28
  0
DICTIONARY
  5
3B12
102
{ACAD_REACTORS
330
C
102
}
330
C
100
AcDbDictionary
281
     1
  3
2dWireframe
350
3B18
  3
3D Hidden
350
3B1A
  3
3dWireframe
350
3B19
  3
Basic
350
3B17
  3
Brighten
350
3B1E
  3
ColorChange
350
3B22
  3
Conceptual
350
3B1B
  3
Dim
350
3B1D
  3
EdgeColorOff
350
3B25
  3
Facepattern
350
3B21
  3
Flat
350
3B13
  3
FlatWithEdges
350
3B14
  3
Gouraud
350
3B15
  3
GouraudWithEdges
350
3B16
  3
Hidden
350
3DC2
  3
JitterOff
350
3B23
  3
Linepattern
350
3B20
  3
OverhangOff
350
3B24
  3
Realistic
350
3B1C
  3
Shaded
350
3DC7
  3
Shaded with edges
350
3DC6
  3
Shades of Gray
350
3DC3
  3
Sketchy
350
3DC4
  3
Thicken
350
3B1F
  3
Wireframe
350
3DC1
  3
X-Ray
350
3DC5
  0
XRECORD
  5
69E4
102
{ACAD_REACTORS
330
C
102
}
330
C
100
AcDbXrecord
280
     1
 90
        1
330
3B28
  0
DICTIONARY
  5
1835
102
{ACAD_REACTORS
330
C
102
}
330
C
100
AcDbDictionary
281
     1
  3
CANNOSCALE
350
3B9A
  3
CMLEADERSTYLE
350
3B99
  3
CTABLESTYLE
350
3B98
  3
CVIEWDETAILSTYLE
350
3E19
  3
CVIEWSECTIONSTYLE
350
3E1A
  3
DIMASSOC
350
3B9C
  3
INDEXCTL
350
3B9B
  3
SORTENTS
350
1836
  3
XCLIPFRAME
350
69E2
  0
XRECORD
  5
69E5
102
{ACAD_REACTORS
330
C
102
}
330
C
100
AcDbXrecord
280
     1
  1
DWGPROPS COOKIE
  2

  3

  4

  6

  7

  8
2020009
  9

300
=
301
=
302
=
303
=
304
=
305
=
306
=
307
=
308
=
309
=
 40
0.3533662268518519
 41
2453276.413761574
 42
2459971.694548611
  1

 90
        0
  0
DICTIONARY
  5
2E
102
{ACAD_REACTORS
330
2D
102
}
330
2D
100
AcDbDictionary
280
     1
281
     1
  0
DICTIONARY
  5
918
102
{ACAD_REACTORS
330
2D
102
}
330
2D
100
AcDbDictionary
281
     1
  0
XRECORD
  5
3B4C
102
{ACAD_REACTORS
330
3B4B
102
}
330
3B4B
100
AcDbXrecord
280
     1
290
     1
  0
XRECORD
  5
3B4E
102
{ACAD_REACTORS
330
3B4D
102
}
330
3B4D
100
AcDbXrecord
280
     1
290
     1
  0
XRECORD
  5
3B50
102
{ACAD_REACTORS
330
3B4F
102
}
330
3B4F
100
AcDbXrecord
280
     1
290
     1
  0
XRECORD
  5
3B52
102
{ACAD_REACTORS
330
3B51
102
}
330
3B51
100
AcDbXrecord
280
     1
290
     1
  0
XRECORD
  5
3B54
102
{ACAD_REACTORS
330
3B53
102
}
330
3B53
100
AcDbXrecord
280
     1
290
     1
  0
XRECORD
  5
3B56
102
{ACAD_REACTORS
330
3B55
102
}
330
3B55
100
AcDbXrecord
280
     1
290
     1
  0
XRECORD
  5
3B58
102
{ACAD_REACTORS
330
3B57
102
}
330
3B57
100
AcDbXrecord
280
     1
290
     1
  0
XRECORD
  5
3B5A
102
{ACAD_REACTORS
330
3B59
102
}
330
3B59
100
AcDbXrecord
280
     1
290
     1
  0
XRECORD
  5
3B5C
102
{ACAD_REACTORS
330
3B5B
102
}
330
3B5B
100
AcDbXrecord
280
     1
290
     1
  0
XRECORD
  5
3B5E
102
{ACAD_REACTORS
330
3B5D
102
}
330
3B5D
100
AcDbXrecord
280
     1
290
     1
  0
XRECORD
  5
3B60
102
{ACAD_REACTORS
330
3B5F
102
}
330
3B5F
100
AcDbXrecord
280
     1
290
     1
  0
XRECORD
  5
3B62
102
{ACAD_REACTORS
330
3B61
102
}
330
3B61
100
AcDbXrecord
280
     1
290
     1
  0
SORTENTSTABLE
  5
1C63
102
{ACAD_REACTORS
330
1C62
102
}
330
1C62
100
AcDbSortentsTable
330
1F
331
24F1
  5
28C1
331
24F2
  5
28CA
331
24F4
  5
28D5
331
24F5
  5
28D6
331
28C1
  5
2DF8
331
28CA
  5
2E02
331
28D5
  5
2E05
331
28D6
  5
2E06
331
2A0D
  5
2E07
331
2A0E
  5
2E08
331
2A0F
  5
2E09
331
2A10
  5
2E0A
331
2A14
  5
2E0B
331
2A15
  5
2E0C
331
2CAE
  5
2E0D
331
2DF0
  5
328D
331
2DF1
  5
3290
331
2DF2
  5
3295
331
2DF6
  5
3296
331
2DF7
  5
3298
331
2DF8
  5
329A
331
2E02
  5
329C
331
2E03
  5
329D
331
2E04
  5
329E
331
2E05
  5
329F
331
2E06
  5
32A1
331
2E07
  5
32A2
331
2E08
  5
32A4
331
2E09
  5
32A5
331
2E0A
  5
32A6
331
2E0B
  5
32A7
331
2E0C
  5
32A8
331
2E0D
  5
32A9
331
328D
  5
33C1
331
3290
  5
33C2
331
3295
  5
33C3
331
3296
  5
33C4
331
3298
  5
33C5
331
329A
  5
33C6
331
329C
  5
33C7
331
329D
  5
35B3
331
329E
  5
3659
331
329F
  5
365A
331
32A1
  5
36C0
331
32A2
  5
36C1
331
32A4
  5
36C2
331
32A5
  5
36C7
331
32A6
  5
36C9
331
32A7
  5
36CB
331
32A8
  5
36CD
331
32A9
  5
36CF
331
32AA
  5
3A7B
331
32AB
  5
3A7C
331
32AC
  5
3A7D
331
32AD
  5
3A7E
331
32DF
  5
680A
331
32E3
  5
6811
331
3390
  5
6814
331
33B5
  5
6831
331
33B7
  5
6832
331
33B8
  5
6833
331
33BF
  5
6834
331
33C0
  5
6835
331
33C1
  5
6836
331
33C2
  5
6837
331
33C3
  5
6838
331
33C4
  5
6839
331
33C5
  5
683A
331
33C6
  5
683B
331
33C7
  5
683C
331
35B3
  5
6843
331
3659
  5
6952
331
365A
  5
6953
331
36C0
  5
69AE
331
36C1
  5
69AF
331
36C2
  5
69B0
331
36C7
  5
69B9
331
36C9
  5
69BA
331
36CB
  5
69BB
331
36CD
  5
69BC
331
36CF
  5
69BD
331
3A7B
  5
69BE
331
3A7C
  5
69BF
331
3A7D
  5
69C0
331
3A7E
  5
69C1
331
3A7F
  5
69C2
331
3A80
  5
69C3
331
3A81
  5
69C4
331
3A82
  5
69C5
331
3A83
  5
69C6
331
3A84
  5
69C7
331
3A85
  5
69C8
331
3A86
  5
69C9
331
3A87
  5
69CA
331
3A88
  5
69CB
331
3A89
  5
69CC
331
3A8A
  5
69CD
331
3A8B
  5
69CE
331
3AF5
  5
69CF
331
3E37
  5
69D4
331
3E38
  5
69D5
331
3E3A
  5
69DA
331
3E3B
  5
69DB
331
3E3C
  5
69DC
331
609A
  5
69DF
331
60AE
  5
69E0
331
61CB
  5
69E1
331
67EA
  5
24F1
331
67EB
  5
24F2
331
67EC
  5
24F4
331
67ED
  5
24F5
331
67EE
  5
2A0D
331
67EF
  5
2A0E
331
67F0
  5
2A0F
331
67F1
  5
2A10
331
67F2
  5
2A14
331
67F3
  5
2A15
331
67F4
  5
2CAE
331
67F5
  5
2DF0
331
67F6
  5
2DF1
331
67F7
  5
2DF2
331
67F8
  5
2DF6
331
67F9
  5
2DF7
331
67FA
  5
2E03
331
67FB
  5
2E04
331
67FC
  5
32AA
331
67FD
  5
32AB
331
67FE
  5
32AC
331
67FF
  5
32AD
331
6800
  5
32DF
331
6801
  5
32E3
331
6802
  5
3390
331
6803
  5
33B5
331
6804
  5
33B7
331
6805
  5
33B8
331
6806
  5
33BF
331
6807
  5
33C0
331
6808
  5
3A7F
331
6809
  5
3A80
331
680A
  5
3A81
331
680B
  5
3A82
331
680C
  5
3A83
331
680D
  5
3A84
331
680E
  5
3A85
331
680F
  5
3A86
331
6810
  5
3A87
331
6811
  5
3A88
331
6812
  5
3A89
331
6813
  5
3A8A
331
6814
  5
3A8B
331
6815
  5
3AF5
331
6816
  5
3E37
331
6817
  5
3E38
331
6818
  5
3E3A
331
6819
  5
3E3B
331
681A
  5
3E3C
331
681B
  5
609A
331
681C
  5
60AE
331
681D
  5
61CB
331
681E
  5
67EA
331
681F
  5
67EB
331
6820
  5
67EC
331
6821
  5
67ED
331
6822
  5
67EE
331
6823
  5
67EF
331
6824
  5
67F0
331
6825
  5
67F1
331
6826
  5
67F2
331
6827
  5
67F3
331
6828
  5
67F4
331
6829
  5
67F5
331
682A
  5
67F6
331
682B
  5
67F7
331
682C
  5
67F8
331
682D
  5
67F9
331
682E
  5
67FA
331
682F
  5
67FB
331
6830
  5
67FC
331
6831
  5
67FD
331
6832
  5
67FE
331
6833
  5
67FF
331
6834
  5
6800
331
6835
  5
6801
331
6836
  5
6802
331
6837
  5
6803
331
6838
  5
6804
331
6839
  5
6805
331
683A
  5
6806
331
683B
  5
6807
331
683C
  5
6808
331
683D
  5
6809
331
683E
  5
680B
331
683F
  5
680C
331
6840
  5
680D
331
6841
  5
680E
331
6842
  5
680F
331
6843
  5
6810
331
6844
  5
6812
331
6845
  5
6813
331
6846
  5
6815
331
6847
  5
6816
331
6848
  5
6817
331
6849
  5
6818
331
684A
  5
6819
331
684B
  5
681A
331
684C
  5
681B
331
684D
  5
681C
331
684E
  5
681D
331
684F
  5
681E
331
6850
  5
681F
331
6851
  5
6820
331
6852
  5
6821
331
6853
  5
6822
331
6854
  5
6823
331
6855
  5
6824
331
6856
  5
6825
331
6857
  5
6826
331
6858
  5
6827
331
6859
  5
6828
331
685A
  5
6829
331
685B
  5
682A
331
685C
  5
682B
331
685D
  5
682C
331
685E
  5
682D
331
685F
  5
682E
331
6860
  5
682F
331
6861
  5
6830
331
6862
  5
683D
331
6863
  5
683E
331
6864
  5
683F
331
6865
  5
6840
331
6866
  5
6841
331
6867
  5
6842
331
6868
  5
6844
331
6869
  5
6845
331
686A
  5
6846
331
686B
  5
6847
331
686C
  5
6848
331
686D
  5
6849
331
686E
  5
684A
331
686F
  5
684B
331
6870
  5
684C
331
6871
  5
684D
331
6872
  5
684E
331
6873
  5
684F
331
6874
  5
6850
331
6875
  5
6851
331
6876
  5
6852
331
6877
  5
6853
331
6878
  5
6854
331
6879
  5
6855
331
687A
  5
6856
331
687B
  5
6857
331
687C
  5
6858
331
687D
  5
6859
331
687E
  5
685A
331
687F
  5
685B
331
6880
  5
685C
331
6881
  5
685D
331
6882
  5
685E
331
6883
  5
685F
331
6884
  5
6860
331
6885
  5
6861
331
6886
  5
6862
331
6887
  5
6863
331
6888
  5
6864
331
6889
  5
6865
331
688A
  5
6866
331
688B
  5
6867
331
688C
  5
6868
331
688D
  5
6869
331
688E
  5
686A
331
688F
  5
686B
331
6890
  5
686C
331
6891
  5
686D
331
6892
  5
686E
331
6893
  5
686F
331
6894
  5
6870
331
6895
  5
6871
331
6896
  5
6872
331
6897
  5
6873
331
6898
  5
6874
331
6899
  5
6875
331
689A
  5
6876
331
689B
  5
6877
331
689C
  5
6878
331
689D
  5
6879
331
689E
  5
687A
331
689F
  5
687B
331
68A0
  5
687C
331
68A1
  5
687D
331
68A2
  5
687E
331
68A3
  5
687F
331
68A4
  5
6880
331
68A5
  5
6881
331
68A6
  5
6882
331
68A7
  5
6883
331
68A8
  5
6884
331
68A9
  5
6885
331
68AA
  5
6886
331
68AB
  5
6887
331
68AC
  5
6888
331
68AD
  5
6889
331
68AE
  5
688A
331
68AF
  5
688B
331
68B0
  5
688C
331
68B1
  5
688D
331
68B2
  5
688E
331
68B3
  5
688F
331
68B4
  5
6890
331
68B5
  5
6891
331
68B6
  5
6892
331
68B7
  5
6893
331
68B8
  5
6894
331
68B9
  5
6895
331
68BA
  5
6896
331
68BB
  5
6897
331
68BC
  5
6898
331
68BD
  5
6899
331
68BE
  5
689A
331
68BF
  5
689B
331
68C0
  5
689C
331
68C1
  5
689D
331
68C2
  5
689E
331
68C3
  5
689F
331
68C4
  5
68A0
331
68C5
  5
68A1
331
68C6
  5
68A2
331
68C7
  5
68A3
331
68C8
  5
68A4
331
68C9
  5
68A5
331
68CA
  5
68A6
331
68CB
  5
68A7
331
68CC
  5
68A8
331
68CD
  5
68A9
331
68CE
  5
68AA
331
68CF
  5
68AB
331
68D0
  5
68AC
331
68D1
  5
68AD
331
68D2
  5
68AE
331
68D3
  5
68AF
331
68D4
  5
68B0
331
68D5
  5
68B1
331
68D6
  5
68B2
331
68D7
  5
68B3
331
68D8
  5
68B4
331
68D9
  5
68B5
331
68DA
  5
68B6
331
68DB
  5
68B7
331
68DC
  5
68B8
331
68DD
  5
68B9
331
68DE
  5
68BA
331
68DF
  5
68BB
331
68E0
  5
68BC
331
68E1
  5
68BD
331
68E2
  5
68BE
331
68E3
  5
68BF
331
68E4
  5
68C0
331
68E5
  5
68C1
331
68E6
  5
68C2
331
68E7
  5
68C3
331
68E8
  5
68C4
331
68E9
  5
68C5
331
68EA
  5
68C6
331
68EB
  5
68C7
331
68EC
  5
68C8
331
68ED
  5
68C9
331
68EE
  5
68CA
331
68EF
  5
68CB
331
68F0
  5
68CC
331
68F1
  5
68CD
331
68F2
  5
68CE
331
68F3
  5
68CF
331
68F4
  5
68D0
331
68F5
  5
68D1
331
68F6
  5
68D2
331
68F7
  5
68D3
331
68F8
  5
68D4
331
68F9
  5
68D5
331
68FA
  5
68D6
331
68FB
  5
68D7
331
68FC
  5
68D8
331
68FD
  5
68D9
331
68FE
  5
68DA
331
68FF
  5
68DB
331
6900
  5
68DC
331
6901
  5
68DD
331
6902
  5
68DE
331
6903
  5
68DF
331
6904
  5
68E0
331
6905
  5
68E1
331
6906
  5
68E2
331
6907
  5
68E3
331
6908
  5
68E4
331
6909
  5
68E5
331
690A
  5
68E6
331
690B
  5
68E7
331
690C
  5
68E8
331
690D
  5
68E9
331
690E
  5
68EA
331
690F
  5
68EB
331
6910
  5
68EC
331
6911
  5
68ED
331
6912
  5
68EE
331
6913
  5
68EF
331
6914
  5
68F0
331
6915
  5
68F1
331
6916
  5
68F2
331
6917
  5
68F3
331
6918
  5
68F4
331
6919
  5
68F5
331
691A
  5
68F6
331
691B
  5
68F7
331
691C
  5
68F8
331
691D
  5
68F9
331
691E
  5
68FA
331
691F
  5
68FB
331
6920
  5
68FC
331
6921
  5
68FD
331
6922
  5
68FE
331
6923
  5
68FF
331
6924
  5
6900
331
6925
  5
6901
331
6926
  5
6902
331
6927
  5
6903
331
6928
  5
6904
331
6929
  5
6905
331
692A
  5
6906
331
692B
  5
6907
331
692C
  5
6908
331
692D
  5
6909
331
692E
  5
690A
331
692F
  5
690B
331
6930
  5
690C
331
6931
  5
690D
331
6932
  5
690E
331
6933
  5
690F
331
6934
  5
6910
331
6935
  5
6911
331
6936
  5
6912
331
6937
  5
6913
331
6938
  5
6914
331
6939
  5
6915
331
693A
  5
6916
331
693B
  5
6917
331
693C
  5
6918
331
693D
  5
6919
331
693E
  5
691A
331
693F
  5
691B
331
6940
  5
691C
331
6941
  5
691D
331
6942
  5
691E
331
6943
  5
691F
331
6944
  5
6920
331
6945
  5
6921
331
6946
  5
6922
331
6947
  5
6923
331
6948
  5
6924
331
6949
  5
6925
331
694A
  5
6926
331
694B
  5
6927
331
694C
  5
6928
331
694D
  5
6929
331
694E
  5
692A
331
694F
  5
692B
331
6950
  5
692C
331
6951
  5
692D
331
6952
  5
692E
331
6953
  5
692F
331
6954
  5
6930
331
6955
  5
6931
331
6956
  5
6932
331
6957
  5
6933
331
6958
  5
6934
331
6959
  5
6935
331
695A
  5
6936
331
695B
  5
6937
331
695C
  5
6938
331
695D
  5
6939
331
695E
  5
693A
331
695F
  5
693B
331
6960
  5
693C
331
6961
  5
693D
331
6962
  5
693E
331
6963
  5
693F
331
6964
  5
6940
331
6965
  5
6941
331
6966
  5
6942
331
6967
  5
6943
331
6968
  5
6944
331
6969
  5
6945
331
696A
  5
6946
331
696B
  5
6947
331
696C
  5
6948
331
696D
  5
6949
331
696E
  5
694A
331
696F
  5
694B
331
6970
  5
694C
331
6971
  5
694D
331
6972
  5
694E
331
6973
  5
694F
331
6974
  5
6950
331
6975
  5
6951
331
6976
  5
6954
331
6977
  5
6955
331
6978
  5
6956
331
6979
  5
6957
331
697A
  5
6958
331
697B
  5
6959
331
697C
  5
695A
331
697D
  5
695B
331
697E
  5
695C
331
697F
  5
695D
331
6980
  5
695E
331
6981
  5
695F
331
6982
  5
6960
331
6983
  5
6961
331
6984
  5
6962
331
6985
  5
6963
331
6986
  5
6964
331
6987
  5
6965
331
6988
  5
6966
331
6989
  5
6967
331
698A
  5
6968
331
698B
  5
6969
331
698C
  5
696A
331
698D
  5
696B
331
698E
  5
696C
331
698F
  5
696D
331
6990
  5
696E
331
6991
  5
696F
331
6992
  5
6970
331
6993
  5
6971
331
6994
  5
6972
331
6995
  5
6973
331
6996
  5
6974
331
6997
  5
6975
331
6998
  5
6976
331
6999
  5
6977
331
699A
  5
6978
331
699B
  5
6979
331
699C
  5
697A
331
699D
  5
697B
331
699E
  5
697C
331
699F
  5
697D
331
69A0
  5
697E
331
69A1
  5
697F
331
69A2
  5
6980
331
69A3
  5
6981
331
69A4
  5
6982
331
69A5
  5
6983
331
69A6
  5
6984
331
69A7
  5
6985
331
69A8
  5
6986
331
69A9
  5
6987
331
69AA
  5
6988
331
69AB
  5
6989
331
69AC
  5
698A
331
69AD
  5
698B
331
69AE
  5
698C
331
69AF
  5
698D
331
69B0
  5
698E
331
69B1
  5
698F
331
69B2
  5
6990
331
69B3
  5
6991
331
69B4
  5
6992
331
69B5
  5
6993
331
69B6
  5
6994
331
69B7
  5
6995
331
69B8
  5
6996
331
69B9
  5
6997
331
69BA
  5
6998
331
69BB
  5
6999
331
69BC
  5
699A
331
69BD
  5
699B
331
69BE
  5
699C
331
69BF
  5
699D
331
69C0
  5
699E
331
69C1
  5
699F
331
69C2
  5
69A0
331
69C3
  5
69A1
331
69C4
  5
69A2
331
69C5
  5
69A3
331
69C6
  5
69A4
331
69C7
  5
69A5
331
69C8
  5
69A6
331
69C9
  5
69A7
331
69CA
  5
69A8
331
69CB
  5
69A9
331
69CC
  5
69AA
331
69CD
  5
69AB
331
69CE
  5
69AC
331
69CF
  5
69AD
331
69D0
  5
69B1
331
69D1
  5
69B2
331
69D2
  5
69B3
331
69D3
  5
69B4
331
69D4
  5
69B5
331
69D5
  5
69B6
331
69D6
  5
69B7
331
69D7
  5
69B8
331
69D8
  5
69D0
331
69D9
  5
69D1
331
69DA
  5
69D2
331
69DB
  5
69D3
331
69DC
  5
69D6
331
69DD
  5
69D7
331
69DE
  5
69D8
331
69DF
  5
69D9
331
69E0
  5
69DD
331
69E1
  5
69DE
  0
ACDBDETAILVIEWSTYLE
  5
3DCB
102
{ACAD_XDICTIONARY
360
6A24
102
}
102
{ACAD_REACTORS
330
3DCA
102
}
330
3DCA
100
AcDbModelDocViewStyle
 70
     0
  3
Metric50
290
     0
100
AcDbDetailViewStyle
 70
     0
 71
     0
 90
        3
 71
     1
340
11
 40
5.0
340
0
 40
5.0
300

 40
0.0
280
     1
 71
     2
340
16
 90
       25
 71
     3
340
11
 40
5.0
 90
        0
 40
15.0
 90
        1
300
%<\AcVar ViewDetailId>% (%<\AcVar ViewScale \f "%sn">%)
 71
     4
340
16
 90
       25
340
16
 90
       25
280
     0
1001
ACAD
1000
AcRTDxfName
1000
ACDBDETAILVIEWSTYLE
1000
AcRTDxfName
1000
ACDBDETAILVIEWSTYLE
1000
AcRTDxfName
1000
ACDBDETAILVIEWSTYLE
1000
AcRTDxfName
1000
ACDBDETAILVIEWSTYLE
1000
AcRTDxfName
1000
ACDBDETAILVIEWSTYLE
  0
LAYOUT
  5
22
102
{ACAD_XDICTIONARY
360
69E6
102
}
102
{ACAD_REACTORS
330
1A
102
}
330
1A
100
AcDbPlotSettings
  1

  2
Canon LBP3800 LIPSLX
  4
A4
  6

 40
5.873749732971191
 41
5.873747825622558
 42
5.873748779296875
 43
5.873748779296875
 44
209.9733276367187
 45
296.9259948730469
 46
0.61
 47
0.59
 48
444.9983463649091
 49
-1090.000000918417
140
2395.001653364909
141
1659.999999081583
142
1.0
143
10.0
 70
 11940
 72
     1
 73
     1
 74
     2
  7
monochrome.ctb
 75
     0
147
0.1
148
0.0
149
0.0
100
AcDbLayout
  1
Model
 70
     1
 71
     0
 10
0.0
 20
0.0
 11
12.0
 21
9.0
 12
0.0
 22
0.0
 32
0.0
 14
0.0
 24
0.0
 34
0.0
 15
0.0
 25
0.0
 35
0.0
146
0.0
 13
0.0
 23
0.0
 33
0.0
 16
1.0
 26
0.0
 36
0.0
 17
0.0
 27
1.0
 37
0.0
 76
     0
330
1F
331
3AF7
  0
LAYOUT
  5
1CD1
102
{ACAD_XDICTIONARY
360
69E8
102
}
102
{ACAD_REACTORS
330
1A
102
}
330
1A
100
AcDbPlotSettings
  1

  2
\\ek_srv\Canon LBP-880 LIPS4
  4

  6

 40
0.0
 41
0.0
 42
0.0
 43
0.0
 44
0.0
 45
0.0
 46
0.0
 47
0.0
 48
0.0
 49
0.0
140
0.0
141
0.0
142
1.0
143
1.0
 70
   688
 72
     0
 73
     0
 74
     5
  7
monochrome.ctb
 75
    16
147
1.0
148
0.0
149
0.0
100
AcDbLayout
  1
\U+FF9A\U+FF72\U+FF71\U+FF73\U+FF841
 70
     1
 71
     1
 10
0.0
 20
0.0
 11
12.0
 21
9.0
 12
0.0
 22
0.0
 32
0.0
 14
0.0
 24
0.0
 34
0.0
 15
0.0
 25
0.0
 35
0.0
146
0.0
 13
0.0
 23
0.0
 33
0.0
 16
1.0
 26
0.0
 36
0.0
 17
0.0
 27
1.0
 37
0.0
 76
     0
330
1CD0
  0
MATERIAL
  5
3B02
102
{ACAD_XDICTIONARY
360
3B03
102
}
102
{ACAD_REACTORS
330
3AF9
102
}
330
3AF9
100
AcDbMaterial
  1
ByBlock
 72
     0
 43
0.0008202099737533
 43
0.0
 43
0.0
 43
0.0
 43
0.0
 43
0.0008202099737533
 43
0.0
 43
0.0
 43
0.0
 43
0.0
 43
1.0
 43
0.0
 43
0.0
 43
0.0
 43
0.0
 43
1.0
 77
     0
 47
0.0008202099737533
 47
0.0
 47
0.0
 47
0.0
 47
0.0
 47
0.0008202099737533
 47
0.0
 47
0.0
 47
0.0
 47
0.0
 47
1.0
 47
0.0
 47
0.0
 47
0.0
 47
0.0
 47
1.0
171
     0
 49
0.0008202099737533
 49
0.0
 49
0.0
 49
0.0
 49
0.0
 49
0.0008202099737533
 49
0.0
 49
0.0
 49
0.0
 49
0.0
 49
1.0
 49
0.0
 49
0.0
 49
0.0
 49
0.0
 49
1.0
175
     0
142
0.0008202099737533
142
0.0
142
0.0
142
0.0
142
0.0
142
0.0008202099737533
142
0.0
142
0.0
142
0.0
142
0.0
142
1.0
142
0.0
142
0.0
142
0.0
142
0.0
142
1.0
179
     0
144
0.0008202099737533
144
0.0
144
0.0
144
0.0
144
0.0
144
0.0008202099737533
144
0.0
144
0.0
144
0.0
144
0.0
144
1.0
144
0.0
144
0.0
144
0.0
144
0.0
144
1.0
147
0.0008202099737533
147
0.0
147
0.0
147
0.0
147
0.0
147
0.0008202099737533
147
0.0
147
0.0
147
0.0
147
0.0
147
1.0
147
0.0
147
0.0
147
0.0
147
0.0
147
1.0
  0
MATERIAL
  5
3AFA
102
{ACAD_XDICTIONARY
360
3AFB
102
}
102
{ACAD_REACTORS
330
3AF9
102
}
330
3AF9
100
AcDbMaterial
  1
ByLayer
 72
     0
 43
0.0008202099737533
 43
0.0
 43
0.0
 43
0.0
 43
0.0
 43
0.0008202099737533
 43
0.0
 43
0.0
 43
0.0
 43
0.0
 43
1.0
 43
0.0
 43
0.0
 43
0.0
 43
0.0
 43
1.0
 77
     0
 47
0.0008202099737533
 47
0.0
 47
0.0
 47
0.0
 47
0.0
 47
0.0008202099737533
 47
0.0
 47
0.0
 47
0.0
 47
0.0
 47
1.0
 47
0.0
 47
0.0
 47
0.0
 47
0.0
 47
1.0
171
     0
 49
0.0008202099737533
 49
0.0
 49
0.0
 49
0.0
 49
0.0
 49
0.0008202099737533
 49
0.0
 49
0.0
 49
0.0
 49
0.0
 49
1.0
 49
0.0
 49
0.0
 49
0.0
 49
0.0
 49
1.0
175
     0
142
0.0008202099737533
142
0.0
142
0.0
142
0.0
142
0.0
142
0.0008202099737533
142
0.0
142
0.0
142
0.0
142
0.0
142
1.0
142
0.0
142
0.0
142
0.0
142
0.0
142
1.0
179
     0
144
0.0008202099737533
144
0.0
144
0.0
144
0.0
144
0.0
144
0.0008202099737533
144
0.0
144
0.0
144
0.0
144
0.0
144
1.0
144
0.0
144
0.0
144
0.0
144
0.0
144
1.0
147
0.0008202099737533
147
0.0
147
0.0
147
0.0
147
0.0
147
0.0008202099737533
147
0.0
147
0.0
147
0.0
147
0.0
147
1.0
147
0.0
147
0.0
147
0.0
147
0.0
147
1.0
  0
MATERIAL
  5
3B0A
102
{ACAD_XDICTIONARY
360
3B0B
102
}
102
{ACAD_REACTORS
330
3AF9
102
}
330
3AF9
100
AcDbMaterial
  1
Global
 72
     0
 43
0.0008202099737533
 43
0.0
 43
0.0
 43
0.0
 43
0.0
 43
0.0008202099737533
 43
0.0
 43
0.0
 43
0.0
 43
0.0
 43
1.0
 43
0.0
 43
0.0
 43
0.0
 43
0.0
 43
1.0
 77
     0
 47
0.0008202099737533
 47
0.0
 47
0.0
 47
0.0
 47
0.0
 47
0.0008202099737533
 47
0.0
 47
0.0
 47
0.0
 47
0.0
 47
1.0
 47
0.0
 47
0.0
 47
0.0
 47
0.0
 47
1.0
171
     0
 49
0.0008202099737533
 49
0.0
 49
0.0
 49
0.0
 49
0.0
 49
0.0008202099737533
 49
0.0
 49
0.0
 49
0.0
 49
0.0
 49
1.0
 49
0.0
 49
0.0
 49
0.0
 49
0.0
 49
1.0
175
     0
142
0.0008202099737533
142
0.0
142
0.0
142
0.0
142
0.0
142
0.0008202099737533
142
0.0
142
0.0
142
0.0
142
0.0
142
1.0
142
0.0
142
0.0
142
0.0
142
0.0
142
1.0
179
     0
144
0.0008202099737533
144
0.0
144
0.0
144
0.0
144
0.0
144
0.0008202099737533
144
0.0
144
0.0
144
0.0
144
0.0
144
1.0
144
0.0
144
0.0
144
0.0
144
0.0
144
1.0
147
0.0008202099737533
147
0.0
147
0.0
147
0.0
147
0.0
147
0.0008202099737533
147
0.0
147
0.0
147
0.0
147
0.0
147
1.0
147
0.0
147
0.0
147
0.0
147
0.0
147
1.0
  0
MLEADERSTYLE
  5
3B3C
102
{ACAD_REACTORS
330
3B3B
102
}
330
3B3B
100
AcDbMLeaderStyle
170
     2
171
     1
172
     0
 90
        2
 40
0.0
 41
0.0
173
     1
 91
-1056964608
340
14
 92
       -2
290
     1
 42
2.0
291
     1
 43
0.36
  3
Standard
 44
4.0
300

342
11
174
     1
178
     6
175
     1
176
     0
 93
-1056964608
 45
4.0
292
     0
297
     0
 46
4.0
 94
-1056964608
 47
1.0
 49
1.0
140
1.0
293
     1
141
0.0
294
     1
177
     0
142
1.0
295
     0
296
     0
143
0.125
1001
ACAD_MLEADERVER
1070
     2
  0
MLINESTYLE
  5
18
102
{ACAD_REACTORS
330
17
102
}
330
17
100
AcDbMlineStyle
  2
STANDARD
 70
     0
  3

 62
   256
 51
90.0
 52
90.0
 71
     2
 49
0.5
 62
   256
  6
BYLAYER
 49
-0.5
 62
   256
  6
BYLAYER
  0
ACDBPLACEHOLDER
  5
F
102
{ACAD_REACTORS
330
E
102
}
330
E
  0
ACDBPLACEHOLDER
  5
29
102
{ACAD_REACTORS
330
E
102
}
330
E
  0
SCALE
  5
3B2A
102
{ACAD_REACTORS
330
3B29
102
}
330
3B29
100
AcDbScale
 70
     0
300
1:1
140
1.0
141
1.0
290
     1
  0
SCALE
  5
3B2B
102
{ACAD_REACTORS
330
3B29
102
}
330
3B29
100
AcDbScale
 70
     0
300
1:2
140
1.0
141
2.0
290
     0
  0
SCALE
  5
3B2C
102
{ACAD_REACTORS
330
3B29
102
}
330
3B29
100
AcDbScale
 70
     0
300
1:4
140
1.0
141
4.0
290
     0
  0
SCALE
  5
3B2D
102
{ACAD_REACTORS
330
3B29
102
}
330
3B29
100
AcDbScale
 70
     0
300
1:5
140
1.0
141
5.0
290
     0
  0
SCALE
  5
3B2E
102
{ACAD_REACTORS
330
3B29
102
}
330
3B29
100
AcDbScale
 70
     0
300
1:8
140
1.0
141
8.0
290
     0
  0
SCALE
  5
3B2F
102
{ACAD_REACTORS
330
3B29
102
}
330
3B29
100
AcDbScale
 70
     0
300
1:10
140
1.0
141
10.0
290
     0
  0
SCALE
  5
3B30
102
{ACAD_REACTORS
330
3B29
102
}
330
3B29
100
AcDbScale
 70
     0
300
1:16
140
1.0
141
16.0
290
     0
  0
SCALE
  5
3B31
102
{ACAD_REACTORS
330
3B29
102
}
330
3B29
100
AcDbScale
 70
     0
300
1:20
140
1.0
141
20.0
290
     0
  0
SCALE
  5
3B32
102
{ACAD_REACTORS
330
3B29
102
}
330
3B29
100
AcDbScale
 70
     0
300
1:30
140
1.0
141
30.0
290
     0
  0
SCALE
  5
3B33
102
{ACAD_REACTORS
330
3B29
102
}
330
3B29
100
AcDbScale
 70
     0
300
1:40
140
1.0
141
40.0
290
     0
  0
SCALE
  5
3B34
102
{ACAD_REACTORS
330
3B29
102
}
330
3B29
100
AcDbScale
 70
     0
300
1:50
140
1.0
141
50.0
290
     0
  0
SCALE
  5
3B35
102
{ACAD_REACTORS
330
3B29
102
}
330
3B29
100
AcDbScale
 70
     0
300
1:100
140
1.0
141
100.0
290
     0
  0
SCALE
  5
3B36
102
{ACAD_REACTORS
330
3B29
102
}
330
3B29
100
AcDbScale
 70
     0
300
2:1
140
2.0
141
1.0
290
     0
  0
SCALE
  5
3B37
102
{ACAD_REACTORS
330
3B29
102
}
330
3B29
100
AcDbScale
 70
     0
300
4:1
140
4.0
141
1.0
290
     0
  0
SCALE
  5
3B38
102
{ACAD_REACTORS
330
3B29
102
}
330
3B29
100
AcDbScale
 70
     0
300
8:1
140
8.0
141
1.0
290
     0
  0
SCALE
  5
3B39
102
{ACAD_REACTORS
330
3B29
102
}
330
3B29
100
AcDbScale
 70
     0
300
10:1
140
10.0
141
1.0
290
     0
  0
SCALE
  5
3B3A
102
{ACAD_REACTORS
330
3B29
102
}
330
3B29
100
AcDbScale
 70
     0
300
100:1
140
100.0
141
1.0
290
     0
  0
ACDBSECTIONVIEWSTYLE
  5
3DC9
102
{ACAD_XDICTIONARY
360
6A22
102
}
102
{ACAD_REACTORS
330
3DC8
102
}
330
3DC8
100
AcDbModelDocViewStyle
 70
     0
  3
Metric50
290
     0
100
AcDbSectionViewStyle
 70
     0
 71
     0
 90
      102
 71
     1
340
11
 40
5.0
340
0
340
0
 40
5.0
300
I, O, Q, S, X, Z
 40
10.0
 90
        0
 40
2.5
 90
        0
 71
     2
340
16
 90
       25
340
16
 90
       50
 40
5.0
 40
2.5
 40
5.0
 71
     3
340
11
 40
5.0
 90
        0
 40
15.0
 90
        1
300
%<\AcVar ViewSectionStartId>%-%<\AcVar ViewSectionEndId>% (%<\AcVar ViewScale \f "%sn">%)
 71
     4
300
ANSI31
 40
1.0
 90
        0
290
     0
290
     0
 90
        6
 40
0.0
 40
1.570796326794896
 40
0.2617993877991494
 40
1.308996938995747
 40
-0.2617993877991494
 40
1.832595714594046
1001
ACAD
1000
AcRTDxfName
1000
ACDBSECTIONVIEWSTYLE
1000
AcRTDxfName
1000
ACDBSECTIONVIEWSTYLE
1000
AcRTDxfName
1000
ACDBSECTIONVIEWSTYLE
1000
AcRTDxfName
1000
ACDBSECTIONVIEWSTYLE
1000
AcRTDxfName
1000
ACDBSECTIONVIEWSTYLE
  0
TABLESTYLE
  5
3B28
102
{ACAD_XDICTIONARY
360
3B63
102
}
102
{ACAD_REACTORS
330
3B27
102
}
330
3B27
100
AcDbTableStyle
  3
Standard
 70
     0
 71
     0
 40
1.5
 41
1.5
280
     0
281
     0
  7
Standard
140
4.5
170
     2
 62
     0
 63
     7
283
     0
274
    -2
284
     1
 64
     0
275
    -2
285
     1
 65
     0
276
    -2
286
     1
 66
     0
277
    -2
287
     1
 67
     0
278
    -2
288
     1
 68
     0
279
    -2
289
     1
 69
     0
  7
Standard
140
6.0
170
     5
 62
     0
 63
     7
283
     0
274
    -2
284
     1
 64
     0
275
    -2
285
     1
 65
     0
276
    -2
286
     1
 66
     0
277
    -2
287
     1
 67
     0
278
    -2
288
     1
 68
     0
279
    -2
289
     1
 69
     0
  7
Standard
140
4.5
170
     5
 62
     0
 63
     7
283
     0
274
    -2
284
     1
 64
     0
275
    -2
285
     1
 65
     0
276
    -2
286
     1
 66
     0
277
    -2
287
     1
 67
     0
278
    -2
288
     1
 68
     0
279
    -2
289
     1
 69
     0
  0
VISUALSTYLE
  5
3B18
102
{ACAD_XDICTIONARY
360
69F7
102
}
102
{ACAD_REACTORS
330
3B12
102
}
330
3B12
100
AcDbVisualStyle
  2
2dWireframe
 70
     4
 71
     0
 72
     2
 73
     0
 90
        0
 40
-0.6
 41
-30.0
 62
     5
 63
     7
 74
     1
 91
        4
 64
     7
 65
   257
 75
     1
175
     1
 42
1.0
 92
        0
 66
   257
 43
1.0
 76
     1
 77
     6
 78
     2
 67
     7
 79
     5
170
     0
171
     0
290
     0
174
     0
 93
        1
 44
0.0
173
     0
291
     0
 45
0.0
1001
ACAD
1000
AcDbSavedByObjectVersion
1070
     0
  0
VISUALSTYLE
  5
3B1A
102
{ACAD_XDICTIONARY
360
69FB
102
}
102
{ACAD_REACTORS
330
3B12
102
}
330
3B12
100
AcDbVisualStyle
  2
3D Hidden
 70
     6
 71
     1
 72
     2
 73
     2
 90
        0
 40
-0.6
 41
-30.0
 62
     5
 63
     7
 74
     2
 91
        2
 64
     7
 65
   257
 75
     2
175
     1
 42
179.0
 92
        0
 66
   257
 43
1.0
 76
     1
 77
     6
 78
     2
 67
     7
 79
     3
170
     0
171
     0
290
     0
174
     0
 93
        1
 44
0.0
173
     0
291
     0
 45
0.0
1001
ACAD
1000
AcDbSavedByObjectVersion
1070
     0
  0
VISUALSTYLE
  5
3B19
102
{ACAD_XDICTIONARY
360
69F9
102
}
102
{ACAD_REACTORS
330
3B12
102
}
330
3B12
100
AcDbVisualStyle
  2
3dWireframe
 70
     5
 71
     0
 72
     2
 73
     0
 90
        0
 40
-0.6
 41
-30.0
 62
     5
 63
     7
 74
     1
 91
        4
 64
     7
 65
   257
 75
     1
175
     1
 42
1.0
 92
        0
 66
   257
 43
1.0
 76
     1
 77
     6
 78
     2
 67
     7
 79
     5
170
     0
171
     0
290
     0
174
     0
 93
        1
 44
0.0
173
     0
291
     0
 45
0.0
1001
ACAD
1000
AcDbSavedByObjectVersion
1070
     0
  0
VISUALSTYLE
  5
3B17
102
{ACAD_XDICTIONARY
360
69F5
102
}
102
{ACAD_REACTORS
330
3B12
102
}
330
3B12
100
AcDbVisualStyle
  2
Basic
 70
     7
 71
     1
 72
     0
 73
     1
 90
        0
 40
-0.6
 41
-30.0
 62
     5
 63
     7
 74
     0
 91
        4
 64
     7
 65
   257
 75
     1
175
     1
 42
1.0
 92
        8
 66
     7
 43
1.0
 76
     1
 77
     6
 78
     2
 67
     7
 79
     5
170
     0
171
     0
290
     0
174
     0
 93
        1
 44
0.0
173
     0
291
     1
 45
0.0
1001
ACAD
1000
AcDbSavedByObjectVersion
1070
     0
  0
VISUALSTYLE
  5
3B1E
102
{ACAD_XDICTIONARY
360
6A03
102
}
102
{ACAD_REACTORS
330
3B12
102
}
330
3B12
100
AcDbVisualStyle
  2
Brighten
 70
    12
 71
     2
 72
     2
 73
     0
 90
        0
 40
-0.6
 41
-30.0
 62
     5
 63
     7
 74
     1
 91
        4
 64
     7
 65
   257
 75
     1
175
     1
 42
1.0
 92
        8
 66
     7
 43
1.0
 76
     1
 77
     6
 78
     2
 67
     7
 79
     5
170
     0
171
     0
290
     0
174
     0
 93
        1
 44
50.0
173
     0
291
     1
 45
0.0
1001
ACAD
1000
AcDbSavedByObjectVersion
1070
     0
  0
VISUALSTYLE
  5
3B22
102
{ACAD_XDICTIONARY
360
6A0B
102
}
102
{ACAD_REACTORS
330
3B12
102
}
330
3B12
100
AcDbVisualStyle
  2
ColorChange
 70
    16
 71
     2
 72
     2
 73
     3
 90
        0
 40
-0.6
 41
-30.0
 62
     5
 63
     8
 74
     1
 91
        4
 64
     7
 65
   257
 75
     1
175
     1
 42
1.0
 92
        8
 66
     8
 43
1.0
 76
     1
 77
     6
 78
     2
 67
     7
 79
     5
170
     0
171
     0
290
     0
174
     0
 93
        1
 44
0.0
173
     0
291
     1
 45
0.0
1001
ACAD
1000
AcDbSavedByObjectVersion
1070
     0
  0
VISUALSTYLE
  5
3B1B
102
{ACAD_XDICTIONARY
360
69FD
102
}
102
{ACAD_REACTORS
330
3B12
102
}
330
3B12
100
AcDbVisualStyle
  2
Conceptual
 70
     9
 71
     3
 72
     2
 73
     0
 90
        0
 40
-0.6
 41
-30.0
 62
     5
 63
     7
 74
     2
 91
        2
 64
     7
 65
   257
 75
     1
175
     1
 42
179.0
 92
        8
 66
     7
 43
1.0
 76
     1
 77
     6
 78
     2
 67
     7
 79
     3
170
     0
171
     0
290
     0
174
     0
 93
        1
 44
0.0
173
     0
291
     0
 45
0.0
1001
ACAD
1000
AcDbSavedByObjectVersion
1070
     0
  0
VISUALSTYLE
  5
3B1D
102
{ACAD_XDICTIONARY
360
6A01
102
}
102
{ACAD_REACTORS
330
3B12
102
}
330
3B12
100
AcDbVisualStyle
  2
Dim
 70
    11
 71
     2
 72
     2
 73
     0
 90
        0
 40
-0.6
 41
-30.0
 62
     5
 63
     7
 74
     1
 91
        4
 64
     7
 65
   257
 75
     1
175
     1
 42
1.0
 92
        8
 66
     7
 43
1.0
 76
     1
 77
     6
 78
     2
 67
     7
 79
     5
170
     0
171
     0
290
     0
174
     0
 93
        1
 44
-50.0
173
     0
291
     1
 45
0.0
1001
ACAD
1000
AcDbSavedByObjectVersion
1070
     0
  0
VISUALSTYLE
  5
3B25
102
{ACAD_XDICTIONARY
360
6A11
102
}
102
{ACAD_REACTORS
330
3B12
102
}
330
3B12
100
AcDbVisualStyle
  2
EdgeColorOff
 70
    22
 71
     2
 72
     2
 73
     0
 90
        0
 40
-0.6
 41
-30.0
 62
     5
 63
     7
 74
     1
 91
        4
 64
     7
 65
   257
 75
     1
175
     1
 42
1.0
 92
        8
 66
     7
 43
1.0
 76
     1
 77
     6
 78
     2
 67
     7
 79
     5
170
     0
171
     0
290
     0
174
     0
 93
        1
 44
0.0
173
     0
291
     1
 45
0.0
1001
ACAD
1000
AcDbSavedByObjectVersion
1070
     0
  0
VISUALSTYLE
  5
3B21
102
{ACAD_XDICTIONARY
360
6A09
102
}
102
{ACAD_REACTORS
330
3B12
102
}
330
3B12
100
AcDbVisualStyle
  2
Facepattern
 70
    15
 71
     2
 72
     2
 73
     0
 90
        0
 40
-0.6
 41
-30.0
 62
     5
 63
     7
 74
     1
 91
        4
 64
     7
 65
   257
 75
     1
175
     1
 42
1.0
 92
        8
 66
     7
 43
1.0
 76
     1
 77
     6
 78
     2
 67
     7
 79
     5
170
     0
171
     0
290
     0
174
     0
 93
        1
 44
0.0
173
     0
291
     1
 45
0.0
1001
ACAD
1000
AcDbSavedByObjectVersion
1070
     0
  0
VISUALSTYLE
  5
3B13
102
{ACAD_XDICTIONARY
360
69ED
102
}
102
{ACAD_REACTORS
330
3B12
102
}
330
3B12
100
AcDbVisualStyle
  2
Flat
 70
     0
 71
     2
 72
     1
 73
     1
 90
        2
 40
-0.6
 41
30.0
 62
     5
 63
     7
 74
     0
 91
        4
 64
     7
 65
   257
 75
     1
175
     1
 42
1.0
 92
        8
 66
     7
 43
1.0
 76
     1
 77
     6
 78
     2
 67
     7
 79
     5
170
     0
171
     0
290
     0
174
     0
 93
       13
 44
0.0
173
     0
291
     1
 45
0.0
1001
ACAD
1000
AcDbSavedByObjectVersion
1070
     0
  0
VISUALSTYLE
  5
3B14
102
{ACAD_XDICTIONARY
360
69EF
102
}
102
{ACAD_REACTORS
330
3B12
102
}
330
3B12
100
AcDbVisualStyle
  2
FlatWithEdges
 70
     1
 71
     2
 72
     1
 73
     1
 90
        2
 40
-0.6
 41
30.0
 62
     5
 63
     7
 74
     1
 91
        4
 64
     7
 65
   257
 75
     1
175
     1
 42
1.0
 92
        0
 66
   257
 43
1.0
 76
     1
 77
     6
 78
     2
 67
     7
 79
     5
170
     0
171
     0
290
     0
174
     0
 93
       13
 44
0.0
173
     0
291
     1
 45
0.0
1001
ACAD
1000
AcDbSavedByObjectVersion
1070
     0
  0
VISUALSTYLE
  5
3B15
102
{ACAD_XDICTIONARY
360
69F1
102
}
102
{ACAD_REACTORS
330
3B12
102
}
330
3B12
100
AcDbVisualStyle
  2
Gouraud
 70
     2
 71
     2
 72
     2
 73
     1
 90
        2
 40
-0.6
 41
30.0
 62
     5
 63
     7
 74
     0
 91
        4
 64
     7
 65
   257
 75
     1
175
     1
 42
1.0
 92
        0
 66
     7
 43
1.0
 76
     1
 77
     6
 78
     2
 67
     7
 79
     5
170
     0
171
     0
290
     0
174
     0
 93
       13
 44
0.0
173
     0
291
     1
 45
0.0
1001
ACAD
1000
AcDbSavedByObjectVersion
1070
     0
  0
VISUALSTYLE
  5
3B16
102
{ACAD_XDICTIONARY
360
69F3
102
}
102
{ACAD_REACTORS
330
3B12
102
}
330
3B12
100
AcDbVisualStyle
  2
GouraudWithEdges
 70
     3
 71
     2
 72
     2
 73
     1
 90
        2
 40
-0.6
 41
30.0
 62
     5
 63
     7
 74
     1
 91
        4
 64
     7
 65
   257
 75
     1
175
     1
 42
1.0
 92
        0
 66
   257
 43
1.0
 76
     1
 77
     6
 78
     2
 67
     7
 79
     5
170
     0
171
     0
290
     0
174
     0
 93
       13
 44
0.0
173
     0
291
     1
 45
0.0
1001
ACAD
1000
AcDbSavedByObjectVersion
1070
     0
  0
VISUALSTYLE
  5
3DC2
102
{ACAD_XDICTIONARY
360
6A16
102
}
102
{ACAD_REACTORS
330
3B12
102
}
330
3B12
100
AcDbVisualStyle
  2
Hidden
 70
     6
 71
     1
 72
     2
 73
     2
 90
        0
 40
-0.6
 41
-30.0
 62
     5
 63
     7
 74
     2
 91
        2
 64
     7
 65
   257
 75
     2
175
     1
 42
40.0
 92
        0
 66
   257
 43
1.0
 76
     1
 77
     6
 78
     2
 67
     7
 79
     3
170
     0
171
     0
290
     0
174
     0
 93
        1
 44
0.0
173
     0
291
     0
 45
0.0
1001
ACAD
1000
AcDbSavedByObjectVersion
1070
     0
  0
VISUALSTYLE
  5
3B23
102
{ACAD_XDICTIONARY
360
6A0D
102
}
102
{ACAD_REACTORS
330
3B12
102
}
330
3B12
100
AcDbVisualStyle
  2
JitterOff
 70
    20
 71
     2
 72
     2
 73
     0
 90
        0
 40
-0.6
 41
-30.0
 62
     5
 63
     7
 74
     1
 91
        4
 64
     7
 65
   257
 75
     1
175
     1
 42
1.0
 92
       10
 66
     7
 43
1.0
 76
     1
 77
     6
 78
     2
 67
     7
 79
     5
170
     0
171
     0
290
     0
174
     0
 93
        1
 44
0.0
173
     0
291
     1
 45
0.0
1001
ACAD
1000
AcDbSavedByObjectVersion
1070
     0
  0
VISUALSTYLE
  5
3B20
102
{ACAD_XDICTIONARY
360
6A07
102
}
102
{ACAD_REACTORS
330
3B12
102
}
330
3B12
100
AcDbVisualStyle
  2
Linepattern
 70
    14
 71
     2
 72
     2
 73
     0
 90
        0
 40
-0.6
 41
-30.0
 62
     5
 63
     7
 74
     1
 91
        4
 64
     7
 65
   257
 75
     7
175
     7
 42
1.0
 92
        8
 66
     7
 43
1.0
 76
     1
 77
     6
 78
     2
 67
     7
 79
     5
170
     0
171
     0
290
     0
174
     0
 93
        1
 44
0.0
173
     0
291
     1
 45
0.0
1001
ACAD
1000
AcDbSavedByObjectVersion
1070
     0
  0
VISUALSTYLE
  5
3B24
102
{ACAD_XDICTIONARY
360
6A0F
102
}
102
{ACAD_REACTORS
330
3B12
102
}
330
3B12
100
AcDbVisualStyle
  2
OverhangOff
 70
    21
 71
     2
 72
     2
 73
     0
 90
        0
 40
-0.6
 41
-30.0
 62
     5
 63
     7
 74
     1
 91
        4
 64
     7
 65
   257
 75
     1
175
     1
 42
1.0
 92
        9
 66
     7
 43
1.0
 76
     1
 77
     6
 78
     2
 67
     7
 79
     5
170
     0
171
     0
290
     0
174
     0
 93
        1
 44
0.0
173
     0
291
     1
 45
0.0
1001
ACAD
1000
AcDbSavedByObjectVersion
1070
     0
  0
VISUALSTYLE
  5
3B1C
102
{ACAD_XDICTIONARY
360
69FF
102
}
102
{ACAD_REACTORS
330
3B12
102
}
330
3B12
100
AcDbVisualStyle
  2
Realistic
 70
     8
 71
     2
 72
     2
 73
     0
 90
        0
 40
-0.6
 41
-30.0
 62
     5
 63
     7
 74
     1
 91
        0
 64
     7
 65
   257
 75
     1
175
     1
 42
1.0
 92
        8
 66
     8
 43
1.0
 76
     1
 77
     6
 78
     2
 67
     7
 79
     5
170
     0
171
     0
290
     0
174
     0
 93
       13
 44
0.0
173
     0
291
     0
 45
0.0
1001
ACAD
1000
AcDbSavedByObjectVersion
1070
     0
  0
VISUALSTYLE
  5
3DC7
102
{ACAD_XDICTIONARY
360
6A20
102
}
102
{ACAD_REACTORS
330
3B12
102
}
330
3B12
100
AcDbVisualStyle
  2
Shaded
 70
    27
 71
     2
 72
     2
 73
     1
 90
        2
 40
-0.6
 41
30.0
 62
     5
 63
     7
 74
     0
 91
        4
 64
     7
 65
   257
 75
     1
175
     1
 42
1.0
 92
        8
 66
   257
 43
1.0
 76
     1
 77
     6
 78
     2
 67
     8
 79
     3
170
     0
171
     0
290
     0
174
     0
 93
        5
 44
0.0
173
     0
291
     0
 45
0.0
1001
ACAD
1000
AcDbSavedByObjectVersion
1070
     0
  0
VISUALSTYLE
  5
3DC6
102
{ACAD_XDICTIONARY
360
6A1E
102
}
102
{ACAD_REACTORS
330
3B12
102
}
330
3B12
100
AcDbVisualStyle
  2
Shaded with edges
 70
    26
 71
     2
 72
     2
 73
     1
 90
        2
 40
-0.6
 41
30.0
 62
     5
 63
     7
 74
     1
 91
        2
 64
     7
 65
   257
 75
     2
175
     1
 42
1.0
 92
        8
 66
   257
 43
1.0
 76
     1
 77
     6
 78
     2
 67
     7
 79
     3
170
     0
171
     0
290
     0
174
     0
 93
        5
 44
0.0
173
     0
291
     0
 45
0.0
1001
ACAD
1000
AcDbSavedByObjectVersion
1070
     0
  0
VISUALSTYLE
  5
3DC3
102
{ACAD_XDICTIONARY
360
6A18
102
}
102
{ACAD_REACTORS
330
3B12
102
}
330
3B12
100
AcDbVisualStyle
  2
Shades of Gray
 70
    23
 71
     2
 72
     2
 73
     3
 90
        0
 40
-0.6
 41
-30.0
 62
     5
 63
     7
 74
     2
 91
        2
 64
     7
 65
     7
 75
     1
175
     1
 42
40.0
 92
        8
 66
     7
 43
1.0
 76
     1
 77
     6
 78
     2
 67
     7
 79
     3
170
     0
171
     0
290
     0
174
     0
 93
        1
 44
0.0
173
     0
291
     0
 45
0.0
1001
ACAD
1000
AcDbSavedByObjectVersion
1070
     0
  0
VISUALSTYLE
  5
3DC4
102
{ACAD_XDICTIONARY
360
6A1A
102
}
102
{ACAD_REACTORS
330
3B12
102
}
330
3B12
100
AcDbVisualStyle
  2
Sketchy
 70
    24
 71
     1
 72
     2
 73
     2
 90
        0
 40
-0.6
 41
-30.0
 62
     5
 63
     7
 74
     2
 91
        2
 64
     7
 65
     7
 75
     1
175
     1
 42
40.0
 92
       11
 66
     7
 43
1.0
 76
     1
 77
     6
 78
     2
 67
     7
 79
     6
170
     0
171
     0
290
     0
174
     0
 93
        1
 44
0.0
173
     0
291
     0
 45
0.0
1001
ACAD
1000
AcDbSavedByObjectVersion
1070
     0
  0
VISUALSTYLE
  5
3B1F
102
{ACAD_XDICTIONARY
360
6A05
102
}
102
{ACAD_REACTORS
330
3B12
102
}
330
3B12
100
AcDbVisualStyle
  2
Thicken
 70
    13
 71
     2
 72
     2
 73
     0
 90
        0
 40
-0.6
 41
-30.0
 62
     5
 63
     7
 74
     1
 91
        4
 64
     7
 65
   257
 75
     1
175
     1
 42
1.0
 92
       12
 66
     7
 43
1.0
 76
     1
 77
     6
 78
     2
 67
     7
 79
     5
170
     0
171
     0
290
     0
174
     0
 93
        1
 44
0.0
173
     0
291
     1
 45
0.0
1001
ACAD
1000
AcDbSavedByObjectVersion
1070
     0
  0
VISUALSTYLE
  5
3DC1
102
{ACAD_XDICTIONARY
360
6A14
102
}
102
{ACAD_REACTORS
330
3B12
102
}
330
3B12
100
AcDbVisualStyle
  2
Wireframe
 70
     5
 71
     0
 72
     2
 73
     0
 90
        0
 40
-0.6
 41
-30.0
 62
     5
 63
     7
 74
     1
 91
        4
 64
     7
 65
   257
 75
     1
175
     1
 42
1.0
 92
        0
 66
   257
 43
1.0
 76
     1
 77
     6
 78
     2
 67
     7
 79
     3
170
     0
171
     0
290
     0
174
     0
 93
        1
 44
0.0
173
     0
291
     0
 45
0.0
1001
ACAD
1000
AcDbSavedByObjectVersion
1070
     0
  0
VISUALSTYLE
  5
3DC5
102
{ACAD_XDICTIONARY
360
6A1C
102
}
102
{ACAD_REACTORS
330
3B12
102
}
330
3B12
100
AcDbVisualStyle
  2
X-Ray
 70
    25
 71
     2
 72
     2
 73
     1
 90
        1
 40
0.5
 41
-30.0
 62
     5
 63
     7
 74
     1
 91
        0
 64
     7
 65
   257
 75
     1
175
     1
 42
1.0
 92
        8
 66
     7
 43
1.0
 76
     1
 77
     6
 78
     2
 67
     7
 79
     3
170
     0
171
     0
290
     0
174
     0
 93
       13
 44
0.0
173
     0
291
     0
 45
0.0
1001
ACAD
1000
AcDbSavedByObjectVersion
1070
     0
  0
DICTIONARYVAR
  5
3B9A
102
{ACAD_REACTORS
330
1835
102
}
330
1835
100
DictionaryVariables
280
     0
  1
1:1
  0
DICTIONARYVAR
  5
3B99
102
{ACAD_REACTORS
330
1835
102
}
330
1835
100
DictionaryVariables
280
     0
  1
STANDARD
  0
DICTIONARYVAR
  5
3B98
102
{ACAD_REACTORS
330
1835
102
}
330
1835
100
DictionaryVariables
280
     0
  1
STANDARD
  0
DICTIONARYVAR
  5
3E19
102
{ACAD_REACTORS
330
1835
102
}
330
1835
100
DictionaryVariables
280
     0
  1
Metric50
  0
DICTIONARYVAR
  5
3E1A
102
{ACAD_REACTORS
330
1835
102
}
330
1835
100
DictionaryVariables
280
     0
  1
Metric50
  0
DICTIONARYVAR
  5
3B9C
102
{ACAD_REACTORS
330
1835
102
}
330
1835
100
DictionaryVariables
280
     0
  1
1
  0
DICTIONARYVAR
  5
3B9B
102
{ACAD_REACTORS
330
1835
102
}
330
1835
100
DictionaryVariables
280
     0
  1
0
  0
DICTIONARYVAR
  5
1836
102
{ACAD_REACTORS
330
1835
102
}
330
1835
100
DictionaryVariables
280
     0
  1
127
  0
DICTIONARYVAR
  5
69E2
102
{ACAD_REACTORS
330
1835
102
}
330
1835
100
DictionaryVariables
280
     0
  1
2
  0
DICTIONARY
  5
6A24
330
3DCB
100
AcDbDictionary
280
     1
281
     1
  3
ACAD_XREC_ROUNDTRIP
360
6A25
  0
DICTIONARY
  5
69E6
330
22
100
AcDbDictionary
280
     1
281
     1
  3
ACAD_XREC_ROUNDTRIP
360
69E7
  0
DICTIONARY
  5
69E8
330
1CD1
100
AcDbDictionary
280
     1
281
     1
  3
ACAD_XREC_ROUNDTRIP
360
69E9
  0
DICTIONARY
  5
3B03
330
3B02
100
AcDbDictionary
280
     1
281
     1
  3
ACAD_XREC_ROUNDTRIP
360
69EB
  3
BUMPTILE
360
3B05
  3
DIFFUSETILE
360
3B04
  3
OPACITYTILE
360
3B08
  3
REFLECTIONTILE
360
3B07
  3
REFRACTIONTILE
360
3B09
  3
SPECULARTILE
360
3B06
  0
DICTIONARY
  5
3AFB
330
3AFA
100
AcDbDictionary
280
     1
281
     1
  3
ACAD_XREC_ROUNDTRIP
360
69EA
  3
BUMPTILE
360
3AFD
  3
DIFFUSETILE
360
3AFC
  3
OPACITYTILE
360
3B00
  3
REFLECTIONTILE
360
3AFF
  3
REFRACTIONTILE
360
3B01
  3
SPECULARTILE
360
3AFE
  0
DICTIONARY
  5
3B0B
330
3B0A
100
AcDbDictionary
280
     1
281
     1
  3
ACAD_XREC_ROUNDTRIP
360
69EC
  3
BUMPTILE
360
3B0D
  3
DIFFUSETILE
360
3B0C
  3
OPACITYTILE
360
3B10
  3
REFLECTIONTILE
360
3B0F
  3
REFRACTIONTILE
360
3B11
  3
SPECULARTILE
360
3B0E
  0
DICTIONARY
  5
6A22
330
3DC9
100
AcDbDictionary
280
     1
281
     1
  3
ACAD_XREC_ROUNDTRIP
360
6A23
  0
DICTIONARY
  5
3B63
330
3B28
100
AcDbDictionary
280
     1
281
     1
  3
ACAD_ROUNDTRIP_2008_TABLESTYLE_CELLSTYLEMAP
360
69E3
  3
ACAD_XREC_ROUNDTRIP
360
6A13
  0
DICTIONARY
  5
69F7
330
3B18
100
AcDbDictionary
280
     1
281
     1
  3
ACAD_XREC_ROUNDTRIP
360
69F8
  0
DICTIONARY
  5
69FB
330
3B1A
100
AcDbDictionary
280
     1
281
     1
  3
ACAD_XREC_ROUNDTRIP
360
69FC
  0
DICTIONARY
  5
69F9
330
3B19
100
AcDbDictionary
280
     1
281
     1
  3
ACAD_XREC_ROUNDTRIP
360
69FA
  0
DICTIONARY
  5
69F5
330
3B17
100
AcDbDictionary
280
     1
281
     1
  3
ACAD_XREC_ROUNDTRIP
360
69F6
  0
DICTIONARY
  5
6A03
330
3B1E
100
AcDbDictionary
280
     1
281
     1
  3
ACAD_XREC_ROUNDTRIP
360
6A04
  0
DICTIONARY
  5
6A0B
330
3B22
100
AcDbDictionary
280
     1
281
     1
  3
ACAD_XREC_ROUNDTRIP
360
6A0C
  0
DICTIONARY
  5
69FD
330
3B1B
100
AcDbDictionary
280
     1
281
     1
  3
ACAD_XREC_ROUNDTRIP
360
69FE
  0
DICTIONARY
  5
6A01
330
3B1D
100
AcDbDictionary
280
     1
281
     1
  3
ACAD_XREC_ROUNDTRIP
360
6A02
  0
DICTIONARY
  5
6A11
330
3B25
100
AcDbDictionary
280
     1
281
     1
  3
ACAD_XREC_ROUNDTRIP
360
6A12
  0
DICTIONARY
  5
6A09
330
3B21
100
AcDbDictionary
280
     1
281
     1
  3
ACAD_XREC_ROUNDTRIP
360
6A0A
  0
DICTIONARY
  5
69ED
330
3B13
100
AcDbDictionary
280
     1
281
     1
  3
ACAD_XREC_ROUNDTRIP
360
69EE
  0
DICTIONARY
  5
69EF
330
3B14
100
AcDbDictionary
280
     1
281
     1
  3
ACAD_XREC_ROUNDTRIP
360
69F0
  0
DICTIONARY
  5
69F1
330
3B15
100
AcDbDictionary
280
     1
281
     1
  3
ACAD_XREC_ROUNDTRIP
360
69F2
  0
DICTIONARY
  5
69F3
330
3B16
100
AcDbDictionary
280
     1
281
     1
  3
ACAD_XREC_ROUNDTRIP
360
69F4
  0
DICTIONARY
  5
6A16
330
3DC2
100
AcDbDictionary
280
     1
281
     1
  3
ACAD_XREC_ROUNDTRIP
360
6A17
  0
DICTIONARY
  5
6A0D
330
3B23
100
AcDbDictionary
280
     1
281
     1
  3
ACAD_XREC_ROUNDTRIP
360
6A0E
  0
DICTIONARY
  5
6A07
330
3B20
100
AcDbDictionary
280
     1
281
     1
  3
ACAD_XREC_ROUNDTRIP
360
6A08
  0
DICTIONARY
  5
6A0F
330
3B24
100
AcDbDictionary
280
     1
281
     1
  3
ACAD_XREC_ROUNDTRIP
360
6A10
  0
DICTIONARY
  5
69FF
330
3B1C
100
AcDbDictionary
280
     1
281
     1
  3
ACAD_XREC_ROUNDTRIP
360
6A00
  0
DICTIONARY
  5
6A20
330
3DC7
100
AcDbDictionary
280
     1
281
     1
  3
ACAD_XREC_ROUNDTRIP
360
6A21
  0
DICTIONARY
  5
6A1E
330
3DC6
100
AcDbDictionary
280
     1
281
     1
  3
ACAD_XREC_ROUNDTRIP
360
6A1F
  0
DICTIONARY
  5
6A18
330
3DC3
100
AcDbDictionary
280
     1
281
     1
  3
ACAD_XREC_ROUNDTRIP
360
6A19
  0
DICTIONARY
  5
6A1A
330
3DC4
100
AcDbDictionary
280
     1
281
     1
  3
ACAD_XREC_ROUNDTRIP
360
6A1B
  0
DICTIONARY
  5
6A05
330
3B1F
100
AcDbDictionary
280
     1
281
     1
  3
ACAD_XREC_ROUNDTRIP
360
6A06
  0
DICTIONARY
  5
6A14
330
3DC1
100
AcDbDictionary
280
     1
281
     1
  3
ACAD_XREC_ROUNDTRIP
360
6A15
  0
DICTIONARY
  5
6A1C
330
3DC5
100
AcDbDictionary
280
     1
281
     1
  3
ACAD_XREC_ROUNDTRIP
360
6A1D
  0
XRECORD
  5
6A25
102
{ACAD_REACTORS
330
6A24
102
}
330
6A24
100
AcDbXrecord
280
     1
102
DISPLAYNAME
  1
Metric50
102
FLAGS
 90
        0
  0
XRECORD
  5
69E7
102
{ACAD_REACTORS
330
69E6
102
}
330
69E6
100
AcDbXrecord
280
     1
102
SHADEPLOT
 70
     0
102
SHADEPLOTRESLEVEL
 70
     2
102
SHADEPLOTCUSTOMDPI
 70
   300
  0
XRECORD
  5
69E9
102
{ACAD_REACTORS
330
69E8
102
}
330
69E8
100
AcDbXrecord
280
     1
102
SHADEPLOT
 70
     0
102
SHADEPLOTRESLEVEL
 70
     2
102
SHADEPLOTCUSTOMDPI
 70
   300
  0
XRECORD
  5
69EB
102
{ACAD_REACTORS
330
3B03
102
}
330
3B03
100
AcDbXrecord
280
     1
102
MATERIAL
148
0.0
149
0.0
149
0.0
 93
        0
 94
      127
282
     0
 72
     0
 77
     0
171
     0
175
     0
179
     0
273
     0
  0
XRECORD
  5
3B05
102
{ACAD_REACTORS
330
3B03
102
}
330
3B03
100
AcDbXrecord
280
     1
270
     1
271
     1
  0
XRECORD
  5
3B04
102
{ACAD_REACTORS
330
3B03
102
}
330
3B03
100
AcDbXrecord
280
     1
270
     1
271
     1
  0
XRECORD
  5
3B08
102
{ACAD_REACTORS
330
3B03
102
}
330
3B03
100
AcDbXrecord
280
     1
270
     1
271
     1
  0
XRECORD
  5
3B07
102
{ACAD_REACTORS
330
3B03
102
}
330
3B03
100
AcDbXrecord
280
     1
270
     1
271
     1
  0
XRECORD
  5
3B09
102
{ACAD_REACTORS
330
3B03
102
}
330
3B03
100
AcDbXrecord
280
     1
270
     1
271
     1
  0
XRECORD
  5
3B06
102
{ACAD_REACTORS
330
3B03
102
}
330
3B03
100
AcDbXrecord
280
     1
270
     1
271
     1
  0
XRECORD
  5
69EA
102
{ACAD_REACTORS
330
3AFB
102
}
330
3AFB
100
AcDbXrecord
280
     1
102
MATERIAL
148
0.0
149
0.0
149
0.0
 93
        0
 94
      127
282
     0
 72
     0
 77
     0
171
     0
175
     0
179
     0
273
     0
  0
XRECORD
  5
3AFD
102
{ACAD_REACTORS
330
3AFB
102
}
330
3AFB
100
AcDbXrecord
280
     1
270
     1
271
     1
  0
XRECORD
  5
3AFC
102
{ACAD_REACTORS
330
3AFB
102
}
330
3AFB
100
AcDbXrecord
280
     1
270
     1
271
     1
  0
XRECORD
  5
3B00
102
{ACAD_REACTORS
330
3AFB
102
}
330
3AFB
100
AcDbXrecord
280
     1
270
     1
271
     1
  0
XRECORD
  5
3AFF
102
{ACAD_REACTORS
330
3AFB
102
}
330
3AFB
100
AcDbXrecord
280
     1
270
     1
271
     1
  0
XRECORD
  5
3B01
102
{ACAD_REACTORS
330
3AFB
102
}
330
3AFB
100
AcDbXrecord
280
     1
270
     1
271
     1
  0
XRECORD
  5
3AFE
102
{ACAD_REACTORS
330
3AFB
102
}
330
3AFB
100
AcDbXrecord
280
     1
270
     1
271
     1
  0
XRECORD
  5
69EC
102
{ACAD_REACTORS
330
3B0B
102
}
330
3B0B
100
AcDbXrecord
280
     1
102
MATERIAL
148
0.0
149
0.0
149
0.0
 93
        0
 94
      127
282
     0
 72
     0
 77
     0
171
     0
175
     0
179
     0
273
     0
  0
XRECORD
  5
3B0D
102
{ACAD_REACTORS
330
3B0B
102
}
330
3B0B
100
AcDbXrecord
280
     1
270
     1
271
     1
  0
XRECORD
  5
3B0C
102
{ACAD_REACTORS
330
3B0B
102
}
330
3B0B
100
AcDbXrecord
280
     1
270
     1
271
     1
  0
XRECORD
  5
3B10
102
{ACAD_REACTORS
330
3B0B
102
}
330
3B0B
100
AcDbXrecord
280
     1
270
     1
271
     1
  0
XRECORD
  5
3B0F
102
{ACAD_REACTORS
330
3B0B
102
}
330
3B0B
100
AcDbXrecord
280
     1
270
     1
271
     1
  0
XRECORD
  5
3B11
102
{ACAD_REACTORS
330
3B0B
102
}
330
3B0B
100
AcDbXrecord
280
     1
270
     1
271
     1
  0
XRECORD
  5
3B0E
102
{ACAD_REACTORS
330
3B0B
102
}
330
3B0B
100
AcDbXrecord
280
     1
270
     1
271
     1
  0
XRECORD
  5
6A23
102
{ACAD_REACTORS
330
6A22
102
}
330
6A22
100
AcDbXrecord
280
     1
102
DISPLAYNAME
  1
Metric50
102
FLAGS
 90
        0
  0
CELLSTYLEMAP
  5
69E3
102
{ACAD_REACTORS
330
3B63
102
}
330
3B63
100
AcDbCellStyleMap
 90
        3
300
CELLSTYLE
  1
TABLEFORMAT_BEGIN
 90
        5
170
     1
 91
        0
 92
    32768
 62
   257
 93
        1
300
CONTENTFORMAT
  1
CONTENTFORMAT_BEGIN
 90
        0
 91
        0
 92
      512
 93
        0
300

 40
0.0
140
1.0
 94
        5
 62
     0
340
11
144
6.0
309
CONTENTFORMAT_END
171
     1
301
MARGIN
  1
CELLMARGIN_BEGIN
 40
1.5
 40
1.5
 40
1.5
 40
1.5
 40
4.5
 40
4.5
309
CELLMARGIN_END
 94
        6
 95
        1
302
GRIDFORMAT
  1
GRIDFORMAT_BEGIN
 90
        0
 91
        1
 62
     0
 92
       -2
340
0
 93
        0
 40
1.125
309
GRIDFORMAT_END
 95
        2
302
GRIDFORMAT
  1
GRIDFORMAT_BEGIN
 90
        0
 91
        1
 62
     0
 92
       -2
340
0
 93
        0
 40
1.125
309
GRIDFORMAT_END
 95
        4
302
GRIDFORMAT
  1
GRIDFORMAT_BEGIN
 90
        0
 91
        1
 62
     0
 92
       -2
340
0
 93
        0
 40
1.125
309
GRIDFORMAT_END
 95
        8
302
GRIDFORMAT
  1
GRIDFORMAT_BEGIN
 90
        0
 91
        1
 62
     0
 92
       -2
340
0
 93
        0
 40
1.125
309
GRIDFORMAT_END
 95
       16
302
GRIDFORMAT
  1
GRIDFORMAT_BEGIN
 90
        0
 91
        1
 62
     0
 92
       -2
340
0
 93
        0
 40
1.125
309
GRIDFORMAT_END
 95
       32
302
GRIDFORMAT
  1
GRIDFORMAT_BEGIN
 90
        0
 91
        1
 62
     0
 92
       -2
340
0
 93
        0
 40
1.125
309
GRIDFORMAT_END
309
TABLEFORMAT_END
  1
CELLSTYLE_BEGIN
 90
        1
 91
        1
300
_TITLE
309
CELLSTYLE_END
300
CELLSTYLE
  1
TABLEFORMAT_BEGIN
 90
        5
170
     1
 91
        0
 92
        0
 62
   257
 93
        1
300
CONTENTFORMAT
  1
CONTENTFORMAT_BEGIN
 90
        0
 91
        0
 92
      512
 93
        0
300

 40
0.0
140
1.0
 94
        5
 62
     0
340
11
144
4.5
309
CONTENTFORMAT_END
171
     1
301
MARGIN
  1
CELLMARGIN_BEGIN
 40
1.5
 40
1.5
 40
1.5
 40
1.5
 40
4.5
 40
4.5
309
CELLMARGIN_END
 94
        6
 95
        1
302
GRIDFORMAT
  1
GRIDFORMAT_BEGIN
 90
        0
 91
        1
 62
     0
 92
       -2
340
0
 93
        0
 40
1.125
309
GRIDFORMAT_END
 95
        2
302
GRIDFORMAT
  1
GRIDFORMAT_BEGIN
 90
        0
 91
        1
 62
     0
 92
       -2
340
0
 93
        0
 40
1.125
309
GRIDFORMAT_END
 95
        4
302
GRIDFORMAT
  1
GRIDFORMAT_BEGIN
 90
        0
 91
        1
 62
     0
 92
       -2
340
0
 93
        0
 40
1.125
309
GRIDFORMAT_END
 95
        8
302
GRIDFORMAT
  1
GRIDFORMAT_BEGIN
 90
        0
 91
        1
 62
     0
 92
       -2
340
0
 93
        0
 40
1.125
309
GRIDFORMAT_END
 95
       16
302
GRIDFORMAT
  1
GRIDFORMAT_BEGIN
 90
        0
 91
        1
 62
     0
 92
       -2
340
0
 93
        0
 40
1.125
309
GRIDFORMAT_END
 95
       32
302
GRIDFORMAT
  1
GRIDFORMAT_BEGIN
 90
        0
 91
        1
 62
     0
 92
       -2
340
0
 93
        0
 40
1.125
309
GRIDFORMAT_END
309
TABLEFORMAT_END
  1
CELLSTYLE_BEGIN
 90
        2
 91
        1
300
_HEADER
309
CELLSTYLE_END
300
CELLSTYLE
  1
TABLEFORMAT_BEGIN
 90
        5
170
     1
 91
        0
 92
        0
 62
   257
 93
        1
300
CONTENTFORMAT
  1
CONTENTFORMAT_BEGIN
 90
        0
 91
        0
 92
      512
 93
        0
300

 40
0.0
140
1.0
 94
        2
 62
     0
340
11
144
4.5
309
CONTENTFORMAT_END
171
     1
301
MARGIN
  1
CELLMARGIN_BEGIN
 40
1.5
 40
1.5
 40
1.5
 40
1.5
 40
4.5
 40
4.5
309
CELLMARGIN_END
 94
        6
 95
        1
302
GRIDFORMAT
  1
GRIDFORMAT_BEGIN
 90
        0
 91
        1
 62
     0
 92
       -2
340
0
 93
        0
 40
1.125
309
GRIDFORMAT_END
 95
        2
302
GRIDFORMAT
  1
GRIDFORMAT_BEGIN
 90
        0
 91
        1
 62
     0
 92
       -2
340
0
 93
        0
 40
1.125
309
GRIDFORMAT_END
 95
        4
302
GRIDFORMAT
  1
GRIDFORMAT_BEGIN
 90
        0
 91
        1
 62
     0
 92
       -2
340
0
 93
        0
 40
1.125
309
GRIDFORMAT_END
 95
        8
302
GRIDFORMAT
  1
GRIDFORMAT_BEGIN
 90
        0
 91
        1
 62
     0
 92
       -2
340
0
 93
        0
 40
1.125
309
GRIDFORMAT_END
 95
       16
302
GRIDFORMAT
  1
GRIDFORMAT_BEGIN
 90
        0
 91
        1
 62
     0
 92
       -2
340
0
 93
        0
 40
1.125
309
GRIDFORMAT_END
 95
       32
302
GRIDFORMAT
  1
GRIDFORMAT_BEGIN
 90
        0
 91
        1
 62
     0
 92
       -2
340
0
 93
        0
 40
1.125
309
GRIDFORMAT_END
309
TABLEFORMAT_END
  1
CELLSTYLE_BEGIN
 90
        3
 91
        2
300
_DATA
309
CELLSTYLE_END
  0
XRECORD
  5
6A13
102
{ACAD_REACTORS
330
3B63
102
}
330
3B63
100
AcDbXrecord
280
     1
102
ACAD_ROUNDTRIP_PRE2007_TABLESTYLE
 90
      512
 91
        0
  1

 92
      512
 93
        0
  2

 94
      512
 95
        0
  3

  0
XRECORD
  5
69F8
102
{ACAD_REACTORS
330
69F7
102
}
330
69F7
100
AcDbXrecord
280
     1
102
RTVSPost2010Prop28
280
     1
102
RTVSPost2010PropOp28
 70
     1
102
RTVSPost2010Prop29
280
     1
102
RTVSPost2010PropOp29
 70
     1
102
RTVSPost2010Prop30
280
     0
102
RTVSPost2010PropOp30
 70
     1
102
RTVSPost2010Prop31
280
     0
102
RTVSPost2010PropOp31
 70
     1
102
RTVSPost2010Prop32
280
     0
102
RTVSPost2010PropOp32
 70
     1
102
RTVSPost2010Prop33
280
     0
102
RTVSPost2010PropOp33
 70
     1
102
RTVSPost2010Prop34
280
     0
102
RTVSPost2010PropOp34
 70
     1
102
RTVSPost2010Prop35
280
     0
102
RTVSPost2010PropOp35
 70
     1
102
RTVSPost2010Prop36
280
     0
102
RTVSPost2010PropOp36
 70
     1
102
RTVSPost2010Prop37
 90
       50
102
RTVSPost2010PropOp37
 70
     1
102
RTVSPost2010Prop38
140
0.0
102
RTVSPost2010PropOp38
 70
     1
102
RTVSPost2010Prop39
140
1.0
102
RTVSPost2010PropOp39
 70
     1
102
RTVSPost2010Prop40
 90
        0
102
RTVSPost2010PropOp40
 70
     1
102
RTVSPost2010Prop41ColorIndex
 90
       18
102
RTVSPost2010Prop41ColorRGB
 90
        0
102
RTVSPost2010PropOp41
 70
     1
102
RTVSPost2010Prop42
 90
       50
102
RTVSPost2010PropOp42
 70
     1
102
RTVSPost2010Prop43
 90
        3
102
RTVSPost2010PropOp43
 70
     1
102
RTVSPost2010Prop44ColorIndex
 90
        5
102
RTVSPost2010Prop44ColorRGB
 90
      255
102
RTVSPost2010PropOp44
 70
     1
102
RTVSPost2010Prop45
280
     0
102
RTVSPost2010PropOp45
 70
     1
102
RTVSPost2010Prop46
 90
       50
102
RTVSPost2010PropOp46
 70
     1
102
RTVSPost2010Prop47
 90
       50
102
RTVSPost2010PropOp47
 70
     1
102
RTVSPost2010Prop48
 90
       50
102
RTVSPost2010PropOp48
 70
     1
102
RTVSPost2010Prop49
280
     0
102
RTVSPost2010PropOp49
 70
     1
102
RTVSPost2010Prop50
 90
       50
102
RTVSPost2010PropOp50
 70
     1
102
RTVSPost2010Prop51ColorIndex
 90
      256
102
RTVSPost2010Prop51ColorRGB
 90
-16777216
102
RTVSPost2010PropOp51
 70
     0
102
RTVSPost2010Prop52
140
1.0
102
RTVSPost2010PropOp52
 70
     0
102
RTVSPost2010Prop53
 90
        2
102
RTVSPost2010PropOp53
 70
     1
102
RTVSPost2010Prop54
  1
strokes_ogs.tif
102
RTVSPost2010PropOp54
 70
     1
102
RTVSPost2010Prop55
280
     0
102
RTVSPost2010PropOp55
 70
     1
102
RTVSPost2010Prop56
140
1.0
102
RTVSPost2010PropOp56
 70
     1
102
RTVSPost2010Prop57
140
1.0
102
RTVSPost2010PropOp57
 70
     1
102
RTVSPropertyOp0
 70
     1
102
RTVSPropertyOp1
 70
     1
102
RTVSPropertyOp2
 70
     1
102
RTVSPropertyOp3
 70
     1
102
RTVSPropertyOp4
 70
     1
102
RTVSPropertyOp5
 70
     1
102
RTVSPropertyOp6
 70
     1
102
RTVSPropertyOp7
 70
     1
102
RTVSPropertyOp8
 70
     1
102
RTVSPropertyOp9
 70
     1
102
RTVSPropertyOp10
 70
     1
102
RTVSPropertyOp11
 70
     1
102
RTVSPropertyOp12
 70
     1
102
RTVSPropertyOp13
 70
     1
102
RTVSPropertyOp14
 70
     1
102
RTVSPropertyOp15
 70
     1
102
RTVSPropertyOp16
 70
     1
102
RTVSPropertyOp17
 70
     1
102
RTVSPropertyOp18
 70
     1
102
RTVSPropertyOp19
 70
     1
102
RTVSPropertyOp20
 70
     1
102
RTVSPropertyOp21
 70
     1
102
RTVSPropertyOp22
 70
     1
102
RTVSPropertyOp23
 70
     1
102
RTVSPropertyOp24
 70
     1
102
RTVSPropertyOp25
 70
     1
102
RTVSPropertyOp26
 70
     1
102
RTVSPropertyOp27
 70
     1
102
RTVSPropertyOp28
 70
     1
102
RTVSPropertyOp29
 70
     1
102
RTVSPropertyOp30
 70
     1
102
RTVSPropertyOp31
 70
     1
102
RTVSPropertyOp32
 70
     1
102
RTVSPropertyOp33
 70
     1
102
RTVSPropertyOp34
 70
     1
102
RTVSPropertyOp35
 70
     1
102
RTVSPropertyOp36
 70
     1
102
RTVSPropertyOp37
 70
     1
102
RTVSPropertyOp38
 70
     1
102
RTVSPropertyOp39
 70
     1
102
RTVSPropertyOp40
 70
     1
102
RTVSPropertyOp41
 70
     1
102
RTVSPropertyOp42
 70
     1
102
RTVSPropertyOp43
 70
     1
102
RTVSPropertyOp44
 70
     1
102
RTVSPropertyOp45
 70
     1
102
RTVSPropertyOp46
 70
     1
102
RTVSPropertyOp47
 70
     1
102
RTVSPropertyOp48
 70
     1
102
RTVSPropertyOp49
 70
     1
102
RTVSPropertyOp50
 70
     1
102
RTVSPropertyOp51
 70
     0
102
RTVSPropertyOp52
 70
     0
102
RTVSPropertyOp53
 70
     1
102
RTVSPropertyOp54
 70
     1
102
RTVSPropertyOp55
 70
     1
102
RTVSPropertyOp56
 70
     1
102
RTVSPropertyOp57
 70
     1
102
RTVSPropertyOp58
 70
     1
102
RTVSPropertyOp59
 70
     1
102
RTVSPropertyOp60
 70
     1
102
RTVSPropertyOp61
 70
     1
102
RTVSPropertyOp62
 70
     1
  0
XRECORD
  5
69FC
102
{ACAD_REACTORS
330
69FB
102
}
330
69FB
100
AcDbXrecord
280
     1
102
RTVSPost2010Prop28
280
     0
102
RTVSPost2010PropOp28
 70
     1
102
RTVSPost2010Prop29
280
     1
102
RTVSPost2010PropOp29
 70
     1
102
RTVSPost2010Prop30
280
     1
102
RTVSPost2010PropOp30
 70
     1
102
RTVSPost2010Prop31
280
     0
102
RTVSPost2010PropOp31
 70
     1
102
RTVSPost2010Prop32
280
     0
102
RTVSPost2010PropOp32
 70
     1
102
RTVSPost2010Prop33
280
     0
102
RTVSPost2010PropOp33
 70
     1
102
RTVSPost2010Prop34
280
     0
102
RTVSPost2010PropOp34
 70
     1
102
RTVSPost2010Prop35
280
     0
102
RTVSPost2010PropOp35
 70
     1
102
RTVSPost2010Prop36
280
     0
102
RTVSPost2010PropOp36
 70
     1
102
RTVSPost2010Prop37
 90
       50
102
RTVSPost2010PropOp37
 70
     1
102
RTVSPost2010Prop38
140
0.0
102
RTVSPost2010PropOp38
 70
     1
102
RTVSPost2010Prop39
140
1.0
102
RTVSPost2010PropOp39
 70
     1
102
RTVSPost2010Prop40
 90
        0
102
RTVSPost2010PropOp40
 70
     1
102
RTVSPost2010Prop41ColorIndex
 90
       18
102
RTVSPost2010Prop41ColorRGB
 90
        0
102
RTVSPost2010PropOp41
 70
     1
102
RTVSPost2010Prop42
 90
       50
102
RTVSPost2010PropOp42
 70
     1
102
RTVSPost2010Prop43
 90
        3
102
RTVSPost2010PropOp43
 70
     1
102
RTVSPost2010Prop44ColorIndex
 90
        5
102
RTVSPost2010Prop44ColorRGB
 90
      255
102
RTVSPost2010PropOp44
 70
     1
102
RTVSPost2010Prop45
280
     0
102
RTVSPost2010PropOp45
 70
     1
102
RTVSPost2010Prop46
 90
       50
102
RTVSPost2010PropOp46
 70
     1
102
RTVSPost2010Prop47
 90
       50
102
RTVSPost2010PropOp47
 70
     1
102
RTVSPost2010Prop48
 90
       50
102
RTVSPost2010PropOp48
 70
     1
102
RTVSPost2010Prop49
280
     0
102
RTVSPost2010PropOp49
 70
     1
102
RTVSPost2010Prop50
 90
       50
102
RTVSPost2010PropOp50
 70
     1
102
RTVSPost2010Prop51ColorIndex
 90
      256
102
RTVSPost2010Prop51ColorRGB
 90
-16777216
102
RTVSPost2010PropOp51
 70
     0
102
RTVSPost2010Prop52
140
1.0
102
RTVSPost2010PropOp52
 70
     0
102
RTVSPost2010Prop53
 90
        2
102
RTVSPost2010PropOp53
 70
     1
102
RTVSPost2010Prop54
  1
strokes_ogs.tif
102
RTVSPost2010PropOp54
 70
     1
102
RTVSPost2010Prop55
280
     0
102
RTVSPost2010PropOp55
 70
     1
102
RTVSPost2010Prop56
140
1.0
102
RTVSPost2010PropOp56
 70
     1
102
RTVSPost2010Prop57
140
1.0
102
RTVSPost2010PropOp57
 70
     1
102
RTVSPropertyOp0
 70
     1
102
RTVSPropertyOp1
 70
     1
102
RTVSPropertyOp2
 70
     1
102
RTVSPropertyOp3
 70
     1
102
RTVSPropertyOp4
 70
     1
102
RTVSPropertyOp5
 70
     1
102
RTVSPropertyOp6
 70
     1
102
RTVSPropertyOp7
 70
     1
102
RTVSPropertyOp8
 70
     1
102
RTVSPropertyOp9
 70
     1
102
RTVSPropertyOp10
 70
     1
102
RTVSPropertyOp11
 70
     1
102
RTVSPropertyOp12
 70
     1
102
RTVSPropertyOp13
 70
     1
102
RTVSPropertyOp14
 70
     1
102
RTVSPropertyOp15
 70
     1
102
RTVSPropertyOp16
 70
     1
102
RTVSPropertyOp17
 70
     1
102
RTVSPropertyOp18
 70
     1
102
RTVSPropertyOp19
 70
     1
102
RTVSPropertyOp20
 70
     1
102
RTVSPropertyOp21
 70
     1
102
RTVSPropertyOp22
 70
     1
102
RTVSPropertyOp23
 70
     1
102
RTVSPropertyOp24
 70
     1
102
RTVSPropertyOp25
 70
     1
102
RTVSPropertyOp26
 70
     1
102
RTVSPropertyOp27
 70
     1
102
RTVSPropertyOp28
 70
     1
102
RTVSPropertyOp29
 70
     1
102
RTVSPropertyOp30
 70
     1
102
RTVSPropertyOp31
 70
     1
102
RTVSPropertyOp32
 70
     1
102
RTVSPropertyOp33
 70
     1
102
RTVSPropertyOp34
 70
     1
102
RTVSPropertyOp35
 70
     1
102
RTVSPropertyOp36
 70
     1
102
RTVSPropertyOp37
 70
     1
102
RTVSPropertyOp38
 70
     1
102
RTVSPropertyOp39
 70
     1
102
RTVSPropertyOp40
 70
     1
102
RTVSPropertyOp41
 70
     1
102
RTVSPropertyOp42
 70
     1
102
RTVSPropertyOp43
 70
     1
102
RTVSPropertyOp44
 70
     1
102
RTVSPropertyOp45
 70
     1
102
RTVSPropertyOp46
 70
     1
102
RTVSPropertyOp47
 70
     1
102
RTVSPropertyOp48
 70
     1
102
RTVSPropertyOp49
 70
     1
102
RTVSPropertyOp50
 70
     1
102
RTVSPropertyOp51
 70
     0
102
RTVSPropertyOp52
 70
     0
102
RTVSPropertyOp53
 70
     1
102
RTVSPropertyOp54
 70
     1
102
RTVSPropertyOp55
 70
     1
102
RTVSPropertyOp56
 70
     1
102
RTVSPropertyOp57
 70
     1
102
RTVSPropertyOp58
 70
     1
102
RTVSPropertyOp59
 70
     1
102
RTVSPropertyOp60
 70
     1
102
RTVSPropertyOp61
 70
     1
102
RTVSPropertyOp62
 70
     1
  0
XRECORD
  5
69FA
102
{ACAD_REACTORS
330
69F9
102
}
330
69F9
100
AcDbXrecord
280
     1
102
RTVSPost2010Prop28
280
     0
102
RTVSPost2010PropOp28
 70
     1
102
RTVSPost2010Prop29
280
     1
102
RTVSPost2010PropOp29
 70
     1
102
RTVSPost2010Prop30
280
     1
102
RTVSPost2010PropOp30
 70
     1
102
RTVSPost2010Prop31
280
     0
102
RTVSPost2010PropOp31
 70
     1
102
RTVSPost2010Prop32
280
     0
102
RTVSPost2010PropOp32
 70
     1
102
RTVSPost2010Prop33
280
     0
102
RTVSPost2010PropOp33
 70
     1
102
RTVSPost2010Prop34
280
     0
102
RTVSPost2010PropOp34
 70
     1
102
RTVSPost2010Prop35
280
     0
102
RTVSPost2010PropOp35
 70
     1
102
RTVSPost2010Prop36
280
     0
102
RTVSPost2010PropOp36
 70
     1
102
RTVSPost2010Prop37
 90
       50
102
RTVSPost2010PropOp37
 70
     1
102
RTVSPost2010Prop38
140
0.0
102
RTVSPost2010PropOp38
 70
     1
102
RTVSPost2010Prop39
140
1.0
102
RTVSPost2010PropOp39
 70
     1
102
RTVSPost2010Prop40
 90
        0
102
RTVSPost2010PropOp40
 70
     1
102
RTVSPost2010Prop41ColorIndex
 90
       18
102
RTVSPost2010Prop41ColorRGB
 90
        0
102
RTVSPost2010PropOp41
 70
     1
102
RTVSPost2010Prop42
 90
       50
102
RTVSPost2010PropOp42
 70
     1
102
RTVSPost2010Prop43
 90
        3
102
RTVSPost2010PropOp43
 70
     1
102
RTVSPost2010Prop44ColorIndex
 90
        5
102
RTVSPost2010Prop44ColorRGB
 90
      255
102
RTVSPost2010PropOp44
 70
     1
102
RTVSPost2010Prop45
280
     0
102
RTVSPost2010PropOp45
 70
     1
102
RTVSPost2010Prop46
 90
       50
102
RTVSPost2010PropOp46
 70
     1
102
RTVSPost2010Prop47
 90
       50
102
RTVSPost2010PropOp47
 70
     1
102
RTVSPost2010Prop48
 90
       50
102
RTVSPost2010PropOp48
 70
     1
102
RTVSPost2010Prop49
280
     0
102
RTVSPost2010PropOp49
 70
     1
102
RTVSPost2010Prop50
 90
       50
102
RTVSPost2010PropOp50
 70
     1
102
RTVSPost2010Prop51ColorIndex
 90
      256
102
RTVSPost2010Prop51ColorRGB
 90
-16777216
102
RTVSPost2010PropOp51
 70
     0
102
RTVSPost2010Prop52
140
1.0
102
RTVSPost2010PropOp52
 70
     0
102
RTVSPost2010Prop53
 90
        2
102
RTVSPost2010PropOp53
 70
     1
102
RTVSPost2010Prop54
  1
strokes_ogs.tif
102
RTVSPost2010PropOp54
 70
     1
102
RTVSPost2010Prop55
280
     0
102
RTVSPost2010PropOp55
 70
     1
102
RTVSPost2010Prop56
140
1.0
102
RTVSPost2010PropOp56
 70
     1
102
RTVSPost2010Prop57
140
1.0
102
RTVSPost2010PropOp57
 70
     1
102
RTVSPropertyOp0
 70
     1
102
RTVSPropertyOp1
 70
     1
102
RTVSPropertyOp2
 70
     1
102
RTVSPropertyOp3
 70
     1
102
RTVSPropertyOp4
 70
     1
102
RTVSPropertyOp5
 70
     1
102
RTVSPropertyOp6
 70
     1
102
RTVSPropertyOp7
 70
     1
102
RTVSPropertyOp8
 70
     1
102
RTVSPropertyOp9
 70
     1
102
RTVSPropertyOp10
 70
     1
102
RTVSPropertyOp11
 70
     1
102
RTVSPropertyOp12
 70
     1
102
RTVSPropertyOp13
 70
     1
102
RTVSPropertyOp14
 70
     1
102
RTVSPropertyOp15
 70
     1
102
RTVSPropertyOp16
 70
     1
102
RTVSPropertyOp17
 70
     1
102
RTVSPropertyOp18
 70
     1
102
RTVSPropertyOp19
 70
     1
102
RTVSPropertyOp20
 70
     1
102
RTVSPropertyOp21
 70
     1
102
RTVSPropertyOp22
 70
     1
102
RTVSPropertyOp23
 70
     1
102
RTVSPropertyOp24
 70
     1
102
RTVSPropertyOp25
 70
     1
102
RTVSPropertyOp26
 70
     1
102
RTVSPropertyOp27
 70
     1
102
RTVSPropertyOp28
 70
     1
102
RTVSPropertyOp29
 70
     1
102
RTVSPropertyOp30
 70
     1
102
RTVSPropertyOp31
 70
     1
102
RTVSPropertyOp32
 70
     1
102
RTVSPropertyOp33
 70
     1
102
RTVSPropertyOp34
 70
     1
102
RTVSPropertyOp35
 70
     1
102
RTVSPropertyOp36
 70
     1
102
RTVSPropertyOp37
 70
     1
102
RTVSPropertyOp38
 70
     1
102
RTVSPropertyOp39
 70
     1
102
RTVSPropertyOp40
 70
     1
102
RTVSPropertyOp41
 70
     1
102
RTVSPropertyOp42
 70
     1
102
RTVSPropertyOp43
 70
     1
102
RTVSPropertyOp44
 70
     1
102
RTVSPropertyOp45
 70
     1
102
RTVSPropertyOp46
 70
     1
102
RTVSPropertyOp47
 70
     1
102
RTVSPropertyOp48
 70
     1
102
RTVSPropertyOp49
 70
     1
102
RTVSPropertyOp50
 70
     1
102
RTVSPropertyOp51
 70
     0
102
RTVSPropertyOp52
 70
     0
102
RTVSPropertyOp53
 70
     1
102
RTVSPropertyOp54
 70
     1
102
RTVSPropertyOp55
 70
     1
102
RTVSPropertyOp56
 70
     1
102
RTVSPropertyOp57
 70
     1
102
RTVSPropertyOp58
 70
     1
102
RTVSPropertyOp59
 70
     1
102
RTVSPropertyOp60
 70
     1
102
RTVSPropertyOp61
 70
     1
102
RTVSPropertyOp62
 70
     1
  0
XRECORD
  5
69F6
102
{ACAD_REACTORS
330
69F5
102
}
330
69F5
100
AcDbXrecord
280
     1
102
RTVSPost2010Prop28
280
     0
102
RTVSPost2010PropOp28
 70
     1
102
RTVSPost2010Prop29
280
     1
102
RTVSPost2010PropOp29
 70
     1
102
RTVSPost2010Prop30
280
     1
102
RTVSPost2010PropOp30
 70
     1
102
RTVSPost2010Prop31
280
     0
102
RTVSPost2010PropOp31
 70
     1
102
RTVSPost2010Prop32
280
     0
102
RTVSPost2010PropOp32
 70
     1
102
RTVSPost2010Prop33
280
     0
102
RTVSPost2010PropOp33
 70
     1
102
RTVSPost2010Prop34
280
     0
102
RTVSPost2010PropOp34
 70
     1
102
RTVSPost2010Prop35
280
     0
102
RTVSPost2010PropOp35
 70
     1
102
RTVSPost2010Prop36
280
     0
102
RTVSPost2010PropOp36
 70
     1
102
RTVSPost2010Prop37
 90
       50
102
RTVSPost2010PropOp37
 70
     1
102
RTVSPost2010Prop38
140
0.0
102
RTVSPost2010PropOp38
 70
     1
102
RTVSPost2010Prop39
140
1.0
102
RTVSPost2010PropOp39
 70
     1
102
RTVSPost2010Prop40
 90
        0
102
RTVSPost2010PropOp40
 70
     1
102
RTVSPost2010Prop41ColorIndex
 90
       18
102
RTVSPost2010Prop41ColorRGB
 90
        0
102
RTVSPost2010PropOp41
 70
     1
102
RTVSPost2010Prop42
 90
       50
102
RTVSPost2010PropOp42
 70
     1
102
RTVSPost2010Prop43
 90
        3
102
RTVSPost2010PropOp43
 70
     1
102
RTVSPost2010Prop44ColorIndex
 90
        5
102
RTVSPost2010Prop44ColorRGB
 90
      255
102
RTVSPost2010PropOp44
 70
     1
102
RTVSPost2010Prop45
280
     0
102
RTVSPost2010PropOp45
 70
     1
102
RTVSPost2010Prop46
 90
       50
102
RTVSPost2010PropOp46
 70
     1
102
RTVSPost2010Prop47
 90
       50
102
RTVSPost2010PropOp47
 70
     1
102
RTVSPost2010Prop48
 90
       50
102
RTVSPost2010PropOp48
 70
     1
102
RTVSPost2010Prop49
280
     0
102
RTVSPost2010PropOp49
 70
     1
102
RTVSPost2010Prop50
 90
       50
102
RTVSPost2010PropOp50
 70
     1
102
RTVSPost2010Prop51ColorIndex
 90
      256
102
RTVSPost2010Prop51ColorRGB
 90
-16777216
102
RTVSPost2010PropOp51
 70
     0
102
RTVSPost2010Prop52
140
1.0
102
RTVSPost2010PropOp52
 70
     0
102
RTVSPost2010Prop53
 90
        2
102
RTVSPost2010PropOp53
 70
     1
102
RTVSPost2010Prop54
  1
strokes_ogs.tif
102
RTVSPost2010PropOp54
 70
     1
102
RTVSPost2010Prop55
280
     0
102
RTVSPost2010PropOp55
 70
     1
102
RTVSPost2010Prop56
140
1.0
102
RTVSPost2010PropOp56
 70
     1
102
RTVSPost2010Prop57
140
1.0
102
RTVSPost2010PropOp57
 70
     1
102
RTVSPropertyOp0
 70
     1
102
RTVSPropertyOp1
 70
     1
102
RTVSPropertyOp2
 70
     1
102
RTVSPropertyOp3
 70
     1
102
RTVSPropertyOp4
 70
     1
102
RTVSPropertyOp5
 70
     1
102
RTVSPropertyOp6
 70
     1
102
RTVSPropertyOp7
 70
     1
102
RTVSPropertyOp8
 70
     1
102
RTVSPropertyOp9
 70
     1
102
RTVSPropertyOp10
 70
     1
102
RTVSPropertyOp11
 70
     1
102
RTVSPropertyOp12
 70
     1
102
RTVSPropertyOp13
 70
     1
102
RTVSPropertyOp14
 70
     1
102
RTVSPropertyOp15
 70
     1
102
RTVSPropertyOp16
 70
     1
102
RTVSPropertyOp17
 70
     1
102
RTVSPropertyOp18
 70
     1
102
RTVSPropertyOp19
 70
     1
102
RTVSPropertyOp20
 70
     1
102
RTVSPropertyOp21
 70
     1
102
RTVSPropertyOp22
 70
     1
102
RTVSPropertyOp23
 70
     1
102
RTVSPropertyOp24
 70
     1
102
RTVSPropertyOp25
 70
     1
102
RTVSPropertyOp26
 70
     1
102
RTVSPropertyOp27
 70
     1
102
RTVSPropertyOp28
 70
     1
102
RTVSPropertyOp29
 70
     1
102
RTVSPropertyOp30
 70
     1
102
RTVSPropertyOp31
 70
     1
102
RTVSPropertyOp32
 70
     1
102
RTVSPropertyOp33
 70
     1
102
RTVSPropertyOp34
 70
     1
102
RTVSPropertyOp35
 70
     1
102
RTVSPropertyOp36
 70
     1
102
RTVSPropertyOp37
 70
     1
102
RTVSPropertyOp38
 70
     1
102
RTVSPropertyOp39
 70
     1
102
RTVSPropertyOp40
 70
     1
102
RTVSPropertyOp41
 70
     1
102
RTVSPropertyOp42
 70
     1
102
RTVSPropertyOp43
 70
     1
102
RTVSPropertyOp44
 70
     1
102
RTVSPropertyOp45
 70
     1
102
RTVSPropertyOp46
 70
     1
102
RTVSPropertyOp47
 70
     1
102
RTVSPropertyOp48
 70
     1
102
RTVSPropertyOp49
 70
     1
102
RTVSPropertyOp50
 70
     1
102
RTVSPropertyOp51
 70
     0
102
RTVSPropertyOp52
 70
     0
102
RTVSPropertyOp53
 70
     1
102
RTVSPropertyOp54
 70
     1
102
RTVSPropertyOp55
 70
     1
102
RTVSPropertyOp56
 70
     1
102
RTVSPropertyOp57
 70
     1
102
RTVSPropertyOp58
 70
     1
102
RTVSPropertyOp59
 70
     1
102
RTVSPropertyOp60
 70
     1
102
RTVSPropertyOp61
 70
     1
102
RTVSPropertyOp62
 70
     1
  0
XRECORD
  5
6A04
102
{ACAD_REACTORS
330
6A03
102
}
330
6A03
100
AcDbXrecord
280
     1
102
RTVSPost2010Prop28
280
     0
102
RTVSPost2010PropOp28
 70
     1
102
RTVSPost2010Prop29
280
     1
102
RTVSPost2010PropOp29
 70
     1
102
RTVSPost2010Prop30
280
     1
102
RTVSPost2010PropOp30
 70
     1
102
RTVSPost2010Prop31
280
     0
102
RTVSPost2010PropOp31
 70
     1
102
RTVSPost2010Prop32
280
     0
102
RTVSPost2010PropOp32
 70
     1
102
RTVSPost2010Prop33
280
     0
102
RTVSPost2010PropOp33
 70
     1
102
RTVSPost2010Prop34
280
     0
102
RTVSPost2010PropOp34
 70
     1
102
RTVSPost2010Prop35
280
     0
102
RTVSPost2010PropOp35
 70
     1
102
RTVSPost2010Prop36
280
     0
102
RTVSPost2010PropOp36
 70
     1
102
RTVSPost2010Prop37
 90
       50
102
RTVSPost2010PropOp37
 70
     1
102
RTVSPost2010Prop38
140
0.0
102
RTVSPost2010PropOp38
 70
     1
102
RTVSPost2010Prop39
140
1.0
102
RTVSPost2010PropOp39
 70
     1
102
RTVSPost2010Prop40
 90
        0
102
RTVSPost2010PropOp40
 70
     1
102
RTVSPost2010Prop41ColorIndex
 90
       18
102
RTVSPost2010Prop41ColorRGB
 90
        0
102
RTVSPost2010PropOp41
 70
     1
102
RTVSPost2010Prop42
 90
       50
102
RTVSPost2010PropOp42
 70
     1
102
RTVSPost2010Prop43
 90
        3
102
RTVSPost2010PropOp43
 70
     1
102
RTVSPost2010Prop44ColorIndex
 90
        5
102
RTVSPost2010Prop44ColorRGB
 90
      255
102
RTVSPost2010PropOp44
 70
     1
102
RTVSPost2010Prop45
280
     0
102
RTVSPost2010PropOp45
 70
     1
102
RTVSPost2010Prop46
 90
       50
102
RTVSPost2010PropOp46
 70
     1
102
RTVSPost2010Prop47
 90
       50
102
RTVSPost2010PropOp47
 70
     1
102
RTVSPost2010Prop48
 90
       50
102
RTVSPost2010PropOp48
 70
     1
102
RTVSPost2010Prop49
280
     0
102
RTVSPost2010PropOp49
 70
     1
102
RTVSPost2010Prop50
 90
       50
102
RTVSPost2010PropOp50
 70
     1
102
RTVSPost2010Prop51ColorIndex
 90
      256
102
RTVSPost2010Prop51ColorRGB
 90
-16777216
102
RTVSPost2010PropOp51
 70
     0
102
RTVSPost2010Prop52
140
1.0
102
RTVSPost2010PropOp52
 70
     0
102
RTVSPost2010Prop53
 90
        2
102
RTVSPost2010PropOp53
 70
     1
102
RTVSPost2010Prop54
  1
strokes_ogs.tif
102
RTVSPost2010PropOp54
 70
     1
102
RTVSPost2010Prop55
280
     0
102
RTVSPost2010PropOp55
 70
     1
102
RTVSPost2010Prop56
140
1.0
102
RTVSPost2010PropOp56
 70
     1
102
RTVSPost2010Prop57
140
1.0
102
RTVSPost2010PropOp57
 70
     1
102
RTVSPropertyOp0
 70
     1
102
RTVSPropertyOp1
 70
     1
102
RTVSPropertyOp2
 70
     1
102
RTVSPropertyOp3
 70
     1
102
RTVSPropertyOp4
 70
     1
102
RTVSPropertyOp5
 70
     1
102
RTVSPropertyOp6
 70
     1
102
RTVSPropertyOp7
 70
     1
102
RTVSPropertyOp8
 70
     1
102
RTVSPropertyOp9
 70
     1
102
RTVSPropertyOp10
 70
     1
102
RTVSPropertyOp11
 70
     1
102
RTVSPropertyOp12
 70
     1
102
RTVSPropertyOp13
 70
     1
102
RTVSPropertyOp14
 70
     1
102
RTVSPropertyOp15
 70
     1
102
RTVSPropertyOp16
 70
     1
102
RTVSPropertyOp17
 70
     1
102
RTVSPropertyOp18
 70
     1
102
RTVSPropertyOp19
 70
     1
102
RTVSPropertyOp20
 70
     1
102
RTVSPropertyOp21
 70
     1
102
RTVSPropertyOp22
 70
     1
102
RTVSPropertyOp23
 70
     1
102
RTVSPropertyOp24
 70
     1
102
RTVSPropertyOp25
 70
     1
102
RTVSPropertyOp26
 70
     1
102
RTVSPropertyOp27
 70
     1
102
RTVSPropertyOp28
 70
     1
102
RTVSPropertyOp29
 70
     1
102
RTVSPropertyOp30
 70
     1
102
RTVSPropertyOp31
 70
     1
102
RTVSPropertyOp32
 70
     1
102
RTVSPropertyOp33
 70
     1
102
RTVSPropertyOp34
 70
     1
102
RTVSPropertyOp35
 70
     1
102
RTVSPropertyOp36
 70
     1
102
RTVSPropertyOp37
 70
     1
102
RTVSPropertyOp38
 70
     1
102
RTVSPropertyOp39
 70
     1
102
RTVSPropertyOp40
 70
     1
102
RTVSPropertyOp41
 70
     1
102
RTVSPropertyOp42
 70
     1
102
RTVSPropertyOp43
 70
     1
102
RTVSPropertyOp44
 70
     1
102
RTVSPropertyOp45
 70
     1
102
RTVSPropertyOp46
 70
     1
102
RTVSPropertyOp47
 70
     1
102
RTVSPropertyOp48
 70
     1
102
RTVSPropertyOp49
 70
     1
102
RTVSPropertyOp50
 70
     1
102
RTVSPropertyOp51
 70
     0
102
RTVSPropertyOp52
 70
     0
102
RTVSPropertyOp53
 70
     1
102
RTVSPropertyOp54
 70
     1
102
RTVSPropertyOp55
 70
     1
102
RTVSPropertyOp56
 70
     1
102
RTVSPropertyOp57
 70
     1
102
RTVSPropertyOp58
 70
     1
102
RTVSPropertyOp59
 70
     1
102
RTVSPropertyOp60
 70
     1
102
RTVSPropertyOp61
 70
     1
102
RTVSPropertyOp62
 70
     1
  0
XRECORD
  5
6A0C
102
{ACAD_REACTORS
330
6A0B
102
}
330
6A0B
100
AcDbXrecord
280
     1
102
RTVSPost2010Prop28
280
     0
102
RTVSPost2010PropOp28
 70
     1
102
RTVSPost2010Prop29
280
     1
102
RTVSPost2010PropOp29
 70
     1
102
RTVSPost2010Prop30
280
     1
102
RTVSPost2010PropOp30
 70
     1
102
RTVSPost2010Prop31
280
     0
102
RTVSPost2010PropOp31
 70
     1
102
RTVSPost2010Prop32
280
     0
102
RTVSPost2010PropOp32
 70
     1
102
RTVSPost2010Prop33
280
     0
102
RTVSPost2010PropOp33
 70
     1
102
RTVSPost2010Prop34
280
     0
102
RTVSPost2010PropOp34
 70
     1
102
RTVSPost2010Prop35
280
     0
102
RTVSPost2010PropOp35
 70
     1
102
RTVSPost2010Prop36
280
     0
102
RTVSPost2010PropOp36
 70
     1
102
RTVSPost2010Prop37
 90
       50
102
RTVSPost2010PropOp37
 70
     1
102
RTVSPost2010Prop38
140
0.0
102
RTVSPost2010PropOp38
 70
     1
102
RTVSPost2010Prop39
140
1.0
102
RTVSPost2010PropOp39
 70
     1
102
RTVSPost2010Prop40
 90
        0
102
RTVSPost2010PropOp40
 70
     1
102
RTVSPost2010Prop41ColorIndex
 90
       18
102
RTVSPost2010Prop41ColorRGB
 90
        0
102
RTVSPost2010PropOp41
 70
     1
102
RTVSPost2010Prop42
 90
       50
102
RTVSPost2010PropOp42
 70
     1
102
RTVSPost2010Prop43
 90
        3
102
RTVSPost2010PropOp43
 70
     1
102
RTVSPost2010Prop44ColorIndex
 90
        5
102
RTVSPost2010Prop44ColorRGB
 90
      255
102
RTVSPost2010PropOp44
 70
     1
102
RTVSPost2010Prop45
280
     0
102
RTVSPost2010PropOp45
 70
     1
102
RTVSPost2010Prop46
 90
       50
102
RTVSPost2010PropOp46
 70
     1
102
RTVSPost2010Prop47
 90
       50
102
RTVSPost2010PropOp47
 70
     1
102
RTVSPost2010Prop48
 90
       50
102
RTVSPost2010PropOp48
 70
     1
102
RTVSPost2010Prop49
280
     0
102
RTVSPost2010PropOp49
 70
     1
102
RTVSPost2010Prop50
 90
       50
102
RTVSPost2010PropOp50
 70
     1
102
RTVSPost2010Prop51ColorIndex
 90
      256
102
RTVSPost2010Prop51ColorRGB
 90
-16777216
102
RTVSPost2010PropOp51
 70
     0
102
RTVSPost2010Prop52
140
1.0
102
RTVSPost2010PropOp52
 70
     0
102
RTVSPost2010Prop53
 90
        2
102
RTVSPost2010PropOp53
 70
     1
102
RTVSPost2010Prop54
  1
strokes_ogs.tif
102
RTVSPost2010PropOp54
 70
     1
102
RTVSPost2010Prop55
280
     0
102
RTVSPost2010PropOp55
 70
     1
102
RTVSPost2010Prop56
140
1.0
102
RTVSPost2010PropOp56
 70
     1
102
RTVSPost2010Prop57
140
1.0
102
RTVSPost2010PropOp57
 70
     1
102
RTVSPropertyOp0
 70
     1
102
RTVSPropertyOp1
 70
     1
102
RTVSPropertyOp2
 70
     1
102
RTVSPropertyOp3
 70
     1
102
RTVSPropertyOp4
 70
     1
102
RTVSPropertyOp5
 70
     1
102
RTVSPropertyOp6
 70
     1
102
RTVSPropertyOp7
 70
     1
102
RTVSPropertyOp8
 70
     1
102
RTVSPropertyOp9
 70
     1
102
RTVSPropertyOp10
 70
     1
102
RTVSPropertyOp11
 70
     1
102
RTVSPropertyOp12
 70
     1
102
RTVSPropertyOp13
 70
     1
102
RTVSPropertyOp14
 70
     1
102
RTVSPropertyOp15
 70
     1
102
RTVSPropertyOp16
 70
     1
102
RTVSPropertyOp17
 70
     1
102
RTVSPropertyOp18
 70
     1
102
RTVSPropertyOp19
 70
     1
102
RTVSPropertyOp20
 70
     1
102
RTVSPropertyOp21
 70
     1
102
RTVSPropertyOp22
 70
     1
102
RTVSPropertyOp23
 70
     1
102
RTVSPropertyOp24
 70
     1
102
RTVSPropertyOp25
 70
     1
102
RTVSPropertyOp26
 70
     1
102
RTVSPropertyOp27
 70
     1
102
RTVSPropertyOp28
 70
     1
102
RTVSPropertyOp29
 70
     1
102
RTVSPropertyOp30
 70
     1
102
RTVSPropertyOp31
 70
     1
102
RTVSPropertyOp32
 70
     1
102
RTVSPropertyOp33
 70
     1
102
RTVSPropertyOp34
 70
     1
102
RTVSPropertyOp35
 70
     1
102
RTVSPropertyOp36
 70
     1
102
RTVSPropertyOp37
 70
     1
102
RTVSPropertyOp38
 70
     1
102
RTVSPropertyOp39
 70
     1
102
RTVSPropertyOp40
 70
     1
102
RTVSPropertyOp41
 70
     1
102
RTVSPropertyOp42
 70
     1
102
RTVSPropertyOp43
 70
     1
102
RTVSPropertyOp44
 70
     1
102
RTVSPropertyOp45
 70
     1
102
RTVSPropertyOp46
 70
     1
102
RTVSPropertyOp47
 70
     1
102
RTVSPropertyOp48
 70
     1
102
RTVSPropertyOp49
 70
     1
102
RTVSPropertyOp50
 70
     1
102
RTVSPropertyOp51
 70
     0
102
RTVSPropertyOp52
 70
     0
102
RTVSPropertyOp53
 70
     1
102
RTVSPropertyOp54
 70
     1
102
RTVSPropertyOp55
 70
     1
102
RTVSPropertyOp56
 70
     1
102
RTVSPropertyOp57
 70
     1
102
RTVSPropertyOp58
 70
     1
102
RTVSPropertyOp59
 70
     1
102
RTVSPropertyOp60
 70
     1
102
RTVSPropertyOp61
 70
     1
102
RTVSPropertyOp62
 70
     1
  0
XRECORD
  5
69FE
102
{ACAD_REACTORS
330
69FD
102
}
330
69FD
100
AcDbXrecord
280
     1
102
RTVSPost2010Prop28
280
     0
102
RTVSPost2010PropOp28
 70
     1
102
RTVSPost2010Prop29
280
     1
102
RTVSPost2010PropOp29
 70
     1
102
RTVSPost2010Prop30
280
     1
102
RTVSPost2010PropOp30
 70
     1
102
RTVSPost2010Prop31
280
     0
102
RTVSPost2010PropOp31
 70
     1
102
RTVSPost2010Prop32
280
     0
102
RTVSPost2010PropOp32
 70
     1
102
RTVSPost2010Prop33
280
     0
102
RTVSPost2010PropOp33
 70
     1
102
RTVSPost2010Prop34
280
     0
102
RTVSPost2010PropOp34
 70
     1
102
RTVSPost2010Prop35
280
     0
102
RTVSPost2010PropOp35
 70
     1
102
RTVSPost2010Prop36
280
     0
102
RTVSPost2010PropOp36
 70
     1
102
RTVSPost2010Prop37
 90
       50
102
RTVSPost2010PropOp37
 70
     1
102
RTVSPost2010Prop38
140
0.0
102
RTVSPost2010PropOp38
 70
     1
102
RTVSPost2010Prop39
140
1.0
102
RTVSPost2010PropOp39
 70
     1
102
RTVSPost2010Prop40
 90
        0
102
RTVSPost2010PropOp40
 70
     1
102
RTVSPost2010Prop41ColorIndex
 90
       18
102
RTVSPost2010Prop41ColorRGB
 90
        0
102
RTVSPost2010PropOp41
 70
     1
102
RTVSPost2010Prop42
 90
       50
102
RTVSPost2010PropOp42
 70
     1
102
RTVSPost2010Prop43
 90
        3
102
RTVSPost2010PropOp43
 70
     1
102
RTVSPost2010Prop44ColorIndex
 90
        5
102
RTVSPost2010Prop44ColorRGB
 90
      255
102
RTVSPost2010PropOp44
 70
     1
102
RTVSPost2010Prop45
280
     0
102
RTVSPost2010PropOp45
 70
     1
102
RTVSPost2010Prop46
 90
       50
102
RTVSPost2010PropOp46
 70
     1
102
RTVSPost2010Prop47
 90
       50
102
RTVSPost2010PropOp47
 70
     1
102
RTVSPost2010Prop48
 90
       50
102
RTVSPost2010PropOp48
 70
     1
102
RTVSPost2010Prop49
280
     0
102
RTVSPost2010PropOp49
 70
     1
102
RTVSPost2010Prop50
 90
       50
102
RTVSPost2010PropOp50
 70
     1
102
RTVSPost2010Prop51ColorIndex
 90
      256
102
RTVSPost2010Prop51ColorRGB
 90
-16777216
102
RTVSPost2010PropOp51
 70
     0
102
RTVSPost2010Prop52
140
1.0
102
RTVSPost2010PropOp52
 70
     0
102
RTVSPost2010Prop53
 90
        2
102
RTVSPost2010PropOp53
 70
     1
102
RTVSPost2010Prop54
  1
strokes_ogs.tif
102
RTVSPost2010PropOp54
 70
     1
102
RTVSPost2010Prop55
280
     0
102
RTVSPost2010PropOp55
 70
     1
102
RTVSPost2010Prop56
140
1.0
102
RTVSPost2010PropOp56
 70
     1
102
RTVSPost2010Prop57
140
1.0
102
RTVSPost2010PropOp57
 70
     1
102
RTVSPropertyOp0
 70
     1
102
RTVSPropertyOp1
 70
     1
102
RTVSPropertyOp2
 70
     1
102
RTVSPropertyOp3
 70
     1
102
RTVSPropertyOp4
 70
     1
102
RTVSPropertyOp5
 70
     1
102
RTVSPropertyOp6
 70
     1
102
RTVSPropertyOp7
 70
     1
102
RTVSPropertyOp8
 70
     1
102
RTVSPropertyOp9
 70
     1
102
RTVSPropertyOp10
 70
     1
102
RTVSPropertyOp11
 70
     1
102
RTVSPropertyOp12
 70
     1
102
RTVSPropertyOp13
 70
     1
102
RTVSPropertyOp14
 70
     1
102
RTVSPropertyOp15
 70
     1
102
RTVSPropertyOp16
 70
     1
102
RTVSPropertyOp17
 70
     1
102
RTVSPropertyOp18
 70
     1
102
RTVSPropertyOp19
 70
     1
102
RTVSPropertyOp20
 70
     1
102
RTVSPropertyOp21
 70
     1
102
RTVSPropertyOp22
 70
     1
102
RTVSPropertyOp23
 70
     1
102
RTVSPropertyOp24
 70
     1
102
RTVSPropertyOp25
 70
     1
102
RTVSPropertyOp26
 70
     1
102
RTVSPropertyOp27
 70
     1
102
RTVSPropertyOp28
 70
     1
102
RTVSPropertyOp29
 70
     1
102
RTVSPropertyOp30
 70
     1
102
RTVSPropertyOp31
 70
     1
102
RTVSPropertyOp32
 70
     1
102
RTVSPropertyOp33
 70
     1
102
RTVSPropertyOp34
 70
     1
102
RTVSPropertyOp35
 70
     1
102
RTVSPropertyOp36
 70
     1
102
RTVSPropertyOp37
 70
     1
102
RTVSPropertyOp38
 70
     1
102
RTVSPropertyOp39
 70
     1
102
RTVSPropertyOp40
 70
     1
102
RTVSPropertyOp41
 70
     1
102
RTVSPropertyOp42
 70
     1
102
RTVSPropertyOp43
 70
     1
102
RTVSPropertyOp44
 70
     1
102
RTVSPropertyOp45
 70
     1
102
RTVSPropertyOp46
 70
     1
102
RTVSPropertyOp47
 70
     1
102
RTVSPropertyOp48
 70
     1
102
RTVSPropertyOp49
 70
     1
102
RTVSPropertyOp50
 70
     1
102
RTVSPropertyOp51
 70
     0
102
RTVSPropertyOp52
 70
     0
102
RTVSPropertyOp53
 70
     1
102
RTVSPropertyOp54
 70
     1
102
RTVSPropertyOp55
 70
     1
102
RTVSPropertyOp56
 70
     1
102
RTVSPropertyOp57
 70
     1
102
RTVSPropertyOp58
 70
     1
102
RTVSPropertyOp59
 70
     1
102
RTVSPropertyOp60
 70
     1
102
RTVSPropertyOp61
 70
     1
102
RTVSPropertyOp62
 70
     1
  0
XRECORD
  5
6A02
102
{ACAD_REACTORS
330
6A01
102
}
330
6A01
100
AcDbXrecord
280
     1
102
RTVSPost2010Prop28
280
     0
102
RTVSPost2010PropOp28
 70
     1
102
RTVSPost2010Prop29
280
     1
102
RTVSPost2010PropOp29
 70
     1
102
RTVSPost2010Prop30
280
     1
102
RTVSPost2010PropOp30
 70
     1
102
RTVSPost2010Prop31
280
     0
102
RTVSPost2010PropOp31
 70
     1
102
RTVSPost2010Prop32
280
     0
102
RTVSPost2010PropOp32
 70
     1
102
RTVSPost2010Prop33
280
     0
102
RTVSPost2010PropOp33
 70
     1
102
RTVSPost2010Prop34
280
     0
102
RTVSPost2010PropOp34
 70
     1
102
RTVSPost2010Prop35
280
     0
102
RTVSPost2010PropOp35
 70
     1
102
RTVSPost2010Prop36
280
     0
102
RTVSPost2010PropOp36
 70
     1
102
RTVSPost2010Prop37
 90
       50
102
RTVSPost2010PropOp37
 70
     1
102
RTVSPost2010Prop38
140
0.0
102
RTVSPost2010PropOp38
 70
     1
102
RTVSPost2010Prop39
140
1.0
102
RTVSPost2010PropOp39
 70
     1
102
RTVSPost2010Prop40
 90
        0
102
RTVSPost2010PropOp40
 70
     1
102
RTVSPost2010Prop41ColorIndex
 90
       18
102
RTVSPost2010Prop41ColorRGB
 90
        0
102
RTVSPost2010PropOp41
 70
     1
102
RTVSPost2010Prop42
 90
       50
102
RTVSPost2010PropOp42
 70
     1
102
RTVSPost2010Prop43
 90
        3
102
RTVSPost2010PropOp43
 70
     1
102
RTVSPost2010Prop44ColorIndex
 90
        5
102
RTVSPost2010Prop44ColorRGB
 90
      255
102
RTVSPost2010PropOp44
 70
     1
102
RTVSPost2010Prop45
280
     0
102
RTVSPost2010PropOp45
 70
     1
102
RTVSPost2010Prop46
 90
       50
102
RTVSPost2010PropOp46
 70
     1
102
RTVSPost2010Prop47
 90
       50
102
RTVSPost2010PropOp47
 70
     1
102
RTVSPost2010Prop48
 90
       50
102
RTVSPost2010PropOp48
 70
     1
102
RTVSPost2010Prop49
280
     0
102
RTVSPost2010PropOp49
 70
     1
102
RTVSPost2010Prop50
 90
       50
102
RTVSPost2010PropOp50
 70
     1
102
RTVSPost2010Prop51ColorIndex
 90
      256
102
RTVSPost2010Prop51ColorRGB
 90
-16777216
102
RTVSPost2010PropOp51
 70
     0
102
RTVSPost2010Prop52
140
1.0
102
RTVSPost2010PropOp52
 70
     0
102
RTVSPost2010Prop53
 90
        2
102
RTVSPost2010PropOp53
 70
     1
102
RTVSPost2010Prop54
  1
strokes_ogs.tif
102
RTVSPost2010PropOp54
 70
     1
102
RTVSPost2010Prop55
280
     0
102
RTVSPost2010PropOp55
 70
     1
102
RTVSPost2010Prop56
140
1.0
102
RTVSPost2010PropOp56
 70
     1
102
RTVSPost2010Prop57
140
1.0
102
RTVSPost2010PropOp57
 70
     1
102
RTVSPropertyOp0
 70
     1
102
RTVSPropertyOp1
 70
     1
102
RTVSPropertyOp2
 70
     1
102
RTVSPropertyOp3
 70
     1
102
RTVSPropertyOp4
 70
     1
102
RTVSPropertyOp5
 70
     1
102
RTVSPropertyOp6
 70
     1
102
RTVSPropertyOp7
 70
     1
102
RTVSPropertyOp8
 70
     1
102
RTVSPropertyOp9
 70
     1
102
RTVSPropertyOp10
 70
     1
102
RTVSPropertyOp11
 70
     1
102
RTVSPropertyOp12
 70
     1
102
RTVSPropertyOp13
 70
     1
102
RTVSPropertyOp14
 70
     1
102
RTVSPropertyOp15
 70
     1
102
RTVSPropertyOp16
 70
     1
102
RTVSPropertyOp17
 70
     1
102
RTVSPropertyOp18
 70
     1
102
RTVSPropertyOp19
 70
     1
102
RTVSPropertyOp20
 70
     1
102
RTVSPropertyOp21
 70
     1
102
RTVSPropertyOp22
 70
     1
102
RTVSPropertyOp23
 70
     1
102
RTVSPropertyOp24
 70
     1
102
RTVSPropertyOp25
 70
     1
102
RTVSPropertyOp26
 70
     1
102
RTVSPropertyOp27
 70
     1
102
RTVSPropertyOp28
 70
     1
102
RTVSPropertyOp29
 70
     1
102
RTVSPropertyOp30
 70
     1
102
RTVSPropertyOp31
 70
     1
102
RTVSPropertyOp32
 70
     1
102
RTVSPropertyOp33
 70
     1
102
RTVSPropertyOp34
 70
     1
102
RTVSPropertyOp35
 70
     1
102
RTVSPropertyOp36
 70
     1
102
RTVSPropertyOp37
 70
     1
102
RTVSPropertyOp38
 70
     1
102
RTVSPropertyOp39
 70
     1
102
RTVSPropertyOp40
 70
     1
102
RTVSPropertyOp41
 70
     1
102
RTVSPropertyOp42
 70
     1
102
RTVSPropertyOp43
 70
     1
102
RTVSPropertyOp44
 70
     1
102
RTVSPropertyOp45
 70
     1
102
RTVSPropertyOp46
 70
     1
102
RTVSPropertyOp47
 70
     1
102
RTVSPropertyOp48
 70
     1
102
RTVSPropertyOp49
 70
     1
102
RTVSPropertyOp50
 70
     1
102
RTVSPropertyOp51
 70
     0
102
RTVSPropertyOp52
 70
     0
102
RTVSPropertyOp53
 70
     1
102
RTVSPropertyOp54
 70
     1
102
RTVSPropertyOp55
 70
     1
102
RTVSPropertyOp56
 70
     1
102
RTVSPropertyOp57
 70
     1
102
RTVSPropertyOp58
 70
     1
102
RTVSPropertyOp59
 70
     1
102
RTVSPropertyOp60
 70
     1
102
RTVSPropertyOp61
 70
     1
102
RTVSPropertyOp62
 70
     1
  0
XRECORD
  5
6A12
102
{ACAD_REACTORS
330
6A11
102
}
330
6A11
100
AcDbXrecord
280
     1
102
RTVSPost2010Prop28
280
     0
102
RTVSPost2010PropOp28
 70
     1
102
RTVSPost2010Prop29
280
     1
102
RTVSPost2010PropOp29
 70
     1
102
RTVSPost2010Prop30
280
     1
102
RTVSPost2010PropOp30
 70
     1
102
RTVSPost2010Prop31
280
     0
102
RTVSPost2010PropOp31
 70
     1
102
RTVSPost2010Prop32
280
     0
102
RTVSPost2010PropOp32
 70
     1
102
RTVSPost2010Prop33
280
     0
102
RTVSPost2010PropOp33
 70
     1
102
RTVSPost2010Prop34
280
     0
102
RTVSPost2010PropOp34
 70
     1
102
RTVSPost2010Prop35
280
     0
102
RTVSPost2010PropOp35
 70
     1
102
RTVSPost2010Prop36
280
     0
102
RTVSPost2010PropOp36
 70
     1
102
RTVSPost2010Prop37
 90
       50
102
RTVSPost2010PropOp37
 70
     1
102
RTVSPost2010Prop38
140
0.0
102
RTVSPost2010PropOp38
 70
     1
102
RTVSPost2010Prop39
140
1.0
102
RTVSPost2010PropOp39
 70
     1
102
RTVSPost2010Prop40
 90
        0
102
RTVSPost2010PropOp40
 70
     1
102
RTVSPost2010Prop41ColorIndex
 90
       18
102
RTVSPost2010Prop41ColorRGB
 90
        0
102
RTVSPost2010PropOp41
 70
     1
102
RTVSPost2010Prop42
 90
       50
102
RTVSPost2010PropOp42
 70
     1
102
RTVSPost2010Prop43
 90
        3
102
RTVSPost2010PropOp43
 70
     1
102
RTVSPost2010Prop44ColorIndex
 90
        5
102
RTVSPost2010Prop44ColorRGB
 90
      255
102
RTVSPost2010PropOp44
 70
     1
102
RTVSPost2010Prop45
280
     0
102
RTVSPost2010PropOp45
 70
     1
102
RTVSPost2010Prop46
 90
       50
102
RTVSPost2010PropOp46
 70
     1
102
RTVSPost2010Prop47
 90
       50
102
RTVSPost2010PropOp47
 70
     1
102
RTVSPost2010Prop48
 90
       50
102
RTVSPost2010PropOp48
 70
     1
102
RTVSPost2010Prop49
280
     0
102
RTVSPost2010PropOp49
 70
     1
102
RTVSPost2010Prop50
 90
       50
102
RTVSPost2010PropOp50
 70
     1
102
RTVSPost2010Prop51ColorIndex
 90
      256
102
RTVSPost2010Prop51ColorRGB
 90
-16777216
102
RTVSPost2010PropOp51
 70
     0
102
RTVSPost2010Prop52
140
1.0
102
RTVSPost2010PropOp52
 70
     0
102
RTVSPost2010Prop53
 90
        2
102
RTVSPost2010PropOp53
 70
     1
102
RTVSPost2010Prop54
  1
strokes_ogs.tif
102
RTVSPost2010PropOp54
 70
     1
102
RTVSPost2010Prop55
280
     0
102
RTVSPost2010PropOp55
 70
     1
102
RTVSPost2010Prop56
140
1.0
102
RTVSPost2010PropOp56
 70
     1
102
RTVSPost2010Prop57
140
1.0
102
RTVSPost2010PropOp57
 70
     1
102
RTVSPropertyOp0
 70
     0
102
RTVSPropertyOp1
 70
     0
102
RTVSPropertyOp2
 70
     0
102
RTVSPropertyOp3
 70
     0
102
RTVSPropertyOp4
 70
     0
102
RTVSPropertyOp5
 70
     0
102
RTVSPropertyOp6
 70
     0
102
RTVSPropertyOp7
 70
     0
102
RTVSPropertyOp8
 70
     0
102
RTVSPropertyOp9
 70
     0
102
RTVSPropertyOp10
 70
     0
102
RTVSPropertyOp11
 70
     0
102
RTVSPropertyOp12
 70
     0
102
RTVSPropertyOp13
 70
     0
102
RTVSPropertyOp14
 70
     2
102
RTVSPropertyOp15
 70
     0
102
RTVSPropertyOp16
 70
     0
102
RTVSPropertyOp17
 70
     0
102
RTVSPropertyOp18
 70
     0
102
RTVSPropertyOp19
 70
     0
102
RTVSPropertyOp20
 70
     0
102
RTVSPropertyOp21
 70
     0
102
RTVSPropertyOp22
 70
     0
102
RTVSPropertyOp23
 70
     0
102
RTVSPropertyOp24
 70
     0
102
RTVSPropertyOp25
 70
     0
102
RTVSPropertyOp26
 70
     0
102
RTVSPropertyOp27
 70
     0
102
RTVSPropertyOp28
 70
     1
102
RTVSPropertyOp29
 70
     1
102
RTVSPropertyOp30
 70
     1
102
RTVSPropertyOp31
 70
     1
102
RTVSPropertyOp32
 70
     1
102
RTVSPropertyOp33
 70
     1
102
RTVSPropertyOp34
 70
     1
102
RTVSPropertyOp35
 70
     1
102
RTVSPropertyOp36
 70
     1
102
RTVSPropertyOp37
 70
     1
102
RTVSPropertyOp38
 70
     1
102
RTVSPropertyOp39
 70
     1
102
RTVSPropertyOp40
 70
     1
102
RTVSPropertyOp41
 70
     1
102
RTVSPropertyOp42
 70
     1
102
RTVSPropertyOp43
 70
     1
102
RTVSPropertyOp44
 70
     1
102
RTVSPropertyOp45
 70
     1
102
RTVSPropertyOp46
 70
     1
102
RTVSPropertyOp47
 70
     1
102
RTVSPropertyOp48
 70
     1
102
RTVSPropertyOp49
 70
     1
102
RTVSPropertyOp50
 70
     1
102
RTVSPropertyOp51
 70
     0
102
RTVSPropertyOp52
 70
     0
102
RTVSPropertyOp53
 70
     1
102
RTVSPropertyOp54
 70
     1
102
RTVSPropertyOp55
 70
     1
102
RTVSPropertyOp56
 70
     1
102
RTVSPropertyOp57
 70
     1
102
RTVSPropertyOp58
 70
     1
102
RTVSPropertyOp59
 70
     1
102
RTVSPropertyOp60
 70
     1
102
RTVSPropertyOp61
 70
     1
102
RTVSPropertyOp62
 70
     1
  0
XRECORD
  5
6A0A
102
{ACAD_REACTORS
330
6A09
102
}
330
6A09
100
AcDbXrecord
280
     1
102
RTVSPost2010Prop28
280
     0
102
RTVSPost2010PropOp28
 70
     1
102
RTVSPost2010Prop29
280
     1
102
RTVSPost2010PropOp29
 70
     1
102
RTVSPost2010Prop30
280
     1
102
RTVSPost2010PropOp30
 70
     1
102
RTVSPost2010Prop31
280
     0
102
RTVSPost2010PropOp31
 70
     1
102
RTVSPost2010Prop32
280
     0
102
RTVSPost2010PropOp32
 70
     1
102
RTVSPost2010Prop33
280
     0
102
RTVSPost2010PropOp33
 70
     1
102
RTVSPost2010Prop34
280
     0
102
RTVSPost2010PropOp34
 70
     1
102
RTVSPost2010Prop35
280
     0
102
RTVSPost2010PropOp35
 70
     1
102
RTVSPost2010Prop36
280
     0
102
RTVSPost2010PropOp36
 70
     1
102
RTVSPost2010Prop37
 90
       50
102
RTVSPost2010PropOp37
 70
     1
102
RTVSPost2010Prop38
140
0.0
102
RTVSPost2010PropOp38
 70
     1
102
RTVSPost2010Prop39
140
1.0
102
RTVSPost2010PropOp39
 70
     1
102
RTVSPost2010Prop40
 90
        0
102
RTVSPost2010PropOp40
 70
     1
102
RTVSPost2010Prop41ColorIndex
 90
       18
102
RTVSPost2010Prop41ColorRGB
 90
        0
102
RTVSPost2010PropOp41
 70
     1
102
RTVSPost2010Prop42
 90
       50
102
RTVSPost2010PropOp42
 70
     1
102
RTVSPost2010Prop43
 90
        3
102
RTVSPost2010PropOp43
 70
     1
102
RTVSPost2010Prop44ColorIndex
 90
        5
102
RTVSPost2010Prop44ColorRGB
 90
      255
102
RTVSPost2010PropOp44
 70
     1
102
RTVSPost2010Prop45
280
     0
102
RTVSPost2010PropOp45
 70
     1
102
RTVSPost2010Prop46
 90
       50
102
RTVSPost2010PropOp46
 70
     1
102
RTVSPost2010Prop47
 90
       50
102
RTVSPost2010PropOp47
 70
     1
102
RTVSPost2010Prop48
 90
       50
102
RTVSPost2010PropOp48
 70
     1
102
RTVSPost2010Prop49
280
     0
102
RTVSPost2010PropOp49
 70
     1
102
RTVSPost2010Prop50
 90
       50
102
RTVSPost2010PropOp50
 70
     1
102
RTVSPost2010Prop51ColorIndex
 90
      256
102
RTVSPost2010Prop51ColorRGB
 90
-16777216
102
RTVSPost2010PropOp51
 70
     0
102
RTVSPost2010Prop52
140
1.0
102
RTVSPost2010PropOp52
 70
     0
102
RTVSPost2010Prop53
 90
        2
102
RTVSPost2010PropOp53
 70
     1
102
RTVSPost2010Prop54
  1
strokes_ogs.tif
102
RTVSPost2010PropOp54
 70
     1
102
RTVSPost2010Prop55
280
     0
102
RTVSPost2010PropOp55
 70
     1
102
RTVSPost2010Prop56
140
1.0
102
RTVSPost2010PropOp56
 70
     1
102
RTVSPost2010Prop57
140
1.0
102
RTVSPost2010PropOp57
 70
     1
102
RTVSPropertyOp0
 70
     1
102
RTVSPropertyOp1
 70
     1
102
RTVSPropertyOp2
 70
     1
102
RTVSPropertyOp3
 70
     1
102
RTVSPropertyOp4
 70
     1
102
RTVSPropertyOp5
 70
     1
102
RTVSPropertyOp6
 70
     1
102
RTVSPropertyOp7
 70
     1
102
RTVSPropertyOp8
 70
     1
102
RTVSPropertyOp9
 70
     1
102
RTVSPropertyOp10
 70
     1
102
RTVSPropertyOp11
 70
     1
102
RTVSPropertyOp12
 70
     1
102
RTVSPropertyOp13
 70
     1
102
RTVSPropertyOp14
 70
     1
102
RTVSPropertyOp15
 70
     1
102
RTVSPropertyOp16
 70
     1
102
RTVSPropertyOp17
 70
     1
102
RTVSPropertyOp18
 70
     1
102
RTVSPropertyOp19
 70
     1
102
RTVSPropertyOp20
 70
     1
102
RTVSPropertyOp21
 70
     1
102
RTVSPropertyOp22
 70
     1
102
RTVSPropertyOp23
 70
     1
102
RTVSPropertyOp24
 70
     1
102
RTVSPropertyOp25
 70
     1
102
RTVSPropertyOp26
 70
     1
102
RTVSPropertyOp27
 70
     1
102
RTVSPropertyOp28
 70
     1
102
RTVSPropertyOp29
 70
     1
102
RTVSPropertyOp30
 70
     1
102
RTVSPropertyOp31
 70
     1
102
RTVSPropertyOp32
 70
     1
102
RTVSPropertyOp33
 70
     1
102
RTVSPropertyOp34
 70
     1
102
RTVSPropertyOp35
 70
     1
102
RTVSPropertyOp36
 70
     1
102
RTVSPropertyOp37
 70
     1
102
RTVSPropertyOp38
 70
     1
102
RTVSPropertyOp39
 70
     1
102
RTVSPropertyOp40
 70
     1
102
RTVSPropertyOp41
 70
     1
102
RTVSPropertyOp42
 70
     1
102
RTVSPropertyOp43
 70
     1
102
RTVSPropertyOp44
 70
     1
102
RTVSPropertyOp45
 70
     1
102
RTVSPropertyOp46
 70
     1
102
RTVSPropertyOp47
 70
     1
102
RTVSPropertyOp48
 70
     1
102
RTVSPropertyOp49
 70
     1
102
RTVSPropertyOp50
 70
     1
102
RTVSPropertyOp51
 70
     0
102
RTVSPropertyOp52
 70
     0
102
RTVSPropertyOp53
 70
     1
102
RTVSPropertyOp54
 70
     1
102
RTVSPropertyOp55
 70
     1
102
RTVSPropertyOp56
 70
     1
102
RTVSPropertyOp57
 70
     1
102
RTVSPropertyOp58
 70
     1
102
RTVSPropertyOp59
 70
     1
102
RTVSPropertyOp60
 70
     1
102
RTVSPropertyOp61
 70
     1
102
RTVSPropertyOp62
 70
     1
  0
XRECORD
  5
69EE
102
{ACAD_REACTORS
330
69ED
102
}
330
69ED
100
AcDbXrecord
280
     1
102
RTVSPost2010Prop28
280
     0
102
RTVSPost2010PropOp28
 70
     1
102
RTVSPost2010Prop29
280
     1
102
RTVSPost2010PropOp29
 70
     1
102
RTVSPost2010Prop30
280
     1
102
RTVSPost2010PropOp30
 70
     1
102
RTVSPost2010Prop31
280
     0
102
RTVSPost2010PropOp31
 70
     1
102
RTVSPost2010Prop32
280
     0
102
RTVSPost2010PropOp32
 70
     1
102
RTVSPost2010Prop33
280
     0
102
RTVSPost2010PropOp33
 70
     1
102
RTVSPost2010Prop34
280
     0
102
RTVSPost2010PropOp34
 70
     1
102
RTVSPost2010Prop35
280
     0
102
RTVSPost2010PropOp35
 70
     1
102
RTVSPost2010Prop36
280
     0
102
RTVSPost2010PropOp36
 70
     1
102
RTVSPost2010Prop37
 90
       50
102
RTVSPost2010PropOp37
 70
     1
102
RTVSPost2010Prop38
140
0.0
102
RTVSPost2010PropOp38
 70
     1
102
RTVSPost2010Prop39
140
1.0
102
RTVSPost2010PropOp39
 70
     1
102
RTVSPost2010Prop40
 90
        0
102
RTVSPost2010PropOp40
 70
     1
102
RTVSPost2010Prop41ColorIndex
 90
       18
102
RTVSPost2010Prop41ColorRGB
 90
        0
102
RTVSPost2010PropOp41
 70
     1
102
RTVSPost2010Prop42
 90
       50
102
RTVSPost2010PropOp42
 70
     1
102
RTVSPost2010Prop43
 90
        3
102
RTVSPost2010PropOp43
 70
     1
102
RTVSPost2010Prop44ColorIndex
 90
        5
102
RTVSPost2010Prop44ColorRGB
 90
      255
102
RTVSPost2010PropOp44
 70
     1
102
RTVSPost2010Prop45
280
     0
102
RTVSPost2010PropOp45
 70
     1
102
RTVSPost2010Prop46
 90
       50
102
RTVSPost2010PropOp46
 70
     1
102
RTVSPost2010Prop47
 90
       50
102
RTVSPost2010PropOp47
 70
     1
102
RTVSPost2010Prop48
 90
       50
102
RTVSPost2010PropOp48
 70
     1
102
RTVSPost2010Prop49
280
     0
102
RTVSPost2010PropOp49
 70
     1
102
RTVSPost2010Prop50
 90
       50
102
RTVSPost2010PropOp50
 70
     1
102
RTVSPost2010Prop51ColorIndex
 90
      256
102
RTVSPost2010Prop51ColorRGB
 90
-16777216
102
RTVSPost2010PropOp51
 70
     0
102
RTVSPost2010Prop52
140
1.0
102
RTVSPost2010PropOp52
 70
     0
102
RTVSPost2010Prop53
 90
        2
102
RTVSPost2010PropOp53
 70
     1
102
RTVSPost2010Prop54
  1
strokes_ogs.tif
102
RTVSPost2010PropOp54
 70
     1
102
RTVSPost2010Prop55
280
     0
102
RTVSPost2010PropOp55
 70
     1
102
RTVSPost2010Prop56
140
1.0
102
RTVSPost2010PropOp56
 70
     1
102
RTVSPost2010Prop57
140
1.0
102
RTVSPost2010PropOp57
 70
     1
102
RTVSPropertyOp0
 70
     1
102
RTVSPropertyOp1
 70
     1
102
RTVSPropertyOp2
 70
     1
102
RTVSPropertyOp3
 70
     1
102
RTVSPropertyOp4
 70
     1
102
RTVSPropertyOp5
 70
     1
102
RTVSPropertyOp6
 70
     1
102
RTVSPropertyOp7
 70
     1
102
RTVSPropertyOp8
 70
     1
102
RTVSPropertyOp9
 70
     1
102
RTVSPropertyOp10
 70
     1
102
RTVSPropertyOp11
 70
     1
102
RTVSPropertyOp12
 70
     1
102
RTVSPropertyOp13
 70
     1
102
RTVSPropertyOp14
 70
     1
102
RTVSPropertyOp15
 70
     1
102
RTVSPropertyOp16
 70
     1
102
RTVSPropertyOp17
 70
     1
102
RTVSPropertyOp18
 70
     1
102
RTVSPropertyOp19
 70
     1
102
RTVSPropertyOp20
 70
     1
102
RTVSPropertyOp21
 70
     1
102
RTVSPropertyOp22
 70
     1
102
RTVSPropertyOp23
 70
     1
102
RTVSPropertyOp24
 70
     1
102
RTVSPropertyOp25
 70
     1
102
RTVSPropertyOp26
 70
     1
102
RTVSPropertyOp27
 70
     1
102
RTVSPropertyOp28
 70
     1
102
RTVSPropertyOp29
 70
     1
102
RTVSPropertyOp30
 70
     1
102
RTVSPropertyOp31
 70
     1
102
RTVSPropertyOp32
 70
     1
102
RTVSPropertyOp33
 70
     1
102
RTVSPropertyOp34
 70
     1
102
RTVSPropertyOp35
 70
     1
102
RTVSPropertyOp36
 70
     1
102
RTVSPropertyOp37
 70
     1
102
RTVSPropertyOp38
 70
     1
102
RTVSPropertyOp39
 70
     1
102
RTVSPropertyOp40
 70
     1
102
RTVSPropertyOp41
 70
     1
102
RTVSPropertyOp42
 70
     1
102
RTVSPropertyOp43
 70
     1
102
RTVSPropertyOp44
 70
     1
102
RTVSPropertyOp45
 70
     1
102
RTVSPropertyOp46
 70
     1
102
RTVSPropertyOp47
 70
     1
102
RTVSPropertyOp48
 70
     1
102
RTVSPropertyOp49
 70
     1
102
RTVSPropertyOp50
 70
     1
102
RTVSPropertyOp51
 70
     0
102
RTVSPropertyOp52
 70
     0
102
RTVSPropertyOp53
 70
     1
102
RTVSPropertyOp54
 70
     1
102
RTVSPropertyOp55
 70
     1
102
RTVSPropertyOp56
 70
     1
102
RTVSPropertyOp57
 70
     1
102
RTVSPropertyOp58
 70
     1
102
RTVSPropertyOp59
 70
     1
102
RTVSPropertyOp60
 70
     1
102
RTVSPropertyOp61
 70
     1
102
RTVSPropertyOp62
 70
     1
  0
XRECORD
  5
69F0
102
{ACAD_REACTORS
330
69EF
102
}
330
69EF
100
AcDbXrecord
280
     1
102
RTVSPost2010Prop28
280
     0
102
RTVSPost2010PropOp28
 70
     1
102
RTVSPost2010Prop29
280
     1
102
RTVSPost2010PropOp29
 70
     1
102
RTVSPost2010Prop30
280
     1
102
RTVSPost2010PropOp30
 70
     1
102
RTVSPost2010Prop31
280
     0
102
RTVSPost2010PropOp31
 70
     1
102
RTVSPost2010Prop32
280
     0
102
RTVSPost2010PropOp32
 70
     1
102
RTVSPost2010Prop33
280
     0
102
RTVSPost2010PropOp33
 70
     1
102
RTVSPost2010Prop34
280
     0
102
RTVSPost2010PropOp34
 70
     1
102
RTVSPost2010Prop35
280
     0
102
RTVSPost2010PropOp35
 70
     1
102
RTVSPost2010Prop36
280
     0
102
RTVSPost2010PropOp36
 70
     1
102
RTVSPost2010Prop37
 90
       50
102
RTVSPost2010PropOp37
 70
     1
102
RTVSPost2010Prop38
140
0.0
102
RTVSPost2010PropOp38
 70
     1
102
RTVSPost2010Prop39
140
1.0
102
RTVSPost2010PropOp39
 70
     1
102
RTVSPost2010Prop40
 90
        0
102
RTVSPost2010PropOp40
 70
     1
102
RTVSPost2010Prop41ColorIndex
 90
       18
102
RTVSPost2010Prop41ColorRGB
 90
        0
102
RTVSPost2010PropOp41
 70
     1
102
RTVSPost2010Prop42
 90
       50
102
RTVSPost2010PropOp42
 70
     1
102
RTVSPost2010Prop43
 90
        3
102
RTVSPost2010PropOp43
 70
     1
102
RTVSPost2010Prop44ColorIndex
 90
        5
102
RTVSPost2010Prop44ColorRGB
 90
      255
102
RTVSPost2010PropOp44
 70
     1
102
RTVSPost2010Prop45
280
     0
102
RTVSPost2010PropOp45
 70
     1
102
RTVSPost2010Prop46
 90
       50
102
RTVSPost2010PropOp46
 70
     1
102
RTVSPost2010Prop47
 90
       50
102
RTVSPost2010PropOp47
 70
     1
102
RTVSPost2010Prop48
 90
       50
102
RTVSPost2010PropOp48
 70
     1
102
RTVSPost2010Prop49
280
     0
102
RTVSPost2010PropOp49
 70
     1
102
RTVSPost2010Prop50
 90
       50
102
RTVSPost2010PropOp50
 70
     1
102
RTVSPost2010Prop51ColorIndex
 90
      256
102
RTVSPost2010Prop51ColorRGB
 90
-16777216
102
RTVSPost2010PropOp51
 70
     0
102
RTVSPost2010Prop52
140
1.0
102
RTVSPost2010PropOp52
 70
     0
102
RTVSPost2010Prop53
 90
        2
102
RTVSPost2010PropOp53
 70
     1
102
RTVSPost2010Prop54
  1
strokes_ogs.tif
102
RTVSPost2010PropOp54
 70
     1
102
RTVSPost2010Prop55
280
     0
102
RTVSPost2010PropOp55
 70
     1
102
RTVSPost2010Prop56
140
1.0
102
RTVSPost2010PropOp56
 70
     1
102
RTVSPost2010Prop57
140
1.0
102
RTVSPost2010PropOp57
 70
     1
102
RTVSPropertyOp0
 70
     1
102
RTVSPropertyOp1
 70
     1
102
RTVSPropertyOp2
 70
     1
102
RTVSPropertyOp3
 70
     1
102
RTVSPropertyOp4
 70
     1
102
RTVSPropertyOp5
 70
     1
102
RTVSPropertyOp6
 70
     1
102
RTVSPropertyOp7
 70
     1
102
RTVSPropertyOp8
 70
     1
102
RTVSPropertyOp9
 70
     1
102
RTVSPropertyOp10
 70
     1
102
RTVSPropertyOp11
 70
     1
102
RTVSPropertyOp12
 70
     1
102
RTVSPropertyOp13
 70
     1
102
RTVSPropertyOp14
 70
     1
102
RTVSPropertyOp15
 70
     1
102
RTVSPropertyOp16
 70
     1
102
RTVSPropertyOp17
 70
     1
102
RTVSPropertyOp18
 70
     1
102
RTVSPropertyOp19
 70
     1
102
RTVSPropertyOp20
 70
     1
102
RTVSPropertyOp21
 70
     1
102
RTVSPropertyOp22
 70
     1
102
RTVSPropertyOp23
 70
     1
102
RTVSPropertyOp24
 70
     1
102
RTVSPropertyOp25
 70
     1
102
RTVSPropertyOp26
 70
     1
102
RTVSPropertyOp27
 70
     1
102
RTVSPropertyOp28
 70
     1
102
RTVSPropertyOp29
 70
     1
102
RTVSPropertyOp30
 70
     1
102
RTVSPropertyOp31
 70
     1
102
RTVSPropertyOp32
 70
     1
102
RTVSPropertyOp33
 70
     1
102
RTVSPropertyOp34
 70
     1
102
RTVSPropertyOp35
 70
     1
102
RTVSPropertyOp36
 70
     1
102
RTVSPropertyOp37
 70
     1
102
RTVSPropertyOp38
 70
     1
102
RTVSPropertyOp39
 70
     1
102
RTVSPropertyOp40
 70
     1
102
RTVSPropertyOp41
 70
     1
102
RTVSPropertyOp42
 70
     1
102
RTVSPropertyOp43
 70
     1
102
RTVSPropertyOp44
 70
     1
102
RTVSPropertyOp45
 70
     1
102
RTVSPropertyOp46
 70
     1
102
RTVSPropertyOp47
 70
     1
102
RTVSPropertyOp48
 70
     1
102
RTVSPropertyOp49
 70
     1
102
RTVSPropertyOp50
 70
     1
102
RTVSPropertyOp51
 70
     0
102
RTVSPropertyOp52
 70
     0
102
RTVSPropertyOp53
 70
     1
102
RTVSPropertyOp54
 70
     1
102
RTVSPropertyOp55
 70
     1
102
RTVSPropertyOp56
 70
     1
102
RTVSPropertyOp57
 70
     1
102
RTVSPropertyOp58
 70
     1
102
RTVSPropertyOp59
 70
     1
102
RTVSPropertyOp60
 70
     1
102
RTVSPropertyOp61
 70
     1
102
RTVSPropertyOp62
 70
     1
  0
XRECORD
  5
69F2
102
{ACAD_REACTORS
330
69F1
102
}
330
69F1
100
AcDbXrecord
280
     1
102
RTVSPost2010Prop28
280
     0
102
RTVSPost2010PropOp28
 70
     1
102
RTVSPost2010Prop29
280
     1
102
RTVSPost2010PropOp29
 70
     1
102
RTVSPost2010Prop30
280
     1
102
RTVSPost2010PropOp30
 70
     1
102
RTVSPost2010Prop31
280
     0
102
RTVSPost2010PropOp31
 70
     1
102
RTVSPost2010Prop32
280
     0
102
RTVSPost2010PropOp32
 70
     1
102
RTVSPost2010Prop33
280
     0
102
RTVSPost2010PropOp33
 70
     1
102
RTVSPost2010Prop34
280
     0
102
RTVSPost2010PropOp34
 70
     1
102
RTVSPost2010Prop35
280
     0
102
RTVSPost2010PropOp35
 70
     1
102
RTVSPost2010Prop36
280
     0
102
RTVSPost2010PropOp36
 70
     1
102
RTVSPost2010Prop37
 90
       50
102
RTVSPost2010PropOp37
 70
     1
102
RTVSPost2010Prop38
140
0.0
102
RTVSPost2010PropOp38
 70
     1
102
RTVSPost2010Prop39
140
1.0
102
RTVSPost2010PropOp39
 70
     1
102
RTVSPost2010Prop40
 90
        0
102
RTVSPost2010PropOp40
 70
     1
102
RTVSPost2010Prop41ColorIndex
 90
       18
102
RTVSPost2010Prop41ColorRGB
 90
        0
102
RTVSPost2010PropOp41
 70
     1
102
RTVSPost2010Prop42
 90
       50
102
RTVSPost2010PropOp42
 70
     1
102
RTVSPost2010Prop43
 90
        3
102
RTVSPost2010PropOp43
 70
     1
102
RTVSPost2010Prop44ColorIndex
 90
        5
102
RTVSPost2010Prop44ColorRGB
 90
      255
102
RTVSPost2010PropOp44
 70
     1
102
RTVSPost2010Prop45
280
     0
102
RTVSPost2010PropOp45
 70
     1
102
RTVSPost2010Prop46
 90
       50
102
RTVSPost2010PropOp46
 70
     1
102
RTVSPost2010Prop47
 90
       50
102
RTVSPost2010PropOp47
 70
     1
102
RTVSPost2010Prop48
 90
       50
102
RTVSPost2010PropOp48
 70
     1
102
RTVSPost2010Prop49
280
     0
102
RTVSPost2010PropOp49
 70
     1
102
RTVSPost2010Prop50
 90
       50
102
RTVSPost2010PropOp50
 70
     1
102
RTVSPost2010Prop51ColorIndex
 90
      256
102
RTVSPost2010Prop51ColorRGB
 90
-16777216
102
RTVSPost2010PropOp51
 70
     0
102
RTVSPost2010Prop52
140
1.0
102
RTVSPost2010PropOp52
 70
     0
102
RTVSPost2010Prop53
 90
        2
102
RTVSPost2010PropOp53
 70
     1
102
RTVSPost2010Prop54
  1
strokes_ogs.tif
102
RTVSPost2010PropOp54
 70
     1
102
RTVSPost2010Prop55
280
     0
102
RTVSPost2010PropOp55
 70
     1
102
RTVSPost2010Prop56
140
1.0
102
RTVSPost2010PropOp56
 70
     1
102
RTVSPost2010Prop57
140
1.0
102
RTVSPost2010PropOp57
 70
     1
102
RTVSPropertyOp0
 70
     1
102
RTVSPropertyOp1
 70
     1
102
RTVSPropertyOp2
 70
     1
102
RTVSPropertyOp3
 70
     1
102
RTVSPropertyOp4
 70
     1
102
RTVSPropertyOp5
 70
     1
102
RTVSPropertyOp6
 70
     1
102
RTVSPropertyOp7
 70
     1
102
RTVSPropertyOp8
 70
     1
102
RTVSPropertyOp9
 70
     1
102
RTVSPropertyOp10
 70
     1
102
RTVSPropertyOp11
 70
     1
102
RTVSPropertyOp12
 70
     1
102
RTVSPropertyOp13
 70
     1
102
RTVSPropertyOp14
 70
     1
102
RTVSPropertyOp15
 70
     1
102
RTVSPropertyOp16
 70
     1
102
RTVSPropertyOp17
 70
     1
102
RTVSPropertyOp18
 70
     1
102
RTVSPropertyOp19
 70
     1
102
RTVSPropertyOp20
 70
     1
102
RTVSPropertyOp21
 70
     1
102
RTVSPropertyOp22
 70
     1
102
RTVSPropertyOp23
 70
     1
102
RTVSPropertyOp24
 70
     1
102
RTVSPropertyOp25
 70
     1
102
RTVSPropertyOp26
 70
     1
102
RTVSPropertyOp27
 70
     1
102
RTVSPropertyOp28
 70
     1
102
RTVSPropertyOp29
 70
     1
102
RTVSPropertyOp30
 70
     1
102
RTVSPropertyOp31
 70
     1
102
RTVSPropertyOp32
 70
     1
102
RTVSPropertyOp33
 70
     1
102
RTVSPropertyOp34
 70
     1
102
RTVSPropertyOp35
 70
     1
102
RTVSPropertyOp36
 70
     1
102
RTVSPropertyOp37
 70
     1
102
RTVSPropertyOp38
 70
     1
102
RTVSPropertyOp39
 70
     1
102
RTVSPropertyOp40
 70
     1
102
RTVSPropertyOp41
 70
     1
102
RTVSPropertyOp42
 70
     1
102
RTVSPropertyOp43
 70
     1
102
RTVSPropertyOp44
 70
     1
102
RTVSPropertyOp45
 70
     1
102
RTVSPropertyOp46
 70
     1
102
RTVSPropertyOp47
 70
     1
102
RTVSPropertyOp48
 70
     1
102
RTVSPropertyOp49
 70
     1
102
RTVSPropertyOp50
 70
     1
102
RTVSPropertyOp51
 70
     0
102
RTVSPropertyOp52
 70
     0
102
RTVSPropertyOp53
 70
     1
102
RTVSPropertyOp54
 70
     1
102
RTVSPropertyOp55
 70
     1
102
RTVSPropertyOp56
 70
     1
102
RTVSPropertyOp57
 70
     1
102
RTVSPropertyOp58
 70
     1
102
RTVSPropertyOp59
 70
     1
102
RTVSPropertyOp60
 70
     1
102
RTVSPropertyOp61
 70
     1
102
RTVSPropertyOp62
 70
     1
  0
XRECORD
  5
69F4
102
{ACAD_REACTORS
330
69F3
102
}
330
69F3
100
AcDbXrecord
280
     1
102
RTVSPost2010Prop28
280
     0
102
RTVSPost2010PropOp28
 70
     1
102
RTVSPost2010Prop29
280
     1
102
RTVSPost2010PropOp29
 70
     1
102
RTVSPost2010Prop30
280
     1
102
RTVSPost2010PropOp30
 70
     1
102
RTVSPost2010Prop31
280
     0
102
RTVSPost2010PropOp31
 70
     1
102
RTVSPost2010Prop32
280
     0
102
RTVSPost2010PropOp32
 70
     1
102
RTVSPost2010Prop33
280
     0
102
RTVSPost2010PropOp33
 70
     1
102
RTVSPost2010Prop34
280
     0
102
RTVSPost2010PropOp34
 70
     1
102
RTVSPost2010Prop35
280
     0
102
RTVSPost2010PropOp35
 70
     1
102
RTVSPost2010Prop36
280
     0
102
RTVSPost2010PropOp36
 70
     1
102
RTVSPost2010Prop37
 90
       50
102
RTVSPost2010PropOp37
 70
     1
102
RTVSPost2010Prop38
140
0.0
102
RTVSPost2010PropOp38
 70
     1
102
RTVSPost2010Prop39
140
1.0
102
RTVSPost2010PropOp39
 70
     1
102
RTVSPost2010Prop40
 90
        0
102
RTVSPost2010PropOp40
 70
     1
102
RTVSPost2010Prop41ColorIndex
 90
       18
102
RTVSPost2010Prop41ColorRGB
 90
        0
102
RTVSPost2010PropOp41
 70
     1
102
RTVSPost2010Prop42
 90
       50
102
RTVSPost2010PropOp42
 70
     1
102
RTVSPost2010Prop43
 90
        3
102
RTVSPost2010PropOp43
 70
     1
102
RTVSPost2010Prop44ColorIndex
 90
        5
102
RTVSPost2010Prop44ColorRGB
 90
      255
102
RTVSPost2010PropOp44
 70
     1
102
RTVSPost2010Prop45
280
     0
102
RTVSPost2010PropOp45
 70
     1
102
RTVSPost2010Prop46
 90
       50
102
RTVSPost2010PropOp46
 70
     1
102
RTVSPost2010Prop47
 90
       50
102
RTVSPost2010PropOp47
 70
     1
102
RTVSPost2010Prop48
 90
       50
102
RTVSPost2010PropOp48
 70
     1
102
RTVSPost2010Prop49
280
     0
102
RTVSPost2010PropOp49
 70
     1
102
RTVSPost2010Prop50
 90
       50
102
RTVSPost2010PropOp50
 70
     1
102
RTVSPost2010Prop51ColorIndex
 90
      256
102
RTVSPost2010Prop51ColorRGB
 90
-16777216
102
RTVSPost2010PropOp51
 70
     0
102
RTVSPost2010Prop52
140
1.0
102
RTVSPost2010PropOp52
 70
     0
102
RTVSPost2010Prop53
 90
        2
102
RTVSPost2010PropOp53
 70
     1
102
RTVSPost2010Prop54
  1
strokes_ogs.tif
102
RTVSPost2010PropOp54
 70
     1
102
RTVSPost2010Prop55
280
     0
102
RTVSPost2010PropOp55
 70
     1
102
RTVSPost2010Prop56
140
1.0
102
RTVSPost2010PropOp56
 70
     1
102
RTVSPost2010Prop57
140
1.0
102
RTVSPost2010PropOp57
 70
     1
102
RTVSPropertyOp0
 70
     1
102
RTVSPropertyOp1
 70
     1
102
RTVSPropertyOp2
 70
     1
102
RTVSPropertyOp3
 70
     1
102
RTVSPropertyOp4
 70
     1
102
RTVSPropertyOp5
 70
     1
102
RTVSPropertyOp6
 70
     1
102
RTVSPropertyOp7
 70
     1
102
RTVSPropertyOp8
 70
     1
102
RTVSPropertyOp9
 70
     1
102
RTVSPropertyOp10
 70
     1
102
RTVSPropertyOp11
 70
     1
102
RTVSPropertyOp12
 70
     1
102
RTVSPropertyOp13
 70
     1
102
RTVSPropertyOp14
 70
     1
102
RTVSPropertyOp15
 70
     1
102
RTVSPropertyOp16
 70
     1
102
RTVSPropertyOp17
 70
     1
102
RTVSPropertyOp18
 70
     1
102
RTVSPropertyOp19
 70
     1
102
RTVSPropertyOp20
 70
     1
102
RTVSPropertyOp21
 70
     1
102
RTVSPropertyOp22
 70
     1
102
RTVSPropertyOp23
 70
     1
102
RTVSPropertyOp24
 70
     1
102
RTVSPropertyOp25
 70
     1
102
RTVSPropertyOp26
 70
     1
102
RTVSPropertyOp27
 70
     1
102
RTVSPropertyOp28
 70
     1
102
RTVSPropertyOp29
 70
     1
102
RTVSPropertyOp30
 70
     1
102
RTVSPropertyOp31
 70
     1
102
RTVSPropertyOp32
 70
     1
102
RTVSPropertyOp33
 70
     1
102
RTVSPropertyOp34
 70
     1
102
RTVSPropertyOp35
 70
     1
102
RTVSPropertyOp36
 70
     1
102
RTVSPropertyOp37
 70
     1
102
RTVSPropertyOp38
 70
     1
102
RTVSPropertyOp39
 70
     1
102
RTVSPropertyOp40
 70
     1
102
RTVSPropertyOp41
 70
     1
102
RTVSPropertyOp42
 70
     1
102
RTVSPropertyOp43
 70
     1
102
RTVSPropertyOp44
 70
     1
102
RTVSPropertyOp45
 70
     1
102
RTVSPropertyOp46
 70
     1
102
RTVSPropertyOp47
 70
     1
102
RTVSPropertyOp48
 70
     1
102
RTVSPropertyOp49
 70
     1
102
RTVSPropertyOp50
 70
     1
102
RTVSPropertyOp51
 70
     0
102
RTVSPropertyOp52
 70
     0
102
RTVSPropertyOp53
 70
     1
102
RTVSPropertyOp54
 70
     1
102
RTVSPropertyOp55
 70
     1
102
RTVSPropertyOp56
 70
     1
102
RTVSPropertyOp57
 70
     1
102
RTVSPropertyOp58
 70
     1
102
RTVSPropertyOp59
 70
     1
102
RTVSPropertyOp60
 70
     1
102
RTVSPropertyOp61
 70
     1
102
RTVSPropertyOp62
 70
     1
  0
XRECORD
  5
6A17
102
{ACAD_REACTORS
330
6A16
102
}
330
6A16
100
AcDbXrecord
280
     1
102
RTVSPost2010Prop28
280
     0
102
RTVSPost2010PropOp28
 70
     1
102
RTVSPost2010Prop29
280
     1
102
RTVSPost2010PropOp29
 70
     1
102
RTVSPost2010Prop30
280
     1
102
RTVSPost2010PropOp30
 70
     1
102
RTVSPost2010Prop31
280
     0
102
RTVSPost2010PropOp31
 70
     1
102
RTVSPost2010Prop32
280
     0
102
RTVSPost2010PropOp32
 70
     1
102
RTVSPost2010Prop33
280
     0
102
RTVSPost2010PropOp33
 70
     1
102
RTVSPost2010Prop34
280
     0
102
RTVSPost2010PropOp34
 70
     1
102
RTVSPost2010Prop35
280
     0
102
RTVSPost2010PropOp35
 70
     1
102
RTVSPost2010Prop36
280
     0
102
RTVSPost2010PropOp36
 70
     1
102
RTVSPost2010Prop37
 90
       50
102
RTVSPost2010PropOp37
 70
     1
102
RTVSPost2010Prop38
140
0.0
102
RTVSPost2010PropOp38
 70
     1
102
RTVSPost2010Prop39
140
1.0
102
RTVSPost2010PropOp39
 70
     1
102
RTVSPost2010Prop40
 90
        0
102
RTVSPost2010PropOp40
 70
     1
102
RTVSPost2010Prop41ColorIndex
 90
       18
102
RTVSPost2010Prop41ColorRGB
 90
        0
102
RTVSPost2010PropOp41
 70
     1
102
RTVSPost2010Prop42
 90
       50
102
RTVSPost2010PropOp42
 70
     1
102
RTVSPost2010Prop43
 90
        3
102
RTVSPost2010PropOp43
 70
     1
102
RTVSPost2010Prop44ColorIndex
 90
        5
102
RTVSPost2010Prop44ColorRGB
 90
      255
102
RTVSPost2010PropOp44
 70
     1
102
RTVSPost2010Prop45
280
     0
102
RTVSPost2010PropOp45
 70
     1
102
RTVSPost2010Prop46
 90
       50
102
RTVSPost2010PropOp46
 70
     1
102
RTVSPost2010Prop47
 90
       50
102
RTVSPost2010PropOp47
 70
     1
102
RTVSPost2010Prop48
 90
       50
102
RTVSPost2010PropOp48
 70
     1
102
RTVSPost2010Prop49
280
     0
102
RTVSPost2010PropOp49
 70
     1
102
RTVSPost2010Prop50
 90
       50
102
RTVSPost2010PropOp50
 70
     1
102
RTVSPost2010Prop51ColorIndex
 90
      256
102
RTVSPost2010Prop51ColorRGB
 90
-16777216
102
RTVSPost2010PropOp51
 70
     0
102
RTVSPost2010Prop52
140
1.0
102
RTVSPost2010PropOp52
 70
     0
102
RTVSPost2010Prop53
 90
        2
102
RTVSPost2010PropOp53
 70
     1
102
RTVSPost2010Prop54
  1
strokes_ogs.tif
102
RTVSPost2010PropOp54
 70
     1
102
RTVSPost2010Prop55
280
     0
102
RTVSPost2010PropOp55
 70
     1
102
RTVSPost2010Prop56
140
1.0
102
RTVSPost2010PropOp56
 70
     1
102
RTVSPost2010Prop57
140
1.0
102
RTVSPost2010PropOp57
 70
     1
102
RTVSPropertyOp0
 70
     1
102
RTVSPropertyOp1
 70
     1
102
RTVSPropertyOp2
 70
     1
102
RTVSPropertyOp3
 70
     1
102
RTVSPropertyOp4
 70
     1
102
RTVSPropertyOp5
 70
     1
102
RTVSPropertyOp6
 70
     1
102
RTVSPropertyOp7
 70
     1
102
RTVSPropertyOp8
 70
     1
102
RTVSPropertyOp9
 70
     1
102
RTVSPropertyOp10
 70
     1
102
RTVSPropertyOp11
 70
     1
102
RTVSPropertyOp12
 70
     1
102
RTVSPropertyOp13
 70
     1
102
RTVSPropertyOp14
 70
     1
102
RTVSPropertyOp15
 70
     1
102
RTVSPropertyOp16
 70
     1
102
RTVSPropertyOp17
 70
     1
102
RTVSPropertyOp18
 70
     1
102
RTVSPropertyOp19
 70
     1
102
RTVSPropertyOp20
 70
     1
102
RTVSPropertyOp21
 70
     1
102
RTVSPropertyOp22
 70
     1
102
RTVSPropertyOp23
 70
     1
102
RTVSPropertyOp24
 70
     1
102
RTVSPropertyOp25
 70
     1
102
RTVSPropertyOp26
 70
     1
102
RTVSPropertyOp27
 70
     1
102
RTVSPropertyOp28
 70
     1
102
RTVSPropertyOp29
 70
     1
102
RTVSPropertyOp30
 70
     1
102
RTVSPropertyOp31
 70
     1
102
RTVSPropertyOp32
 70
     1
102
RTVSPropertyOp33
 70
     1
102
RTVSPropertyOp34
 70
     1
102
RTVSPropertyOp35
 70
     1
102
RTVSPropertyOp36
 70
     1
102
RTVSPropertyOp37
 70
     1
102
RTVSPropertyOp38
 70
     1
102
RTVSPropertyOp39
 70
     1
102
RTVSPropertyOp40
 70
     1
102
RTVSPropertyOp41
 70
     1
102
RTVSPropertyOp42
 70
     1
102
RTVSPropertyOp43
 70
     1
102
RTVSPropertyOp44
 70
     1
102
RTVSPropertyOp45
 70
     1
102
RTVSPropertyOp46
 70
     1
102
RTVSPropertyOp47
 70
     1
102
RTVSPropertyOp48
 70
     1
102
RTVSPropertyOp49
 70
     1
102
RTVSPropertyOp50
 70
     1
102
RTVSPropertyOp51
 70
     0
102
RTVSPropertyOp52
 70
     0
102
RTVSPropertyOp53
 70
     1
102
RTVSPropertyOp54
 70
     1
102
RTVSPropertyOp55
 70
     1
102
RTVSPropertyOp56
 70
     1
102
RTVSPropertyOp57
 70
     1
102
RTVSPropertyOp58
 70
     1
102
RTVSPropertyOp59
 70
     1
102
RTVSPropertyOp60
 70
     1
102
RTVSPropertyOp61
 70
     1
102
RTVSPropertyOp62
 70
     1
  0
XRECORD
  5
6A0E
102
{ACAD_REACTORS
330
6A0D
102
}
330
6A0D
100
AcDbXrecord
280
     1
102
RTVSPost2010Prop28
280
     0
102
RTVSPost2010PropOp28
 70
     1
102
RTVSPost2010Prop29
280
     1
102
RTVSPost2010PropOp29
 70
     1
102
RTVSPost2010Prop30
280
     1
102
RTVSPost2010PropOp30
 70
     1
102
RTVSPost2010Prop31
280
     0
102
RTVSPost2010PropOp31
 70
     1
102
RTVSPost2010Prop32
280
     0
102
RTVSPost2010PropOp32
 70
     1
102
RTVSPost2010Prop33
280
     0
102
RTVSPost2010PropOp33
 70
     1
102
RTVSPost2010Prop34
280
     0
102
RTVSPost2010PropOp34
 70
     1
102
RTVSPost2010Prop35
280
     0
102
RTVSPost2010PropOp35
 70
     1
102
RTVSPost2010Prop36
280
     0
102
RTVSPost2010PropOp36
 70
     1
102
RTVSPost2010Prop37
 90
       50
102
RTVSPost2010PropOp37
 70
     1
102
RTVSPost2010Prop38
140
0.0
102
RTVSPost2010PropOp38
 70
     1
102
RTVSPost2010Prop39
140
1.0
102
RTVSPost2010PropOp39
 70
     1
102
RTVSPost2010Prop40
 90
        0
102
RTVSPost2010PropOp40
 70
     1
102
RTVSPost2010Prop41ColorIndex
 90
       18
102
RTVSPost2010Prop41ColorRGB
 90
        0
102
RTVSPost2010PropOp41
 70
     1
102
RTVSPost2010Prop42
 90
       50
102
RTVSPost2010PropOp42
 70
     1
102
RTVSPost2010Prop43
 90
        3
102
RTVSPost2010PropOp43
 70
     1
102
RTVSPost2010Prop44ColorIndex
 90
        5
102
RTVSPost2010Prop44ColorRGB
 90
      255
102
RTVSPost2010PropOp44
 70
     1
102
RTVSPost2010Prop45
280
     0
102
RTVSPost2010PropOp45
 70
     1
102
RTVSPost2010Prop46
 90
       50
102
RTVSPost2010PropOp46
 70
     1
102
RTVSPost2010Prop47
 90
       50
102
RTVSPost2010PropOp47
 70
     1
102
RTVSPost2010Prop48
 90
       50
102
RTVSPost2010PropOp48
 70
     1
102
RTVSPost2010Prop49
280
     0
102
RTVSPost2010PropOp49
 70
     1
102
RTVSPost2010Prop50
 90
       50
102
RTVSPost2010PropOp50
 70
     1
102
RTVSPost2010Prop51ColorIndex
 90
      256
102
RTVSPost2010Prop51ColorRGB
 90
-16777216
102
RTVSPost2010PropOp51
 70
     0
102
RTVSPost2010Prop52
140
1.0
102
RTVSPost2010PropOp52
 70
     0
102
RTVSPost2010Prop53
 90
        2
102
RTVSPost2010PropOp53
 70
     1
102
RTVSPost2010Prop54
  1
strokes_ogs.tif
102
RTVSPost2010PropOp54
 70
     1
102
RTVSPost2010Prop55
280
     0
102
RTVSPost2010PropOp55
 70
     1
102
RTVSPost2010Prop56
140
1.0
102
RTVSPost2010PropOp56
 70
     1
102
RTVSPost2010Prop57
140
1.0
102
RTVSPost2010PropOp57
 70
     1
102
RTVSPropertyOp0
 70
     0
102
RTVSPropertyOp1
 70
     0
102
RTVSPropertyOp2
 70
     0
102
RTVSPropertyOp3
 70
     0
102
RTVSPropertyOp4
 70
     0
102
RTVSPropertyOp5
 70
     0
102
RTVSPropertyOp6
 70
     0
102
RTVSPropertyOp7
 70
     0
102
RTVSPropertyOp8
 70
     0
102
RTVSPropertyOp9
 70
     0
102
RTVSPropertyOp10
 70
     0
102
RTVSPropertyOp11
 70
     0
102
RTVSPropertyOp12
 70
     0
102
RTVSPropertyOp13
 70
     0
102
RTVSPropertyOp14
 70
     2
102
RTVSPropertyOp15
 70
     0
102
RTVSPropertyOp16
 70
     0
102
RTVSPropertyOp17
 70
     0
102
RTVSPropertyOp18
 70
     0
102
RTVSPropertyOp19
 70
     0
102
RTVSPropertyOp20
 70
     0
102
RTVSPropertyOp21
 70
     0
102
RTVSPropertyOp22
 70
     0
102
RTVSPropertyOp23
 70
     0
102
RTVSPropertyOp24
 70
     0
102
RTVSPropertyOp25
 70
     0
102
RTVSPropertyOp26
 70
     0
102
RTVSPropertyOp27
 70
     0
102
RTVSPropertyOp28
 70
     1
102
RTVSPropertyOp29
 70
     1
102
RTVSPropertyOp30
 70
     1
102
RTVSPropertyOp31
 70
     1
102
RTVSPropertyOp32
 70
     1
102
RTVSPropertyOp33
 70
     1
102
RTVSPropertyOp34
 70
     1
102
RTVSPropertyOp35
 70
     1
102
RTVSPropertyOp36
 70
     1
102
RTVSPropertyOp37
 70
     1
102
RTVSPropertyOp38
 70
     1
102
RTVSPropertyOp39
 70
     1
102
RTVSPropertyOp40
 70
     1
102
RTVSPropertyOp41
 70
     1
102
RTVSPropertyOp42
 70
     1
102
RTVSPropertyOp43
 70
     1
102
RTVSPropertyOp44
 70
     1
102
RTVSPropertyOp45
 70
     1
102
RTVSPropertyOp46
 70
     1
102
RTVSPropertyOp47
 70
     1
102
RTVSPropertyOp48
 70
     1
102
RTVSPropertyOp49
 70
     1
102
RTVSPropertyOp50
 70
     1
102
RTVSPropertyOp51
 70
     0
102
RTVSPropertyOp52
 70
     0
102
RTVSPropertyOp53
 70
     1
102
RTVSPropertyOp54
 70
     1
102
RTVSPropertyOp55
 70
     1
102
RTVSPropertyOp56
 70
     1
102
RTVSPropertyOp57
 70
     1
102
RTVSPropertyOp58
 70
     1
102
RTVSPropertyOp59
 70
     1
102
RTVSPropertyOp60
 70
     1
102
RTVSPropertyOp61
 70
     1
102
RTVSPropertyOp62
 70
     1
  0
XRECORD
  5
6A08
102
{ACAD_REACTORS
330
6A07
102
}
330
6A07
100
AcDbXrecord
280
     1
102
RTVSPost2010Prop28
280
     0
102
RTVSPost2010PropOp28
 70
     1
102
RTVSPost2010Prop29
280
     1
102
RTVSPost2010PropOp29
 70
     1
102
RTVSPost2010Prop30
280
     1
102
RTVSPost2010PropOp30
 70
     1
102
RTVSPost2010Prop31
280
     0
102
RTVSPost2010PropOp31
 70
     1
102
RTVSPost2010Prop32
280
     0
102
RTVSPost2010PropOp32
 70
     1
102
RTVSPost2010Prop33
280
     0
102
RTVSPost2010PropOp33
 70
     1
102
RTVSPost2010Prop34
280
     0
102
RTVSPost2010PropOp34
 70
     1
102
RTVSPost2010Prop35
280
     0
102
RTVSPost2010PropOp35
 70
     1
102
RTVSPost2010Prop36
280
     0
102
RTVSPost2010PropOp36
 70
     1
102
RTVSPost2010Prop37
 90
       50
102
RTVSPost2010PropOp37
 70
     1
102
RTVSPost2010Prop38
140
0.0
102
RTVSPost2010PropOp38
 70
     1
102
RTVSPost2010Prop39
140
1.0
102
RTVSPost2010PropOp39
 70
     1
102
RTVSPost2010Prop40
 90
        0
102
RTVSPost2010PropOp40
 70
     1
102
RTVSPost2010Prop41ColorIndex
 90
       18
102
RTVSPost2010Prop41ColorRGB
 90
        0
102
RTVSPost2010PropOp41
 70
     1
102
RTVSPost2010Prop42
 90
       50
102
RTVSPost2010PropOp42
 70
     1
102
RTVSPost2010Prop43
 90
        3
102
RTVSPost2010PropOp43
 70
     1
102
RTVSPost2010Prop44ColorIndex
 90
        5
102
RTVSPost2010Prop44ColorRGB
 90
      255
102
RTVSPost2010PropOp44
 70
     1
102
RTVSPost2010Prop45
280
     0
102
RTVSPost2010PropOp45
 70
     1
102
RTVSPost2010Prop46
 90
       50
102
RTVSPost2010PropOp46
 70
     1
102
RTVSPost2010Prop47
 90
       50
102
RTVSPost2010PropOp47
 70
     1
102
RTVSPost2010Prop48
 90
       50
102
RTVSPost2010PropOp48
 70
     1
102
RTVSPost2010Prop49
280
     0
102
RTVSPost2010PropOp49
 70
     1
102
RTVSPost2010Prop50
 90
       50
102
RTVSPost2010PropOp50
 70
     1
102
RTVSPost2010Prop51ColorIndex
 90
      256
102
RTVSPost2010Prop51ColorRGB
 90
-16777216
102
RTVSPost2010PropOp51
 70
     0
102
RTVSPost2010Prop52
140
1.0
102
RTVSPost2010PropOp52
 70
     0
102
RTVSPost2010Prop53
 90
        2
102
RTVSPost2010PropOp53
 70
     1
102
RTVSPost2010Prop54
  1
strokes_ogs.tif
102
RTVSPost2010PropOp54
 70
     1
102
RTVSPost2010Prop55
280
     0
102
RTVSPost2010PropOp55
 70
     1
102
RTVSPost2010Prop56
140
1.0
102
RTVSPost2010PropOp56
 70
     1
102
RTVSPost2010Prop57
140
1.0
102
RTVSPost2010PropOp57
 70
     1
102
RTVSPropertyOp0
 70
     1
102
RTVSPropertyOp1
 70
     1
102
RTVSPropertyOp2
 70
     1
102
RTVSPropertyOp3
 70
     1
102
RTVSPropertyOp4
 70
     1
102
RTVSPropertyOp5
 70
     1
102
RTVSPropertyOp6
 70
     1
102
RTVSPropertyOp7
 70
     1
102
RTVSPropertyOp8
 70
     1
102
RTVSPropertyOp9
 70
     1
102
RTVSPropertyOp10
 70
     1
102
RTVSPropertyOp11
 70
     1
102
RTVSPropertyOp12
 70
     1
102
RTVSPropertyOp13
 70
     1
102
RTVSPropertyOp14
 70
     1
102
RTVSPropertyOp15
 70
     1
102
RTVSPropertyOp16
 70
     1
102
RTVSPropertyOp17
 70
     1
102
RTVSPropertyOp18
 70
     1
102
RTVSPropertyOp19
 70
     1
102
RTVSPropertyOp20
 70
     1
102
RTVSPropertyOp21
 70
     1
102
RTVSPropertyOp22
 70
     1
102
RTVSPropertyOp23
 70
     1
102
RTVSPropertyOp24
 70
     1
102
RTVSPropertyOp25
 70
     1
102
RTVSPropertyOp26
 70
     1
102
RTVSPropertyOp27
 70
     1
102
RTVSPropertyOp28
 70
     1
102
RTVSPropertyOp29
 70
     1
102
RTVSPropertyOp30
 70
     1
102
RTVSPropertyOp31
 70
     1
102
RTVSPropertyOp32
 70
     1
102
RTVSPropertyOp33
 70
     1
102
RTVSPropertyOp34
 70
     1
102
RTVSPropertyOp35
 70
     1
102
RTVSPropertyOp36
 70
     1
102
RTVSPropertyOp37
 70
     1
102
RTVSPropertyOp38
 70
     1
102
RTVSPropertyOp39
 70
     1
102
RTVSPropertyOp40
 70
     1
102
RTVSPropertyOp41
 70
     1
102
RTVSPropertyOp42
 70
     1
102
RTVSPropertyOp43
 70
     1
102
RTVSPropertyOp44
 70
     1
102
RTVSPropertyOp45
 70
     1
102
RTVSPropertyOp46
 70
     1
102
RTVSPropertyOp47
 70
     1
102
RTVSPropertyOp48
 70
     1
102
RTVSPropertyOp49
 70
     1
102
RTVSPropertyOp50
 70
     1
102
RTVSPropertyOp51
 70
     0
102
RTVSPropertyOp52
 70
     0
102
RTVSPropertyOp53
 70
     1
102
RTVSPropertyOp54
 70
     1
102
RTVSPropertyOp55
 70
     1
102
RTVSPropertyOp56
 70
     1
102
RTVSPropertyOp57
 70
     1
102
RTVSPropertyOp58
 70
     1
102
RTVSPropertyOp59
 70
     1
102
RTVSPropertyOp60
 70
     1
102
RTVSPropertyOp61
 70
     1
102
RTVSPropertyOp62
 70
     1
  0
XRECORD
  5
6A10
102
{ACAD_REACTORS
330
6A0F
102
}
330
6A0F
100
AcDbXrecord
280
     1
102
RTVSPost2010Prop28
280
     0
102
RTVSPost2010PropOp28
 70
     1
102
RTVSPost2010Prop29
280
     1
102
RTVSPost2010PropOp29
 70
     1
102
RTVSPost2010Prop30
280
     1
102
RTVSPost2010PropOp30
 70
     1
102
RTVSPost2010Prop31
280
     0
102
RTVSPost2010PropOp31
 70
     1
102
RTVSPost2010Prop32
280
     0
102
RTVSPost2010PropOp32
 70
     1
102
RTVSPost2010Prop33
280
     0
102
RTVSPost2010PropOp33
 70
     1
102
RTVSPost2010Prop34
280
     0
102
RTVSPost2010PropOp34
 70
     1
102
RTVSPost2010Prop35
280
     0
102
RTVSPost2010PropOp35
 70
     1
102
RTVSPost2010Prop36
280
     0
102
RTVSPost2010PropOp36
 70
     1
102
RTVSPost2010Prop37
 90
       50
102
RTVSPost2010PropOp37
 70
     1
102
RTVSPost2010Prop38
140
0.0
102
RTVSPost2010PropOp38
 70
     1
102
RTVSPost2010Prop39
140
1.0
102
RTVSPost2010PropOp39
 70
     1
102
RTVSPost2010Prop40
 90
        0
102
RTVSPost2010PropOp40
 70
     1
102
RTVSPost2010Prop41ColorIndex
 90
       18
102
RTVSPost2010Prop41ColorRGB
 90
        0
102
RTVSPost2010PropOp41
 70
     1
102
RTVSPost2010Prop42
 90
       50
102
RTVSPost2010PropOp42
 70
     1
102
RTVSPost2010Prop43
 90
        3
102
RTVSPost2010PropOp43
 70
     1
102
RTVSPost2010Prop44ColorIndex
 90
        5
102
RTVSPost2010Prop44ColorRGB
 90
      255
102
RTVSPost2010PropOp44
 70
     1
102
RTVSPost2010Prop45
280
     0
102
RTVSPost2010PropOp45
 70
     1
102
RTVSPost2010Prop46
 90
       50
102
RTVSPost2010PropOp46
 70
     1
102
RTVSPost2010Prop47
 90
       50
102
RTVSPost2010PropOp47
 70
     1
102
RTVSPost2010Prop48
 90
       50
102
RTVSPost2010PropOp48
 70
     1
102
RTVSPost2010Prop49
280
     0
102
RTVSPost2010PropOp49
 70
     1
102
RTVSPost2010Prop50
 90
       50
102
RTVSPost2010PropOp50
 70
     1
102
RTVSPost2010Prop51ColorIndex
 90
      256
102
RTVSPost2010Prop51ColorRGB
 90
-16777216
102
RTVSPost2010PropOp51
 70
     0
102
RTVSPost2010Prop52
140
1.0
102
RTVSPost2010PropOp52
 70
     0
102
RTVSPost2010Prop53
 90
        2
102
RTVSPost2010PropOp53
 70
     1
102
RTVSPost2010Prop54
  1
strokes_ogs.tif
102
RTVSPost2010PropOp54
 70
     1
102
RTVSPost2010Prop55
280
     0
102
RTVSPost2010PropOp55
 70
     1
102
RTVSPost2010Prop56
140
1.0
102
RTVSPost2010PropOp56
 70
     1
102
RTVSPost2010Prop57
140
1.0
102
RTVSPost2010PropOp57
 70
     1
102
RTVSPropertyOp0
 70
     0
102
RTVSPropertyOp1
 70
     0
102
RTVSPropertyOp2
 70
     0
102
RTVSPropertyOp3
 70
     0
102
RTVSPropertyOp4
 70
     0
102
RTVSPropertyOp5
 70
     0
102
RTVSPropertyOp6
 70
     0
102
RTVSPropertyOp7
 70
     0
102
RTVSPropertyOp8
 70
     0
102
RTVSPropertyOp9
 70
     0
102
RTVSPropertyOp10
 70
     0
102
RTVSPropertyOp11
 70
     0
102
RTVSPropertyOp12
 70
     0
102
RTVSPropertyOp13
 70
     0
102
RTVSPropertyOp14
 70
     2
102
RTVSPropertyOp15
 70
     0
102
RTVSPropertyOp16
 70
     0
102
RTVSPropertyOp17
 70
     0
102
RTVSPropertyOp18
 70
     0
102
RTVSPropertyOp19
 70
     0
102
RTVSPropertyOp20
 70
     0
102
RTVSPropertyOp21
 70
     0
102
RTVSPropertyOp22
 70
     0
102
RTVSPropertyOp23
 70
     0
102
RTVSPropertyOp24
 70
     0
102
RTVSPropertyOp25
 70
     0
102
RTVSPropertyOp26
 70
     0
102
RTVSPropertyOp27
 70
     0
102
RTVSPropertyOp28
 70
     1
102
RTVSPropertyOp29
 70
     1
102
RTVSPropertyOp30
 70
     1
102
RTVSPropertyOp31
 70
     1
102
RTVSPropertyOp32
 70
     1
102
RTVSPropertyOp33
 70
     1
102
RTVSPropertyOp34
 70
     1
102
RTVSPropertyOp35
 70
     1
102
RTVSPropertyOp36
 70
     1
102
RTVSPropertyOp37
 70
     1
102
RTVSPropertyOp38
 70
     1
102
RTVSPropertyOp39
 70
     1
102
RTVSPropertyOp40
 70
     1
102
RTVSPropertyOp41
 70
     1
102
RTVSPropertyOp42
 70
     1
102
RTVSPropertyOp43
 70
     1
102
RTVSPropertyOp44
 70
     1
102
RTVSPropertyOp45
 70
     1
102
RTVSPropertyOp46
 70
     1
102
RTVSPropertyOp47
 70
     1
102
RTVSPropertyOp48
 70
     1
102
RTVSPropertyOp49
 70
     1
102
RTVSPropertyOp50
 70
     1
102
RTVSPropertyOp51
 70
     0
102
RTVSPropertyOp52
 70
     0
102
RTVSPropertyOp53
 70
     1
102
RTVSPropertyOp54
 70
     1
102
RTVSPropertyOp55
 70
     1
102
RTVSPropertyOp56
 70
     1
102
RTVSPropertyOp57
 70
     1
102
RTVSPropertyOp58
 70
     1
102
RTVSPropertyOp59
 70
     1
102
RTVSPropertyOp60
 70
     1
102
RTVSPropertyOp61
 70
     1
102
RTVSPropertyOp62
 70
     1
  0
XRECORD
  5
6A00
102
{ACAD_REACTORS
330
69FF
102
}
330
69FF
100
AcDbXrecord
280
     1
102
RTVSPost2010Prop28
280
     0
102
RTVSPost2010PropOp28
 70
     1
102
RTVSPost2010Prop29
280
     1
102
RTVSPost2010PropOp29
 70
     1
102
RTVSPost2010Prop30
280
     1
102
RTVSPost2010PropOp30
 70
     1
102
RTVSPost2010Prop31
280
     0
102
RTVSPost2010PropOp31
 70
     1
102
RTVSPost2010Prop32
280
     0
102
RTVSPost2010PropOp32
 70
     1
102
RTVSPost2010Prop33
280
     0
102
RTVSPost2010PropOp33
 70
     1
102
RTVSPost2010Prop34
280
     0
102
RTVSPost2010PropOp34
 70
     1
102
RTVSPost2010Prop35
280
     0
102
RTVSPost2010PropOp35
 70
     1
102
RTVSPost2010Prop36
280
     0
102
RTVSPost2010PropOp36
 70
     1
102
RTVSPost2010Prop37
 90
       50
102
RTVSPost2010PropOp37
 70
     1
102
RTVSPost2010Prop38
140
0.0
102
RTVSPost2010PropOp38
 70
     1
102
RTVSPost2010Prop39
140
1.0
102
RTVSPost2010PropOp39
 70
     1
102
RTVSPost2010Prop40
 90
        0
102
RTVSPost2010PropOp40
 70
     1
102
RTVSPost2010Prop41ColorIndex
 90
       18
102
RTVSPost2010Prop41ColorRGB
 90
        0
102
RTVSPost2010PropOp41
 70
     1
102
RTVSPost2010Prop42
 90
       50
102
RTVSPost2010PropOp42
 70
     1
102
RTVSPost2010Prop43
 90
        3
102
RTVSPost2010PropOp43
 70
     1
102
RTVSPost2010Prop44ColorIndex
 90
        5
102
RTVSPost2010Prop44ColorRGB
 90
      255
102
RTVSPost2010PropOp44
 70
     1
102
RTVSPost2010Prop45
280
     0
102
RTVSPost2010PropOp45
 70
     1
102
RTVSPost2010Prop46
 90
       50
102
RTVSPost2010PropOp46
 70
     1
102
RTVSPost2010Prop47
 90
       50
102
RTVSPost2010PropOp47
 70
     1
102
RTVSPost2010Prop48
 90
       50
102
RTVSPost2010PropOp48
 70
     1
102
RTVSPost2010Prop49
280
     0
102
RTVSPost2010PropOp49
 70
     1
102
RTVSPost2010Prop50
 90
       50
102
RTVSPost2010PropOp50
 70
     1
102
RTVSPost2010Prop51ColorIndex
 90
      256
102
RTVSPost2010Prop51ColorRGB
 90
-16777216
102
RTVSPost2010PropOp51
 70
     0
102
RTVSPost2010Prop52
140
1.0
102
RTVSPost2010PropOp52
 70
     0
102
RTVSPost2010Prop53
 90
        2
102
RTVSPost2010PropOp53
 70
     1
102
RTVSPost2010Prop54
  1
strokes_ogs.tif
102
RTVSPost2010PropOp54
 70
     1
102
RTVSPost2010Prop55
280
     0
102
RTVSPost2010PropOp55
 70
     1
102
RTVSPost2010Prop56
140
1.0
102
RTVSPost2010PropOp56
 70
     1
102
RTVSPost2010Prop57
140
1.0
102
RTVSPost2010PropOp57
 70
     1
102
RTVSPropertyOp0
 70
     1
102
RTVSPropertyOp1
 70
     1
102
RTVSPropertyOp2
 70
     1
102
RTVSPropertyOp3
 70
     1
102
RTVSPropertyOp4
 70
     1
102
RTVSPropertyOp5
 70
     1
102
RTVSPropertyOp6
 70
     1
102
RTVSPropertyOp7
 70
     1
102
RTVSPropertyOp8
 70
     1
102
RTVSPropertyOp9
 70
     1
102
RTVSPropertyOp10
 70
     1
102
RTVSPropertyOp11
 70
     1
102
RTVSPropertyOp12
 70
     1
102
RTVSPropertyOp13
 70
     1
102
RTVSPropertyOp14
 70
     1
102
RTVSPropertyOp15
 70
     1
102
RTVSPropertyOp16
 70
     1
102
RTVSPropertyOp17
 70
     1
102
RTVSPropertyOp18
 70
     1
102
RTVSPropertyOp19
 70
     1
102
RTVSPropertyOp20
 70
     1
102
RTVSPropertyOp21
 70
     1
102
RTVSPropertyOp22
 70
     1
102
RTVSPropertyOp23
 70
     1
102
RTVSPropertyOp24
 70
     1
102
RTVSPropertyOp25
 70
     1
102
RTVSPropertyOp26
 70
     1
102
RTVSPropertyOp27
 70
     1
102
RTVSPropertyOp28
 70
     1
102
RTVSPropertyOp29
 70
     1
102
RTVSPropertyOp30
 70
     1
102
RTVSPropertyOp31
 70
     1
102
RTVSPropertyOp32
 70
     1
102
RTVSPropertyOp33
 70
     1
102
RTVSPropertyOp34
 70
     1
102
RTVSPropertyOp35
 70
     1
102
RTVSPropertyOp36
 70
     1
102
RTVSPropertyOp37
 70
     1
102
RTVSPropertyOp38
 70
     1
102
RTVSPropertyOp39
 70
     1
102
RTVSPropertyOp40
 70
     1
102
RTVSPropertyOp41
 70
     1
102
RTVSPropertyOp42
 70
     1
102
RTVSPropertyOp43
 70
     1
102
RTVSPropertyOp44
 70
     1
102
RTVSPropertyOp45
 70
     1
102
RTVSPropertyOp46
 70
     1
102
RTVSPropertyOp47
 70
     1
102
RTVSPropertyOp48
 70
     1
102
RTVSPropertyOp49
 70
     1
102
RTVSPropertyOp50
 70
     1
102
RTVSPropertyOp51
 70
     0
102
RTVSPropertyOp52
 70
     0
102
RTVSPropertyOp53
 70
     1
102
RTVSPropertyOp54
 70
     1
102
RTVSPropertyOp55
 70
     1
102
RTVSPropertyOp56
 70
     1
102
RTVSPropertyOp57
 70
     1
102
RTVSPropertyOp58
 70
     1
102
RTVSPropertyOp59
 70
     1
102
RTVSPropertyOp60
 70
     1
102
RTVSPropertyOp61
 70
     1
102
RTVSPropertyOp62
 70
     1
  0
XRECORD
  5
6A21
102
{ACAD_REACTORS
330
6A20
102
}
330
6A20
100
AcDbXrecord
280
     1
102
RTVSPost2010Prop28
280
     0
102
RTVSPost2010PropOp28
 70
     1
102
RTVSPost2010Prop29
280
     1
102
RTVSPost2010PropOp29
 70
     1
102
RTVSPost2010Prop30
280
     1
102
RTVSPost2010PropOp30
 70
     1
102
RTVSPost2010Prop31
280
     0
102
RTVSPost2010PropOp31
 70
     1
102
RTVSPost2010Prop32
280
     0
102
RTVSPost2010PropOp32
 70
     1
102
RTVSPost2010Prop33
280
     0
102
RTVSPost2010PropOp33
 70
     1
102
RTVSPost2010Prop34
280
     0
102
RTVSPost2010PropOp34
 70
     1
102
RTVSPost2010Prop35
280
     0
102
RTVSPost2010PropOp35
 70
     1
102
RTVSPost2010Prop36
280
     0
102
RTVSPost2010PropOp36
 70
     1
102
RTVSPost2010Prop37
 90
       50
102
RTVSPost2010PropOp37
 70
     1
102
RTVSPost2010Prop38
140
0.0
102
RTVSPost2010PropOp38
 70
     1
102
RTVSPost2010Prop39
140
1.0
102
RTVSPost2010PropOp39
 70
     1
102
RTVSPost2010Prop40
 90
        0
102
RTVSPost2010PropOp40
 70
     1
102
RTVSPost2010Prop41ColorIndex
 90
       18
102
RTVSPost2010Prop41ColorRGB
 90
        0
102
RTVSPost2010PropOp41
 70
     1
102
RTVSPost2010Prop42
 90
       50
102
RTVSPost2010PropOp42
 70
     1
102
RTVSPost2010Prop43
 90
        3
102
RTVSPost2010PropOp43
 70
     1
102
RTVSPost2010Prop44ColorIndex
 90
        5
102
RTVSPost2010Prop44ColorRGB
 90
      255
102
RTVSPost2010PropOp44
 70
     1
102
RTVSPost2010Prop45
280
     0
102
RTVSPost2010PropOp45
 70
     1
102
RTVSPost2010Prop46
 90
       50
102
RTVSPost2010PropOp46
 70
     1
102
RTVSPost2010Prop47
 90
       50
102
RTVSPost2010PropOp47
 70
     1
102
RTVSPost2010Prop48
 90
       50
102
RTVSPost2010PropOp48
 70
     1
102
RTVSPost2010Prop49
280
     0
102
RTVSPost2010PropOp49
 70
     1
102
RTVSPost2010Prop50
 90
       50
102
RTVSPost2010PropOp50
 70
     1
102
RTVSPost2010Prop51ColorIndex
 90
      256
102
RTVSPost2010Prop51ColorRGB
 90
-16777216
102
RTVSPost2010PropOp51
 70
     0
102
RTVSPost2010Prop52
140
1.0
102
RTVSPost2010PropOp52
 70
     0
102
RTVSPost2010Prop53
 90
        2
102
RTVSPost2010PropOp53
 70
     1
102
RTVSPost2010Prop54
  1
strokes_ogs.tif
102
RTVSPost2010PropOp54
 70
     1
102
RTVSPost2010Prop55
280
     0
102
RTVSPost2010PropOp55
 70
     1
102
RTVSPost2010Prop56
140
1.0
102
RTVSPost2010PropOp56
 70
     1
102
RTVSPost2010Prop57
140
1.0
102
RTVSPost2010PropOp57
 70
     1
102
RTVSPropertyOp0
 70
     1
102
RTVSPropertyOp1
 70
     1
102
RTVSPropertyOp2
 70
     1
102
RTVSPropertyOp3
 70
     1
102
RTVSPropertyOp4
 70
     1
102
RTVSPropertyOp5
 70
     1
102
RTVSPropertyOp6
 70
     1
102
RTVSPropertyOp7
 70
     1
102
RTVSPropertyOp8
 70
     1
102
RTVSPropertyOp9
 70
     1
102
RTVSPropertyOp10
 70
     1
102
RTVSPropertyOp11
 70
     1
102
RTVSPropertyOp12
 70
     1
102
RTVSPropertyOp13
 70
     1
102
RTVSPropertyOp14
 70
     1
102
RTVSPropertyOp15
 70
     1
102
RTVSPropertyOp16
 70
     1
102
RTVSPropertyOp17
 70
     1
102
RTVSPropertyOp18
 70
     1
102
RTVSPropertyOp19
 70
     1
102
RTVSPropertyOp20
 70
     1
102
RTVSPropertyOp21
 70
     1
102
RTVSPropertyOp22
 70
     1
102
RTVSPropertyOp23
 70
     1
102
RTVSPropertyOp24
 70
     1
102
RTVSPropertyOp25
 70
     1
102
RTVSPropertyOp26
 70
     1
102
RTVSPropertyOp27
 70
     1
102
RTVSPropertyOp28
 70
     1
102
RTVSPropertyOp29
 70
     1
102
RTVSPropertyOp30
 70
     1
102
RTVSPropertyOp31
 70
     1
102
RTVSPropertyOp32
 70
     1
102
RTVSPropertyOp33
 70
     1
102
RTVSPropertyOp34
 70
     1
102
RTVSPropertyOp35
 70
     1
102
RTVSPropertyOp36
 70
     1
102
RTVSPropertyOp37
 70
     1
102
RTVSPropertyOp38
 70
     1
102
RTVSPropertyOp39
 70
     1
102
RTVSPropertyOp40
 70
     1
102
RTVSPropertyOp41
 70
     1
102
RTVSPropertyOp42
 70
     1
102
RTVSPropertyOp43
 70
     1
102
RTVSPropertyOp44
 70
     1
102
RTVSPropertyOp45
 70
     1
102
RTVSPropertyOp46
 70
     1
102
RTVSPropertyOp47
 70
     1
102
RTVSPropertyOp48
 70
     1
102
RTVSPropertyOp49
 70
     1
102
RTVSPropertyOp50
 70
     1
102
RTVSPropertyOp51
 70
     0
102
RTVSPropertyOp52
 70
     0
102
RTVSPropertyOp53
 70
     1
102
RTVSPropertyOp54
 70
     1
102
RTVSPropertyOp55
 70
     1
102
RTVSPropertyOp56
 70
     1
102
RTVSPropertyOp57
 70
     1
102
RTVSPropertyOp58
 70
     1
102
RTVSPropertyOp59
 70
     1
102
RTVSPropertyOp60
 70
     1
102
RTVSPropertyOp61
 70
     1
102
RTVSPropertyOp62
 70
     1
  0
XRECORD
  5
6A1F
102
{ACAD_REACTORS
330
6A1E
102
}
330
6A1E
100
AcDbXrecord
280
     1
102
RTVSPost2010Prop28
280
     0
102
RTVSPost2010PropOp28
 70
     1
102
RTVSPost2010Prop29
280
     1
102
RTVSPost2010PropOp29
 70
     1
102
RTVSPost2010Prop30
280
     1
102
RTVSPost2010PropOp30
 70
     1
102
RTVSPost2010Prop31
280
     0
102
RTVSPost2010PropOp31
 70
     1
102
RTVSPost2010Prop32
280
     0
102
RTVSPost2010PropOp32
 70
     1
102
RTVSPost2010Prop33
280
     0
102
RTVSPost2010PropOp33
 70
     1
102
RTVSPost2010Prop34
280
     0
102
RTVSPost2010PropOp34
 70
     1
102
RTVSPost2010Prop35
280
     0
102
RTVSPost2010PropOp35
 70
     1
102
RTVSPost2010Prop36
280
     0
102
RTVSPost2010PropOp36
 70
     1
102
RTVSPost2010Prop37
 90
       50
102
RTVSPost2010PropOp37
 70
     1
102
RTVSPost2010Prop38
140
0.0
102
RTVSPost2010PropOp38
 70
     1
102
RTVSPost2010Prop39
140
1.0
102
RTVSPost2010PropOp39
 70
     1
102
RTVSPost2010Prop40
 90
        0
102
RTVSPost2010PropOp40
 70
     1
102
RTVSPost2010Prop41ColorIndex
 90
       18
102
RTVSPost2010Prop41ColorRGB
 90
        0
102
RTVSPost2010PropOp41
 70
     1
102
RTVSPost2010Prop42
 90
       50
102
RTVSPost2010PropOp42
 70
     1
102
RTVSPost2010Prop43
 90
        3
102
RTVSPost2010PropOp43
 70
     1
102
RTVSPost2010Prop44ColorIndex
 90
        5
102
RTVSPost2010Prop44ColorRGB
 90
      255
102
RTVSPost2010PropOp44
 70
     1
102
RTVSPost2010Prop45
280
     0
102
RTVSPost2010PropOp45
 70
     1
102
RTVSPost2010Prop46
 90
       50
102
RTVSPost2010PropOp46
 70
     1
102
RTVSPost2010Prop47
 90
       50
102
RTVSPost2010PropOp47
 70
     1
102
RTVSPost2010Prop48
 90
       50
102
RTVSPost2010PropOp48
 70
     1
102
RTVSPost2010Prop49
280
     0
102
RTVSPost2010PropOp49
 70
     1
102
RTVSPost2010Prop50
 90
       50
102
RTVSPost2010PropOp50
 70
     1
102
RTVSPost2010Prop51ColorIndex
 90
      256
102
RTVSPost2010Prop51ColorRGB
 90
-16777216
102
RTVSPost2010PropOp51
 70
     0
102
RTVSPost2010Prop52
140
1.0
102
RTVSPost2010PropOp52
 70
     0
102
RTVSPost2010Prop53
 90
        2
102
RTVSPost2010PropOp53
 70
     1
102
RTVSPost2010Prop54
  1
strokes_ogs.tif
102
RTVSPost2010PropOp54
 70
     1
102
RTVSPost2010Prop55
280
     0
102
RTVSPost2010PropOp55
 70
     1
102
RTVSPost2010Prop56
140
1.0
102
RTVSPost2010PropOp56
 70
     1
102
RTVSPost2010Prop57
140
1.0
102
RTVSPost2010PropOp57
 70
     1
102
RTVSPropertyOp0
 70
     1
102
RTVSPropertyOp1
 70
     1
102
RTVSPropertyOp2
 70
     1
102
RTVSPropertyOp3
 70
     1
102
RTVSPropertyOp4
 70
     1
102
RTVSPropertyOp5
 70
     1
102
RTVSPropertyOp6
 70
     1
102
RTVSPropertyOp7
 70
     1
102
RTVSPropertyOp8
 70
     1
102
RTVSPropertyOp9
 70
     1
102
RTVSPropertyOp10
 70
     1
102
RTVSPropertyOp11
 70
     1
102
RTVSPropertyOp12
 70
     1
102
RTVSPropertyOp13
 70
     1
102
RTVSPropertyOp14
 70
     1
102
RTVSPropertyOp15
 70
     1
102
RTVSPropertyOp16
 70
     1
102
RTVSPropertyOp17
 70
     1
102
RTVSPropertyOp18
 70
     1
102
RTVSPropertyOp19
 70
     1
102
RTVSPropertyOp20
 70
     1
102
RTVSPropertyOp21
 70
     1
102
RTVSPropertyOp22
 70
     1
102
RTVSPropertyOp23
 70
     1
102
RTVSPropertyOp24
 70
     1
102
RTVSPropertyOp25
 70
     1
102
RTVSPropertyOp26
 70
     1
102
RTVSPropertyOp27
 70
     1
102
RTVSPropertyOp28
 70
     1
102
RTVSPropertyOp29
 70
     1
102
RTVSPropertyOp30
 70
     1
102
RTVSPropertyOp31
 70
     1
102
RTVSPropertyOp32
 70
     1
102
RTVSPropertyOp33
 70
     1
102
RTVSPropertyOp34
 70
     1
102
RTVSPropertyOp35
 70
     1
102
RTVSPropertyOp36
 70
     1
102
RTVSPropertyOp37
 70
     1
102
RTVSPropertyOp38
 70
     1
102
RTVSPropertyOp39
 70
     1
102
RTVSPropertyOp40
 70
     1
102
RTVSPropertyOp41
 70
     1
102
RTVSPropertyOp42
 70
     1
102
RTVSPropertyOp43
 70
     1
102
RTVSPropertyOp44
 70
     1
102
RTVSPropertyOp45
 70
     1
102
RTVSPropertyOp46
 70
     1
102
RTVSPropertyOp47
 70
     1
102
RTVSPropertyOp48
 70
     1
102
RTVSPropertyOp49
 70
     1
102
RTVSPropertyOp50
 70
     1
102
RTVSPropertyOp51
 70
     0
102
RTVSPropertyOp52
 70
     0
102
RTVSPropertyOp53
 70
     1
102
RTVSPropertyOp54
 70
     1
102
RTVSPropertyOp55
 70
     1
102
RTVSPropertyOp56
 70
     1
102
RTVSPropertyOp57
 70
     1
102
RTVSPropertyOp58
 70
     1
102
RTVSPropertyOp59
 70
     1
102
RTVSPropertyOp60
 70
     1
102
RTVSPropertyOp61
 70
     1
102
RTVSPropertyOp62
 70
     1
  0
XRECORD
  5
6A19
102
{ACAD_REACTORS
330
6A18
102
}
330
6A18
100
AcDbXrecord
280
     1
102
RTVSPost2010Prop28
280
     0
102
RTVSPost2010PropOp28
 70
     1
102
RTVSPost2010Prop29
280
     1
102
RTVSPost2010PropOp29
 70
     1
102
RTVSPost2010Prop30
280
     1
102
RTVSPost2010PropOp30
 70
     1
102
RTVSPost2010Prop31
280
     0
102
RTVSPost2010PropOp31
 70
     1
102
RTVSPost2010Prop32
280
     0
102
RTVSPost2010PropOp32
 70
     1
102
RTVSPost2010Prop33
280
     0
102
RTVSPost2010PropOp33
 70
     1
102
RTVSPost2010Prop34
280
     0
102
RTVSPost2010PropOp34
 70
     1
102
RTVSPost2010Prop35
280
     0
102
RTVSPost2010PropOp35
 70
     1
102
RTVSPost2010Prop36
280
     0
102
RTVSPost2010PropOp36
 70
     1
102
RTVSPost2010Prop37
 90
       50
102
RTVSPost2010PropOp37
 70
     1
102
RTVSPost2010Prop38
140
0.0
102
RTVSPost2010PropOp38
 70
     1
102
RTVSPost2010Prop39
140
1.0
102
RTVSPost2010PropOp39
 70
     1
102
RTVSPost2010Prop40
 90
        0
102
RTVSPost2010PropOp40
 70
     1
102
RTVSPost2010Prop41ColorIndex
 90
       18
102
RTVSPost2010Prop41ColorRGB
 90
        0
102
RTVSPost2010PropOp41
 70
     1
102
RTVSPost2010Prop42
 90
       50
102
RTVSPost2010PropOp42
 70
     1
102
RTVSPost2010Prop43
 90
        3
102
RTVSPost2010PropOp43
 70
     1
102
RTVSPost2010Prop44ColorIndex
 90
        5
102
RTVSPost2010Prop44ColorRGB
 90
      255
102
RTVSPost2010PropOp44
 70
     1
102
RTVSPost2010Prop45
280
     0
102
RTVSPost2010PropOp45
 70
     1
102
RTVSPost2010Prop46
 90
       50
102
RTVSPost2010PropOp46
 70
     1
102
RTVSPost2010Prop47
 90
       50
102
RTVSPost2010PropOp47
 70
     1
102
RTVSPost2010Prop48
 90
       50
102
RTVSPost2010PropOp48
 70
     1
102
RTVSPost2010Prop49
280
     0
102
RTVSPost2010PropOp49
 70
     1
102
RTVSPost2010Prop50
 90
       50
102
RTVSPost2010PropOp50
 70
     1
102
RTVSPost2010Prop51ColorIndex
 90
      256
102
RTVSPost2010Prop51ColorRGB
 90
-16777216
102
RTVSPost2010PropOp51
 70
     0
102
RTVSPost2010Prop52
140
1.0
102
RTVSPost2010PropOp52
 70
     0
102
RTVSPost2010Prop53
 90
        2
102
RTVSPost2010PropOp53
 70
     1
102
RTVSPost2010Prop54
  1
strokes_ogs.tif
102
RTVSPost2010PropOp54
 70
     1
102
RTVSPost2010Prop55
280
     0
102
RTVSPost2010PropOp55
 70
     1
102
RTVSPost2010Prop56
140
1.0
102
RTVSPost2010PropOp56
 70
     1
102
RTVSPost2010Prop57
140
1.0
102
RTVSPost2010PropOp57
 70
     1
102
RTVSPropertyOp0
 70
     1
102
RTVSPropertyOp1
 70
     1
102
RTVSPropertyOp2
 70
     1
102
RTVSPropertyOp3
 70
     1
102
RTVSPropertyOp4
 70
     1
102
RTVSPropertyOp5
 70
     1
102
RTVSPropertyOp6
 70
     1
102
RTVSPropertyOp7
 70
     1
102
RTVSPropertyOp8
 70
     1
102
RTVSPropertyOp9
 70
     1
102
RTVSPropertyOp10
 70
     1
102
RTVSPropertyOp11
 70
     1
102
RTVSPropertyOp12
 70
     1
102
RTVSPropertyOp13
 70
     1
102
RTVSPropertyOp14
 70
     1
102
RTVSPropertyOp15
 70
     1
102
RTVSPropertyOp16
 70
     1
102
RTVSPropertyOp17
 70
     1
102
RTVSPropertyOp18
 70
     1
102
RTVSPropertyOp19
 70
     1
102
RTVSPropertyOp20
 70
     1
102
RTVSPropertyOp21
 70
     1
102
RTVSPropertyOp22
 70
     1
102
RTVSPropertyOp23
 70
     1
102
RTVSPropertyOp24
 70
     1
102
RTVSPropertyOp25
 70
     1
102
RTVSPropertyOp26
 70
     1
102
RTVSPropertyOp27
 70
     1
102
RTVSPropertyOp28
 70
     1
102
RTVSPropertyOp29
 70
     1
102
RTVSPropertyOp30
 70
     1
102
RTVSPropertyOp31
 70
     1
102
RTVSPropertyOp32
 70
     1
102
RTVSPropertyOp33
 70
     1
102
RTVSPropertyOp34
 70
     1
102
RTVSPropertyOp35
 70
     1
102
RTVSPropertyOp36
 70
     1
102
RTVSPropertyOp37
 70
     1
102
RTVSPropertyOp38
 70
     1
102
RTVSPropertyOp39
 70
     1
102
RTVSPropertyOp40
 70
     1
102
RTVSPropertyOp41
 70
     1
102
RTVSPropertyOp42
 70
     1
102
RTVSPropertyOp43
 70
     1
102
RTVSPropertyOp44
 70
     1
102
RTVSPropertyOp45
 70
     1
102
RTVSPropertyOp46
 70
     1
102
RTVSPropertyOp47
 70
     1
102
RTVSPropertyOp48
 70
     1
102
RTVSPropertyOp49
 70
     1
102
RTVSPropertyOp50
 70
     1
102
RTVSPropertyOp51
 70
     0
102
RTVSPropertyOp52
 70
     0
102
RTVSPropertyOp53
 70
     1
102
RTVSPropertyOp54
 70
     1
102
RTVSPropertyOp55
 70
     1
102
RTVSPropertyOp56
 70
     1
102
RTVSPropertyOp57
 70
     1
102
RTVSPropertyOp58
 70
     1
102
RTVSPropertyOp59
 70
     1
102
RTVSPropertyOp60
 70
     1
102
RTVSPropertyOp61
 70
     1
102
RTVSPropertyOp62
 70
     1
  0
XRECORD
  5
6A1B
102
{ACAD_REACTORS
330
6A1A
102
}
330
6A1A
100
AcDbXrecord
280
     1
102
RTVSPost2010Prop28
280
     0
102
RTVSPost2010PropOp28
 70
     1
102
RTVSPost2010Prop29
280
     1
102
RTVSPost2010PropOp29
 70
     1
102
RTVSPost2010Prop30
280
     1
102
RTVSPost2010PropOp30
 70
     1
102
RTVSPost2010Prop31
280
     0
102
RTVSPost2010PropOp31
 70
     1
102
RTVSPost2010Prop32
280
     0
102
RTVSPost2010PropOp32
 70
     1
102
RTVSPost2010Prop33
280
     0
102
RTVSPost2010PropOp33
 70
     1
102
RTVSPost2010Prop34
280
     0
102
RTVSPost2010PropOp34
 70
     1
102
RTVSPost2010Prop35
280
     0
102
RTVSPost2010PropOp35
 70
     1
102
RTVSPost2010Prop36
280
     0
102
RTVSPost2010PropOp36
 70
     1
102
RTVSPost2010Prop37
 90
       50
102
RTVSPost2010PropOp37
 70
     1
102
RTVSPost2010Prop38
140
0.0
102
RTVSPost2010PropOp38
 70
     1
102
RTVSPost2010Prop39
140
1.0
102
RTVSPost2010PropOp39
 70
     1
102
RTVSPost2010Prop40
 90
        0
102
RTVSPost2010PropOp40
 70
     1
102
RTVSPost2010Prop41ColorIndex
 90
       18
102
RTVSPost2010Prop41ColorRGB
 90
        0
102
RTVSPost2010PropOp41
 70
     1
102
RTVSPost2010Prop42
 90
       50
102
RTVSPost2010PropOp42
 70
     1
102
RTVSPost2010Prop43
 90
        3
102
RTVSPost2010PropOp43
 70
     1
102
RTVSPost2010Prop44ColorIndex
 90
        5
102
RTVSPost2010Prop44ColorRGB
 90
      255
102
RTVSPost2010PropOp44
 70
     1
102
RTVSPost2010Prop45
280
     0
102
RTVSPost2010PropOp45
 70
     1
102
RTVSPost2010Prop46
 90
       50
102
RTVSPost2010PropOp46
 70
     1
102
RTVSPost2010Prop47
 90
       50
102
RTVSPost2010PropOp47
 70
     1
102
RTVSPost2010Prop48
 90
       50
102
RTVSPost2010PropOp48
 70
     1
102
RTVSPost2010Prop49
280
     0
102
RTVSPost2010PropOp49
 70
     1
102
RTVSPost2010Prop50
 90
       50
102
RTVSPost2010PropOp50
 70
     1
102
RTVSPost2010Prop51ColorIndex
 90
      256
102
RTVSPost2010Prop51ColorRGB
 90
-16777216
102
RTVSPost2010PropOp51
 70
     0
102
RTVSPost2010Prop52
140
1.0
102
RTVSPost2010PropOp52
 70
     0
102
RTVSPost2010Prop53
 90
        2
102
RTVSPost2010PropOp53
 70
     1
102
RTVSPost2010Prop54
  1
strokes_ogs.tif
102
RTVSPost2010PropOp54
 70
     1
102
RTVSPost2010Prop55
280
     0
102
RTVSPost2010PropOp55
 70
     1
102
RTVSPost2010Prop56
140
1.0
102
RTVSPost2010PropOp56
 70
     1
102
RTVSPost2010Prop57
140
1.0
102
RTVSPost2010PropOp57
 70
     1
102
RTVSPropertyOp0
 70
     1
102
RTVSPropertyOp1
 70
     1
102
RTVSPropertyOp2
 70
     1
102
RTVSPropertyOp3
 70
     1
102
RTVSPropertyOp4
 70
     1
102
RTVSPropertyOp5
 70
     1
102
RTVSPropertyOp6
 70
     1
102
RTVSPropertyOp7
 70
     1
102
RTVSPropertyOp8
 70
     1
102
RTVSPropertyOp9
 70
     1
102
RTVSPropertyOp10
 70
     1
102
RTVSPropertyOp11
 70
     1
102
RTVSPropertyOp12
 70
     1
102
RTVSPropertyOp13
 70
     1
102
RTVSPropertyOp14
 70
     1
102
RTVSPropertyOp15
 70
     1
102
RTVSPropertyOp16
 70
     1
102
RTVSPropertyOp17
 70
     1
102
RTVSPropertyOp18
 70
     1
102
RTVSPropertyOp19
 70
     1
102
RTVSPropertyOp20
 70
     1
102
RTVSPropertyOp21
 70
     1
102
RTVSPropertyOp22
 70
     1
102
RTVSPropertyOp23
 70
     1
102
RTVSPropertyOp24
 70
     1
102
RTVSPropertyOp25
 70
     1
102
RTVSPropertyOp26
 70
     1
102
RTVSPropertyOp27
 70
     1
102
RTVSPropertyOp28
 70
     1
102
RTVSPropertyOp29
 70
     1
102
RTVSPropertyOp30
 70
     1
102
RTVSPropertyOp31
 70
     1
102
RTVSPropertyOp32
 70
     1
102
RTVSPropertyOp33
 70
     1
102
RTVSPropertyOp34
 70
     1
102
RTVSPropertyOp35
 70
     1
102
RTVSPropertyOp36
 70
     1
102
RTVSPropertyOp37
 70
     1
102
RTVSPropertyOp38
 70
     1
102
RTVSPropertyOp39
 70
     1
102
RTVSPropertyOp40
 70
     1
102
RTVSPropertyOp41
 70
     1
102
RTVSPropertyOp42
 70
     1
102
RTVSPropertyOp43
 70
     1
102
RTVSPropertyOp44
 70
     1
102
RTVSPropertyOp45
 70
     1
102
RTVSPropertyOp46
 70
     1
102
RTVSPropertyOp47
 70
     1
102
RTVSPropertyOp48
 70
     1
102
RTVSPropertyOp49
 70
     1
102
RTVSPropertyOp50
 70
     1
102
RTVSPropertyOp51
 70
     0
102
RTVSPropertyOp52
 70
     0
102
RTVSPropertyOp53
 70
     1
102
RTVSPropertyOp54
 70
     1
102
RTVSPropertyOp55
 70
     1
102
RTVSPropertyOp56
 70
     1
102
RTVSPropertyOp57
 70
     1
102
RTVSPropertyOp58
 70
     1
102
RTVSPropertyOp59
 70
     1
102
RTVSPropertyOp60
 70
     1
102
RTVSPropertyOp61
 70
     1
102
RTVSPropertyOp62
 70
     1
  0
XRECORD
  5
6A06
102
{ACAD_REACTORS
330
6A05
102
}
330
6A05
100
AcDbXrecord
280
     1
102
RTVSPost2010Prop28
280
     0
102
RTVSPost2010PropOp28
 70
     1
102
RTVSPost2010Prop29
280
     1
102
RTVSPost2010PropOp29
 70
     1
102
RTVSPost2010Prop30
280
     1
102
RTVSPost2010PropOp30
 70
     1
102
RTVSPost2010Prop31
280
     0
102
RTVSPost2010PropOp31
 70
     1
102
RTVSPost2010Prop32
280
     0
102
RTVSPost2010PropOp32
 70
     1
102
RTVSPost2010Prop33
280
     0
102
RTVSPost2010PropOp33
 70
     1
102
RTVSPost2010Prop34
280
     0
102
RTVSPost2010PropOp34
 70
     1
102
RTVSPost2010Prop35
280
     0
102
RTVSPost2010PropOp35
 70
     1
102
RTVSPost2010Prop36
280
     0
102
RTVSPost2010PropOp36
 70
     1
102
RTVSPost2010Prop37
 90
       50
102
RTVSPost2010PropOp37
 70
     1
102
RTVSPost2010Prop38
140
0.0
102
RTVSPost2010PropOp38
 70
     1
102
RTVSPost2010Prop39
140
1.0
102
RTVSPost2010PropOp39
 70
     1
102
RTVSPost2010Prop40
 90
        0
102
RTVSPost2010PropOp40
 70
     1
102
RTVSPost2010Prop41ColorIndex
 90
       18
102
RTVSPost2010Prop41ColorRGB
 90
        0
102
RTVSPost2010PropOp41
 70
     1
102
RTVSPost2010Prop42
 90
       50
102
RTVSPost2010PropOp42
 70
     1
102
RTVSPost2010Prop43
 90
        3
102
RTVSPost2010PropOp43
 70
     1
102
RTVSPost2010Prop44ColorIndex
 90
        5
102
RTVSPost2010Prop44ColorRGB
 90
      255
102
RTVSPost2010PropOp44
 70
     1
102
RTVSPost2010Prop45
280
     0
102
RTVSPost2010PropOp45
 70
     1
102
RTVSPost2010Prop46
 90
       50
102
RTVSPost2010PropOp46
 70
     1
102
RTVSPost2010Prop47
 90
       50
102
RTVSPost2010PropOp47
 70
     1
102
RTVSPost2010Prop48
 90
       50
102
RTVSPost2010PropOp48
 70
     1
102
RTVSPost2010Prop49
280
     0
102
RTVSPost2010PropOp49
 70
     1
102
RTVSPost2010Prop50
 90
       50
102
RTVSPost2010PropOp50
 70
     1
102
RTVSPost2010Prop51ColorIndex
 90
      256
102
RTVSPost2010Prop51ColorRGB
 90
-16777216
102
RTVSPost2010PropOp51
 70
     0
102
RTVSPost2010Prop52
140
1.0
102
RTVSPost2010PropOp52
 70
     0
102
RTVSPost2010Prop53
 90
        2
102
RTVSPost2010PropOp53
 70
     1
102
RTVSPost2010Prop54
  1
strokes_ogs.tif
102
RTVSPost2010PropOp54
 70
     1
102
RTVSPost2010Prop55
280
     0
102
RTVSPost2010PropOp55
 70
     1
102
RTVSPost2010Prop56
140
1.0
102
RTVSPost2010PropOp56
 70
     1
102
RTVSPost2010Prop57
140
1.0
102
RTVSPost2010PropOp57
 70
     1
102
RTVSPropertyOp0
 70
     1
102
RTVSPropertyOp1
 70
     1
102
RTVSPropertyOp2
 70
     1
102
RTVSPropertyOp3
 70
     1
102
RTVSPropertyOp4
 70
     1
102
RTVSPropertyOp5
 70
     1
102
RTVSPropertyOp6
 70
     1
102
RTVSPropertyOp7
 70
     1
102
RTVSPropertyOp8
 70
     1
102
RTVSPropertyOp9
 70
     1
102
RTVSPropertyOp10
 70
     1
102
RTVSPropertyOp11
 70
     1
102
RTVSPropertyOp12
 70
     1
102
RTVSPropertyOp13
 70
     1
102
RTVSPropertyOp14
 70
     1
102
RTVSPropertyOp15
 70
     1
102
RTVSPropertyOp16
 70
     1
102
RTVSPropertyOp17
 70
     1
102
RTVSPropertyOp18
 70
     1
102
RTVSPropertyOp19
 70
     1
102
RTVSPropertyOp20
 70
     1
102
RTVSPropertyOp21
 70
     1
102
RTVSPropertyOp22
 70
     1
102
RTVSPropertyOp23
 70
     1
102
RTVSPropertyOp24
 70
     1
102
RTVSPropertyOp25
 70
     1
102
RTVSPropertyOp26
 70
     1
102
RTVSPropertyOp27
 70
     1
102
RTVSPropertyOp28
 70
     1
102
RTVSPropertyOp29
 70
     1
102
RTVSPropertyOp30
 70
     1
102
RTVSPropertyOp31
 70
     1
102
RTVSPropertyOp32
 70
     1
102
RTVSPropertyOp33
 70
     1
102
RTVSPropertyOp34
 70
     1
102
RTVSPropertyOp35
 70
     1
102
RTVSPropertyOp36
 70
     1
102
RTVSPropertyOp37
 70
     1
102
RTVSPropertyOp38
 70
     1
102
RTVSPropertyOp39
 70
     1
102
RTVSPropertyOp40
 70
     1
102
RTVSPropertyOp41
 70
     1
102
RTVSPropertyOp42
 70
     1
102
RTVSPropertyOp43
 70
     1
102
RTVSPropertyOp44
 70
     1
102
RTVSPropertyOp45
 70
     1
102
RTVSPropertyOp46
 70
     1
102
RTVSPropertyOp47
 70
     1
102
RTVSPropertyOp48
 70
     1
102
RTVSPropertyOp49
 70
     1
102
RTVSPropertyOp50
 70
     1
102
RTVSPropertyOp51
 70
     0
102
RTVSPropertyOp52
 70
     0
102
RTVSPropertyOp53
 70
     1
102
RTVSPropertyOp54
 70
     1
102
RTVSPropertyOp55
 70
     1
102
RTVSPropertyOp56
 70
     1
102
RTVSPropertyOp57
 70
     1
102
RTVSPropertyOp58
 70
     1
102
RTVSPropertyOp59
 70
     1
102
RTVSPropertyOp60
 70
     1
102
RTVSPropertyOp61
 70
     1
102
RTVSPropertyOp62
 70
     1
  0
XRECORD
  5
6A15
102
{ACAD_REACTORS
330
6A14
102
}
330
6A14
100
AcDbXrecord
280
     1
102
RTVSPost2010Prop28
280
     0
102
RTVSPost2010PropOp28
 70
     1
102
RTVSPost2010Prop29
280
     1
102
RTVSPost2010PropOp29
 70
     1
102
RTVSPost2010Prop30
280
     1
102
RTVSPost2010PropOp30
 70
     1
102
RTVSPost2010Prop31
280
     0
102
RTVSPost2010PropOp31
 70
     1
102
RTVSPost2010Prop32
280
     0
102
RTVSPost2010PropOp32
 70
     1
102
RTVSPost2010Prop33
280
     0
102
RTVSPost2010PropOp33
 70
     1
102
RTVSPost2010Prop34
280
     0
102
RTVSPost2010PropOp34
 70
     1
102
RTVSPost2010Prop35
280
     0
102
RTVSPost2010PropOp35
 70
     1
102
RTVSPost2010Prop36
280
     0
102
RTVSPost2010PropOp36
 70
     1
102
RTVSPost2010Prop37
 90
       50
102
RTVSPost2010PropOp37
 70
     1
102
RTVSPost2010Prop38
140
0.0
102
RTVSPost2010PropOp38
 70
     1
102
RTVSPost2010Prop39
140
1.0
102
RTVSPost2010PropOp39
 70
     1
102
RTVSPost2010Prop40
 90
        0
102
RTVSPost2010PropOp40
 70
     1
102
RTVSPost2010Prop41ColorIndex
 90
       18
102
RTVSPost2010Prop41ColorRGB
 90
        0
102
RTVSPost2010PropOp41
 70
     1
102
RTVSPost2010Prop42
 90
       50
102
RTVSPost2010PropOp42
 70
     1
102
RTVSPost2010Prop43
 90
        3
102
RTVSPost2010PropOp43
 70
     1
102
RTVSPost2010Prop44ColorIndex
 90
        5
102
RTVSPost2010Prop44ColorRGB
 90
      255
102
RTVSPost2010PropOp44
 70
     1
102
RTVSPost2010Prop45
280
     0
102
RTVSPost2010PropOp45
 70
     1
102
RTVSPost2010Prop46
 90
       50
102
RTVSPost2010PropOp46
 70
     1
102
RTVSPost2010Prop47
 90
       50
102
RTVSPost2010PropOp47
 70
     1
102
RTVSPost2010Prop48
 90
       50
102
RTVSPost2010PropOp48
 70
     1
102
RTVSPost2010Prop49
280
     0
102
RTVSPost2010PropOp49
 70
     1
102
RTVSPost2010Prop50
 90
       50
102
RTVSPost2010PropOp50
 70
     1
102
RTVSPost2010Prop51ColorIndex
 90
      256
102
RTVSPost2010Prop51ColorRGB
 90
-16777216
102
RTVSPost2010PropOp51
 70
     0
102
RTVSPost2010Prop52
140
1.0
102
RTVSPost2010PropOp52
 70
     0
102
RTVSPost2010Prop53
 90
        2
102
RTVSPost2010PropOp53
 70
     1
102
RTVSPost2010Prop54
  1
strokes_ogs.tif
102
RTVSPost2010PropOp54
 70
     1
102
RTVSPost2010Prop55
280
     0
102
RTVSPost2010PropOp55
 70
     1
102
RTVSPost2010Prop56
140
1.0
102
RTVSPost2010PropOp56
 70
     1
102
RTVSPost2010Prop57
140
1.0
102
RTVSPost2010PropOp57
 70
     1
102
RTVSPropertyOp0
 70
     1
102
RTVSPropertyOp1
 70
     1
102
RTVSPropertyOp2
 70
     1
102
RTVSPropertyOp3
 70
     1
102
RTVSPropertyOp4
 70
     1
102
RTVSPropertyOp5
 70
     1
102
RTVSPropertyOp6
 70
     1
102
RTVSPropertyOp7
 70
     1
102
RTVSPropertyOp8
 70
     1
102
RTVSPropertyOp9
 70
     1
102
RTVSPropertyOp10
 70
     1
102
RTVSPropertyOp11
 70
     1
102
RTVSPropertyOp12
 70
     1
102
RTVSPropertyOp13
 70
     1
102
RTVSPropertyOp14
 70
     1
102
RTVSPropertyOp15
 70
     1
102
RTVSPropertyOp16
 70
     1
102
RTVSPropertyOp17
 70
     1
102
RTVSPropertyOp18
 70
     1
102
RTVSPropertyOp19
 70
     1
102
RTVSPropertyOp20
 70
     1
102
RTVSPropertyOp21
 70
     1
102
RTVSPropertyOp22
 70
     1
102
RTVSPropertyOp23
 70
     1
102
RTVSPropertyOp24
 70
     1
102
RTVSPropertyOp25
 70
     1
102
RTVSPropertyOp26
 70
     1
102
RTVSPropertyOp27
 70
     1
102
RTVSPropertyOp28
 70
     1
102
RTVSPropertyOp29
 70
     1
102
RTVSPropertyOp30
 70
     1
102
RTVSPropertyOp31
 70
     1
102
RTVSPropertyOp32
 70
     1
102
RTVSPropertyOp33
 70
     1
102
RTVSPropertyOp34
 70
     1
102
RTVSPropertyOp35
 70
     1
102
RTVSPropertyOp36
 70
     1
102
RTVSPropertyOp37
 70
     1
102
RTVSPropertyOp38
 70
     1
102
RTVSPropertyOp39
 70
     1
102
RTVSPropertyOp40
 70
     1
102
RTVSPropertyOp41
 70
     1
102
RTVSPropertyOp42
 70
     1
102
RTVSPropertyOp43
 70
     1
102
RTVSPropertyOp44
 70
     1
102
RTVSPropertyOp45
 70
     1
102
RTVSPropertyOp46
 70
     1
102
RTVSPropertyOp47
 70
     1
102
RTVSPropertyOp48
 70
     1
102
RTVSPropertyOp49
 70
     1
102
RTVSPropertyOp50
 70
     1
102
RTVSPropertyOp51
 70
     0
102
RTVSPropertyOp52
 70
     0
102
RTVSPropertyOp53
 70
     1
102
RTVSPropertyOp54
 70
     1
102
RTVSPropertyOp55
 70
     1
102
RTVSPropertyOp56
 70
     1
102
RTVSPropertyOp57
 70
     1
102
RTVSPropertyOp58
 70
     1
102
RTVSPropertyOp59
 70
     1
102
RTVSPropertyOp60
 70
     1
102
RTVSPropertyOp61
 70
     1
102
RTVSPropertyOp62
 70
     1
  0
XRECORD
  5
6A1D
102
{ACAD_REACTORS
330
6A1C
102
}
330
6A1C
100
AcDbXrecord
280
     1
102
RTVSPost2010Prop28
280
     0
102
RTVSPost2010PropOp28
 70
     1
102
RTVSPost2010Prop29
280
     1
102
RTVSPost2010PropOp29
 70
     1
102
RTVSPost2010Prop30
280
     1
102
RTVSPost2010PropOp30
 70
     1
102
RTVSPost2010Prop31
280
     0
102
RTVSPost2010PropOp31
 70
     1
102
RTVSPost2010Prop32
280
     0
102
RTVSPost2010PropOp32
 70
     1
102
RTVSPost2010Prop33
280
     0
102
RTVSPost2010PropOp33
 70
     1
102
RTVSPost2010Prop34
280
     0
102
RTVSPost2010PropOp34
 70
     1
102
RTVSPost2010Prop35
280
     0
102
RTVSPost2010PropOp35
 70
     1
102
RTVSPost2010Prop36
280
     0
102
RTVSPost2010PropOp36
 70
     1
102
RTVSPost2010Prop37
 90
       50
102
RTVSPost2010PropOp37
 70
     1
102
RTVSPost2010Prop38
140
0.0
102
RTVSPost2010PropOp38
 70
     1
102
RTVSPost2010Prop39
140
1.0
102
RTVSPost2010PropOp39
 70
     1
102
RTVSPost2010Prop40
 90
        0
102
RTVSPost2010PropOp40
 70
     1
102
RTVSPost2010Prop41ColorIndex
 90
       18
102
RTVSPost2010Prop41ColorRGB
 90
        0
102
RTVSPost2010PropOp41
 70
     1
102
RTVSPost2010Prop42
 90
       50
102
RTVSPost2010PropOp42
 70
     1
102
RTVSPost2010Prop43
 90
        3
102
RTVSPost2010PropOp43
 70
     1
102
RTVSPost2010Prop44ColorIndex
 90
        5
102
RTVSPost2010Prop44ColorRGB
 90
      255
102
RTVSPost2010PropOp44
 70
     1
102
RTVSPost2010Prop45
280
     0
102
RTVSPost2010PropOp45
 70
     1
102
RTVSPost2010Prop46
 90
       50
102
RTVSPost2010PropOp46
 70
     1
102
RTVSPost2010Prop47
 90
       50
102
RTVSPost2010PropOp47
 70
     1
102
RTVSPost2010Prop48
 90
       50
102
RTVSPost2010PropOp48
 70
     1
102
RTVSPost2010Prop49
280
     0
102
RTVSPost2010PropOp49
 70
     1
102
RTVSPost2010Prop50
 90
       50
102
RTVSPost2010PropOp50
 70
     1
102
RTVSPost2010Prop51ColorIndex
 90
      256
102
RTVSPost2010Prop51ColorRGB
 90
-16777216
102
RTVSPost2010PropOp51
 70
     0
102
RTVSPost2010Prop52
140
1.0
102
RTVSPost2010PropOp52
 70
     0
102
RTVSPost2010Prop53
 90
        2
102
RTVSPost2010PropOp53
 70
     1
102
RTVSPost2010Prop54
  1
strokes_ogs.tif
102
RTVSPost2010PropOp54
 70
     1
102
RTVSPost2010Prop55
280
     0
102
RTVSPost2010PropOp55
 70
     1
102
RTVSPost2010Prop56
140
1.0
102
RTVSPost2010PropOp56
 70
     1
102
RTVSPost2010Prop57
140
1.0
102
RTVSPost2010PropOp57
 70
     1
102
RTVSPropertyOp0
 70
     1
102
RTVSPropertyOp1
 70
     1
102
RTVSPropertyOp2
 70
     1
102
RTVSPropertyOp3
 70
     1
102
RTVSPropertyOp4
 70
     1
102
RTVSPropertyOp5
 70
     1
102
RTVSPropertyOp6
 70
     1
102
RTVSPropertyOp7
 70
     1
102
RTVSPropertyOp8
 70
     1
102
RTVSPropertyOp9
 70
     1
102
RTVSPropertyOp10
 70
     1
102
RTVSPropertyOp11
 70
     1
102
RTVSPropertyOp12
 70
     1
102
RTVSPropertyOp13
 70
     1
102
RTVSPropertyOp14
 70
     1
102
RTVSPropertyOp15
 70
     1
102
RTVSPropertyOp16
 70
     1
102
RTVSPropertyOp17
 70
     1
102
RTVSPropertyOp18
 70
     1
102
RTVSPropertyOp19
 70
     1
102
RTVSPropertyOp20
 70
     1
102
RTVSPropertyOp21
 70
     1
102
RTVSPropertyOp22
 70
     1
102
RTVSPropertyOp23
 70
     1
102
RTVSPropertyOp24
 70
     1
102
RTVSPropertyOp25
 70
     1
102
RTVSPropertyOp26
 70
     1
102
RTVSPropertyOp27
 70
     1
102
RTVSPropertyOp28
 70
     1
102
RTVSPropertyOp29
 70
     1
102
RTVSPropertyOp30
 70
     1
102
RTVSPropertyOp31
 70
     1
102
RTVSPropertyOp32
 70
     1
102
RTVSPropertyOp33
 70
     1
102
RTVSPropertyOp34
 70
     1
102
RTVSPropertyOp35
 70
     1
102
RTVSPropertyOp36
 70
     1
102
RTVSPropertyOp37
 70
     1
102
RTVSPropertyOp38
 70
     1
102
RTVSPropertyOp39
 70
     1
102
RTVSPropertyOp40
 70
     1
102
RTVSPropertyOp41
 70
     1
102
RTVSPropertyOp42
 70
     1
102
RTVSPropertyOp43
 70
     1
102
RTVSPropertyOp44
 70
     1
102
RTVSPropertyOp45
 70
     1
102
RTVSPropertyOp46
 70
     1
102
RTVSPropertyOp47
 70
     1
102
RTVSPropertyOp48
 70
     1
102
RTVSPropertyOp49
 70
     1
102
RTVSPropertyOp50
 70
     1
102
RTVSPropertyOp51
 70
     0
102
RTVSPropertyOp52
 70
     0
102
RTVSPropertyOp53
 70
     1
102
RTVSPropertyOp54
 70
     1
102
RTVSPropertyOp55
 70
     1
102
RTVSPropertyOp56
 70
     1
102
RTVSPropertyOp57
 70
     1
102
RTVSPropertyOp58
 70
     1
102
RTVSPropertyOp59
 70
     1
102
RTVSPropertyOp60
 70
     1
102
RTVSPropertyOp61
 70
     1
102
RTVSPropertyOp62
 70
     1
  0
ENDSEC
  0
EOF
