  0
SECTION
  2
HEADER
  9
$ACADVER
  1
AC1015
  9
$ACADMAINTVER
 70
    20
  9
$DWGCODEPAGE
  3
ANSI_932
  9
$INSBASE
 10
0.0
 20
0.0
 30
0.0
  9
$EXTMIN
 10
-0.043309833582498
 20
-0.0300423845624209
 30
-0.0000000000112498
  9
$EXTMAX
 10
1380.042743007718
 20
955.0285466446558
 30
0.0000000000002956
  9
$LIMMIN
 10
0.0
 20
0.0
  9
$LIMMAX
 10
2840.0
 20
1970.0
  9
$ORTHOMODE
 70
     0
  9
$REGENMODE
 70
     1
  9
$FILLMODE
 70
     1
  9
$QTEXTMODE
 70
     0
  9
$MIRRTEXT
 70
     1
  9
$LTSCALE
 40
1.0
  9
$ATTMODE
 70
     1
  9
$TEXTSIZE
 40
2.5
  9
$TRACEWID
 40
1.0
  9
$TEXTSTYLE
  7
Standard
  9
$CLAYER
  8
KUTAI
  9
$CELTYPE
  6
DASHED
  9
$CECOLOR
 62
   256
  9
$CELTSCALE
 40
1.0
  9
$DISPSILH
 70
     0
  9
$DIMSCALE
 40
5.0
  9
$DIMASZ
 40
0.8
  9
$DIMEXO
 40
1.0
  9
$DIMDLI
 40
0.0
  9
$DIMRND
 40
0.0
  9
$DIMDLE
 40
0.0
  9
$DIMEXE
 40
0.0
  9
$DIMTP
 40
0.0
  9
$DIMTM
 40
0.0
  9
$DIMTXT
 40
2.0
  9
$DIMCEN
 40
2.5
  9
$DIMTSZ
 40
0.0
  9
$DIMTOL
 70
     0
  9
$DIMLIM
 70
     0
  9
$DIMTIH
 70
     0
  9
$DIMTOH
 70
     0
  9
$DIMSE1
 70
     0
  9
$DIMSE2
 70
     0
  9
$DIMTAD
 70
     2
  9
$DIMZIN
 70
     8
  9
$DIMBLK
  1

  9
$DIMASO
 70
     1
  9
$DIMSHO
 70
     1
  9
$DIMPOST
  1

  9
$DIMAPOST
  1

  9
$DIMALT
 70
     0
  9
$DIMALTD
 70
     4
  9
$DIMALTF
 40
0.0394
  9
$DIMLFAC
 40
1.0
  9
$DIMTOFL
 70
     1
  9
$DIMTVP
 40
0.0
  9
$DIMTIX
 70
     0
  9
$DIMSOXD
 70
     0
  9
$DIMSAH
 70
     1
  9
$DIMBLK1
  1
DOT
  9
$DIMBLK2
  1
DOT
  9
$DIMSTYLE
  2
STANDARD
  9
$DIMCLRD
 70
     0
  9
$DIMCLRE
 70
     0
  9
$DIMCLRT
 70
     0
  9
$DIMTFAC
 40
1.0
  9
$DIMGAP
 40
0.1
  9
$DIMJUST
 70
     0
  9
$DIMSD1
 70
     0
  9
$DIMSD2
 70
     0
  9
$DIMTOLJ
 70
     1
  9
$DIMTZIN
 70
     0
  9
$DIMALTZ
 70
     0
  9
$DIMALTTZ
 70
     0
  9
$DIMUPT
 70
     0
  9
$DIMDEC
 70
     8
  9
$DIMTDEC
 70
     8
  9
$DIMALTU
 70
     8
  9
$DIMALTTD
 70
     4
  9
$DIMTXSTY
  7
Standard
  9
$DIMAUNIT
 70
     0
  9
$DIMADEC
 70
     0
  9
$DIMALTRND
 40
0.0
  9
$DIMAZIN
 70
     0
  9
$DIMDSEP
 70
    46
  9
$DIMATFIT
 70
     3
  9
$DIMFRAC
 70
     0
  9
$DIMLDRBLK
  1
DOT
  9
$DIMLUNIT
 70
     2
  9
$DIMLWD
 70
    -2
  9
$DIMLWE
 70
    -2
  9
$DIMTMOVE
 70
     1
  9
$LUNITS
 70
     2
  9
$LUPREC
 70
     8
  9
$SKETCHINC
 40
1.0
  9
$FILLETRAD
 40
10.0
  9
$AUNITS
 70
     0
  9
$AUPREC
 70
     8
  9
$MENU
  1
.
  9
$ELEVATION
 40
0.0
  9
$PELEVATION
 40
0.0
  9
$THICKNESS
 40
0.0
  9
$LIMCHECK
 70
     0
  9
$CHAMFERA
 40
20.0
  9
$CHAMFERB
 40
20.0
  9
$CHAMFERC
 40
20.0
  9
$CHAMFERD
 40
0.0
  9
$SKPOLY
 70
     0
  9
$TDCREATE
 40
2453276.413761574
  9
$TDUCREATE
 40
2453276.038766620
  9
$TDUPDATE
 40
2459986.618391204
  9
$TDUUPDATE
 40
2459986.243391204
  9
$TDINDWG
 40
0.2351988542
  9
$TDUSRTIMER
 40
0.2351988542
  9
$USRTIMER
 70
     1
  9
$ANGBASE
 50
0.0
  9
$ANGDIR
 70
     0
  9
$PDMODE
 70
     0
  9
$PDSIZE
 40
0.0
  9
$PLINEWID
 40
0.0
  9
$SPLFRAME
 70
     0
  9
$SPLINETYPE
 70
     6
  9
$SPLINESEGS
 70
     8
  9
$HANDSEED
  5
45F5
  9
$SURFTAB1
 70
     6
  9
$SURFTAB2
 70
     6
  9
$SURFTYPE
 70
     6
  9
$SURFU
 70
     6
  9
$SURFV
 70
     6
  9
$UCSBASE
  2

  9
$UCSNAME
  2

  9
$UCSORG
 10
0.0
 20
0.0
 30
0.0
  9
$UCSXDIR
 10
1.0
 20
0.0
 30
0.0
  9
$UCSYDIR
 10
0.0
 20
1.0
 30
0.0
  9
$UCSORTHOREF
  2

  9
$UCSORTHOVIEW
 70
     0
  9
$UCSORGTOP
 10
0.0
 20
0.0
 30
0.0
  9
$UCSORGBOTTOM
 10
0.0
 20
0.0
 30
0.0
  9
$UCSORGLEFT
 10
0.0
 20
0.0
 30
0.0
  9
$UCSORGRIGHT
 10
0.0
 20
0.0
 30
0.0
  9
$UCSORGFRONT
 10
0.0
 20
0.0
 30
0.0
  9
$UCSORGBACK
 10
0.0
 20
0.0
 30
0.0
  9
$PUCSBASE
  2

  9
$PUCSNAME
  2

  9
$PUCSORG
 10
0.0
 20
0.0
 30
0.0
  9
$PUCSXDIR
 10
1.0
 20
0.0
 30
0.0
  9
$PUCSYDIR
 10
0.0
 20
1.0
 30
0.0
  9
$PUCSORTHOREF
  2

  9
$PUCSORTHOVIEW
 70
     0
  9
$PUCSORGTOP
 10
0.0
 20
0.0
 30
0.0
  9
$PUCSORGBOTTOM
 10
0.0
 20
0.0
 30
0.0
  9
$PUCSORGLEFT
 10
0.0
 20
0.0
 30
0.0
  9
$PUCSORGRIGHT
 10
0.0
 20
0.0
 30
0.0
  9
$PUCSORGFRONT
 10
0.0
 20
0.0
 30
0.0
  9
$PUCSORGBACK
 10
0.0
 20
0.0
 30
0.0
  9
$USERI1
 70
     0
  9
$USERI2
 70
     0
  9
$USERI3
 70
     0
  9
$USERI4
 70
     0
  9
$USERI5
 70
     0
  9
$USERR1
 40
0.0
  9
$USERR2
 40
0.0
  9
$USERR3
 40
0.0
  9
$USERR4
 40
0.0
  9
$USERR5
 40
0.0
  9
$WORLDVIEW
 70
     1
  9
$SHADEDGE
 70
     2
  9
$SHADEDIF
 70
    70
  9
$TILEMODE
 70
     1
  9
$MAXACTVP
 70
    64
  9
$PINSBASE
 10
0.0
 20
0.0
 30
0.0
  9
$PLIMCHECK
 70
     0
  9
$PEXTMIN
 10
0.0
 20
0.0
 30
0.0
  9
$PEXTMAX
 10
0.0
 20
0.0
 30
0.0
  9
$PLIMMIN
 10
0.0
 20
0.0
  9
$PLIMMAX
 10
12.0
 20
9.0
  9
$UNITMODE
 70
     0
  9
$VISRETAIN
 70
     1
  9
$PLINEGEN
 70
     0
  9
$PSLTSCALE
 70
     1
  9
$TREEDEPTH
 70
  3020
  9
$CMLSTYLE
  2
Standard
  9
$CMLJUST
 70
     0
  9
$CMLSCALE
 40
20.0
  9
$PROXYGRAPHICS
 70
     1
  9
$MEASUREMENT
 70
     1
  9
$CELWEIGHT
370
    -1
  9
$ENDCAPS
280
     0
  9
$JOINSTYLE
280
     0
  9
$LWDISPLAY
290
     0
  9
$INSUNITS
 70
     4
  9
$HYPERLINKBASE
  1

  9
$STYLESHEET
  1
monochrome.stb
  9
$XEDIT
290
     1
  9
$CEPSNTYPE
380
     0
  9
$PSTYLEMODE
290
     1
  9
$FINGERPRINTGUID
  2
{B4E61C12-08AD-407D-A83C-7C7812CA1D8B}
  9
$VERSIONGUID
  2
{E6552367-E84B-1241-8475-F8A51ED7F663}
  9
$EXTNAMES
290
     1
  9
$PSVPSCALE
 40
0.0
  9
$OLESTARTUP
290
     0
  0
ENDSEC
  0
SECTION
  2
CLASSES
  0
CLASS
  1
ACDBDICTIONARYWDFLT
  2
AcDbDictionaryWithDefault
  3
ObjectDBX Classes
 90
        0
280
     0
281
     0
  0
CLASS
  1
ACDBPLACEHOLDER
  2
AcDbPlaceHolder
  3
ObjectDBX Classes
 90
        0
280
     0
281
     0
  0
CLASS
  1
LAYOUT
  2
AcDbLayout
  3
ObjectDBX Classes
 90
        0
280
     0
281
     0
  0
CLASS
  1
DICTIONARYVAR
  2
AcDbDictionaryVar
  3
ObjectDBX Classes
 90
        0
280
     0
281
     0
  0
CLASS
  1
SORTENTSTABLE
  2
AcDbSortentsTable
  3
ObjectDBX Classes
 90
        0
280
     0
281
     0
  0
CLASS
  1
MATERIAL
  2
AcDbMaterial
  3
ObjectDBX Classes
 90
     1153
280
     0
281
     0
  0
CLASS
  1
VISUALSTYLE
  2
AcDbVisualStyle
  3
ObjectDBX Classes
 90
     4095
280
     0
281
     0
  0
CLASS
  1
TABLESTYLE
  2
AcDbTableStyle
  3
ObjectDBX Classes
 90
     4095
280
     0
281
     0
  0
CLASS
  1
SCALE
  2
AcDbScale
  3
ObjectDBX Classes
 90
     1153
280
     0
281
     0
  0
CLASS
  1
MLEADERSTYLE
  2
AcDbMLeaderStyle
  3
ACDB_MLEADERSTYLE_CLASS
 90
     4095
280
     0
281
     0
  0
CLASS
  1
ACDBSECTIONVIEWSTYLE
  2
AcDbSectionViewStyle
  3
ObjectDBX Classes
 90
     1025
280
     0
281
     0
  0
CLASS
  1
ACDBDETAILVIEWSTYLE
  2
AcDbDetailViewStyle
  3
ObjectDBX Classes
 90
     1025
280
     0
281
     0
  0
CLASS
  1
CELLSTYLEMAP
  2
AcDbCellStyleMap
  3
ObjectDBX Classes
 90
     1152
280
     0
281
     0
  0
CLASS
  1
RAPIDRTRENDERSETTINGS
  2
AcDbRapidRTRenderSettings
  3
ObjectDBX Classes
 90
     1024
280
     0
281
     0
  0
CLASS
  1
MENTALRAYRENDERSETTINGS
  2
AcDbMentalRayRenderSettings
  3
SCENEOE
 90
     1024
280
     0
281
     0
  0
ENDSEC
  0
SECTION
  2
TABLES
  0
TABLE
  2
VPORT
  5
8
102
{ACAD_XDICTIONARY
360
4050
102
}
330
0
100
AcDbSymbolTable
 70
     1
  0
VPORT
  5
3FA5
330
8
100
AcDbSymbolTableRecord
100
AcDbViewportTableRecord
  2
*Active
 70
     0
 10
0.0
 20
0.0
 11
1.0
 21
1.0
 12
689.9997165870677
 22
477.4992521300466
 13
0.0
 23
0.0
 14
10.0
 24
10.0
 15
10.0
 25
10.0
 16
0.0
 26
0.0
 36
1.0
 17
0.0
 27
0.0
 37
0.0
 40
962.1330970961011
 41
2.122373300370828
 42
50.0
 43
0.0
 44
0.0
 50
0.0
 51
0.0
 71
     0
 72
   100
 73
     1
 74
     3
 75
     0
 76
     0
 77
     0
 78
     0
281
     0
 65
     1
110
0.0
120
0.0
130
0.0
111
1.0
121
0.0
131
0.0
112
0.0
122
1.0
132
0.0
 79
     0
146
0.0
1001
ACAD_NAV_VCDISPLAY
1070
     3
  0
ENDTAB
  0
TABLE
  2
LTYPE
  5
5
330
0
100
AcDbSymbolTable
 70
     3
  0
LTYPE
  5
14
330
5
100
AcDbSymbolTableRecord
100
AcDbLinetypeTableRecord
  2
ByBlock
 70
     0
  3

 72
    65
 73
     0
 40
0.0
  0
LTYPE
  5
15
330
5
100
AcDbSymbolTableRecord
100
AcDbLinetypeTableRecord
  2
ByLayer
 70
     0
  3

 72
    65
 73
     0
 40
0.0
  0
LTYPE
  5
16
330
5
100
AcDbSymbolTableRecord
100
AcDbLinetypeTableRecord
  2
Continuous
 70
     0
  3
Solid line
 72
    65
 73
     0
 40
0.0
  0
LTYPE
  5
255D
330
5
100
AcDbSymbolTableRecord
100
AcDbLinetypeTableRecord
  2
DASHED
 70
     0
  3
Dashed __ __ __ __ __ __ __ __ __ __ __ __ __ _
 72
    65
 73
     2
 40
19.05
 49
12.7
 74
     0
 49
-6.349999999999999
 74
     0
  0
LTYPE
  5
37DC
330
5
100
AcDbSymbolTableRecord
100
AcDbLinetypeTableRecord
  2
HIDDEN
 70
     0
  3
Hidden __ __ __ __ __ __ __ __ __ __ __ __ __ _
 72
    65
 73
     2
 40
9.524999999999998
 49
6.349999999999999
 74
     0
 49
-3.174999999999999
 74
     0
  0
ENDTAB
  0
TABLE
  2
LAYER
  5
2
102
{ACAD_XDICTIONARY
360
2D
102
}
330
0
100
AcDbSymbolTable
 70
    11
  0
LAYER
  5
10
102
{ACAD_XDICTIONARY
360
403B
102
}
330
2
100
AcDbSymbolTableRecord
100
AcDbLayerTableRecord
  2
0
 70
     0
 62
     7
  6
Continuous
290
     0
370
    -3
390
29
  0
LAYER
  5
2301
330
2
100
AcDbSymbolTableRecord
100
AcDbLayerTableRecord
  2
Defpoints
 70
     0
 62
     7
  6
Continuous
290
     0
370
    -3
390
F
  0
LAYER
  5
235F
102
{ACAD_XDICTIONARY
360
403D
102
}
330
2
100
AcDbSymbolTableRecord
100
AcDbLayerTableRecord
  2
KUTAI
 70
     0
 62
     3
  6
Continuous
370
    -3
390
29
  0
LAYER
  5
2361
102
{ACAD_XDICTIONARY
360
403F
102
}
330
2
100
AcDbSymbolTableRecord
100
AcDbLayerTableRecord
  2
MOJI
 70
     0
 62
     7
  6
Continuous
370
    -3
390
29
  0
LAYER
  5
32AD
102
{ACAD_XDICTIONARY
360
4041
102
}
330
2
100
AcDbSymbolTableRecord
100
AcDbLayerTableRecord
  2
KANAMONO
 70
     0
 62
     5
  6
Continuous
370
    -3
390
29
  0
LAYER
  5
37DE
102
{ACAD_XDICTIONARY
360
4043
102
}
330
2
100
AcDbSymbolTableRecord
100
AcDbLayerTableRecord
  2
KANAMONO_SCREW
 70
     0
 62
     4
  6
Continuous
370
    -3
390
29
  0
LAYER
  5
37DF
102
{ACAD_XDICTIONARY
360
4045
102
}
330
2
100
AcDbSymbolTableRecord
100
AcDbLayerTableRecord
  2
BUHIN
 70
     0
 62
    50
  6
Continuous
370
    -3
390
29
  0
LAYER
  5
37E0
102
{ACAD_XDICTIONARY
360
4047
102
}
330
2
100
AcDbSymbolTableRecord
100
AcDbLayerTableRecord
  2
hide-1
 70
     0
 62
     3
  6
HIDDEN
370
    -3
390
37E2
  0
LAYER
  5
37E1
102
{ACAD_XDICTIONARY
360
4049
102
}
330
2
100
AcDbSymbolTableRecord
100
AcDbLayerTableRecord
  2
hide-2
 70
     0
 62
     4
  6
HIDDEN
370
    -3
390
37E2
  0
LAYER
  5
3FF8
102
{ACAD_XDICTIONARY
360
3FF9
102
}
330
2
100
AcDbSymbolTableRecord
100
AcDbLayerTableRecord
  2
WAKU
 70
     0
 62
     7
  6
Continuous
370
    -3
390
29
  0
LAYER
  5
439B
102
{ACAD_XDICTIONARY
360
439C
102
}
330
2
100
AcDbSymbolTableRecord
100
AcDbLayerTableRecord
  2
single
 70
     0
 62
     6
  6
Continuous
370
    -3
390
F
  0
ENDTAB
  0
TABLE
  2
STYLE
  5
3
330
0
100
AcDbSymbolTable
 70
     2
  0
STYLE
  5
11
330
3
100
AcDbSymbolTableRecord
100
AcDbTextStyleTableRecord
  2
Standard
 70
     0
 40
0.0
 41
1.0
 50
0.0
 71
     0
 42
2.5
  3

  4

1001
ACAD
1000
MS Gothic
1071
    32817
  0
STYLE
  5
3FFA
330
3
100
AcDbSymbolTableRecord
100
AcDbTextStyleTableRecord
  2
MSゴシック
 70
     0
 40
0.0
 41
1.0
 50
0.0
 71
     0
 42
2.5
  3

  4

1001
ACAD
1000
MS Gothic
1071
    32817
  0
ENDTAB
  0
TABLE
  2
VIEW
  5
6
330
0
100
AcDbSymbolTable
 70
     0
  0
ENDTAB
  0
TABLE
  2
UCS
  5
7
330
0
100
AcDbSymbolTable
 70
     0
  0
ENDTAB
  0
TABLE
  2
APPID
  5
9
330
0
100
AcDbSymbolTable
 70
     7
  0
APPID
  5
12
330
9
100
AcDbSymbolTableRecord
100
AcDbRegAppTableRecord
  2
ACAD
 70
     0
  0
APPID
  5
3FFB
330
9
100
AcDbSymbolTableRecord
100
AcDbRegAppTableRecord
  2
ACAD_NAV_VCDISPLAY
 70
     0
  0
APPID
  5
408A
330
9
100
AcDbSymbolTableRecord
100
AcDbRegAppTableRecord
  2
ACAD_MLEADERVER
 70
     0
  0
APPID
  5
40A1
330
9
100
AcDbSymbolTableRecord
100
AcDbRegAppTableRecord
  2
ACAD_EXEMPT_FROM_CAD_STANDARDS
 70
     0
  0
APPID
  5
4246
330
9
100
AcDbSymbolTableRecord
100
AcDbRegAppTableRecord
  2
AcadAnnoPO
 70
     0
  0
APPID
  5
42B8
330
9
100
AcDbSymbolTableRecord
100
AcDbRegAppTableRecord
  2
Acad_TC
 70
     0
  0
APPID
  5
439D
330
9
100
AcDbSymbolTableRecord
100
AcDbRegAppTableRecord
  2
AcDbDynamicBlockGUID
 70
     0
  0
ENDTAB
  0
TABLE
  2
DIMSTYLE
  5
A
330
0
100
AcDbSymbolTable
 70
     1
100
AcDbDimStyleTable
 71
     1
340
22E4
  0
DIMSTYLE
105
22E4
330
A
100
AcDbSymbolTableRecord
100
AcDbDimStyleTableRecord
  2
STANDARD
 70
     0
 40
5.0
 41
0.8
 42
1.0
 43
0.0
 44
0.0
 73
     0
 74
     0
 77
     2
 78
     8
140
2.0
141
2.5
143
0.0394
147
0.1
171
     4
172
     1
173
     1
271
     8
272
     8
273
     8
274
     4
279
     1
340
11
341
903
343
903
344
903
  0
ENDTAB
  0
TABLE
  2
BLOCK_RECORD
  5
1
330
0
100
AcDbSymbolTable
 70
     9
  0
BLOCK_RECORD
  5
1F
102
{ACAD_XDICTIONARY
360
1C62
102
}
330
1
100
AcDbSymbolTableRecord
100
AcDbBlockTableRecord
  2
*Model_Space
340
22
  0
BLOCK_RECORD
  5
1CD0
330
1
100
AcDbSymbolTableRecord
100
AcDbBlockTableRecord
  2
*Paper_Space
340
1CD1
  0
BLOCK_RECORD
  5
903
330
1
100
AcDbSymbolTableRecord
100
AcDbBlockTableRecord
  2
_DOT
340
0
102
{BLKREFS
331
4483
331
4484
331
4489
331
448A
331
448F
331
4490
331
4495
331
4496
331
42BC
331
42BD
331
42C5
331
42C6
331
42CE
331
42CF
331
42D7
331
42D8
102
}
  0
BLOCK_RECORD
  5
3E94
330
1
100
AcDbSymbolTableRecord
100
AcDbBlockTableRecord
  2
hps-5-10-30
340
0
310
2800000020000000200000000100080000000000000400000000000000000000000000000000000000000000000080000080000000808000800000008000800080800000C0C0C000C0DCC000F0CAA6000020400000206000002080000020A0000020C0000020E00000400000004020000040400000406000004080000040A0
310
000040C0000040E00000600000006020000060400000606000006080000060A0000060C0000060E00000800000008020000080400000806000008080000080A0000080C0000080E00000A0000000A0200000A0400000A0600000A0800000A0A00000A0C00000A0E00000C0000000C0200000C0400000C0600000C0800000C0
310
A00000C0C00000C0E00000E0000000E0200000E0400000E0600000E0800000E0A00000E0C00000E0E00040000000400020004000400040006000400080004000A0004000C0004000E00040200000402020004020400040206000402080004020A0004020C0004020E000404000004040200040404000404060004040800040
310
40A0004040C0004040E00040600000406020004060400040606000406080004060A0004060C0004060E00040800000408020004080400040806000408080004080A0004080C0004080E00040A0000040A0200040A0400040A0600040A0800040A0A00040A0C00040A0E00040C0000040C0200040C0400040C0600040C08000
310
40C0A00040C0C00040C0E00040E0000040E0200040E0400040E0600040E0800040E0A00040E0C00040E0E00080000000800020008000400080006000800080008000A0008000C0008000E00080200000802020008020400080206000802080008020A0008020C0008020E00080400000804020008040400080406000804080
310
008040A0008040C0008040E00080600000806020008060400080606000806080008060A0008060C0008060E00080800000808020008080400080806000808080008080A0008080C0008080E00080A0000080A0200080A0400080A0600080A0800080A0A00080A0C00080A0E00080C0000080C0200080C0400080C0600080C0
310
800080C0A00080C0C00080C0E00080E0000080E0200080E0400080E0600080E0800080E0A00080E0C00080E0E000C0000000C0002000C0004000C0006000C0008000C000A000C000C000C000E000C0200000C0202000C0204000C0206000C0208000C020A000C020C000C020E000C0400000C0402000C0404000C0406000C0
310
408000C040A000C040C000C040E000C0600000C0602000C0604000C0606000C0608000C060A000C060C000C060E000C0800000C0802000C0804000C0806000C0808000C080A000C080C000C080E000C0A00000C0A02000C0A04000C0A06000C0A08000C0A0A000C0A0C000C0A0E000C0C00000C0C02000C0C04000C0C06000
310
C0C08000C0C0A000F0FBFF00A4A0A000808080000000FF0000FF000000FFFF00FF000000FF00FF00FFFF0000FFFFFF00FFFFFFFFFFFFFFFFFFFFFFFFFFFFFFFFFFFFFFFFFFFFFFFFFFFFFFFFFFFFFFFFFFFFFFFFFFFFFFFFFFFFFFFFFFFFFFFFFFFFFFFFFFFFFFFFFFFFFFFFFFFFFFFFFFFFFFFFFFFFFFFFFFFFFFFFFFFFFF
310
FEFEFFFFFFFFFFFFFFFFFFFFFFFFFFFFFFFFFFFFFFFFFFFFFFFFFFFFFFFFFFFFFEFFFEFFFFFFFFFFFFFFFFFFFFFFFFFFFFFFFFFFFFFFFFFFFFFFFFFFFFFFFEFEFEFEFEFEFFFFFFFFFFFFFFFFFFFFFFFFFFFFFFFFFFFFFFFFFFFFFFFFFFFFFEFFFEFEFFFEFFFFFFFFFFFFFFFFFFFFFFFFFFFFFFFFFFFFFFFFFFFFFFFFFFFFFE
310
FFFEFEFFFEFFFFFFFFFFFFFFFFFFFFFFFFFFFFFFFFFFFFFFFFFFFFFFFFFFFFFEFFFEFEFFFEFFFFFFFFFFFFFFFFFFFFFFFFFFFFFFFFFFFFFFFFFFFFFFFFFFFFFEFFFEFEFFFEFFFFFFFFFFFFFFFFFFFFFFFFFFFFFFFFFFFFFFFFFFFFFFFFFFFFFEFFFEFEFFFEFFFFFFFFFFFFFFFFFFFFFFFFFFFFFFFFFFFFFFFFFFFFFFFFFFFF
310
FEFFFEFEFFFEFFFFFFFFFFFFFFFFFFFFFFFFFFFFFFFFFFFFFFFFFFFFFFFFFFFFFEFFFEFEFFFEFFFFFFFFFFFFFFFFFFFFFFFFFFFFFFFFFFFFFFFFFFFFFFFFFFFFFEFFFEFEFFFEFFFFFFFFFFFFFFFFFFFFFFFFFFFFFFFFFFFFFFFFFFFFFFFFFFFFFEFFFEFEFFFEFFFFFFFFFFFFFFFFFFFFFFFFFFFFFFFFFFFFFFFFFFFFFFFFFF
310
FFFEFFFEFEFFFEFFFFFFFFFFFFFFFFFFFFFFFFFFFFFFFFFFFFFFFFFFFFFFFFFFFFFEFFFEFEFFFEFFFFFFFFFFFFFFFFFFFFFFFFFFFFFFFFFFFFFFFFFFFFFFFFFFFFFEFFFEFEFFFEFFFFFFFFFFFFFFFFFFFFFFFFFFFFFFFFFFFFFFFFFFFFFFFFFFFFFEFFFEFEFFFEFFFFFFFFFFFFFFFFFFFFFFFFFFFFFFFFFFFFFFFFFFFFFFFF
310
FFFFFEFEFEFEFEFEFFFFFFFFFFFFFFFFFFFFFFFFFFFFFFFFFFFFFFFFFFFFFFFFFFFFFEFFFFFFFFFEFFFFFFFFFFFFFFFFFFFFFFFFFFFFFFFFFFFFFFFFFFFFFFFFFFFFFEFEFEFEFEFEFFFFFFFFFFFFFFFFFFFFFFFFFFFFFFFFFFFFFFFFFFFFFFFFFFFFFEFFFFFFFFFEFFFFFFFFFFFFFFFFFFFFFFFFFFFFFFFFFFFFFFFFFFFFFF
310
FFFFFFFEFFFFFFFFFEFFFFFFFFFFFFFFFFFFFFFFFFFFFFFFFFFFFFFFFFFFFFFFFFFFFFFEFFFFFFFFFEFFFFFFFFFFFFFFFFFFFFFFFFFFFFFFFFFFFFFFFFFFFFFFFFFFFFFEFFFFFFFFFEFFFFFFFFFFFFFFFFFFFFFFFFFFFFFFFFFFFFFFFFFFFFFFFFFFFFFEFFFFFFFFFEFFFFFFFFFFFFFFFFFFFFFFFFFFFFFFFFFFFFFFFFFFFF
310
FFFFFFFFFEFFFFFFFFFEFFFFFFFFFFFFFFFFFFFFFFFFFFFFFFFFFFFFFFFFFFFFFFFFFFFFFEFFFFFFFFFEFFFFFFFFFFFFFFFFFFFFFFFFFFFFFFFFFFFFFFFFFFFFFFFFFEFEFEFEFEFEFEFEFEFEFFFFFFFFFFFFFFFFFFFFFFFFFFFFFFFFFFFFFFFFFFFFFEFEFEFEFEFEFEFEFEFEFFFFFFFFFFFFFFFFFFFFFFFFFFFFFFFFFFFFFF
310
FFFFFFFFFFFEFEFEFEFEFEFFFFFFFFFFFFFFFFFFFFFFFFFFFFFFFFFFFFFFFFFFFFFFFFFFFFFFFFFFFFFFFFFFFFFFFFFFFFFFFFFFFFFFFFFF
1001
ACAD
1000
DesignCenter Data
1002
{
1070
     1
1070
     4
1002
}
  0
BLOCK_RECORD
  5
3F2D
330
1
100
AcDbSymbolTableRecord
100
AcDbBlockTableRecord
  2
*D2
340
0
  0
BLOCK_RECORD
  5
3F39
330
1
100
AcDbSymbolTableRecord
100
AcDbBlockTableRecord
  2
*D3
340
0
  0
BLOCK_RECORD
  5
3F45
330
1
100
AcDbSymbolTableRecord
100
AcDbBlockTableRecord
  2
*D4
340
0
  0
BLOCK_RECORD
  5
3F51
330
1
100
AcDbSymbolTableRecord
100
AcDbBlockTableRecord
  2
*D5
340
0
  0
BLOCK_RECORD
  5
4330
102
{ACAD_XDICTIONARY
360
4331
102
}
330
1
100
AcDbSymbolTableRecord
100
AcDbBlockTableRecord
  2
hf6-40
340
0
310
28000000200000002000000001002000000000000010000001000000010000000000000000000000302821FF302821FF302821FF302821FF302821FF302821FF302821FF302821FF302821FF302821FF302821FF302821FF302821FF302821FF302821FF302821FF302821FF302821FF302821FF302821FF302821FF302821
310
FF302821FF302821FF302821FF302821FF302821FF302821FF302821FF302821FF302821FF302821FF302821FF302821FF302821FF302821FF302821FF302821FF302821FF302821FF302821FF302821FF302821FF302821FF302821FF302821FF302821FF302821FFFFFF00FF302821FF302821FF302821FF302821FF3028
310
21FF302821FF302821FF302821FF302821FF302821FF302821FF302821FF302821FF302821FF302821FF302821FF302821FF302821FF302821FF302821FF302821FF302821FF302821FF302821FF302821FF302821FF302821FF302821FF302821FF302821FFFFFF00FFFFFF00FF302821FF302821FF302821FF302821FF30
310
2821FF302821FF302821FF302821FF302821FF302821FF302821FF302821FF302821FF302821FF302821FF302821FF302821FF302821FF302821FF302821FF302821FF302821FF302821FF302821FF302821FF302821FF302821FF302821FF302821FF302821FFFFFF00FFFFFF00FFFFFF00FF302821FF302821FF302821FF
310
302821FF302821FF302821FF302821FF302821FF302821FF302821FF302821FF302821FF302821FF302821FF302821FF302821FF302821FF302821FF302821FF302821FF302821FF302821FF302821FF302821FF302821FF302821FF302821FF302821FFFFFF00FFFFFF00FFFFFF00FFFFFF00FF302821FF302821FF302821
310
FF302821FF302821FF302821FF302821FF302821FF302821FF302821FF302821FF302821FF302821FF302821FF302821FF302821FF302821FF302821FF302821FF302821FF302821FF302821FF302821FF302821FF302821FF302821FF302821FF302821FFFFFF00FFFFFF00FFFFFF00FFFFFF00FF302821FF302821FF3028
310
21FF302821FF302821FF302821FF302821FF302821FF302821FF302821FF302821FF302821FF302821FF302821FF302821FF302821FF302821FF302821FF302821FF302821FF302821FF302821FF302821FF302821FF302821FF302821FF302821FF302821FFFFFF00FFFFFF00FFFFFF00FFFFFF00FF302821FF302821FF30
310
2821FF302821FF302821FF302821FF302821FF302821FF302821FF302821FF302821FF302821FF302821FF302821FF302821FF302821FF302821FF302821FF302821FF302821FF302821FF302821FF302821FF302821FF302821FF302821FF302821FF302821FFFFFF00FFFFFF00FFFFFF00FFFFFF00FF302821FF302821FF
310
302821FF302821FF302821FF302821FF302821FF302821FF302821FF302821FF302821FF302821FF302821FF302821FF302821FF302821FF302821FF302821FF302821FF302821FF302821FF302821FF302821FF302821FF302821FF302821FF302821FF302821FFFFFF00FFFFFF00FFFFFF00FFFFFF00FF302821FF302821
310
FF302821FF302821FF302821FF302821FF302821FF302821FF302821FF302821FF302821FF302821FF302821FF302821FF302821FF302821FF302821FF302821FF302821FF302821FF302821FF302821FF302821FF302821FF302821FF302821FF302821FF302821FFFFFF00FFFFFF00FFFFFF00FFFFFF00FF302821FF3028
310
21FF302821FF302821FF302821FF302821FF302821FF302821FF302821FF302821FF302821FF302821FF302821FF302821FF302821FF302821FF302821FF302821FF302821FF302821FF302821FF302821FF302821FF302821FF302821FF302821FF302821FF302821FFFFFF00FFFFFF00FFFFFF00FFFFFF00FF302821FF30
310
2821FF302821FF302821FF302821FF302821FF302821FF302821FF302821FF302821FF302821FF302821FF302821FF302821FF302821FF302821FF302821FF302821FF302821FF302821FF302821FF302821FF302821FF302821FF302821FF302821FF302821FF302821FFFFFF00FFFFFF00FFFFFF00FFFFFF00FF302821FF
310
302821FF302821FF302821FF302821FF302821FF302821FF302821FF302821FF302821FF302821FF302821FF302821FF302821FF302821FF302821FF302821FF302821FF302821FF302821FF302821FF302821FF302821FF302821FF302821FF302821FF302821FF302821FFFFFF00FFFFFF00FFFFFF00FFFFFF00FF302821
310
FF302821FF302821FF302821FF302821FF302821FF302821FF302821FF302821FF302821FF302821FF302821FF302821FF302821FF302821FF302821FF302821FF302821FF302821FF302821FF302821FF302821FF302821FF302821FF302821FF302821FF302821FF302821FFFFFF00FFFFFF00FFFFFF00FFFFFF00FF3028
310
21FF302821FF302821FF302821FF302821FF302821FF302821FF302821FF302821FF302821FF302821FF302821FF302821FF302821FF302821FF302821FF302821FF302821FF302821FF302821FF302821FF302821FF302821FF302821FF302821FF302821FF302821FF302821FFFFFF00FFFFFF00FFFFFF00FFFFFF00FF30
310
2821FF302821FF302821FF302821FF302821FF302821FF302821FF302821FF302821FF302821FF302821FF302821FF302821FF302821FF302821FF302821FF302821FF302821FF302821FF302821FF302821FF302821FF302821FF302821FF302821FF302821FF302821FF302821FFFFFF00FFFFFF00FFFFFF00FFFFFF00FF
310
302821FF302821FF302821FF302821FF302821FF302821FF302821FF302821FF302821FF302821FF302821FF302821FF302821FF302821FF302821FF302821FF302821FF302821FF302821FF302821FF302821FF302821FF302821FF302821FF302821FF302821FF302821FF302821FFFFFF00FFFFFF00FFFFFF00FFFFFF00
310
FF302821FF302821FF302821FF302821FF302821FF302821FF302821FF302821FF302821FF302821FF302821FF302821FF302821FF302821FF302821FF302821FF302821FF302821FF302821FF302821FF302821FF302821FF302821FF302821FF302821FF302821FF302821FF302821FFFFFF00FFFFFF00FFFFFF00FFFFFF
310
00FF302821FF302821FF302821FF302821FF302821FF302821FF302821FF302821FF302821FF302821FF302821FF302821FF302821FF302821FF302821FF302821FF302821FF302821FF302821FF302821FF302821FF302821FF302821FF302821FF302821FF302821FF302821FF302821FFFFFF00FFFFFF00FFFFFF00FFFF
310
FF00FF302821FF302821FF302821FF302821FF302821FF302821FF302821FF302821FF302821FF302821FF302821FF302821FF302821FF302821FF302821FF302821FF302821FF302821FF302821FF302821FF302821FF302821FF302821FF302821FF302821FF302821FF302821FF302821FFFFFF00FFFFFF00FFFFFF00FF
310
FFFF00FF302821FF302821FF302821FF302821FF302821FF302821FF302821FF302821FF302821FF302821FF302821FF302821FF302821FF302821FF302821FF302821FF302821FF302821FF302821FF302821FF302821FF302821FF302821FF302821FF302821FF302821FF302821FF302821FFFFFF00FFFFFF00FFFFFF00
310
FFFFFF00FF302821FF302821FF302821FF302821FF302821FF302821FF302821FF302821FF302821FF302821FF302821FF302821FF302821FF302821FF302821FF302821FF302821FF302821FF302821FF302821FF302821FF302821FF302821FF302821FF302821FF302821FF302821FF302821FFFFFF00FFFFFF00FFFFFF
310
00FFFFFF00FF302821FF302821FF302821FF302821FF302821FF302821FF302821FF302821FF302821FF302821FF302821FF302821FF302821FF302821FF302821FF302821FF302821FF302821FF302821FF302821FF302821FF302821FF302821FF302821FF302821FF302821FF302821FF302821FFFFFF00FFFFFF00FFFF
310
FF00FFFFFF00FF302821FF302821FF302821FF302821FF302821FF302821FF302821FF302821FF302821FF302821FF302821FF302821FF302821FF302821FF302821FF302821FF302821FF302821FF302821FF302821FF302821FF302821FF302821FF302821FF302821FF302821FF302821FF302821FFFFFF00FFFFFF00FF
310
FFFF00FFFFFF00FF302821FF302821FF302821FF302821FF302821FF302821FF302821FF302821FF302821FF302821FF302821FF302821FF302821FF302821FF302821FF302821FF302821FF302821FF302821FF302821FF302821FF302821FF302821FF302821FF302821FF302821FF302821FF302821FFFFFF00FFFFFF00
310
FFFFFF00FFFFFF00FF302821FF302821FF302821FF302821FF302821FF302821FF302821FF302821FF302821FF302821FF302821FF302821FF302821FF302821FF302821FF302821FF302821FF302821FF302821FF302821FF302821FF302821FF302821FF302821FF302821FF302821FF302821FF302821FFFFFF00FFFFFF
310
00FFFFFF00FFFFFF00FF302821FF302821FF302821FF302821FF302821FF302821FF302821FF302821FF302821FF302821FF302821FF302821FF302821FF302821FF302821FF302821FF302821FF302821FF302821FF302821FF302821FF302821FF302821FF302821FF302821FF302821FF302821FF302821FFFFFF00FFFF
310
FF00FFFFFF00FFFFFF00FF302821FF302821FF302821FF302821FF302821FF302821FF302821FF302821FF302821FF302821FF302821FF302821FF302821FF302821FF302821FF302821FF302821FF302821FF302821FF302821FF302821FF302821FF302821FF302821FF302821FF302821FF302821FF302821FFFFFF00FF
310
FFFF00FFFFFF00FFFFFF00FF302821FF302821FF302821FF302821FF302821FF302821FF302821FF302821FF302821FF302821FF302821FF302821FF302821FF302821FF302821FF302821FF302821FF302821FF302821FF302821FF302821FF302821FF302821FF302821FF302821FF302821FFFFFF00FFFFFF00FFFFFF00
310
FFFFFF00FFFFFF00FFFFFF00FFFFFF00FFFFFF00FF302821FF302821FF302821FF302821FF302821FF302821FF302821FF302821FF302821FF302821FF302821FF302821FF302821FF302821FF302821FF302821FF302821FF302821FF302821FF302821FF302821FF302821FF302821FF302821FFFFFF00FFFFFF00FFFFFF
310
00FFFFFF00FFFFFF00FFFFFF00FFFFFF00FFFFFF00FF302821FF302821FF302821FF302821FF302821FF302821FF302821FF302821FF302821FF302821FF302821FF302821FF302821FF302821FF302821FF302821FF302821FF302821FF302821FF302821FF302821FF302821FF302821FF302821FF302821FFFFFF00FFFF
310
FF00FFFFFF00FFFFFF00FFFFFF00FFFFFF00FF302821FF302821FF302821FF302821FF302821FF302821FF302821FF302821FF302821FF302821FF302821FF302821FF302821FF302821FF302821FF302821FF302821FF302821FF302821FF302821FF302821FF302821FF302821FF302821FF302821FF302821FF302821FF
310
302821FF302821FF302821FF302821FF302821FF302821FF302821FF302821FF302821FF302821FF302821FF302821FF302821FF302821FF302821FF302821FF302821FF302821FF
102
{BLKREFS
102
}
1001
AcDbDynamicBlockGUID
1000
{0BC69769-0555-4E4A-9F81-E641B076B9A3}
1001
ACAD
1000
DesignCenter Data
1002
{
1070
     1
1070
     4
1002
}
  0
ENDTAB
  0
ENDSEC
  0
SECTION
  2
BLOCKS
  0
BLOCK
  5
20
330
1F
100
AcDbEntity
  8
0
100
AcDbBlockBegin
  2
*Model_Space
 70
     0
 10
0.0
 20
0.0
 30
0.0
  3
*Model_Space
  1

  0
ENDBLK
  5
21
330
1F
100
AcDbEntity
  8
0
100
AcDbBlockEnd
  0
BLOCK
  5
1CD2
330
1CD0
100
AcDbEntity
 67
     1
  8
0
100
AcDbBlockBegin
  2
*Paper_Space
 70
     0
 10
0.0
 20
0.0
 30
0.0
  3
*Paper_Space
  1

  0
ENDBLK
  5
1CD3
330
1CD0
100
AcDbEntity
 67
     1
  8
0
100
AcDbBlockEnd
  0
BLOCK
  5
906
330
903
100
AcDbEntity
  8
0
100
AcDbBlockBegin
  2
_DOT
 70
     0
 10
0.0
 20
0.0
 30
0.0
  3
_DOT
  1

  0
LWPOLYLINE
  5
904
330
903
100
AcDbEntity
  8
0
  6
ByBlock
 62
     0
100
AcDbPolyline
 90
        2
 70
     1
 43
0.5
 10
-0.25
 20
0.0
 42
1.0
 10
0.25
 20
0.0
 42
1.0
  0
LINE
  5
905
330
903
100
AcDbEntity
  8
0
  6
ByBlock
 62
     0
100
AcDbLine
 10
-0.5
 20
0.0
 30
0.0
 11
-1.0
 21
0.0
 31
0.0
  0
ENDBLK
  5
907
330
903
100
AcDbEntity
  8
0
100
AcDbBlockEnd
  0
BLOCK
  5
3ECB
330
3E94
100
AcDbEntity
  8
0
 48
20.0
100
AcDbBlockBegin
  2
hps-5-10-30
 70
     0
 10
0.0
 20
0.0
 30
0.0
  3
hps-5-10-30
  1

  0
LINE
  5
3E95
330
3E94
100
AcDbEntity
  8
KANAMONO_SCREW
 48
20.0
100
AcDbLine
 10
-2.628551427289778
 20
-15.56980343716732
 30
0.0
 11
-3.074324324324322
 21
-25.67398910328466
 31
0.0
  0
LINE
  5
3E96
330
3E94
100
AcDbEntity
  8
KANAMONO_SCREW
 48
20.0
100
AcDbLine
 10
2.628551427297225
 20
-15.56980343716701
 30
0.0
 11
3.074324324324322
 21
-25.67398910328466
 31
0.0
  0
LINE
  5
3E97
330
3E94
100
AcDbEntity
  8
KANAMONO_SCREW
 48
20.0
100
AcDbLine
 10
0.2083333333333144
 20
-12.65597108526664
 30
0.0
 11
0.8333333333333143
 21
-26.8226377519333
 31
0.0
  0
LINE
  5
3E98
330
3E94
100
AcDbEntity
  8
KANAMONO_SCREW
 48
20.0
100
AcDbLine
 10
-0.2083333333333144
 20
-12.65597108526664
 30
0.0
 11
-0.8333333333333143
 21
-26.8226377519333
 31
0.0
  0
LINE
  5
3E99
330
3E94
100
AcDbEntity
  8
KANAMONO_SCREW
 48
20.0
100
AcDbLine
 10
-1.594514301521201
 20
-26.8226377519333
 30
0.0
 11
-0.3849498143908931
 21
-29.74278476348546
 31
0.0
  0
LINE
  5
3E9A
330
3E94
100
AcDbEntity
  8
KANAMONO_SCREW
 48
20.0
100
AcDbLine
 10
1.594514301521201
 20
-26.8226377519333
 30
0.0
 11
0.38494979603513
 21
-29.74278476348546
 31
0.0
  0
ARC
  5
3E9B
330
3E94
100
AcDbEntity
  8
KANAMONO_SCREW
 48
20.0
100
AcDbCircle
 10
-0.0000000091778816
 20
-29.58333333333333
 30
0.0
 40
0.4166666666666667
100
AcDbArc
 50
202.5000000000006
 51
337.4999999999994
  0
LINE
  5
3E9C
330
3E94
100
AcDbEntity
  8
KANAMONO_SCREW
 48
20.0
100
AcDbLine
 10
0.8333333333333143
 20
-26.8226377519333
 30
0.0
 11
2.5
 21
-26.8226377519333
 31
0.0
  0
LINE
  5
3E9D
330
3E94
100
AcDbEntity
  8
KANAMONO_SCREW
 48
20.0
100
AcDbLine
 10
-0.8333333333333143
 20
-26.8226377519333
 30
0.0
 11
-2.5
 21
-26.8226377519333
 31
0.0
  0
LINE
  5
3E9E
330
3E94
100
AcDbEntity
  8
KANAMONO_SCREW
 48
20.0
100
AcDbLine
 10
-2.5
 20
-26.8226377519333
 30
0.0
 11
-3.074324324324322
 21
-25.67398910328466
 31
0.0
  0
LINE
  5
3E9F
330
3E94
100
AcDbEntity
  8
KANAMONO_SCREW
 48
20.0
100
AcDbLine
 10
-0.7984944745110738
 20
-26.03295695196111
 30
0.0
 11
0.7810727768853099
 21
-25.63806513911202
 31
0.0
  0
LINE
  5
3EA0
330
3E94
100
AcDbEntity
  8
KANAMONO_SCREW
 48
20.0
100
AcDbLine
 10
-0.7427323927266798
 20
-24.76901643151503
 30
0.0
 11
0.7265273223398481
 21
-24.40170150274837
 31
0.0
  0
LINE
  5
3EA1
330
3E94
100
AcDbEntity
  8
KANAMONO_SCREW
 48
20.0
100
AcDbLine
 10
-1.347040089409006
 20
-27.42009335568558
 30
0.0
 11
1.042782325600171
 21
-26.8226377519333
 31
0.0
  0
LINE
  5
3EA2
330
3E94
100
AcDbEntity
  8
KANAMONO_SCREW
 48
20.0
100
AcDbLine
 10
-0.6869703109422858
 20
-23.50507591106889
 30
0.0
 11
0.6719818677943863
 21
-23.16533786638472
 31
0.0
  0
LINE
  5
3EA3
330
3E94
100
AcDbEntity
  8
KANAMONO_SCREW
 48
20.0
100
AcDbLine
 10
-0.4639219838047098
 20
-18.44931382928449
 30
0.0
 11
0.4538000496125961
 21
-18.21988332093018
 31
0.0
  0
LINE
  5
3EA4
330
3E94
100
AcDbEntity
  8
KANAMONO_SCREW
 48
20.0
100
AcDbLine
 10
-0.6312082291578918
 20
-22.2411353906228
 30
0.0
 11
0.6174364132489245
 21
-21.92897423002107
 31
0.0
  0
LINE
  5
3EA5
330
3E94
100
AcDbEntity
  8
KANAMONO_SCREW
 48
20.0
100
AcDbLine
 10
-0.5754461473734978
 20
-20.97719487017669
 30
0.0
 11
0.5628909587035196
 21
-20.69261059365742
 31
0.0
  0
LINE
  5
3EA6
330
3E94
100
AcDbEntity
  8
KANAMONO_SCREW
 48
20.0
100
AcDbLine
 10
-0.5196840655891038
 20
-19.71325434973063
 30
0.0
 11
0.5083455041580578
 21
-19.45624695729383
 31
0.0
  0
LINE
  5
3EA7
330
3E94
100
AcDbEntity
  8
KANAMONO_SCREW
 48
20.0
100
AcDbLine
 10
2.5
 20
-26.8226377519333
 30
0.0
 11
3.074324324324322
 21
-25.67398910328466
 31
0.0
  0
LINE
  5
3EA8
330
3E94
100
AcDbEntity
  8
KANAMONO_SCREW
 48
20.0
100
AcDbLine
 10
-2.5
 20
-0.8333333333333285
 30
0.0
 11
-2.5
 21
-12.6559710852661
 31
0.0
  0
LINE
  5
3EA9
330
3E94
100
AcDbEntity
  8
KANAMONO_SCREW
 48
20.0
100
AcDbLine
 10
2.5
 20
-0.833333333333357
 30
0.0
 11
2.5
 21
-12.6559710852661
 31
0.0
  0
LINE
  5
3EAA
330
3E94
100
AcDbEntity
  8
KANAMONO_SCREW
 48
20.0
100
AcDbLine
 10
-2.5
 20
-10.98930441859944
 30
0.0
 11
2.5
 21
-10.98930441859944
 31
0.0
  0
LINE
  5
3EAB
330
3E94
100
AcDbEntity
  8
KANAMONO_SCREW
 48
20.0
100
AcDbLine
 10
-2.5
 20
-8.489304418599445
 30
0.0
 11
2.5
 21
-8.489304418599445
 31
0.0
  0
LINE
  5
3EAC
330
3E94
100
AcDbEntity
  8
KANAMONO_SCREW
 48
20.0
100
AcDbLine
 10
-2.291869117721319
 20
-12.66515333007304
 30
0.0
 11
-2.5
 21
-12.6559710852661
 31
0.0
  0
LINE
  5
3EAD
330
3E94
100
AcDbEntity
  8
KANAMONO_SCREW
 48
20.0
100
AcDbLine
 10
-2.301051362528312
 20
-12.87328421235169
 30
0.0
 11
-2.509182244806879
 21
-12.86410196754472
 31
0.0
  0
LINE
  5
3EAE
330
3E94
100
AcDbEntity
  8
KANAMONO_SCREW
 48
20.0
100
AcDbLine
 10
-2.411238300211664
 20
-15.37085479969532
 30
0.0
 11
-2.619369182490231
 21
-15.36167255488836
 31
0.0
  0
LINE
  5
3EAF
330
3E94
100
AcDbEntity
  8
KANAMONO_SCREW
 48
20.0
100
AcDbLine
 10
-2.420420545018544
 20
-15.57898568197394
 30
0.0
 11
-2.628551427297225
 21
-15.56980343716701
 31
0.0
  0
LINE
  5
3EB0
330
3E94
100
AcDbEntity
  8
KANAMONO_SCREW
 48
20.0
100
AcDbLine
 10
-2.509182244806424
 20
-12.86410196754475
 30
0.0
 11
-2.619369182483353
 21
-15.3616725548887
 31
0.0
  0
LINE
  5
3EB1
330
3E94
100
AcDbEntity
  8
KANAMONO_SCREW
 48
20.0
100
AcDbLine
 10
-2.291869117721319
 20
-12.66515333007304
 30
0.0
 11
-2.420420545011097
 21
-15.57898568197429
 31
0.0
  0
LINE
  5
3EB2
330
3E94
100
AcDbEntity
  8
KANAMONO_SCREW
 48
20.0
100
AcDbLine
 10
-0.2083333333333144
 20
-12.65597108526664
 30
0.0
 11
0.2083333333333144
 21
-12.65597108526664
 31
0.0
  0
LINE
  5
3EB3
330
3E94
100
AcDbEntity
  8
KANAMONO_SCREW
 48
20.0
100
AcDbLine
 10
-0.2408736566671905
 20
-13.39355174750015
 30
0.0
 11
0.2356182314308057
 21
-13.27442877547567
 31
0.0
  0
LINE
  5
3EB4
330
3E94
100
AcDbEntity
  8
KANAMONO_SCREW
 48
20.0
100
AcDbLine
 10
-0.4081599020203158
 20
-17.18537330883843
 30
0.0
 11
0.3992545950671342
 21
-16.98351968456656
 31
0.0
  0
LINE
  5
3EB5
330
3E94
100
AcDbEntity
  8
KANAMONO_SCREW
 48
20.0
100
AcDbLine
 10
-0.3523978202359785
 20
-15.92143278839232
 30
0.0
 11
0.3447091405216724
 21
-15.74715604820291
 31
0.0
  0
LINE
  5
3EB6
330
3E94
100
AcDbEntity
  8
KANAMONO_SCREW
 48
20.0
100
AcDbLine
 10
-0.2966357384515845
 20
-14.65749226794621
 30
0.0
 11
0.2901636859762107
 21
-14.51079241183926
 31
0.0
  0
LINE
  5
3EB7
330
3E94
100
AcDbEntity
  8
KANAMONO_SCREW
 48
20.0
100
AcDbLine
 10
2.301051362528312
 20
-12.87328421235169
 30
0.0
 11
2.509182244806879
 21
-12.86410196754472
 31
0.0
  0
LINE
  5
3EB8
330
3E94
100
AcDbEntity
  8
KANAMONO_SCREW
 48
20.0
100
AcDbLine
 10
2.291869117721319
 20
-12.66515333007304
 30
0.0
 11
2.5
 21
-12.6559710852661
 31
0.0
  0
LINE
  5
3EB9
330
3E94
100
AcDbEntity
  8
KANAMONO_SCREW
 48
20.0
100
AcDbLine
 10
2.420420545018544
 20
-15.57898568197394
 30
0.0
 11
2.628551427297225
 21
-15.56980343716701
 31
0.0
  0
LINE
  5
3EBA
330
3E94
100
AcDbEntity
  8
KANAMONO_SCREW
 48
20.0
100
AcDbLine
 10
2.411238300211664
 20
-15.37085479969532
 30
0.0
 11
2.619369182490231
 21
-15.36167255488836
 31
0.0
  0
LINE
  5
3EBB
330
3E94
100
AcDbEntity
  8
KANAMONO_SCREW
 48
20.0
100
AcDbLine
 10
2.291869117721319
 20
-12.66515333007304
 30
0.0
 11
2.420420545011097
 21
-15.57898568197429
 31
0.0
  0
LINE
  5
3EBC
330
3E94
100
AcDbEntity
  8
KANAMONO_SCREW
 48
20.0
100
AcDbLine
 10
2.509182244806424
 20
-12.86410196754475
 30
0.0
 11
2.619369182483353
 21
-15.3616725548887
 31
0.0
  0
LINE
  5
3EBD
330
3E94
100
AcDbEntity
  8
KANAMONO_SCREW
 48
20.0
100
AcDbLine
 10
-3.333333333333314
 20
0.0000000000000142
 30
0.0
 11
3.333333333333314
 21
-0.0000000000000142
 31
0.0
  0
LINE
  5
3EBE
330
3E94
100
AcDbEntity
  8
KANAMONO_SCREW
 48
20.0
100
AcDbLine
 10
3.541666666666685
 20
2.083333333333328
 30
0.0
 11
-3.541666666666685
 21
2.083333333333328
 31
0.0
  0
LINE
  5
3EBF
330
3E94
100
AcDbEntity
  8
KANAMONO_SCREW
 48
20.0
100
AcDbLine
 10
2.5
 20
2.291666666666642
 30
0.0
 11
-2.5
 21
2.291666666666642
 31
0.0
  0
LINE
  5
3EC0
330
3E94
100
AcDbEntity
  8
KANAMONO_SCREW
 48
20.0
100
AcDbLine
 10
-4.583333333333314
 20
1.666666666666642
 30
0.0
 11
4.583333333333314
 21
1.666666666666642
 31
0.0
  0
LINE
  5
3EC1
330
3E94
100
AcDbEntity
  8
KANAMONO_SCREW
 48
20.0
100
AcDbLine
 10
-3.541666666666685
 20
2.083333333333328
 30
0.0
 11
-3.541666666666685
 21
1.666666666666642
 31
0.0
  0
LINE
  5
3EC2
330
3E94
100
AcDbEntity
  8
KANAMONO_SCREW
 48
20.0
100
AcDbLine
 10
-3.541666666666685
 20
2.083333333333328
 30
0.0
 11
-2.5
 21
2.291666666666642
 31
0.0
  0
ARC
  5
3EC3
330
3E94
100
AcDbEntity
  8
KANAMONO_SCREW
 48
20.0
100
AcDbCircle
 10
-3.333333333333314
 20
-0.8333333333333285
 30
0.0
 40
0.8333333333333333
100
AcDbArc
 50
0.0
 51
90.0
  0
LINE
  5
3EC4
330
3E94
100
AcDbEntity
  8
KANAMONO_SCREW
 48
20.0
100
AcDbLine
 10
-4.583333333333314
 20
-0.0000000000000142
 30
0.0
 11
-3.333333333333314
 21
0.0000000000000142
 31
0.0
  0
LINE
  5
3EC5
330
3E94
100
AcDbEntity
  8
KANAMONO_SCREW
 48
20.0
100
AcDbLine
 10
-4.583333333333314
 20
-0.0000000000000142
 30
0.0
 11
-4.583333333333314
 21
1.666666666666642
 31
0.0
  0
LINE
  5
3EC6
330
3E94
100
AcDbEntity
  8
KANAMONO_SCREW
 48
20.0
100
AcDbLine
 10
4.583333333333314
 20
1.666666666666642
 30
0.0
 11
4.583333333333314
 21
-0.0000000000000142
 31
0.0
  0
LINE
  5
3EC7
330
3E94
100
AcDbEntity
  8
KANAMONO_SCREW
 48
20.0
100
AcDbLine
 10
3.541666666666685
 20
1.666666666666642
 30
0.0
 11
3.541666666666685
 21
2.083333333333328
 31
0.0
  0
LINE
  5
3EC8
330
3E94
100
AcDbEntity
  8
KANAMONO_SCREW
 48
20.0
100
AcDbLine
 10
2.5
 20
2.291666666666642
 30
0.0
 11
3.541666666666685
 21
2.083333333333328
 31
0.0
  0
ARC
  5
3EC9
330
3E94
100
AcDbEntity
  8
KANAMONO_SCREW
 48
20.0
100
AcDbCircle
 10
3.333333333333314
 20
-0.833333333333357
 30
0.0
 40
0.8333333333333333
100
AcDbArc
 50
90.0
 51
180.0
  0
LINE
  5
3ECA
330
3E94
100
AcDbEntity
  8
KANAMONO_SCREW
 48
20.0
100
AcDbLine
 10
3.333333333333314
 20
-0.0000000000000142
 30
0.0
 11
4.583333333333314
 21
-0.0000000000000142
 31
0.0
  0
ENDBLK
  5
3ECC
330
3E94
100
AcDbEntity
  8
0
 48
20.0
100
AcDbBlockEnd
  0
BLOCK
  5
3F37
330
3F2D
100
AcDbEntity
  8
0
100
AcDbBlockBegin
  2
*D2
 70
     1
 10
0.0
 20
0.0
 30
0.0
  3
*D2
  1

  0
LINE
  5
42B9
330
3F2D
100
AcDbEntity
  8
MOJI
 62
     0
370
    -2
100
AcDbLine
 10
733.7777249304179
 20
640.637730749959
 30
0.0
 11
733.7777249304179
 21
680.2951041238275
 31
0.0
  0
LINE
  5
42BA
330
3F2D
100
AcDbEntity
  8
MOJI
 62
     0
370
    -2
100
AcDbLine
 10
669.2777249304178
 20
661.7381107499591
 30
0.0
 11
669.2777249304178
 21
680.2951041238275
 31
0.0
  0
LINE
  5
42BB
330
3F2D
100
AcDbEntity
  8
MOJI
 62
     0
370
    -2
100
AcDbLine
 10
729.7777249304179
 20
680.2951041238275
 30
0.0
 11
673.2777249304178
 21
680.2951041238275
 31
0.0
  0
INSERT
  5
42BC
330
3F2D
100
AcDbEntity
  8
MOJI
 62
     0
370
    -2
100
AcDbBlockReference
  2
_DOT
 10
733.7777249304179
 20
680.2951041238275
 30
0.0
 41
4.0
 42
4.0
 43
4.0
  0
INSERT
  5
42BD
330
3F2D
100
AcDbEntity
  8
MOJI
 62
     0
370
    -2
100
AcDbBlockReference
  2
_DOT
 10
669.2777249304178
 20
680.2951041238275
 30
0.0
 41
4.0
 42
4.0
 43
4.0
 50
180.0
  0
MTEXT
  5
42BE
330
3F2D
100
AcDbEntity
  8
MOJI
 62
     0
100
AcDbMText
 10
701.5277249304179
 20
686.3027183370254
 30
0.0
 40
10.0
 41
0.0
 71
     5
 72
     1
  1
\A1;50以上
  7
MSゴシック
 73
     1
 44
1.0
1001
ACAD
1000
MTEXTBEGIN
1070
    73
1070
     1
1070
    44
1040
1.0
1070
    74
1070
     0
1000
MTEXTEND
  0
POINT
  5
42BF
330
3F2D
100
AcDbEntity
  8
Defpoints
 62
     0
100
AcDbPoint
 10
733.7777249304179
 20
635.637730749959
 30
0.0
  0
POINT
  5
42C0
330
3F2D
100
AcDbEntity
  8
Defpoints
 62
     0
100
AcDbPoint
 10
669.2777249304178
 20
656.7381107499591
 30
0.0
  0
POINT
  5
42C1
330
3F2D
100
AcDbEntity
  8
Defpoints
 62
     0
100
AcDbPoint
 10
669.2777249304178
 20
680.2951041238275
 30
0.0
  0
ENDBLK
  5
3F38
330
3F2D
100
AcDbEntity
  8
0
100
AcDbBlockEnd
  0
BLOCK
  5
3F43
330
3F39
100
AcDbEntity
  8
0
100
AcDbBlockBegin
  2
*D3
 70
     1
 10
0.0
 20
0.0
 30
0.0
  3
*D3
  1

  0
LINE
  5
42C2
330
3F39
100
AcDbEntity
  8
MOJI
 62
     0
370
    -2
100
AcDbLine
 10
661.7777249304176
 20
429.4901087456428
 30
0.0
 11
661.7777249304176
 21
453.8803170900965
 31
0.0
  0
LINE
  5
42C3
330
3F39
100
AcDbEntity
  8
MOJI
 62
     0
370
    -2
100
AcDbLine
 10
676.7777249304177
 20
429.4901087456428
 30
0.0
 11
676.7777249304177
 21
453.8803170900965
 31
0.0
  0
LINE
  5
42C4
330
3F39
100
AcDbEntity
  8
MOJI
 62
     0
370
    -2
100
AcDbLine
 10
665.7777249304176
 20
453.8803170900965
 30
0.0
 11
672.7777249304176
 21
453.8803170900965
 31
0.0
  0
INSERT
  5
42C5
330
3F39
100
AcDbEntity
  8
MOJI
 62
     0
370
    -2
100
AcDbBlockReference
  2
_DOT
 10
661.7777249304176
 20
453.8803170900965
 30
0.0
 41
4.0
 42
4.0
 43
4.0
 50
180.0
  0
INSERT
  5
42C6
330
3F39
100
AcDbEntity
  8
MOJI
 62
     0
370
    -2
100
AcDbBlockReference
  2
_DOT
 10
676.7777249304177
 20
453.8803170900965
 30
0.0
 41
4.0
 42
4.0
 43
4.0
  0
MTEXT
  5
42C7
330
3F39
100
AcDbEntity
  8
MOJI
 62
     0
100
AcDbMText
 10
669.2777249304176
 20
459.3803170900964
 30
0.0
 40
10.0
 41
0.0
 71
     5
 72
     1
  1
\A1;15
  7
MSゴシック
 73
     1
 44
1.0
1001
ACAD
1000
MTEXTBEGIN
1070
    73
1070
     1
1070
    44
1040
1.0
1070
    74
1070
     0
1000
MTEXTEND
  0
POINT
  5
42C8
330
3F39
100
AcDbEntity
  8
Defpoints
 62
     0
100
AcDbPoint
 10
661.7777249304176
 20
424.4901087456428
 30
0.0
  0
POINT
  5
42C9
330
3F39
100
AcDbEntity
  8
Defpoints
 62
     0
100
AcDbPoint
 10
676.7777249304177
 20
424.4901087456428
 30
0.0
  0
POINT
  5
42CA
330
3F39
100
AcDbEntity
  8
Defpoints
 62
     0
100
AcDbPoint
 10
676.7777249304177
 20
453.8803170900965
 30
0.0
  0
ENDBLK
  5
3F44
330
3F39
100
AcDbEntity
  8
0
100
AcDbBlockEnd
  0
BLOCK
  5
3F4F
330
3F45
100
AcDbEntity
  8
0
100
AcDbBlockBegin
  2
*D4
 70
     1
 10
0.0
 20
0.0
 30
0.0
  3
*D4
  1

  0
LINE
  5
42CB
330
3F45
100
AcDbEntity
  8
MOJI
 62
     0
370
    -2
100
AcDbLine
 10
649.2777244304172
 20
649.8377307499593
 30
0.0
 11
649.2777244304172
 21
707.2291314840558
 31
0.0
  0
LINE
  5
42CC
330
3F45
100
AcDbEntity
  8
MOJI
 62
     0
370
    -2
100
AcDbLine
 10
689.2777244304173
 20
649.8377307499593
 30
0.0
 11
689.2777244304173
 21
707.2291314840558
 31
0.0
  0
LINE
  5
42CD
330
3F45
100
AcDbEntity
  8
MOJI
 62
     0
370
    -2
100
AcDbLine
 10
653.2777244304172
 20
707.2291314840558
 30
0.0
 11
685.2777244304173
 21
707.2291314840558
 31
0.0
  0
INSERT
  5
42CE
330
3F45
100
AcDbEntity
  8
MOJI
 62
     0
370
    -2
100
AcDbBlockReference
  2
_DOT
 10
649.2777244304172
 20
707.2291314840558
 30
0.0
 41
4.0
 42
4.0
 43
4.0
 50
180.0
  0
INSERT
  5
42CF
330
3F45
100
AcDbEntity
  8
MOJI
 62
     0
370
    -2
100
AcDbBlockReference
  2
_DOT
 10
689.2777244304173
 20
707.2291314840558
 30
0.0
 41
4.0
 42
4.0
 43
4.0
  0
MTEXT
  5
42D0
330
3F45
100
AcDbEntity
  8
MOJI
 62
     0
100
AcDbMText
 10
669.2777244304172
 20
712.7291314840558
 30
0.0
 40
10.0
 41
0.0
 71
     5
 72
     1
  1
\A1;40
  7
MSゴシック
 73
     1
 44
1.0
1001
ACAD
1000
MTEXTBEGIN
1070
    73
1070
     1
1070
    44
1040
1.0
1070
    74
1070
     0
1000
MTEXTEND
  0
POINT
  5
42D1
330
3F45
100
AcDbEntity
  8
Defpoints
 62
     0
100
AcDbPoint
 10
649.2777244304172
 20
644.8377307499592
 30
0.0
  0
POINT
  5
42D2
330
3F45
100
AcDbEntity
  8
Defpoints
 62
     0
100
AcDbPoint
 10
689.2777244304173
 20
644.8377307499592
 30
0.0
  0
POINT
  5
42D3
330
3F45
100
AcDbEntity
  8
Defpoints
 62
     0
100
AcDbPoint
 10
689.2777244304173
 20
707.2291314840558
 30
0.0
  0
ENDBLK
  5
3F50
330
3F45
100
AcDbEntity
  8
0
100
AcDbBlockEnd
  0
BLOCK
  5
3F5B
330
3F51
100
AcDbEntity
  8
0
100
AcDbBlockBegin
  2
*D5
 70
     1
 10
0.0
 20
0.0
 30
0.0
  3
*D5
  1

  0
LINE
  5
42D4
330
3F51
100
AcDbEntity
  8
MOJI
 62
     0
370
    -2
100
AcDbLine
 10
688.6742094304186
 20
655.6377307499592
 30
0.0
 11
707.4646685818318
 21
655.6377307499592
 31
0.0
  0
LINE
  5
42D5
330
3F51
100
AcDbEntity
  8
MOJI
 62
     0
370
    -2
100
AcDbLine
 10
691.1700618711965
 20
625.6377307499592
 30
0.0
 11
707.4646685818318
 21
625.6377307499592
 31
0.0
  0
LINE
  5
42D6
330
3F51
100
AcDbEntity
  8
MOJI
 62
     0
370
    -2
100
AcDbLine
 10
707.4646685818318
 20
651.6377307499592
 30
0.0
 11
707.4646685818318
 21
629.6377307499592
 31
0.0
  0
INSERT
  5
42D7
330
3F51
100
AcDbEntity
  8
MOJI
 62
     0
370
    -2
100
AcDbBlockReference
  2
_DOT
 10
707.4646685818318
 20
655.6377307499592
 30
0.0
 41
4.0
 42
4.0
 43
4.0
 50
90.0
  0
INSERT
  5
42D8
330
3F51
100
AcDbEntity
  8
MOJI
 62
     0
370
    -2
100
AcDbBlockReference
  2
_DOT
 10
707.4646685818318
 20
625.6377307499592
 30
0.0
 41
4.0
 42
4.0
 43
4.0
 50
270.0
  0
MTEXT
  5
42D9
330
3F51
100
AcDbEntity
  8
MOJI
 62
     0
100
AcDbMText
 10
712.9646685818317
 20
640.637730749959
 30
0.0
 40
10.0
 41
0.0
 71
     5
 72
     1
  1
\A1;30
  7
MSゴシック
 11
0.0000000000000001
 21
1.0
 31
0.0
 73
     1
 44
1.0
1001
ACAD
1000
MTEXTBEGIN
1070
    73
1070
     1
1070
    44
1040
1.0
1070
    74
1070
     0
1000
MTEXTEND
  0
POINT
  5
42DA
330
3F51
100
AcDbEntity
  8
Defpoints
 62
     0
100
AcDbPoint
 10
683.6742094304185
 20
655.6377307499592
 30
0.0
  0
POINT
  5
42DB
330
3F51
100
AcDbEntity
  8
Defpoints
 62
     0
100
AcDbPoint
 10
686.1700618711966
 20
625.6377307499592
 30
0.0
  0
POINT
  5
42DC
330
3F51
100
AcDbEntity
  8
Defpoints
 62
     0
100
AcDbPoint
 10
707.4646685818318
 20
625.6377307499592
 30
0.0
  0
ENDBLK
  5
3F5C
330
3F51
100
AcDbEntity
  8
0
100
AcDbBlockEnd
  0
BLOCK
  5
4332
330
4330
100
AcDbEntity
  8
0
100
AcDbBlockBegin
  2
hf6-40
 70
     0
 10
0.0
 20
0.0
 30
0.0
  3
hf6-40
  1

  0
LINE
  5
4333
330
4330
100
AcDbEntity
  8
KANAMONO_SCREW
370
    -3
100
AcDbLine
 10
-2.75
 20
-7.5
 30
0.0
 11
-2.75
 21
-12.5
 31
0.0
  0
LINE
  5
4334
330
4330
100
AcDbEntity
  8
KANAMONO_SCREW
370
    -3
100
AcDbLine
 10
2.75
 20
-7.5
 30
0.0
 11
2.75
 21
-12.5
 31
0.0
  0
LINE
  5
4335
330
4330
100
AcDbEntity
  8
KANAMONO_SCREW
370
    -3
100
AcDbLine
 10
2.997471113091478
 20
-19.36340647345605
 30
0.0
 11
2.997471113091478
 21
-12.5
 31
0.0
  0
LINE
  5
4336
330
4330
100
AcDbEntity
  8
KANAMONO_SCREW
370
    -3
100
AcDbLine
 10
-2.997469864986214
 20
-19.36340647345605
 30
0.0
 11
-2.997469864986214
 21
-12.5
 31
0.0
  0
LINE
  5
4337
330
4330
100
AcDbEntity
  8
KANAMONO_SCREW
370
    -3
100
AcDbLine
 10
2.997471113091478
 20
-12.5
 30
0.0
 11
-2.997469864986214
 21
-12.5
 31
0.0
  0
ARC
  5
4338
330
4330
100
AcDbEntity
  8
KANAMONO_SCREW
370
    -3
100
AcDbCircle
 10
0.0
 20
-14.09999999999991
 30
0.0
 40
0.6
100
AcDbArc
 50
300.391260224242
 51
239.6087397757361
  0
LINE
  5
4339
330
4330
100
AcDbEntity
  8
KANAMONO_SCREW
370
    -3
100
AcDbLine
 10
0.303541315345683
 20
-37.5
 30
0.0
 11
0.303541315345683
 21
-14.6175545090889
 31
0.0
  0
LINE
  5
433A
330
4330
100
AcDbEntity
  8
KANAMONO_SCREW
370
    -3
100
AcDbLine
 10
-0.3035413153459103
 20
-35.60286677908925
 30
0.0
 11
-0.303541315345683
 21
-14.61755450908867
 31
0.0
  0
LINE
  5
433B
330
4330
100
AcDbEntity
  8
KANAMONO_SCREW
370
    -3
100
AcDbLine
 10
-0.303541315345683
 20
-33.62984822934232
 30
0.0
 11
0.303541315345683
 21
-33.62984822934232
 31
0.0
  0
LINE
  5
433C
330
4330
100
AcDbEntity
  8
KANAMONO_SCREW
370
    -3
100
AcDbLine
 10
-0.303541315345683
 20
-33.02276559865095
 30
0.0
 11
0.303541315345683
 21
-33.02276559865095
 31
0.0
  0
LINE
  5
433D
330
4330
100
AcDbEntity
  8
KANAMONO_SCREW
370
    -3
100
AcDbLine
 10
1.550000000000181
 20
-7.5
 30
0.0
 11
2.997471113091478
 21
-7.5
 31
0.0
  0
LINE
  5
433E
330
4330
100
AcDbEntity
  8
KANAMONO_SCREW
370
    -3
100
AcDbLine
 10
-2.997469864986214
 20
-7.5
 30
0.0
 11
-1.549999999999954
 21
-7.5
 31
0.0
  0
ARC
  5
433F
330
4330
100
AcDbEntity
  8
KANAMONO_SCREW
370
    -3
100
AcDbCircle
 10
-1.549999999999954
 20
-7.075000000000045
 30
0.0
 40
0.425
100
AcDbArc
 50
270.0
 51
90.0
  0
ARC
  5
4340
330
4330
100
AcDbEntity
  8
KANAMONO_SCREW
370
    -3
100
AcDbCircle
 10
1.549999999999954
 20
-7.075000000000045
 30
0.0
 40
0.425
100
AcDbArc
 50
90.0
 51
270.0
  0
LINE
  5
4341
330
4330
100
AcDbEntity
  8
KANAMONO_SCREW
370
    -3
100
AcDbLine
 10
1.549999999999954
 20
-6.649999999999863
 30
0.0
 11
2.997471113091478
 21
-6.649999999999863
 31
0.0
  0
LINE
  5
4342
330
4330
100
AcDbEntity
  8
KANAMONO_SCREW
370
    -3
100
AcDbLine
 10
-2.997469864986214
 20
-6.649999999999863
 30
0.0
 11
-1.549999999999954
 21
-6.649999999999863
 31
0.0
  0
LINE
  5
4343
330
4330
100
AcDbEntity
  8
KANAMONO_SCREW
370
    -3
100
AcDbLine
 10
1.549999999999954
 20
-6.149999999999863
 30
0.0
 11
2.997471113091478
 21
-6.149999999999863
 31
0.0
  0
LINE
  5
4344
330
4330
100
AcDbEntity
  8
KANAMONO_SCREW
370
    -3
100
AcDbLine
 10
-2.997469864986214
 20
-6.149999999999863
 30
0.0
 11
-1.549999999999954
 21
-6.149999999999863
 31
0.0
  0
LINE
  5
4345
330
4330
100
AcDbEntity
  8
KANAMONO_SCREW
370
    -3
100
AcDbLine
 10
1.549999999999954
 20
-5.649999999999863
 30
0.0
 11
2.997471113091478
 21
-5.649999999999863
 31
0.0
  0
LINE
  5
4346
330
4330
100
AcDbEntity
  8
KANAMONO_SCREW
370
    -3
100
AcDbLine
 10
-2.997469864986214
 20
-5.649999999999863
 30
0.0
 11
-1.549999999999954
 21
-5.649999999999863
 31
0.0
  0
LINE
  5
4347
330
4330
100
AcDbEntity
  8
KANAMONO_SCREW
370
    -3
100
AcDbLine
 10
1.549999999999954
 20
-5.149999999999863
 30
0.0
 11
2.997471113091478
 21
-5.149999999999863
 31
0.0
  0
LINE
  5
4348
330
4330
100
AcDbEntity
  8
KANAMONO_SCREW
370
    -3
100
AcDbLine
 10
-2.997469864986214
 20
-5.149999999999863
 30
0.0
 11
-1.549999999999954
 21
-5.149999999999863
 31
0.0
  0
LINE
  5
4349
330
4330
100
AcDbEntity
  8
KANAMONO_SCREW
370
    -3
100
AcDbLine
 10
1.549999999999954
 20
-4.649999999999863
 30
0.0
 11
2.997471113091478
 21
-4.649999999999863
 31
0.0
  0
LINE
  5
434A
330
4330
100
AcDbEntity
  8
KANAMONO_SCREW
370
    -3
100
AcDbLine
 10
-2.997469864986214
 20
-4.649999999999863
 30
0.0
 11
-1.549999999999954
 21
-4.649999999999863
 31
0.0
  0
LINE
  5
434B
330
4330
100
AcDbEntity
  8
KANAMONO_SCREW
370
    -3
100
AcDbLine
 10
1.549999999999954
 20
-4.149999999999863
 30
0.0
 11
2.997471113091478
 21
-4.149999999999863
 31
0.0
  0
LINE
  5
434C
330
4330
100
AcDbEntity
  8
KANAMONO_SCREW
370
    -3
100
AcDbLine
 10
-2.997469864986214
 20
-4.149999999999863
 30
0.0
 11
-1.549999999999954
 21
-4.149999999999863
 31
0.0
  0
LINE
  5
434D
330
4330
100
AcDbEntity
  8
KANAMONO_SCREW
370
    -3
100
AcDbLine
 10
1.549999999999954
 20
-3.649999999999863
 30
0.0
 11
2.997471113091478
 21
-3.649999999999863
 31
0.0
  0
LINE
  5
434E
330
4330
100
AcDbEntity
  8
KANAMONO_SCREW
370
    -3
100
AcDbLine
 10
-2.997469864986214
 20
-3.649999999999863
 30
0.0
 11
-1.549999999999954
 21
-3.649999999999863
 31
0.0
  0
LINE
  5
434F
330
4330
100
AcDbEntity
  8
KANAMONO_SCREW
370
    -3
100
AcDbLine
 10
1.549999999999954
 20
-3.149999999999863
 30
0.0
 11
2.997471113091478
 21
-3.149999999999863
 31
0.0
  0
LINE
  5
4350
330
4330
100
AcDbEntity
  8
KANAMONO_SCREW
370
    -3
100
AcDbLine
 10
-2.997469864986214
 20
-3.149999999999863
 30
0.0
 11
-1.549999999999954
 21
-3.149999999999863
 31
0.0
  0
LINE
  5
4351
330
4330
100
AcDbEntity
  8
KANAMONO_SCREW
370
    -3
100
AcDbLine
 10
1.549999999999954
 20
-2.649999999999863
 30
0.0
 11
2.997471113091478
 21
-2.649999999999863
 31
0.0
  0
LINE
  5
4352
330
4330
100
AcDbEntity
  8
KANAMONO_SCREW
370
    -3
100
AcDbLine
 10
-2.997469864986214
 20
-2.649999999999863
 30
0.0
 11
-1.549999999999954
 21
-2.649999999999863
 31
0.0
  0
LINE
  5
4353
330
4330
100
AcDbEntity
  8
KANAMONO_SCREW
370
    -3
100
AcDbLine
 10
1.549999999999954
 20
-2.200000000000045
 30
0.0
 11
2.997471113091478
 21
-2.200000000000045
 31
0.0
  0
LINE
  5
4354
330
4330
100
AcDbEntity
  8
KANAMONO_SCREW
370
    -3
100
AcDbLine
 10
-2.997469864986214
 20
-2.200000000000045
 30
0.0
 11
-1.549999999999954
 21
-2.200000000000045
 31
0.0
  0
LINE
  5
4355
330
4330
100
AcDbEntity
  8
KANAMONO_SCREW
370
    -3
100
AcDbLine
 10
2.997471113091478
 20
-7.5
 30
0.0
 11
2.997471113091478
 21
0.0
 31
0.0
  0
LINE
  5
4356
330
4330
100
AcDbEntity
  8
KANAMONO_SCREW
370
    -3
100
AcDbLine
 10
-2.997469864986214
 20
-7.5
 30
0.0
 11
-2.997469864986214
 21
0.0
 31
0.0
  0
LINE
  5
4357
330
4330
100
AcDbEntity
  8
KANAMONO_SCREW
370
    -3
100
AcDbLine
 10
1.550000000000181
 20
-7.5
 30
0.0
 11
1.550000000000181
 21
-10.45000000000004
 31
0.0
  0
LINE
  5
4358
330
4330
100
AcDbEntity
  8
KANAMONO_SCREW
370
    -3
100
AcDbLine
 10
-1.549999999999954
 20
-7.5
 30
0.0
 11
-1.549999999999954
 21
-10.45000000000004
 31
0.0
  0
LINE
  5
4359
330
4330
100
AcDbEntity
  8
KANAMONO_SCREW
370
    -3
100
AcDbLine
 10
1.549999999999954
 20
-2.049999999999954
 30
0.0
 11
1.549999999999954
 21
-6.649999999999863
 31
0.0
  0
LINE
  5
435A
330
4330
100
AcDbEntity
  8
KANAMONO_SCREW
370
    -3
100
AcDbLine
 10
-1.549999999999954
 20
-2.049999999999954
 30
0.0
 11
-1.549999999999954
 21
-6.649999999999863
 31
0.0
  0
ARC
  5
435B
330
4330
100
AcDbEntity
  8
KANAMONO_SCREW
370
    -3
100
AcDbCircle
 10
0.0
 20
-10.45000000000004
 30
0.0
 40
1.55
100
AcDbArc
 50
180.0
 51
0.0
  0
ARC
  5
435C
330
4330
100
AcDbEntity
  8
KANAMONO_SCREW
370
    -3
100
AcDbCircle
 10
0.0
 20
-2.049999999999954
 30
0.0
 40
1.55
100
AcDbArc
 50
0.0
 51
180.0
  0
LINE
  5
435D
330
4330
100
AcDbEntity
  8
KANAMONO_SCREW
370
    -3
100
AcDbLine
 10
-6.5
 20
1.0
 30
0.0
 11
-4.549999999999954
 21
2.5
 31
0.0
  0
LINE
  5
435E
330
4330
100
AcDbEntity
  8
KANAMONO_SCREW
370
    -3
100
AcDbLine
 10
4.549999999999954
 20
2.5
 30
0.0
 11
6.5
 21
1.0
 31
0.0
  0
LINE
  5
435F
330
4330
100
AcDbEntity
  8
KANAMONO_SCREW
370
    -3
100
AcDbLine
 10
-4.549999999999954
 20
2.5
 30
0.0
 11
4.549999999999954
 21
2.5
 31
0.0
  0
LINE
  5
4360
330
4330
100
AcDbEntity
  8
KANAMONO_SCREW
370
    -3
100
AcDbLine
 10
6.5
 20
1.0
 30
0.0
 11
6.5
 21
0.0
 31
0.0
  0
LINE
  5
4361
330
4330
100
AcDbEntity
  8
KANAMONO_SCREW
370
    -3
100
AcDbLine
 10
-6.5
 20
1.0
 30
0.0
 11
6.5
 21
1.0
 31
0.0
  0
LINE
  5
4362
330
4330
100
AcDbEntity
  8
KANAMONO_SCREW
370
    -3
100
AcDbLine
 10
-6.5
 20
1.0
 30
0.0
 11
-6.5
 21
0.0
 31
0.0
  0
LINE
  5
4363
330
4330
100
AcDbEntity
  8
KANAMONO_SCREW
370
    -3
100
AcDbLine
 10
-6.5
 20
0.0
 30
0.0
 11
6.5
 21
0.0
 31
0.0
  0
LINE
  5
4364
330
4330
100
AcDbEntity
  8
KANAMONO_SCREW
370
    -3
100
AcDbLine
 10
-3.845451859014701
 20
2.563049103665207
 30
0.0
 11
3.845451859014701
 21
2.563049103665207
 31
0.0
  0
ARC
  5
4365
330
4330
100
AcDbEntity
  8
KANAMONO_SCREW
370
    -3
100
AcDbCircle
 10
0.0
 20
1.913049103665343
 30
0.0
 40
3.900000000000005
100
AcDbArc
 50
170.4059317731384
 51
171.3440832872695
  0
ARC
  5
4366
330
4330
100
AcDbEntity
  8
KANAMONO_SCREW
370
    -3
100
AcDbCircle
 10
0.0
 20
1.913049103665343
 30
0.0
 40
3.900000000000005
100
AcDbArc
 50
8.655916712730483
 51
9.594068226861594
  0
LINE
  5
4367
330
4330
100
AcDbEntity
  8
KANAMONO_SCREW
370
    -3
100
AcDbLine
 10
0.0
 20
-45.73695089633474
 30
0.0
 11
0.0
 21
-38.28034643055366
 31
0.0
  0
LINE
  5
4368
330
4330
100
AcDbEntity
  8
KANAMONO_SCREW
370
    -3
100
AcDbLine
 10
1.756238311011884
 20
-37.73695089633475
 30
0.0
 11
-1.764285714285506
 21
-37.73695089633475
 31
0.0
  0
LINE
  5
4369
330
4330
100
AcDbEntity
  8
KANAMONO_SCREW
370
    -3
100
AcDbLine
 10
-1.75
 20
-37.73695089633475
 30
0.0
 11
-1.75
 21
-40.73695089633474
 31
0.0
  0
LINE
  5
436A
330
4330
100
AcDbEntity
  8
KANAMONO_SCREW
370
    -3
100
AcDbLine
 10
1.75
 20
-37.73695089633475
 30
0.0
 11
1.75
 21
-40.73695089633474
 31
0.0
  0
LINE
  5
436B
330
4330
100
AcDbEntity
  8
KANAMONO_SCREW
370
    -3
100
AcDbLine
 10
-1.75
 20
-40.73695089633474
 30
0.0
 11
1.75
 21
-40.73695089633474
 31
0.0
  0
ELLIPSE
  5
436C
330
4330
100
AcDbEntity
  8
KANAMONO_SCREW
370
    -3
100
AcDbEllipse
 10
-1.25
 20
-40.73695089633474
 30
0.0
 11
0.0000000000000027
 21
1.700000000000017
 31
0.0
210
0.0
220
0.0
230
1.0
 40
0.2941176470588373
 41
0.0
 42
1.570796326794863
  0
ELLIPSE
  5
436D
330
4330
100
AcDbEntity
  8
KANAMONO_SCREW
370
    -3
100
AcDbEllipse
 10
1.25
 20
-40.73695089633474
 30
0.0
 11
0.0000000000000027
 21
1.700000000000017
 31
0.0
210
0.0
220
0.0
230
1.0
 40
0.2941176470588038
 41
-1.570796326794896
 42
0.0
  0
ELLIPSE
  5
436E
330
4330
100
AcDbEntity
  8
KANAMONO_SCREW
370
    -3
100
AcDbEllipse
 10
1.25
 20
-40.73695089633474
 30
0.0
 11
0.0000000000000027
 21
1.700000000000017
 31
0.0
210
0.0
220
0.0
230
1.0
 40
0.7353489374659476
 41
0.0
 42
1.570796326794895
  0
ELLIPSE
  5
436F
330
4330
100
AcDbEntity
  8
KANAMONO_SCREW
370
    -3
100
AcDbEllipse
 10
-1.25
 20
-40.73695089633474
 30
0.0
 11
0.0000000000000027
 21
1.700000000000017
 31
0.0
210
0.0
220
0.0
230
1.0
 40
0.7352941176470348
 41
-1.559108661948553
 42
0.0
  0
LINE
  5
4370
330
4330
100
AcDbEntity
  8
KANAMONO_SCREW
370
    -3
100
AcDbLine
 10
1.75
 20
-40.73695089633474
 30
0.0
 11
0.0
 21
-45.73695089633474
 31
0.0
  0
LINE
  5
4371
330
4330
100
AcDbEntity
  8
KANAMONO_SCREW
370
    -3
100
AcDbLine
 10
0.0
 20
-45.73695089633474
 30
0.0
 11
-1.75
 21
-40.73695089633474
 31
0.0
  0
LINE
  5
4372
330
4330
100
AcDbEntity
  8
KANAMONO_SCREW
370
    -3
100
AcDbLine
 10
2.997465126966744
 20
-19.36340647345605
 30
0.0
 11
2.997161603100039
 21
-19.36513957642205
 31
0.0
  0
LINE
  5
4373
330
4330
100
AcDbEntity
  8
KANAMONO_SCREW
370
    -3
100
AcDbLine
 10
2.25
 20
-21.32551281565679
 30
0.0
 11
2.25
 21
-23.0817875864409
 31
0.0
  0
LINE
  5
4374
330
4330
100
AcDbEntity
  8
KANAMONO_SCREW
370
    -3
100
AcDbLine
 10
2.25
 20
-25.04389404538461
 30
0.0
 11
2.25
 21
-26.80016869942574
 31
0.0
  0
LINE
  5
4375
330
4330
100
AcDbEntity
  8
KANAMONO_SCREW
370
    -3
100
AcDbLine
 10
2.25
 20
-28.76227527511219
 30
0.0
 11
2.25
 21
-30.51854981241059
 31
0.0
  0
LINE
  5
4376
330
4330
100
AcDbEntity
  8
KANAMONO_SCREW
370
    -3
100
AcDbLine
 10
2.25
 20
-32.40477105926038
 30
0.0
 11
2.25
 21
-34.16104559655901
 31
0.0
  0
LINE
  5
4377
330
4330
100
AcDbEntity
  8
KANAMONO_SCREW
370
    -3
100
AcDbLine
 10
1.208052249623506
 20
-22.14651336424936
 30
0.0
 11
1.208052249623506
 21
-22.62647554806063
 31
0.0
  0
LINE
  5
4378
330
4330
100
AcDbEntity
  8
KANAMONO_SCREW
370
    -3
100
AcDbLine
 10
1.799999999999045
 20
-37.48695089633463
 30
0.0
 11
1.764285714285506
 21
-37.73695089633475
 31
0.0
  0
LINE
  5
4379
330
4330
100
AcDbEntity
  8
KANAMONO_SCREW
370
    -3
100
AcDbLine
 10
1.799999999999045
 20
-37.48695089633463
 30
0.0
 11
1.665439312529542
 21
-37.46965023651717
 31
0.0
  0
LWPOLYLINE
  5
437A
330
4330
100
AcDbEntity
  8
KANAMONO_SCREW
370
    -3
100
AcDbPolyline
 90
       39
 70
     0
 43
0.0
 10
2.997469864986214
 20
-15.95029906205491
 10
2.75099031142281
 20
-17.34633265393358
 10
1.4883701498145
 20
-18.00361110739527
 42
0.2592004735663025
 10
1.208052249623506
 20
-18.42813225126474
 10
1.208052249623506
 20
-18.90809443507578
 42
0.2036136011950793
 10
1.339735741728645
 20
-19.21805430880795
 42
0.1982842753974383
 10
1.70809732412431
 20
-19.36340647345605
 10
2.997471113091478
 20
-19.36340647345605
 10
2.69205229532622
 20
-21.09539495608919
 10
1.490608986478719
 20
-21.7208267557811
 42
0.257920399275152
 10
1.208052249623506
 20
-22.14651336424936
 10
1.208052249623506
 20
-22.62647554806063
 42
0.2036139203470236
 10
1.339735965989348
 20
-22.9364354217928
 42
0.1982836950201352
 10
1.708097665923105
 20
-23.0817875864409
 10
2.997465351227447
 20
-23.0817875864409
 10
2.692052519586923
 20
-24.81377606907404
 10
1.490609210739648
 20
-25.43920786876595
 42
0.2579203992749133
 10
1.208052473884208
 20
-25.8648944772342
 10
1.208052473884208
 20
-26.34485666104547
 42
0.2036139203458012
 10
1.339736190247549
 20
-26.65481653477377
 42
0.1982836950192671
 10
1.708097890183807
 20
-26.80016869942574
 10
2.997465575488149
 20
-26.80016869942574
 10
2.692052743847852
 20
-28.53215718205888
 10
1.490609435000351
 20
-29.15758898175079
 42
0.257920399274954
 10
1.208052698144911
 20
-29.58327559021905
 10
1.208052645906718
 20
-30.06323783939206
 42
0.2036275691502115
 10
1.339752932205556
 20
-30.37321423333856
 42
0.1982685003745556
 10
1.708097491553871
 20
-30.51854981241059
 10
2.997465799749079
 20
-30.51854981241059
 10
2.706785426637452
 20
-32.16698361698082
 10
1.490032062491536
 20
-32.80038532700314
 42
0.2582492780404442
 10
1.208052645906718
 20
-33.22577127425461
 10
1.208052698144911
 20
-33.70573355817874
 42
0.1922719400571094
 10
1.326266596907316
 20
-34.00178214530092
 42
0.2110160733286848
 10
1.708219614801237
 20
-34.16104559655901
 10
2.997466119571527
 20
-34.16104559655901
 10
2.742587178235908
 20
-35.60294719071249
 10
1.647916649894114
 20
-37.50000006536175
 10
0.0000000877653292
 20
-37.5
  0
LINE
  5
437B
330
4330
100
AcDbEntity
  8
KANAMONO_SCREW
370
    -3
100
AcDbLine
 10
0.303541315345683
 20
-35.60286677908925
 30
0.0
 11
2.742587178235908
 21
-35.60294719071249
 31
0.0
  0
LWPOLYLINE
  5
437C
330
4330
100
AcDbEntity
  8
KANAMONO_SCREW
370
    -3
100
AcDbPolyline
 90
        4
 70
     0
 43
0.0
 10
2.053378008476784
 20
-19.36340637648789
 42
-0.4141897041352463
 10
1.59359145704343
 20
-18.90809443507578
 10
1.593591460230982
 20
-18.22743324655255
 42
-0.279432028215579
 10
1.843138415527619
 20
-17.81893067494252
 42
-3.4148491111701
  0
LWPOLYLINE
  5
437D
330
4330
100
AcDbEntity
  8
KANAMONO_SCREW
370
    -3
100
AcDbPolyline
 90
        4
 70
     0
 43
0.0
 10
2.053378008476784
 20
-23.08178725221376
 42
-0.4141897041352463
 10
1.59359145704343
 20
-22.62647531080165
 10
1.593591460230982
 20
-21.94581412227842
 42
-0.279432028215579
 10
1.843138415527619
 20
-21.53731155066839
 42
-3.4148491111701
  0
LWPOLYLINE
  5
437E
330
4330
100
AcDbEntity
  8
KANAMONO_SCREW
370
    -3
100
AcDbPolyline
 90
        4
 70
     0
 43
0.0
 10
2.053378232737713
 20
-26.80016860245757
 42
-0.4141897041352463
 10
1.59359168130436
 20
-26.34485666104547
 10
1.593591684491912
 20
-25.66419547252224
 42
-0.279432028215579
 10
1.843138639788548
 20
-25.25569290091221
 42
-3.4148491111701
  0
LWPOLYLINE
  5
437F
330
4330
100
AcDbEntity
  8
KANAMONO_SCREW
370
    -3
100
AcDbPolyline
 90
        4
 70
     0
 43
0.0
 10
2.053378456998643
 20
-30.51854971544242
 42
-0.4141897041352463
 10
1.59359190556529
 20
-30.06323777403031
 10
1.593591908752841
 20
-29.38257658550708
 42
-0.279432028215579
 10
1.843138864049478
 20
-28.97407401389705
 42
-3.4148491111701
  0
LWPOLYLINE
  5
4380
330
4330
100
AcDbEntity
  8
KANAMONO_SCREW
370
    -3
100
AcDbPolyline
 90
        4
 70
     0
 43
0.0
 10
2.053378456998643
 20
-34.16104549959084
 42
-0.4141897041352463
 10
1.59359190556529
 20
-33.70573355817874
 10
1.593591908752841
 20
-33.02507236965551
 42
-0.279432028215579
 10
1.843138864049478
 20
-32.61656979804548
 42
-3.4148491111701
  0
LWPOLYLINE
  5
4381
330
4330
100
AcDbEntity
  8
KANAMONO_SCREW
370
    -3
100
AcDbPolyline
 90
        3
 70
     0
 43
0.0
 10
1.208052645906946
 20
-37.50000004791514
 10
1.208052645906718
 20
-33.99062720900065
 10
1.326266596907316
 20
-34.00178214530092
  0
LWPOLYLINE
  5
4382
330
4330
100
AcDbEntity
  8
KANAMONO_SCREW
370
    -3
100
AcDbPolyline
 90
        3
 70
     0
 43
0.0
 10
1.208052645906718
 20
-33.22577127329874
 10
1.2080526459481
 20
-30.36198442103751
 10
1.339752932205556
 20
-30.37321423333856
  0
LWPOLYLINE
  5
4383
330
4330
100
AcDbEntity
  8
KANAMONO_SCREW
370
    -3
100
AcDbPolyline
 90
        3
 70
     0
 43
0.0
 10
1.208052645906718
 20
-29.58327549010619
 10
1.208052645948555
 20
-26.64359457956107
 10
1.339736190247549
 20
-26.65481653477377
  0
LWPOLYLINE
  5
4384
330
4330
100
AcDbEntity
  8
KANAMONO_SCREW
370
    -3
100
AcDbPolyline
 90
        3
 70
     0
 43
0.0
 10
1.208052421646016
 20
-25.86489437712135
 10
1.208052421687398
 20
-22.92521346657634
 10
1.339735965989348
 20
-22.9364354217928
  0
LWPOLYLINE
  5
4385
330
4330
100
AcDbEntity
  8
KANAMONO_SCREW
370
    -3
100
AcDbPolyline
 90
        3
 70
     0
 43
0.0
 10
1.208052197385313
 20
-22.1465132641365
 10
1.208052197385313
 20
-19.2068323535882
 10
1.339735741728645
 20
-19.21805430880795
  0
LINE
  5
4386
330
4330
100
AcDbEntity
  8
KANAMONO_SCREW
370
    -3
100
AcDbLine
 10
-2.997465126966744
 20
-19.36340647345605
 30
0.0
 11
-2.997161603100039
 21
-19.36513957642205
 31
0.0
  0
LINE
  5
4387
330
4330
100
AcDbEntity
  8
KANAMONO_SCREW
370
    -3
100
AcDbLine
 10
-2.25
 20
-21.32551281565679
 30
0.0
 11
-2.25
 21
-23.0817875864409
 31
0.0
  0
LINE
  5
4388
330
4330
100
AcDbEntity
  8
KANAMONO_SCREW
370
    -3
100
AcDbLine
 10
-2.25
 20
-25.04389404538461
 30
0.0
 11
-2.25
 21
-26.80016869942574
 31
0.0
  0
LINE
  5
4389
330
4330
100
AcDbEntity
  8
KANAMONO_SCREW
370
    -3
100
AcDbLine
 10
-2.25
 20
-28.76227527511219
 30
0.0
 11
-2.25
 21
-30.51854981241059
 31
0.0
  0
LINE
  5
438A
330
4330
100
AcDbEntity
  8
KANAMONO_SCREW
370
    -3
100
AcDbLine
 10
-2.25
 20
-32.40477105926038
 30
0.0
 11
-2.25
 21
-34.16104559655901
 31
0.0
  0
LINE
  5
438B
330
4330
100
AcDbEntity
  8
KANAMONO_SCREW
370
    -3
100
AcDbLine
 10
-1.208052249623506
 20
-22.14651336424936
 30
0.0
 11
-1.208052249623506
 21
-22.62647554806063
 31
0.0
  0
LINE
  5
438C
330
4330
100
AcDbEntity
  8
KANAMONO_SCREW
370
    -3
100
AcDbLine
 10
-1.799999999999045
 20
-37.48695089633463
 30
0.0
 11
-1.764285714285506
 21
-37.73695089633475
 31
0.0
  0
LINE
  5
438D
330
4330
100
AcDbEntity
  8
KANAMONO_SCREW
370
    -3
100
AcDbLine
 10
-1.799999999999045
 20
-37.48695089633463
 30
0.0
 11
-1.665439312529542
 21
-37.46965023651717
 31
0.0
  0
LINE
  5
438E
330
4330
100
AcDbEntity
  8
KANAMONO_SCREW
370
    -3
100
AcDbLine
 10
-0.303541315345683
 20
-35.60286677908925
 30
0.0
 11
-2.742587178235908
 21
-35.60294719071249
 31
0.0
  0
LWPOLYLINE
  5
438F
330
4330
100
AcDbEntity
  8
KANAMONO_SCREW
370
    -3
100
AcDbPolyline
 90
        4
 70
     0
 43
0.0
 10
-2.053378008476784
 20
-19.36340637648789
 42
0.4141897041352463
 10
-1.59359145704343
 20
-18.90809443507578
 10
-1.593591460230982
 20
-18.22743324655255
 42
0.279432028215579
 10
-1.843138415527619
 20
-17.81893067494252
 42
3.4148491111701
  0
LWPOLYLINE
  5
4390
330
4330
100
AcDbEntity
  8
KANAMONO_SCREW
370
    -3
100
AcDbPolyline
 90
        4
 70
     0
 43
0.0
 10
-2.053378008476784
 20
-23.08178725221376
 42
0.4141897041352463
 10
-1.59359145704343
 20
-22.62647531080165
 10
-1.593591460230982
 20
-21.94581412227842
 42
0.279432028215579
 10
-1.843138415527619
 20
-21.53731155066839
 42
3.4148491111701
  0
LWPOLYLINE
  5
4391
330
4330
100
AcDbEntity
  8
KANAMONO_SCREW
370
    -3
100
AcDbPolyline
 90
        4
 70
     0
 43
0.0
 10
-2.053378232737713
 20
-26.80016860245757
 42
0.4141897041352463
 10
-1.59359168130436
 20
-26.34485666104547
 10
-1.593591684491912
 20
-25.66419547252224
 42
0.279432028215579
 10
-1.843138639788548
 20
-25.25569290091221
 42
3.4148491111701
  0
LWPOLYLINE
  5
4392
330
4330
100
AcDbEntity
  8
KANAMONO_SCREW
370
    -3
100
AcDbPolyline
 90
        4
 70
     0
 43
0.0
 10
-2.053378456998643
 20
-30.51854971544242
 42
0.4141897041352463
 10
-1.59359190556529
 20
-30.06323777403031
 10
-1.593591908752841
 20
-29.38257658550708
 42
0.279432028215579
 10
-1.843138864049478
 20
-28.97407401389705
 42
3.4148491111701
  0
LWPOLYLINE
  5
4393
330
4330
100
AcDbEntity
  8
KANAMONO_SCREW
370
    -3
100
AcDbPolyline
 90
        4
 70
     0
 43
0.0
 10
-2.053378456998643
 20
-34.16104549959084
 42
0.4141897041352463
 10
-1.59359190556529
 20
-33.70573355817874
 10
-1.593591908752841
 20
-33.02507236965551
 42
0.279432028215579
 10
-1.843138864049478
 20
-32.61656979804548
 42
3.4148491111701
  0
LWPOLYLINE
  5
4394
330
4330
100
AcDbEntity
  8
KANAMONO_SCREW
370
    -3
100
AcDbPolyline
 90
        3
 70
     0
 43
0.0
 10
-1.208052645906946
 20
-37.50000004791514
 10
-1.208052645906718
 20
-33.99062720900065
 10
-1.326266596907316
 20
-34.00178214530092
  0
LWPOLYLINE
  5
4395
330
4330
100
AcDbEntity
  8
KANAMONO_SCREW
370
    -3
100
AcDbPolyline
 90
        3
 70
     0
 43
0.0
 10
-1.208052645906718
 20
-33.22577127329874
 10
-1.2080526459481
 20
-30.36198442103751
 10
-1.339752932205556
 20
-30.37321423333856
  0
LWPOLYLINE
  5
4396
330
4330
100
AcDbEntity
  8
KANAMONO_SCREW
370
    -3
100
AcDbPolyline
 90
        3
 70
     0
 43
0.0
 10
-1.208052645906718
 20
-29.58327549010619
 10
-1.208052645948555
 20
-26.64359457956107
 10
-1.339736190247549
 20
-26.65481653477377
  0
LWPOLYLINE
  5
4397
330
4330
100
AcDbEntity
  8
KANAMONO_SCREW
370
    -3
100
AcDbPolyline
 90
        3
 70
     0
 43
0.0
 10
-1.208052421646016
 20
-25.86489437712135
 10
-1.208052421687398
 20
-22.92521346657634
 10
-1.339735965989348
 20
-22.9364354217928
  0
LWPOLYLINE
  5
4398
330
4330
100
AcDbEntity
  8
KANAMONO_SCREW
370
    -3
100
AcDbPolyline
 90
        3
 70
     0
 43
0.0
 10
-1.208052197385313
 20
-22.1465132641365
 10
-1.208052197385313
 20
-19.2068323535882
 10
-1.339735741728645
 20
-19.21805430880795
  0
LWPOLYLINE
  5
4399
330
4330
100
AcDbEntity
  8
KANAMONO_SCREW
370
    -3
100
AcDbPolyline
 90
       39
 70
     0
 43
0.0
 10
-2.99746484207867
 20
-15.95029838780647
 10
-2.750985602538321
 20
-17.34633203512806
 10
-1.488365588777696
 20
-18.00361077260277
 42
-0.2592004735663025
 10
-1.208047784078189
 20
-18.42813197952682
 10
-1.208047892040667
 20
-18.90809416333786
 42
-0.2036136011950793
 10
-1.339731453867898
 20
-19.21805400744915
 42
-0.1982842753974383
 10
-1.708093068958987
 20
-19.3634060892382
 10
-2.997466857926156
 20
-19.36340579920716
 10
-2.692048429753413
 20
-21.09539435054103
 10
-1.490605261590189
 20
-21.72082642048486
 42
-0.257920399275152
 10
-1.208048620488625
 20
-22.14651309251133
 10
-1.208048728451103
 20
-22.62647527632259
 42
-0.2036139203470236
 10
-1.339732514539036
 20
-22.93643512043388
 42
-0.1982836950201352
 10
-1.708094247168219
 20
-23.08178720222293
 10
-2.99746193247256
 20
-23.08178691219337
 10
-2.692049490424551
 20
-24.81377546352576
 10
-1.490606322261555
 20
-25.43920753346958
 42
-0.2579203992749133
 10
-1.208049681159764
 20
-25.86489420549594
 10
-1.208049789122242
 20
-26.34485638930721
 42
-0.2036139203458012
 10
-1.339733575207674
 20
-26.65481623341475
 42
-0.1982836950192671
 10
-1.708095307839357
 20
-26.80016831520766
 10
-2.997462993143699
 20
-26.80016802517798
 10
-2.692050551095917
 20
-28.53215657651038
 10
-1.490607382932694
 20
-29.15758864645431
 42
-0.257920399274954
 10
-1.208050741830902
 20
-29.58327531848068
 10
-1.208050797555188
 20
-30.06323756765369
 42
-0.2036275691502115
 10
-1.339751153579982
 20
-30.37321393197556
 42
-0.1982685003745556
 10
-1.708095745619857
 20
-30.51854942819239
 10
-2.997464053815065
 20
-30.51854913816271
 10
-2.706784051501244
 20
-32.16698300811834
 10
-1.490030829832221
 20
-32.80038499183638
 42
-0.2582492780404442
 10
-1.208051508933522
 20
-33.22577100251613
 10
-1.208051669134192
 20
-33.70573328644025
 42
-0.1922719400571094
 10
-1.326265634489573
 20
-34.00178184697143
 42
-0.2110160733286848
 10
-1.708218688208035
 20
-34.1610452123133
 10
-2.997465192978324
 20
-34.16104492231091
 10
-2.742586575983295
 20
-35.60294657379677
 10
-1.647916474363455
 20
-37.49999969468035
 10
0.0000000877651019
 20
-37.5
  0
ENDBLK
  5
439A
330
4330
100
AcDbEntity
  8
0
100
AcDbBlockEnd
  0
ENDSEC
  0
SECTION
  2
ENTITIES
  0
TEXT
  5
3F01
330
1F
100
AcDbEntity
  8
MOJI
100
AcDbText
 10
724.0634500685632
 20
455.8370602901693
 30
0.0
 40
10.0
  1
ＦＧボードＥ
  7
MSゴシック
 11
724.0634500685632
 21
460.8370602901693
 31
0.0
100
AcDbText
 73
     2
  0
CIRCLE
  5
3F03
102
{ACAD_REACTORS
330
3F04
102
}
330
1F
100
AcDbEntity
  8
MOJI
100
AcDbCircle
 10
669.3675875172551
 20
412.0003937880744
 30
0.0
 40
2.0
  0
HATCH
  5
3F04
330
1F
100
AcDbEntity
  8
MOJI
100
AcDbHatch
 10
0.0
 20
0.0
 30
0.0
210
0.0
220
0.0
230
1.0
  2
SOLID
 70
     1
 71
     1
 91
        1
 92
        1
 93
        1
 72
     2
 10
669.3675875172551
 20
412.0003937880744
 40
2.0
 50
0.0
 51
360.0
 73
     1
 97
        1
330
3F03
 75
     0
 76
     1
 98
        1
 10
-185.7475552126527
 20
-51.5877930751192
  0
TEXT
  5
3F05
330
1F
100
AcDbEntity
  8
MOJI
100
AcDbText
 10
725.2825778169353
 20
274.1885458088457
 30
0.0
 40
10.0
  1
ＡＰステイ
  7
MSゴシック
 11
725.2825778169353
 21
279.1885458088457
 31
0.0
100
AcDbText
 73
     2
  0
CIRCLE
  5
3F07
102
{ACAD_REACTORS
330
3F08
102
}
330
1F
100
AcDbEntity
  8
MOJI
100
AcDbCircle
 10
670.5867152656272
 20
230.3518793067508
 30
0.0
 40
2.0
  0
HATCH
  5
3F08
330
1F
100
AcDbEntity
  8
MOJI
100
AcDbHatch
 10
0.0
 20
0.0
 30
0.0
210
0.0
220
0.0
230
1.0
  2
SOLID
 70
     1
 71
     1
 91
        1
 92
        1
 93
        1
 72
     2
 10
670.5867152656272
 20
230.3518793067508
 40
2.0
 50
0.0
 51
360.0
 73
     1
 97
        1
330
3F07
 75
     0
 76
     1
 98
        1
 10
-184.5284274642806
 20
-233.2363075564428
  0
TEXT
  5
3F09
330
1F
100
AcDbEntity
  8
MOJI
100
AcDbText
 10
730.0376469136458
 20
262.4743972520539
 30
0.0
 40
10.0
  1
アンダーステイＵ
  7
MSゴシック
 11
730.0376469136458
 21
267.4743972520539
 31
0.0
100
AcDbText
 73
     2
  0
CIRCLE
  5
3F0B
102
{ACAD_REACTORS
330
3F0C
102
}
330
1F
100
AcDbEntity
  8
MOJI
100
AcDbCircle
 10
675.3417843623376
 20
218.637730749959
 30
0.0
 40
2.0
  0
HATCH
  5
3F0C
330
1F
100
AcDbEntity
  8
MOJI
100
AcDbHatch
 10
0.0
 20
0.0
 30
0.0
210
0.0
220
0.0
230
1.0
  2
SOLID
 70
     1
 71
     1
 91
        1
 92
        1
 93
        1
 72
     2
 10
675.3417843623376
 20
218.637730749959
 40
2.0
 50
0.0
 51
360.0
 73
     1
 97
        1
330
3F0B
 75
     0
 76
     1
 98
        1
 10
-179.7733583675701
 20
-244.9504561132346
  0
TEXT
  5
3F0D
330
1F
100
AcDbEntity
  8
MOJI
100
AcDbText
 10
723.9735874817265
 20
598.7088302478643
 30
0.0
 40
10.0
  1
ＡＰ－ＦＧ－Ｅホルダー（打込）
  7
MSゴシック
 11
723.9735874817265
 21
603.7088302478643
 31
0.0
100
AcDbText
 73
     2
  0
CIRCLE
  5
3F0F
102
{ACAD_REACTORS
330
3F10
102
}
330
1F
100
AcDbEntity
  8
MOJI
100
AcDbCircle
 10
669.2777249304183
 20
652.5454967499593
 30
0.0
 40
2.0
  0
HATCH
  5
3F10
330
1F
100
AcDbEntity
  8
MOJI
100
AcDbHatch
 10
0.0
 20
0.0
 30
0.0
210
0.0
220
0.0
230
1.0
  2
SOLID
 70
     1
 71
     1
 91
        1
 92
        1
 93
        1
 72
     2
 10
669.2777249304183
 20
652.5454967499593
 40
2.0
 50
0.0
 51
360.0
 73
     1
 97
        1
330
3F0F
 75
     0
 76
     1
 98
        1
 10
-185.8374177994894
 20
1116.133683613153
  0
TEXT
  5
3F11
330
1F
100
AcDbEntity
  8
MOJI
100
AcDbText
 10
743.1196261067847
 20
484.4615987852055
 30
0.0
 40
10.0
  1
（防水層）
  7
MSゴシック
 11
743.1196261067847
 21
489.4615987852055
 31
0.0
100
AcDbText
 73
     2
  0
CIRCLE
  5
3F13
102
{ACAD_REACTORS
330
3F14
102
}
330
1F
100
AcDbEntity
  8
MOJI
100
AcDbCircle
 10
588.9549654277527
 20
576.9237973566912
 30
0.0
 40
2.0
  0
HATCH
  5
3F14
330
1F
100
AcDbEntity
  8
MOJI
100
AcDbHatch
 10
0.0
 20
0.0
 30
0.0
210
0.0
220
0.0
230
1.0
  2
SOLID
 70
     1
 71
     1
 91
        1
 92
        1
 93
        1
 72
     2
 10
588.9549654277527
 20
576.9237973566912
 40
2.0
 50
0.0
 51
360.0
 73
     1
 97
        1
330
3F13
 75
     0
 76
     1
 98
        1
 10
-266.160177302155
 20
1040.511984219885
  0
LINE
  5
3F18
330
1F
100
AcDbEntity
  8
KUTAI
100
AcDbLine
 10
583.7777249304179
 20
625.637730749959
 30
0.0
 11
603.7777249304179
 21
625.637730749959
 31
0.0
  0
LINE
  5
3F19
330
1F
100
AcDbEntity
  8
hide-1
100
AcDbLine
 10
583.7777249304179
 20
625.637730749959
 30
0.0
 11
583.7777249304179
 21
147.4999999999999
 31
0.0
  0
LINE
  5
3F1A
330
1F
100
AcDbEntity
  8
hide-2
100
AcDbLine
 10
593.7777249304178
 20
614.2406964810072
 30
0.0
 11
583.7777249304179
 21
614.2406964810072
 31
0.0
  0
LINE
  5
3F1B
330
1F
100
AcDbEntity
  8
hide-1
100
AcDbLine
 10
863.8598960775723
 20
215.637730749959
 30
0.0
 11
593.7777249304178
 21
215.637730749959
 31
0.0
  0
ARC
  5
3F1F
330
1F
100
AcDbEntity
  8
hide-2
100
AcDbCircle
 10
608.2994591761392
 20
619.8131165937343
 30
0.0
 40
7.373751464337043
100
AcDbArc
 50
127.8227192168137
 51
229.0874751290671
  0
LINE
  5
3F20
330
1F
100
AcDbEntity
  8
hide-1
100
AcDbLine
 10
583.7777249304179
 20
625.637730749959
 30
0.0
 11
652.9812404304177
 21
625.637730749959
 31
0.0
  0
LINE
  5
3F22
330
1F
100
AcDbEntity
  8
hide-1
100
AcDbLine
 10
723.7777249304179
 20
625.637730749959
 30
0.0
 11
733.7777249304179
 21
635.637730749959
 31
0.0
  0
LINE
  5
3F24
330
1F
100
AcDbEntity
  8
hide-1
100
AcDbLine
 10
685.574209430418
 20
625.637730749959
 30
0.0
 11
723.7777249304179
 21
625.637730749959
 31
0.0
  0
LINE
  5
3F2A
330
1F
100
AcDbEntity
  8
hide-1
100
AcDbLine
 10
733.7777249304179
 20
635.637730749959
 30
0.0
 11
733.7777249304179
 21
747.5
 31
0.0
  0
LINE
  5
3F2B
330
1F
100
AcDbEntity
  8
hide-2
100
AcDbLine
 10
593.7777249304178
 20
147.4999999999999
 30
0.0
 11
593.7777249304178
 21
584.5406964810072
 31
0.0
  0
LINE
  5
400F
330
1F
100
AcDbEntity
  8
0
100
AcDbLine
 10
0.0
 20
924.9999999999989
 30
0.0
 11
1380.0
 21
924.9999999999973
 31
0.0
  0
TEXT
  5
4010
330
1F
100
AcDbEntity
  8
WAKU
100
AcDbText
 10
1333.515228426396
 20
929.9999999999998
 30
0.0
 40
15.0
  1
ap-4
  7
MSゴシック
 72
     2
 11
1372.5
 21
929.9999999999998
 31
0.0
100
AcDbText
  0
TEXT
  5
4012
330
1F
100
AcDbEntity
  8
WAKU
100
AcDbText
 10
7.5
 20
929.9999999999998
 30
0.0
 40
20.0
  1
アルミ雨仕舞材／立上り乾式保護
  7
MSゴシック
100
AcDbText
  0
TEXT
  5
4013
330
1F
100
AcDbEntity
  8
WAKU
100
AcDbText
 10
7.5
 20
900.0000000000019
 30
0.0
 40
15.0
  1
ＡＰ-ＦＧ-Ｅ／アゴ下取付タイプ
  7
MSゴシック
100
AcDbText
  0
TEXT
  5
4014
330
1F
100
AcDbEntity
  8
WAKU
100
AcDbText
 10
1304.276649746193
 20
900.0000000000023
 30
0.0
 40
15.0
  1
1/5(A4)
  7
MSゴシック
 72
     2
 11
1372.5
 21
900.0000000000023
 31
0.0
100
AcDbText
  0
LINE
  5
43F8
330
1F
100
AcDbEntity
  8
0
100
AcDbLine
 10
239.9999999999999
 20
147.4999999999999
 30
0.0
 11
1140.0
 21
147.4999999999999
 31
0.0
  0
LINE
  5
43F9
330
1F
100
AcDbEntity
  8
0
100
AcDbLine
 10
1140.0
 20
147.4999999999999
 30
0.0
 11
1140.0
 21
747.5
 31
0.0
  0
LINE
  5
43FA
330
1F
100
AcDbEntity
  8
0
100
AcDbLine
 10
1140.0
 20
747.5
 30
0.0
 11
239.9999999999999
 21
747.5
 31
0.0
  0
LINE
  5
43FB
330
1F
100
AcDbEntity
  8
0
100
AcDbLine
 10
239.9999999999999
 20
747.5
 30
0.0
 11
239.9999999999999
 21
147.4999999999999
 31
0.0
  0
LINE
  5
43FC
330
1F
100
AcDbEntity
  8
MOJI
100
AcDbLine
 10
722.5634500685632
 20
460.8370602901693
 30
0.0
 11
697.5634500685633
 21
460.8370602901693
 31
0.0
  0
LINE
  5
43FD
330
1F
100
AcDbEntity
  8
MOJI
100
AcDbLine
 10
697.5634500685633
 20
460.8370602901693
 30
0.0
 11
669.3675875172551
 21
412.0003937880744
 31
0.0
  0
LINE
  5
43FE
330
1F
100
AcDbEntity
  8
MOJI
100
AcDbLine
 10
723.7825778169353
 20
279.1885458088457
 30
0.0
 11
698.7825778169354
 21
279.1885458088457
 31
0.0
  0
LINE
  5
43FF
330
1F
100
AcDbEntity
  8
MOJI
100
AcDbLine
 10
698.7825778169354
 20
279.1885458088457
 30
0.0
 11
670.5867152656272
 21
230.3518793067508
 31
0.0
  0
LINE
  5
4400
330
1F
100
AcDbEntity
  8
MOJI
100
AcDbLine
 10
728.5376469136458
 20
267.4743972520539
 30
0.0
 11
703.5376469136459
 21
267.4743972520539
 31
0.0
  0
LINE
  5
4401
330
1F
100
AcDbEntity
  8
MOJI
100
AcDbLine
 10
703.5376469136459
 20
267.4743972520539
 30
0.0
 11
675.3417843623376
 21
218.637730749959
 31
0.0
  0
LINE
  5
4402
330
1F
100
AcDbEntity
  8
MOJI
100
AcDbLine
 10
722.4735874817265
 20
603.7088302478643
 30
0.0
 11
697.4735874817266
 21
603.7088302478643
 31
0.0
  0
LINE
  5
4403
330
1F
100
AcDbEntity
  8
MOJI
100
AcDbLine
 10
697.4735874817266
 20
603.7088302478643
 30
0.0
 11
669.2777249304183
 21
652.5454967499593
 31
0.0
  0
LINE
  5
4404
330
1F
100
AcDbEntity
  8
MOJI
100
AcDbLine
 10
741.6196261067845
 20
489.4615987852055
 30
0.0
 11
639.4512893169165
 21
489.4615987852055
 31
0.0
  0
LINE
  5
4405
330
1F
100
AcDbEntity
  8
MOJI
100
AcDbLine
 10
639.4512893169165
 20
489.4615987852055
 30
0.0
 11
588.9549654277527
 21
576.9237973566912
 31
0.0
  0
LINE
  5
4406
330
1F
100
AcDbEntity
  8
KANAMONO
100
AcDbLine
 10
659.2777249304174
 20
215.9377307499589
 30
0.0
 11
659.2777249304174
 21
218.3377307499593
 31
0.0
  0
ARC
  5
4407
330
1F
100
AcDbEntity
  8
KANAMONO
100
AcDbCircle
 10
659.5777249304176
 20
218.337730749959
 30
0.0
 40
0.3000000000001819
100
AcDbArc
 50
90.0
 51
179.9999999999566
  0
LINE
  5
4408
330
1F
100
AcDbEntity
  8
KANAMONO
100
AcDbLine
 10
659.5777249304176
 20
218.6377307499592
 30
0.0
 11
660.2777249304174
 21
218.6377307499592
 31
0.0
  0
ARC
  5
4409
330
1F
100
AcDbEntity
  8
KANAMONO
100
AcDbCircle
 10
660.2777249304178
 20
219.2377307499591
 30
0.0
 40
0.5999999999998522
100
AcDbArc
 50
269.9999999999566
 51
70.52877937206222
  0
ARC
  5
440A
330
1F
100
AcDbEntity
  8
KANAMONO
100
AcDbCircle
 10
660.565101627778
 20
220.0773328644975
 30
0.0
 40
0.2875152866821686
100
AcDbArc
 50
178.2209445231322
 51
252.3078347706447
  0
LINE
  5
440B
330
1F
100
AcDbEntity
  8
KANAMONO
100
AcDbLine
 10
660.2777249304174
 20
220.0862588876903
 30
0.0
 11
660.2777249304174
 21
224.0546908584094
 31
0.0
  0
ARC
  5
440C
330
1F
100
AcDbEntity
  8
KANAMONO
100
AcDbCircle
 10
665.2196953524464
 20
224.0730043581165
 30
0.0
 40
4.942004354154439
100
AcDbArc
 50
144.7574276381629
 51
180.2123204610175
  0
ARC
  5
440D
330
1F
100
AcDbEntity
  8
KANAMONO
100
AcDbCircle
 10
661.5929040502845
 20
226.6377307499592
 30
0.0
 40
0.5000000000000659
100
AcDbArc
 50
48.59037789073025
 51
144.9697480991988
  0
ARC
  5
440E
330
1F
100
AcDbEntity
  8
KANAMONO
100
AcDbCircle
 10
661.5929040502845
 20
226.6377307499591
 30
0.0
 40
0.5000000000001519
100
AcDbArc
 50
324.9697480991593
 51
48.5903778907291
  0
ARC
  5
440F
330
1F
100
AcDbEntity
  8
KANAMONO
100
AcDbCircle
 10
665.2034938708423
 20
224.0781173683944
 30
0.0
 40
3.925838837111705
100
AcDbArc
 50
144.627847126547
 51
180.3419009726267
  0
LINE
  5
4410
330
1F
100
AcDbEntity
  8
KANAMONO
100
AcDbLine
 10
661.2777249304174
 20
224.0546908584094
 30
0.0
 11
661.2777249304174
 21
220.6233713957988
 31
0.0
  0
ARC
  5
4411
330
1F
100
AcDbEntity
  8
KANAMONO
100
AcDbCircle
 10
661.5939052161709
 20
220.6303776652764
 30
0.0
 40
0.3162579025275922
100
AcDbArc
 50
181.2694149653249
 51
225.5570339922295
  0
ARC
  5
4412
330
1F
100
AcDbEntity
  8
KANAMONO
100
AcDbCircle
 10
660.2777249304178
 20
219.2377307499592
 30
0.0
 40
1.5999999999995
100
AcDbArc
 50
350.9152797118447
 51
46.8264488883038
  0
ARC
  5
4413
330
1F
100
AcDbEntity
  8
KANAMONO
100
AcDbCircle
 10
662.1460164173305
 20
218.9310150834463
 30
0.0
 40
0.2933900356342409
100
AcDbArc
 50
169.3772316665701
 51
271.5380480197393
  0
LINE
  5
4414
330
1F
100
AcDbEntity
  8
KANAMONO
100
AcDbLine
 10
662.1538912341877
 20
218.6377307499592
 30
0.0
 11
676.4015586266471
 21
218.6377307499592
 31
0.0
  0
ARC
  5
4415
330
1F
100
AcDbEntity
  8
KANAMONO
100
AcDbCircle
 10
676.4050022183908
 20
218.9347940449186
 30
0.0
 40
0.2970832535439065
100
AcDbArc
 50
269.3358505084343
 51
9.748869805267906
  0
ARC
  5
4416
330
1F
100
AcDbEntity
  8
KANAMONO
100
AcDbCircle
 10
678.2777249304169
 20
219.2377307499592
 30
0.0
 40
1.599999999999493
100
AcDbArc
 50
133.1735511116962
 51
189.0847202881553
  0
ARC
  5
4417
330
1F
100
AcDbEntity
  8
KANAMONO
100
AcDbCircle
 10
676.9313788608899
 20
220.6434398328334
 30
0.0
 40
0.3469269981453682
100
AcDbArc
 50
316.4897500689792
 51
356.6838009734671
  0
LINE
  5
4418
330
1F
100
AcDbEntity
  8
KANAMONO
100
AcDbLine
 10
677.2777249304174
 20
220.6233713957988
 30
0.0
 11
677.2777249304174
 21
224.0546908584094
 31
0.0
  0
ARC
  5
4419
330
1F
100
AcDbEntity
  8
KANAMONO
100
AcDbCircle
 10
673.2777249304174
 20
224.0546908584093
 30
0.0
 40
4.0
100
AcDbArc
 50
0.0000000000020356
 51
35.0302519008248
  0
ARC
  5
441A
330
1F
100
AcDbEntity
  8
KANAMONO
100
AcDbCircle
 10
676.9625458105504
 20
226.6377307499591
 30
0.0
 40
0.5000000000001686
100
AcDbArc
 50
131.4096221092709
 51
215.0302519008407
  0
LINE
  5
441B
330
1F
100
AcDbEntity
  8
KANAMONO
100
AcDbLine
 10
676.6318268966672
 20
227.0127307499592
 30
0.0
 11
676.6318268966672
 21
227.0127307499592
 31
0.0
  0
ARC
  5
441C
330
1F
100
AcDbEntity
  8
KANAMONO
100
AcDbCircle
 10
676.9625458105503
 20
226.6377307499592
 30
0.0
 40
0.4999999999999914
100
AcDbArc
 50
35.03025190080124
 51
131.4096221092697
  0
ARC
  5
441D
330
1F
100
AcDbEntity
  8
KANAMONO
100
AcDbCircle
 10
673.2777249304174
 20
224.0546908584096
 30
0.0
 40
5.000000000000007
100
AcDbArc
 50
359.9999999999974
 51
35.03025190082238
  0
LINE
  5
441E
330
1F
100
AcDbEntity
  8
KANAMONO
100
AcDbLine
 10
678.2777249304174
 20
224.0546908584094
 30
0.0
 11
678.2777249304169
 21
220.0862588876903
 31
0.0
  0
ARC
  5
441F
330
1F
100
AcDbEntity
  8
KANAMONO
100
AcDbCircle
 10
677.967020638828
 20
220.093827964543
 30
0.0
 40
0.3107964731719918
100
AcDbArc
 50
290.8667289466483
 51
358.6044917596816
  0
ARC
  5
4420
330
1F
100
AcDbEntity
  8
KANAMONO
100
AcDbCircle
 10
678.2777249304169
 20
219.2377307499591
 30
0.0
 40
0.5999999999998238
100
AcDbArc
 50
109.4712206279377
 51
270.0000000000434
  0
LINE
  5
4421
330
1F
100
AcDbEntity
  8
KANAMONO
100
AcDbLine
 10
678.2777249304174
 20
218.6377307499592
 30
0.0
 11
679.2777249304174
 21
218.6377307499592
 31
0.0
  0
LINE
  5
4422
330
1F
100
AcDbEntity
  8
KANAMONO
100
AcDbLine
 10
679.2777249304174
 20
218.6377307499592
 30
0.0
 11
679.2777249304179
 21
215.9377307499592
 31
0.0
  0
ARC
  5
4423
330
1F
100
AcDbEntity
  8
KANAMONO
100
AcDbCircle
 10
678.9777249304177
 20
215.9377307499594
 30
0.0
 40
0.3000000000001819
100
AcDbArc
 50
270.0
 51
359.9999999999566
  0
LINE
  5
4424
330
1F
100
AcDbEntity
  8
KANAMONO
100
AcDbLine
 10
678.9777249304177
 20
215.6377307499592
 30
0.0
 11
678.2777249304174
 21
215.637730749959
 31
0.0
  0
ARC
  5
4425
330
1F
100
AcDbEntity
  8
KANAMONO
100
AcDbCircle
 10
678.2777249304173
 20
215.9377307499591
 30
0.0
 40
0.3000000000000682
100
AcDbArc
 50
180.0000000000217
 51
270.0000000000216
  0
LINE
  5
4426
330
1F
100
AcDbEntity
  8
KANAMONO
100
AcDbLine
 10
677.9777249304173
 20
215.9377307499589
 30
0.0
 11
677.9777249304173
 21
217.6377307499592
 31
0.0
  0
LINE
  5
4427
330
1F
100
AcDbEntity
  8
KANAMONO
100
AcDbLine
 10
677.9777249304173
 20
217.6377307499592
 30
0.0
 11
669.7359824999132
 21
217.6377307499595
 31
0.0
  0
ARC
  5
4428
330
1F
100
AcDbEntity
  8
KANAMONO
100
AcDbCircle
 10
669.2777249304174
 20
217.4377307499594
 30
0.0
 40
0.5000000000002158
100
AcDbArc
 50
23.57817847819673
 51
156.4218215218032
  0
LINE
  5
4429
330
1F
100
AcDbEntity
  8
KANAMONO
100
AcDbLine
 10
668.8194673609216
 20
217.6377307499595
 30
0.0
 11
660.5777249304171
 21
217.6377307499592
 31
0.0
  0
LINE
  5
442A
330
1F
100
AcDbEntity
  8
KANAMONO
100
AcDbLine
 10
660.5777249304171
 20
217.6377307499592
 30
0.0
 11
660.5777249304176
 21
215.9377307499592
 31
0.0
  0
ARC
  5
442B
330
1F
100
AcDbEntity
  8
KANAMONO
100
AcDbCircle
 10
660.2777249304174
 20
215.9377307499594
 30
0.0
 40
0.3000000000001819
100
AcDbArc
 50
270.0
 51
359.9999999999566
  0
LINE
  5
442C
330
1F
100
AcDbEntity
  8
KANAMONO
100
AcDbLine
 10
660.2777249304174
 20
215.6377307499592
 30
0.0
 11
659.5777249304176
 21
215.637730749959
 31
0.0
  0
ARC
  5
442D
330
1F
100
AcDbEntity
  8
KANAMONO
100
AcDbCircle
 10
659.5777249304175
 20
215.9377307499591
 30
0.0
 40
0.3000000000000682
100
AcDbArc
 50
180.0000000000217
 51
270.0000000000216
  0
ARC
  5
442E
330
1F
100
AcDbEntity
  8
KANAMONO
100
AcDbCircle
 10
660.2777249304176
 20
219.2377307499589
 30
0.0
 40
0.5999999999999091
100
AcDbArc
 50
269.9999999999783
 51
90.00000000006513
  0
LINE
  5
442F
330
1F
100
AcDbEntity
  8
KANAMONO
100
AcDbLine
 10
660.2777249304174
 20
218.637730749959
 30
0.0
 11
659.5777249304167
 21
218.6377307499592
 31
0.0
  0
ARC
  5
4430
330
1F
100
AcDbEntity
  8
KANAMONO
100
AcDbCircle
 10
659.5777249304165
 20
218.9377307499593
 30
0.0
 40
0.3000000000000682
100
AcDbArc
 50
180.0000000000217
 51
270.0000000000216
  0
LINE
  5
4431
330
1F
100
AcDbEntity
  8
KANAMONO
100
AcDbLine
 10
659.2777249304165
 20
218.9377307499592
 30
0.0
 11
659.2777249304174
 21
244.137730749959
 31
0.0
  0
ARC
  5
4432
330
1F
100
AcDbEntity
  8
KANAMONO
100
AcDbCircle
 10
659.7777249304174
 20
244.137730749959
 30
0.0
 40
0.5
100
AcDbArc
 50
90.0
 51
180.0
  0
LINE
  5
4433
330
1F
100
AcDbEntity
  8
KANAMONO
100
AcDbLine
 10
659.7777249304174
 20
244.637730749959
 30
0.0
 11
659.7777249304165
 21
244.637730749959
 31
0.0
  0
ARC
  5
4434
330
1F
100
AcDbEntity
  8
KANAMONO
100
AcDbCircle
 10
659.7777249304165
 20
244.137730749959
 30
0.0
 40
0.5
100
AcDbArc
 50
0.0
 51
90.0
  0
LINE
  5
4435
330
1F
100
AcDbEntity
  8
KANAMONO
100
AcDbLine
 10
660.2777249304165
 20
244.137730749959
 30
0.0
 11
660.2777249304174
 21
229.637730749959
 31
0.0
  0
LINE
  5
4436
330
1F
100
AcDbEntity
  8
KANAMONO
100
AcDbLine
 10
660.2777249304174
 20
229.637730749959
 30
0.0
 11
663.777724930417
 21
229.6377307499588
 31
0.0
  0
LINE
  5
4437
330
1F
100
AcDbEntity
  8
KANAMONO
100
AcDbLine
 10
663.777724930417
 20
229.6377307499588
 30
0.0
 11
663.7777249304174
 21
237.137730749959
 31
0.0
  0
ARC
  5
4438
330
1F
100
AcDbEntity
  8
KANAMONO
100
AcDbCircle
 10
664.2777249304174
 20
237.137730749959
 30
0.0
 40
0.5
100
AcDbArc
 50
90.0
 51
180.0
  0
LINE
  5
4439
330
1F
100
AcDbEntity
  8
KANAMONO
100
AcDbLine
 10
664.2777249304174
 20
237.637730749959
 30
0.0
 11
664.2777249304174
 21
237.637730749959
 31
0.0
  0
ARC
  5
443A
330
1F
100
AcDbEntity
  8
KANAMONO
100
AcDbCircle
 10
664.2777249304174
 20
237.137730749959
 30
0.0
 40
0.5
100
AcDbArc
 50
0.0
 51
90.0
  0
LINE
  5
443B
330
1F
100
AcDbEntity
  8
KANAMONO
100
AcDbLine
 10
664.7777249304174
 20
237.137730749959
 30
0.0
 11
664.7777249304174
 21
229.637730749959
 31
0.0
  0
LINE
  5
443C
330
1F
100
AcDbEntity
  8
KANAMONO
100
AcDbLine
 10
664.7777249304174
 20
229.637730749959
 30
0.0
 11
678.2777249304174
 21
229.637730749959
 31
0.0
  0
LINE
  5
443D
330
1F
100
AcDbEntity
  8
KANAMONO
100
AcDbLine
 10
678.2777249304174
 20
229.637730749959
 30
0.0
 11
678.2777249304174
 21
236.637730749959
 31
0.0
  0
LINE
  5
443E
330
1F
100
AcDbEntity
  8
KANAMONO
100
AcDbLine
 10
678.2777249304174
 20
236.637730749959
 30
0.0
 11
673.5777249304171
 21
236.637730749959
 31
0.0
  0
ARC
  5
443F
330
1F
100
AcDbEntity
  8
KANAMONO
100
AcDbCircle
 10
673.577724930417
 20
236.9377307499591
 30
0.0
 40
0.3000000000000682
100
AcDbArc
 50
180.0000000000217
 51
270.0000000000216
  0
LINE
  5
4440
330
1F
100
AcDbEntity
  8
KANAMONO
100
AcDbLine
 10
673.2777249304169
 20
236.9377307499589
 30
0.0
 11
673.2777249304169
 21
237.337730749959
 31
0.0
  0
ARC
  5
4441
330
1F
100
AcDbEntity
  8
KANAMONO
100
AcDbCircle
 10
673.577724930417
 20
237.3377307499589
 30
0.0
 40
0.3000000000000682
100
AcDbArc
 50
89.99999999997831
 51
179.9999999999783
  0
LINE
  5
4442
330
1F
100
AcDbEntity
  8
KANAMONO
100
AcDbLine
 10
673.5777249304171
 20
237.637730749959
 30
0.0
 11
678.2777249304174
 21
237.637730749959
 31
0.0
  0
LINE
  5
4443
330
1F
100
AcDbEntity
  8
KANAMONO
100
AcDbLine
 10
678.2777249304174
 20
237.637730749959
 30
0.0
 11
678.2777249304169
 21
244.137730749959
 31
0.0
  0
ARC
  5
4444
330
1F
100
AcDbEntity
  8
KANAMONO
100
AcDbCircle
 10
678.777724930417
 20
244.137730749959
 30
0.0
 40
0.5
100
AcDbArc
 50
90.0
 51
180.0000000000032
  0
LINE
  5
4445
330
1F
100
AcDbEntity
  8
KANAMONO
100
AcDbLine
 10
678.777724930417
 20
244.637730749959
 30
0.0
 11
678.7777249304174
 21
244.637730749959
 31
0.0
  0
ARC
  5
4446
330
1F
100
AcDbEntity
  8
KANAMONO
100
AcDbCircle
 10
678.7777249304174
 20
244.137730749959
 30
0.0
 40
0.5
100
AcDbArc
 50
0.0
 51
90.0
  0
LINE
  5
4447
330
1F
100
AcDbEntity
  8
KANAMONO
100
AcDbLine
 10
679.2777249304174
 20
244.137730749959
 30
0.0
 11
679.2777249304174
 21
218.937730749959
 31
0.0
  0
ARC
  5
4448
330
1F
100
AcDbEntity
  8
KANAMONO
100
AcDbCircle
 10
678.9777249304173
 20
218.9377307499591
 30
0.0
 40
0.3000000000000682
100
AcDbArc
 50
269.9999999999783
 51
359.9999999999783
  0
LINE
  5
4449
330
1F
100
AcDbEntity
  8
KANAMONO
100
AcDbLine
 10
678.9777249304172
 20
218.637730749959
 30
0.0
 11
678.2777249304169
 21
218.637730749959
 31
0.0
  0
ARC
  5
444A
330
1F
100
AcDbEntity
  8
KANAMONO
100
AcDbCircle
 10
678.2777249304165
 20
219.2377307499589
 30
0.0
 40
0.5999999999999091
100
AcDbArc
 50
89.99999999995656
 51
270.0000000000434
  0
LINE
  5
444B
330
1F
100
AcDbEntity
  8
KANAMONO
100
AcDbLine
 10
678.2777249304169
 20
219.8377307499588
 30
0.0
 11
678.2777249304169
 21
228.637730749959
 31
0.0
  0
LINE
  5
444C
330
1F
100
AcDbEntity
  8
KANAMONO
100
AcDbLine
 10
678.2777249304169
 20
228.637730749959
 30
0.0
 11
660.2777249304174
 21
228.637730749959
 31
0.0
  0
LINE
  5
444D
330
1F
100
AcDbEntity
  8
KANAMONO
100
AcDbLine
 10
660.2777249304174
 20
228.637730749959
 30
0.0
 11
660.2777249304169
 21
219.8377307499588
 31
0.0
  0
LINE
  5
444E
330
1F
100
AcDbEntity
  8
BUHIN
100
AcDbLine
 10
676.7777249304174
 20
237.637730749959
 30
0.0
 11
661.7777249304174
 21
237.637730749959
 31
0.0
  0
LINE
  5
444F
330
1F
100
AcDbEntity
  8
BUHIN
100
AcDbLine
 10
661.7777249304174
 20
237.637730749959
 30
0.0
 11
661.7777249304179
 21
639.5454967499593
 31
0.0
  0
LINE
  5
4450
330
1F
100
AcDbEntity
  8
BUHIN
100
AcDbLine
 10
661.7777249304179
 20
639.5454967499593
 30
0.0
 11
676.7777249304178
 21
639.5454967499593
 31
0.0
  0
LINE
  5
4451
330
1F
100
AcDbEntity
  8
BUHIN
100
AcDbLine
 10
676.7777249304178
 20
639.5454967499593
 30
0.0
 11
676.7777249304174
 21
237.637730749959
 31
0.0
  0
LINE
  5
4452
330
1F
100
AcDbEntity
  8
hide-2
100
AcDbLine
 10
593.7777249304178
 20
614.2406964810072
 30
0.0
 11
603.470344894504
 21
614.2406964810072
 31
0.0
  0
ARC
  5
4453
330
1F
100
AcDbEntity
  8
hide-2
100
AcDbCircle
 10
603.4703448945038
 20
613.9406964810074
 30
0.0
 40
0.2999999999998408
100
AcDbArc
 50
359.9999999999783
 51
89.99999999997831
  0
LINE
  5
4454
330
1F
100
AcDbEntity
  8
hide-2
100
AcDbLine
 10
603.7703448945038
 20
613.9406964810072
 30
0.0
 11
603.7703448945038
 21
613.0406964810072
 31
0.0
  0
ARC
  5
4455
330
1F
100
AcDbEntity
  8
hide-2
100
AcDbCircle
 10
603.4703448945038
 20
613.040696481007
 30
0.0
 40
0.2999999999998408
100
AcDbArc
 50
270.0000000000216
 51
0.0000000000217126
  0
LINE
  5
4456
330
1F
100
AcDbEntity
  8
hide-2
100
AcDbLine
 10
603.470344894504
 20
612.7406964810072
 30
0.0
 11
595.2777249304179
 21
612.7406964810072
 31
0.0
  0
LINE
  5
4457
330
1F
100
AcDbEntity
  8
hide-2
100
AcDbLine
 10
595.2777249304179
 20
612.7406964810072
 30
0.0
 11
595.2777249304179
 21
598.8488005360311
 31
0.0
  0
LINE
  5
4458
330
1F
100
AcDbEntity
  8
hide-2
100
AcDbLine
 10
595.2777249304179
 20
598.8488005360311
 30
0.0
 11
594.9299065998332
 21
598.4698170600684
 31
0.0
  0
LINE
  5
4459
330
1F
100
AcDbEntity
  8
hide-2
100
AcDbLine
 10
594.9299065998332
 20
598.4698170600684
 30
0.0
 11
595.2777249304179
 21
598.1336081684442
 31
0.0
  0
LINE
  5
445A
330
1F
100
AcDbEntity
  8
hide-2
100
AcDbLine
 10
595.2777249304179
 20
598.1336081684442
 30
0.0
 11
595.2777249304179
 21
584.5406964810072
 31
0.0
  0
ARC
  5
445B
330
1F
100
AcDbEntity
  8
hide-2
100
AcDbCircle
 10
594.9777249304178
 20
584.5406964810073
 30
0.0
 40
0.3000000000000682
100
AcDbArc
 50
269.9999999999783
 51
359.9999999999783
  0
LINE
  5
445C
330
1F
100
AcDbEntity
  8
hide-2
100
AcDbLine
 10
594.9777249304177
 20
584.2406964810073
 30
0.0
 11
594.0777249304176
 21
584.2406964810073
 31
0.0
  0
ARC
  5
445D
330
1F
100
AcDbEntity
  8
hide-2
100
AcDbCircle
 10
594.0777249304177
 20
584.5406964810071
 30
0.0
 40
0.2999999999998408
100
AcDbArc
 50
179.9999999999783
 51
269.9999999999783
  0
LINE
  5
445E
330
1F
100
AcDbEntity
  8
hide-2
100
AcDbLine
 10
593.7777249304178
 20
584.5406964810072
 30
0.0
 11
593.7777249304178
 21
587.7406964810072
 31
0.0
  0
LINE
  5
445F
330
1F
100
AcDbEntity
  8
hide-2
100
AcDbLine
 10
593.7777249304178
 20
587.7406964810072
 30
0.0
 11
592.9777249304176
 21
588.4906964810072
 31
0.0
  0
LINE
  5
4460
330
1F
100
AcDbEntity
  8
hide-2
100
AcDbLine
 10
592.9777249304176
 20
588.4906964810072
 30
0.0
 11
593.7777249304178
 21
589.2406964810072
 31
0.0
  0
LINE
  5
4461
330
1F
100
AcDbEntity
  8
hide-2
100
AcDbLine
 10
593.7777249304178
 20
589.2406964810072
 30
0.0
 11
593.7777249304178
 21
592.7406964810073
 31
0.0
  0
LINE
  5
4462
330
1F
100
AcDbEntity
  8
hide-2
100
AcDbLine
 10
593.7777249304178
 20
592.7406964810073
 30
0.0
 11
592.9777249304176
 21
593.4906964810072
 31
0.0
  0
LINE
  5
4463
330
1F
100
AcDbEntity
  8
hide-2
100
AcDbLine
 10
592.9777249304176
 20
593.4906964810072
 30
0.0
 11
593.7777249304178
 21
594.2406964810072
 31
0.0
  0
LINE
  5
4464
330
1F
100
AcDbEntity
  8
hide-2
100
AcDbLine
 10
593.7777249304178
 20
594.2406964810072
 30
0.0
 11
593.7777249304178
 21
597.7406964810072
 31
0.0
  0
LINE
  5
4465
330
1F
100
AcDbEntity
  8
hide-2
100
AcDbLine
 10
593.7777249304178
 20
597.7406964810072
 30
0.0
 11
592.9777249304176
 21
598.4906964810072
 31
0.0
  0
LINE
  5
4466
330
1F
100
AcDbEntity
  8
hide-2
100
AcDbLine
 10
592.9777249304176
 20
598.4906964810072
 30
0.0
 11
593.7777249304178
 21
599.2406964810072
 31
0.0
  0
LINE
  5
4467
330
1F
100
AcDbEntity
  8
hide-2
100
AcDbLine
 10
593.7777249304178
 20
599.2406964810072
 30
0.0
 11
593.7777249304178
 21
602.7406964810072
 31
0.0
  0
LINE
  5
4468
330
1F
100
AcDbEntity
  8
hide-2
100
AcDbLine
 10
593.7777249304178
 20
602.7406964810072
 30
0.0
 11
592.9777249304176
 21
603.4906964810073
 31
0.0
  0
LINE
  5
4469
330
1F
100
AcDbEntity
  8
hide-2
100
AcDbLine
 10
592.9777249304176
 20
603.4906964810073
 30
0.0
 11
593.7777249304178
 21
604.2406964810072
 31
0.0
  0
LINE
  5
446A
330
1F
100
AcDbEntity
  8
hide-2
100
AcDbLine
 10
593.7777249304178
 20
604.2406964810072
 30
0.0
 11
593.7777249304178
 21
607.7406964810072
 31
0.0
  0
LINE
  5
446B
330
1F
100
AcDbEntity
  8
hide-2
100
AcDbLine
 10
593.7777249304178
 20
607.7406964810072
 30
0.0
 11
592.9777249304176
 21
608.4906964810072
 31
0.0
  0
LINE
  5
446C
330
1F
100
AcDbEntity
  8
hide-2
100
AcDbLine
 10
592.9777249304176
 20
608.4906964810072
 30
0.0
 11
593.7777249304178
 21
609.2406964810073
 31
0.0
  0
LINE
  5
446D
330
1F
100
AcDbEntity
  8
hide-2
100
AcDbLine
 10
593.7777249304178
 20
609.2406964810073
 30
0.0
 11
593.7777249304178
 21
612.7406964810072
 31
0.0
  0
LINE
  5
446E
330
1F
100
AcDbEntity
  8
hide-2
100
AcDbLine
 10
593.7777249304178
 20
612.7406964810072
 30
0.0
 11
592.9777249304176
 21
613.4906964810072
 31
0.0
  0
LINE
  5
446F
330
1F
100
AcDbEntity
  8
hide-2
100
AcDbLine
 10
592.9777249304176
 20
613.4906964810072
 30
0.0
 11
593.7777249304178
 21
614.2406964810072
 31
0.0
  0
LINE
  5
4470
330
1F
100
AcDbEntity
  8
hide-2
100
AcDbLine
 10
592.9777249304176
 20
613.4906964810072
 30
0.0
 11
592.9777249304176
 21
613.4906964810072
 31
0.0
  0
LINE
  5
4471
330
1F
100
AcDbEntity
  8
hide-2
100
AcDbLine
 10
592.9777249304176
 20
613.4906964810072
 30
0.0
 11
592.9777249304176
 21
613.4906964810072
 31
0.0
  0
LINE
  5
4472
330
1F
100
AcDbEntity
  8
hide-2
  6
Continuous
100
AcDbLine
 10
583.7777249304186
 20
621.2947507721551
 30
0.0
 11
588.1207049082222
 21
625.6377307499588
 31
0.0
  0
LINE
  5
4473
330
1F
100
AcDbEntity
  8
hide-2
  6
Continuous
100
AcDbLine
 10
583.7777249304187
 20
616.8753333897395
 30
0.0
 11
592.5401222906382
 21
625.637730749959
 31
0.0
  0
LINE
  5
4474
330
1F
100
AcDbEntity
  8
hide-2
  6
Continuous
100
AcDbLine
 10
585.5625054041024
 20
614.2406964810074
 30
0.0
 11
596.9595396730542
 21
625.6377307499592
 31
0.0
  0
LINE
  5
4475
330
1F
100
AcDbEntity
  8
hide-2
  6
Continuous
100
AcDbLine
 10
589.9819227865182
 20
614.240696481007
 30
0.0
 11
601.3789570554699
 21
625.6377307499588
 31
0.0
  0
LINE
  5
4476
330
1F
100
AcDbEntity
  8
hide-2
  6
Continuous
100
AcDbLine
 10
594.4013401689342
 20
614.2406964810072
 30
0.0
 11
600.9970572435084
 21
620.8364135555814
 31
0.0
  0
LINE
  5
4477
330
1F
100
AcDbEntity
  8
hide-2
  6
Continuous
100
AcDbLine
 10
598.8207575513501
 20
614.2406964810074
 30
0.0
 11
601.5119263677361
 21
616.9318652973934
 31
0.0
  0
LINE
  5
4478
330
1F
100
AcDbEntity
  8
hide-2
  6
Continuous
100
AcDbLine
 10
603.2401749337659
 20
614.240696481007
 30
0.0
 11
603.3483137720909
 21
614.348835319332
 31
0.0
  0
LINE
  5
4479
330
1F
100
AcDbEntity
  8
hide-2
  6
Continuous
100
AcDbLine
 10
585.185443351426
 20
614.2406964810068
 30
0.0
 11
583.7777249304176
 21
615.6484149020151
 31
0.0
  0
LINE
  5
447A
330
1F
100
AcDbEntity
  8
hide-2
  6
Continuous
100
AcDbLine
 10
589.604860733842
 20
614.240696481007
 30
0.0
 11
583.7777249304176
 21
620.0678322844313
 31
0.0
  0
LINE
  5
447B
330
1F
100
AcDbEntity
  8
hide-2
  6
Continuous
100
AcDbLine
 10
594.0242781162583
 20
614.2406964810068
 30
0.0
 11
583.7777249304178
 21
624.4872496668474
 31
0.0
  0
LINE
  5
447C
330
1F
100
AcDbEntity
  8
hide-2
  6
Continuous
100
AcDbLine
 10
598.4436954986737
 20
614.2406964810068
 30
0.0
 11
587.0466612297223
 21
625.6377307499583
 31
0.0
  0
LINE
  5
447D
330
1F
100
AcDbEntity
  8
hide-2
  6
Continuous
100
AcDbLine
 10
602.8631128810898
 20
614.2406964810069
 30
0.0
 11
591.466078612138
 21
625.6377307499588
 31
0.0
  0
LINE
  5
447E
330
1F
100
AcDbEntity
  8
hide-2
  6
Continuous
100
AcDbLine
 10
600.9635936033372
 20
620.5596331411757
 30
0.0
 11
595.8854959945544
 21
625.6377307499585
 31
0.0
  0
LINE
  5
447F
330
1F
100
AcDbEntity
  8
hide-2
  6
Continuous
100
AcDbLine
 10
602.1145958561728
 20
623.8280482707559
 30
0.0
 11
600.3049133769705
 21
625.6377307499583
 31
0.0
  0
LINE
  5
4480
330
1F
100
AcDbEntity
  8
MOJI
100
AcDbLine
 10
733.7777249304179
 20
640.637730749959
 30
0.0
 11
733.7777249304179
 21
680.2951041238275
 31
0.0
  0
LINE
  5
4481
330
1F
100
AcDbEntity
  8
MOJI
100
AcDbLine
 10
669.2777249304178
 20
661.7381107499591
 30
0.0
 11
669.2777249304178
 21
680.2951041238275
 31
0.0
  0
LINE
  5
4482
330
1F
100
AcDbEntity
  8
MOJI
100
AcDbLine
 10
729.7777249304179
 20
680.2951041238275
 30
0.0
 11
673.2777249304178
 21
680.2951041238275
 31
0.0
  0
INSERT
  5
4483
330
1F
100
AcDbEntity
  8
MOJI
100
AcDbBlockReference
  2
_DOT
 10
733.7777249304179
 20
680.2951041238275
 30
0.0
 41
4.0
 42
4.0
 43
4.0
  0
INSERT
  5
4484
330
1F
100
AcDbEntity
  8
MOJI
100
AcDbBlockReference
  2
_DOT
 10
669.2777249304178
 20
680.2951041238275
 30
0.0
 41
4.0
 42
4.0
 43
4.0
 50
180.0
  0
MTEXT
  5
4485
330
1F
100
AcDbEntity
  8
MOJI
100
AcDbMText
 10
701.5277249304179
 20
686.3027183370254
 30
0.0
 40
10.0
 41
0.0
 71
     5
 72
     1
  1
\A1;50以上
  7
MSゴシック
 73
     1
 44
1.0
1001
ACAD
1000
MTEXTBEGIN
1070
    73
1070
     1
1070
    44
1040
1.0
1070
    74
1070
     0
1000
MTEXTEND
  0
LINE
  5
4486
330
1F
100
AcDbEntity
  8
MOJI
100
AcDbLine
 10
661.7777249304176
 20
429.4901087456428
 30
0.0
 11
661.7777249304176
 21
453.8803170900965
 31
0.0
  0
LINE
  5
4487
330
1F
100
AcDbEntity
  8
MOJI
100
AcDbLine
 10
676.7777249304177
 20
429.4901087456428
 30
0.0
 11
676.7777249304177
 21
453.8803170900965
 31
0.0
  0
LINE
  5
4488
330
1F
100
AcDbEntity
  8
MOJI
100
AcDbLine
 10
665.7777249304176
 20
453.8803170900965
 30
0.0
 11
672.7777249304176
 21
453.8803170900965
 31
0.0
  0
INSERT
  5
4489
330
1F
100
AcDbEntity
  8
MOJI
100
AcDbBlockReference
  2
_DOT
 10
661.7777249304176
 20
453.8803170900965
 30
0.0
 41
4.0
 42
4.0
 43
4.0
 50
180.0
  0
INSERT
  5
448A
330
1F
100
AcDbEntity
  8
MOJI
100
AcDbBlockReference
  2
_DOT
 10
676.7777249304177
 20
453.8803170900965
 30
0.0
 41
4.0
 42
4.0
 43
4.0
  0
MTEXT
  5
448B
330
1F
100
AcDbEntity
  8
MOJI
100
AcDbMText
 10
669.2777249304176
 20
459.3803170900964
 30
0.0
 40
10.0
 41
0.0
 71
     5
 72
     1
  1
\A1;15
  7
MSゴシック
 73
     1
 44
1.0
1001
ACAD
1000
MTEXTBEGIN
1070
    73
1070
     1
1070
    44
1040
1.0
1070
    74
1070
     0
1000
MTEXTEND
  0
LINE
  5
448C
330
1F
100
AcDbEntity
  8
MOJI
100
AcDbLine
 10
649.2777244304172
 20
649.8377307499593
 30
0.0
 11
649.2777244304172
 21
707.2291314840558
 31
0.0
  0
LINE
  5
448D
330
1F
100
AcDbEntity
  8
MOJI
100
AcDbLine
 10
689.2777244304173
 20
649.8377307499593
 30
0.0
 11
689.2777244304173
 21
707.2291314840558
 31
0.0
  0
LINE
  5
448E
330
1F
100
AcDbEntity
  8
MOJI
100
AcDbLine
 10
653.2777244304172
 20
707.2291314840558
 30
0.0
 11
685.2777244304173
 21
707.2291314840558
 31
0.0
  0
INSERT
  5
448F
330
1F
100
AcDbEntity
  8
MOJI
100
AcDbBlockReference
  2
_DOT
 10
649.2777244304172
 20
707.2291314840558
 30
0.0
 41
4.0
 42
4.0
 43
4.0
 50
180.0
  0
INSERT
  5
4490
330
1F
100
AcDbEntity
  8
MOJI
100
AcDbBlockReference
  2
_DOT
 10
689.2777244304173
 20
707.2291314840558
 30
0.0
 41
4.0
 42
4.0
 43
4.0
  0
MTEXT
  5
4491
330
1F
100
AcDbEntity
  8
MOJI
100
AcDbMText
 10
669.2777244304172
 20
712.7291314840558
 30
0.0
 40
10.0
 41
0.0
 71
     5
 72
     1
  1
\A1;40
  7
MSゴシック
 73
     1
 44
1.0
1001
ACAD
1000
MTEXTBEGIN
1070
    73
1070
     1
1070
    44
1040
1.0
1070
    74
1070
     0
1000
MTEXTEND
  0
LINE
  5
4492
330
1F
100
AcDbEntity
  8
MOJI
100
AcDbLine
 10
688.6742094304186
 20
655.6377307499592
 30
0.0
 11
707.4646685818318
 21
655.6377307499592
 31
0.0
  0
LINE
  5
4493
330
1F
100
AcDbEntity
  8
MOJI
100
AcDbLine
 10
691.1700618711965
 20
625.6377307499592
 30
0.0
 11
707.4646685818318
 21
625.6377307499592
 31
0.0
  0
LINE
  5
4494
330
1F
100
AcDbEntity
  8
MOJI
100
AcDbLine
 10
707.4646685818318
 20
651.6377307499592
 30
0.0
 11
707.4646685818318
 21
629.6377307499592
 31
0.0
  0
INSERT
  5
4495
330
1F
100
AcDbEntity
  8
MOJI
100
AcDbBlockReference
  2
_DOT
 10
707.4646685818318
 20
655.6377307499592
 30
0.0
 41
4.0
 42
4.0
 43
4.0
 50
90.0
  0
INSERT
  5
4496
330
1F
100
AcDbEntity
  8
MOJI
100
AcDbBlockReference
  2
_DOT
 10
707.4646685818318
 20
625.6377307499592
 30
0.0
 41
4.0
 42
4.0
 43
4.0
 50
270.0
  0
MTEXT
  5
4497
330
1F
100
AcDbEntity
  8
MOJI
100
AcDbMText
 10
712.9646685818317
 20
640.637730749959
 30
0.0
 40
10.0
 41
0.0
 71
     5
 72
     1
  1
\A1;30
  7
MSゴシック
 11
0.0000000000000001
 21
1.0
 31
0.0
 73
     1
 44
1.0
1001
ACAD
1000
MTEXTBEGIN
1070
    73
1070
     1
1070
    44
1040
1.0
1070
    74
1070
     0
1000
MTEXTEND
  0
LINE
  5
4498
330
1F
100
AcDbEntity
  8
KANAMONO
100
AcDbLine
 10
679.2777254304184
 20
625.637730749959
 30
0.0
 11
681.3866711843468
 21
638.4328566104461
 31
0.0
  0
LINE
  5
4499
330
1F
100
AcDbEntity
  8
KANAMONO
100
AcDbLine
 10
681.3866711843468
 20
638.4328566104461
 30
0.0
 11
684.2608434304176
 21
635.637730749959
 31
0.0
  0
LINE
  5
449A
330
1F
100
AcDbEntity
  8
KANAMONO
100
AcDbLine
 10
684.2608434304176
 20
635.637730749959
 30
0.0
 11
684.7742094304187
 21
625.637730749959
 31
0.0
  0
LINE
  5
449B
330
1F
100
AcDbEntity
  8
KANAMONO
100
AcDbLine
 10
684.7742094304187
 20
625.637730749959
 30
0.0
 11
685.574209430418
 21
625.637730749959
 31
0.0
  0
LINE
  5
449C
330
1F
100
AcDbEntity
  8
KANAMONO
100
AcDbLine
 10
685.574209430418
 20
625.637730749959
 30
0.0
 11
685.0608434304188
 21
635.637730749959
 31
0.0
  0
LINE
  5
449D
330
1F
100
AcDbEntity
  8
KANAMONO
100
AcDbLine
 10
685.0608434304188
 20
635.637730749959
 30
0.0
 11
681.4971894304183
 21
639.1033757499592
 31
0.0
  0
LINE
  5
449E
330
1F
100
AcDbEntity
  8
KANAMONO
100
AcDbLine
 10
681.4971894304183
 20
639.1033757499592
 30
0.0
 11
682.574209430418
 21
645.637730749959
 31
0.0
  0
LINE
  5
449F
330
1F
100
AcDbEntity
  8
KANAMONO
100
AcDbLine
 10
682.574209430418
 20
645.637730749959
 30
0.0
 11
687.574209430418
 21
645.637730749959
 31
0.0
  0
LINE
  5
44A0
330
1F
100
AcDbEntity
  8
KANAMONO
100
AcDbLine
 10
687.574209430418
 20
645.637730749959
 30
0.0
 11
682.074209430418
 21
652.637730749959
 31
0.0
  0
LINE
  5
44A1
330
1F
100
AcDbEntity
  8
KANAMONO
100
AcDbLine
 10
682.074209430418
 20
652.637730749959
 30
0.0
 11
682.074209430418
 21
655.637730749959
 31
0.0
  0
LINE
  5
44A2
330
1F
100
AcDbEntity
  8
KANAMONO
100
AcDbLine
 10
682.074209430418
 20
655.637730749959
 30
0.0
 11
676.3995584304186
 21
655.637730749959
 31
0.0
  0
LINE
  5
44A3
330
1F
100
AcDbEntity
  8
KANAMONO
100
AcDbLine
 10
676.3995584304186
 20
655.637730749959
 30
0.0
 11
676.2400084304183
 21
655.3454967499592
 31
0.0
  0
LINE
  5
44A4
330
1F
100
AcDbEntity
  8
KANAMONO
100
AcDbLine
 10
676.2400084304183
 20
655.3454967499592
 30
0.0
 11
662.3154414304183
 21
655.3454967499592
 31
0.0
  0
LINE
  5
44A5
330
1F
100
AcDbEntity
  8
KANAMONO
100
AcDbLine
 10
662.3154414304183
 20
655.3454967499592
 30
0.0
 11
662.155891430418
 21
655.637730749959
 31
0.0
  0
LINE
  5
44A6
330
1F
100
AcDbEntity
  8
KANAMONO
100
AcDbLine
 10
662.155891430418
 20
655.637730749959
 30
0.0
 11
656.4812404304186
 21
655.637730749959
 31
0.0
  0
LINE
  5
44A7
330
1F
100
AcDbEntity
  8
KANAMONO
100
AcDbLine
 10
656.4812404304186
 20
655.637730749959
 30
0.0
 11
656.4812404304186
 21
652.637730749959
 31
0.0
  0
LINE
  5
44A8
330
1F
100
AcDbEntity
  8
KANAMONO
100
AcDbLine
 10
656.4812404304186
 20
652.637730749959
 30
0.0
 11
650.9812404304186
 21
645.637730749959
 31
0.0
  0
LINE
  5
44A9
330
1F
100
AcDbEntity
  8
KANAMONO
100
AcDbLine
 10
650.9812404304186
 20
645.637730749959
 30
0.0
 11
655.9812404304186
 21
645.637730749959
 31
0.0
  0
LINE
  5
44AA
330
1F
100
AcDbEntity
  8
KANAMONO
100
AcDbLine
 10
655.9812404304186
 20
645.637730749959
 30
0.0
 11
657.0582604304184
 21
639.1033757499592
 31
0.0
  0
LINE
  5
44AB
330
1F
100
AcDbEntity
  8
KANAMONO
100
AcDbLine
 10
657.0582604304184
 20
639.1033757499592
 30
0.0
 11
653.4946074304182
 21
635.637730749959
 31
0.0
  0
LINE
  5
44AC
330
1F
100
AcDbEntity
  8
KANAMONO
100
AcDbLine
 10
653.4946074304182
 20
635.637730749959
 30
0.0
 11
652.9812404304187
 21
625.637730749959
 31
0.0
  0
LINE
  5
44AD
330
1F
100
AcDbEntity
  8
KANAMONO
100
AcDbLine
 10
652.9812404304187
 20
625.637730749959
 30
0.0
 11
653.7812404304179
 21
625.637730749959
 31
0.0
  0
LINE
  5
44AE
330
1F
100
AcDbEntity
  8
KANAMONO
100
AcDbLine
 10
653.7812404304179
 20
625.637730749959
 30
0.0
 11
654.2946074304183
 21
635.637730749959
 31
0.0
  0
LINE
  5
44AF
330
1F
100
AcDbEntity
  8
KANAMONO
100
AcDbLine
 10
654.2946074304183
 20
635.637730749959
 30
0.0
 11
657.1687788145493
 21
638.4328557722114
 31
0.0
  0
LINE
  5
44B0
330
1F
100
AcDbEntity
  8
KANAMONO
100
AcDbLine
 10
657.1687788145493
 20
638.4328557722114
 30
0.0
 11
659.2777254304185
 21
625.637730749959
 31
0.0
  0
LINE
  5
44B1
330
1F
100
AcDbEntity
  8
KANAMONO
100
AcDbLine
 10
659.2777254304185
 20
625.637730749959
 30
0.0
 11
660.0777254304187
 21
625.637730749959
 31
0.0
  0
LINE
  5
44B2
330
1F
100
AcDbEntity
  8
KANAMONO
100
AcDbLine
 10
660.0777254304187
 20
625.637730749959
 30
0.0
 11
655.9157584304187
 21
650.8886727499591
 31
0.0
  0
LINE
  5
44B3
330
1F
100
AcDbEntity
  8
KANAMONO
100
AcDbLine
 10
655.9157584304187
 20
650.8886727499591
 30
0.0
 11
657.2812404304179
 21
652.6265591117146
 31
0.0
  0
LINE
  5
44B4
330
1F
100
AcDbEntity
  8
KANAMONO
100
AcDbLine
 10
657.2812404304179
 20
652.6265591117146
 30
0.0
 11
657.2812404304179
 21
654.5454967499592
 31
0.0
  0
LINE
  5
44B5
330
1F
100
AcDbEntity
  8
KANAMONO
100
AcDbLine
 10
657.2812404304179
 20
654.5454967499592
 30
0.0
 11
681.2742094304187
 21
654.5454967499592
 31
0.0
  0
LINE
  5
44B6
330
1F
100
AcDbEntity
  8
KANAMONO
100
AcDbLine
 10
681.2742094304187
 20
654.5454967499592
 30
0.0
 11
681.2742094304187
 21
652.6265591117146
 31
0.0
  0
LINE
  5
44B7
330
1F
100
AcDbEntity
  8
KANAMONO
100
AcDbLine
 10
681.2742094304187
 20
652.6265591117146
 30
0.0
 11
682.6396914304179
 21
650.8886727499591
 31
0.0
  0
LINE
  5
44B8
330
1F
100
AcDbEntity
  8
KANAMONO
100
AcDbLine
 10
682.6396914304179
 20
650.8886727499591
 30
0.0
 11
678.4777254304183
 21
625.637730749959
 31
0.0
  0
LINE
  5
44B9
330
1F
100
AcDbEntity
  8
KANAMONO
100
AcDbLine
 10
678.4777254304183
 20
625.637730749959
 30
0.0
 11
679.2777254304184
 21
625.637730749959
 31
0.0
  0
LINE
  5
44BA
330
1F
100
AcDbEntity
  8
KANAMONO
100
AcDbLine
 10
662.155891430418
 20
655.637730749959
 30
0.0
 11
656.4812404304186
 21
655.637730749959
 31
0.0
  0
LINE
  5
44BB
330
1F
100
AcDbEntity
  8
KANAMONO
100
AcDbLine
 10
656.4812404304186
 20
655.637730749959
 30
0.0
 11
656.4812404304186
 21
652.637730749959
 31
0.0
  0
LINE
  5
44BC
330
1F
100
AcDbEntity
  8
KANAMONO
100
AcDbLine
 10
656.4812404304186
 20
652.637730749959
 30
0.0
 11
650.9812404304186
 21
645.637730749959
 31
0.0
  0
LINE
  5
44BD
330
1F
100
AcDbEntity
  8
KANAMONO
100
AcDbLine
 10
650.9812404304186
 20
645.637730749959
 30
0.0
 11
652.7652354304184
 21
645.637730749959
 31
0.0
  0
LINE
  5
44BE
330
1F
100
AcDbEntity
  8
KANAMONO
100
AcDbLine
 10
652.7652354304184
 20
645.637730749959
 30
0.0
 11
652.7652354304184
 21
644.8377307499592
 31
0.0
  0
LINE
  5
44BF
330
1F
100
AcDbEntity
  8
KANAMONO
100
AcDbLine
 10
652.7652354304184
 20
644.8377307499592
 30
0.0
 11
649.2777254304185
 21
644.8377307499592
 31
0.0
  0
LINE
  5
44C0
330
1F
100
AcDbEntity
  8
KANAMONO
100
AcDbLine
 10
649.2777254304185
 20
644.8377307499592
 30
0.0
 11
655.6812404304184
 21
652.9876591128292
 31
0.0
  0
LINE
  5
44C1
330
1F
100
AcDbEntity
  8
KANAMONO
100
AcDbLine
 10
655.6812404304184
 20
652.9876591128292
 30
0.0
 11
655.6812404304184
 21
655.637730749959
 31
0.0
  0
LINE
  5
44C2
330
1F
100
AcDbEntity
  8
KANAMONO
100
AcDbLine
 10
655.6812404304184
 20
655.637730749959
 30
0.0
 11
654.8812404304182
 21
655.637730749959
 31
0.0
  0
LINE
  5
44C3
330
1F
100
AcDbEntity
  8
KANAMONO
100
AcDbLine
 10
654.8812404304182
 20
655.637730749959
 30
0.0
 11
654.8812404304182
 21
656.4377307499592
 31
0.0
  0
LINE
  5
44C4
330
1F
100
AcDbEntity
  8
KANAMONO
100
AcDbLine
 10
654.8812404304182
 20
656.4377307499592
 30
0.0
 11
661.6088634304181
 21
656.4377307499592
 31
0.0
  0
LINE
  5
44C5
330
1F
100
AcDbEntity
  8
KANAMONO
100
AcDbLine
 10
661.6088634304181
 20
656.4377307499592
 30
0.0
 11
661.8139984304182
 21
656.7381107499591
 31
0.0
  0
LINE
  5
44C6
330
1F
100
AcDbEntity
  8
KANAMONO
100
AcDbLine
 10
661.8139984304182
 20
656.7381107499591
 30
0.0
 11
676.7414514304184
 21
656.7381107499591
 31
0.0
  0
LINE
  5
44C7
330
1F
100
AcDbEntity
  8
KANAMONO
100
AcDbLine
 10
676.7414514304184
 20
656.7381107499591
 30
0.0
 11
676.946587430418
 21
656.4377307499592
 31
0.0
  0
LINE
  5
44C8
330
1F
100
AcDbEntity
  8
KANAMONO
100
AcDbLine
 10
676.946587430418
 20
656.4377307499592
 30
0.0
 11
683.6742094304184
 21
656.4377307499592
 31
0.0
  0
LINE
  5
44C9
330
1F
100
AcDbEntity
  8
KANAMONO
100
AcDbLine
 10
683.6742094304184
 20
656.4377307499592
 30
0.0
 11
683.6742094304184
 21
655.637730749959
 31
0.0
  0
LINE
  5
44CA
330
1F
100
AcDbEntity
  8
KANAMONO
100
AcDbLine
 10
683.6742094304184
 20
655.637730749959
 30
0.0
 11
682.8742094304182
 21
655.637730749959
 31
0.0
  0
LINE
  5
44CB
330
1F
100
AcDbEntity
  8
KANAMONO
100
AcDbLine
 10
682.8742094304182
 20
655.637730749959
 30
0.0
 11
682.8742094304182
 21
652.9876591181905
 31
0.0
  0
LINE
  5
44CC
330
1F
100
AcDbEntity
  8
KANAMONO
100
AcDbLine
 10
682.8742094304182
 20
652.9876591181905
 30
0.0
 11
689.2777254304185
 21
644.8377307499592
 31
0.0
  0
LINE
  5
44CD
330
1F
100
AcDbEntity
  8
KANAMONO
100
AcDbLine
 10
689.2777254304185
 20
644.8377307499592
 30
0.0
 11
685.7902144304182
 21
644.8377307499592
 31
0.0
  0
LINE
  5
44CE
330
1F
100
AcDbEntity
  8
KANAMONO
100
AcDbLine
 10
685.7902144304182
 20
644.8377307499592
 30
0.0
 11
685.7902144304182
 21
645.637730749959
 31
0.0
  0
LINE
  5
44CF
330
1F
100
AcDbEntity
  8
KANAMONO
100
AcDbLine
 10
685.7902144304182
 20
645.637730749959
 30
0.0
 11
687.574209430418
 21
645.637730749959
 31
0.0
  0
LINE
  5
44D0
330
1F
100
AcDbEntity
  8
KANAMONO
100
AcDbLine
 10
687.574209430418
 20
645.637730749959
 30
0.0
 11
682.074209430418
 21
652.637730749959
 31
0.0
  0
LINE
  5
44D1
330
1F
100
AcDbEntity
  8
KANAMONO
100
AcDbLine
 10
682.074209430418
 20
652.637730749959
 30
0.0
 11
682.074209430418
 21
655.637730749959
 31
0.0
  0
LINE
  5
44D2
330
1F
100
AcDbEntity
  8
KANAMONO
100
AcDbLine
 10
682.074209430418
 20
655.637730749959
 30
0.0
 11
676.3995584304186
 21
655.637730749959
 31
0.0
  0
LINE
  5
44D3
330
1F
100
AcDbEntity
  8
KANAMONO
100
AcDbLine
 10
676.3995584304186
 20
655.637730749959
 30
0.0
 11
676.1944234304185
 21
655.9381107499591
 31
0.0
  0
LINE
  5
44D4
330
1F
100
AcDbEntity
  8
KANAMONO
100
AcDbLine
 10
676.1944234304185
 20
655.9381107499591
 30
0.0
 11
662.3610274304184
 21
655.9381107499591
 31
0.0
  0
LINE
  5
44D5
330
1F
100
AcDbEntity
  8
KANAMONO
100
AcDbLine
 10
662.3610274304184
 20
655.9381107499591
 30
0.0
 11
662.155891430418
 21
655.637730749959
 31
0.0
  0
LINE
  5
44D6
330
1F
100
AcDbEntity
  8
WAKU
100
AcDbLine
 10
1380.0
 20
894.9999999999999
 30
0.0
 11
0.0
 21
894.9999999999999
 31
0.0
  0
LINE
  5
44D7
330
1F
100
AcDbEntity
  8
WAKU
100
AcDbLine
 10
0.0
 20
894.9999999999999
 30
0.0
 11
0.0
 21
954.9999999999998
 31
0.0
  0
LINE
  5
44D8
330
1F
100
AcDbEntity
  8
WAKU
100
AcDbLine
 10
0.0
 20
954.9999999999998
 30
0.0
 11
1380.0
 21
954.9999999999998
 31
0.0
  0
LINE
  5
44D9
330
1F
100
AcDbEntity
  8
WAKU
100
AcDbLine
 10
1380.0
 20
954.9999999999998
 30
0.0
 11
1380.0
 21
894.9999999999999
 31
0.0
  0
LINE
  5
44DA
330
1F
100
AcDbEntity
  8
WAKU
100
AcDbLine
 10
0.0
 20
0.0
 30
0.0
 11
1380.0
 21
0.0
 31
0.0
  0
LINE
  5
44DB
330
1F
100
AcDbEntity
  8
WAKU
100
AcDbLine
 10
1380.0
 20
0.0
 30
0.0
 11
1380.0
 21
954.9999999999998
 31
0.0
  0
LINE
  5
44DC
330
1F
100
AcDbEntity
  8
WAKU
100
AcDbLine
 10
1380.0
 20
954.9999999999998
 30
0.0
 11
0.0
 21
954.9999999999998
 31
0.0
  0
LINE
  5
44DD
330
1F
100
AcDbEntity
  8
WAKU
100
AcDbLine
 10
0.0
 20
954.9999999999998
 30
0.0
 11
0.0
 21
0.0
 31
0.0
  0
LINE
  5
44DE
330
1F
100
AcDbEntity
  8
KANAMONO_SCREW
370
    -3
100
AcDbLine
 10
666.5277249304174
 20
211.1377307499592
 30
0.0
 11
666.5277249304174
 21
206.1377307499592
 31
0.0
  0
LINE
  5
44DF
330
1F
100
AcDbEntity
  8
KANAMONO_SCREW
370
    -3
100
AcDbLine
 10
672.0277249304174
 20
211.1377307499592
 30
0.0
 11
672.0277249304174
 21
206.1377307499592
 31
0.0
  0
LINE
  5
44E0
330
1F
100
AcDbEntity
  8
KANAMONO_SCREW
370
    -3
100
AcDbLine
 10
672.2751960435089
 20
199.2743242765032
 30
0.0
 11
672.2751960435089
 21
206.1377307499592
 31
0.0
  0
LINE
  5
44E1
330
1F
100
AcDbEntity
  8
KANAMONO_SCREW
370
    -3
100
AcDbLine
 10
666.2802550654312
 20
199.2743242765032
 30
0.0
 11
666.2802550654312
 21
206.1377307499592
 31
0.0
  0
LINE
  5
44E2
330
1F
100
AcDbEntity
  8
KANAMONO_SCREW
370
    -3
100
AcDbLine
 10
672.2751960435089
 20
206.1377307499592
 30
0.0
 11
666.2802550654312
 21
206.1377307499592
 31
0.0
  0
ARC
  5
44E3
330
1F
100
AcDbEntity
  8
KANAMONO_SCREW
370
    -3
100
AcDbCircle
 10
669.2777249304174
 20
204.5377307499593
 30
0.0
 40
0.6
100
AcDbArc
 50
300.3912602242412
 51
239.6087397757361
  0
LINE
  5
44E4
330
1F
100
AcDbEntity
  8
KANAMONO_SCREW
370
    -3
100
AcDbLine
 10
669.5812662457631
 20
181.1377307499592
 30
0.0
 11
669.5812662457631
 21
204.0201762408703
 31
0.0
  0
LINE
  5
44E5
330
1F
100
AcDbEntity
  8
KANAMONO_SCREW
370
    -3
100
AcDbLine
 10
668.9741836150715
 20
183.0348639708699
 30
0.0
 11
668.9741836150717
 21
204.0201762408706
 31
0.0
  0
LINE
  5
44E6
330
1F
100
AcDbEntity
  8
KANAMONO_SCREW
370
    -3
100
AcDbLine
 10
668.9741836150717
 20
185.0078825206169
 30
0.0
 11
669.5812662457631
 21
185.0078825206169
 31
0.0
  0
LINE
  5
44E7
330
1F
100
AcDbEntity
  8
KANAMONO_SCREW
370
    -3
100
AcDbLine
 10
668.9741836150717
 20
185.6149651513082
 30
0.0
 11
669.5812662457631
 21
185.6149651513082
 31
0.0
  0
LINE
  5
44E8
330
1F
100
AcDbEntity
  8
KANAMONO_SCREW
370
    -3
100
AcDbLine
 10
670.8277249304176
 20
211.1377307499592
 30
0.0
 11
672.2751960435089
 21
211.1377307499592
 31
0.0
  0
LINE
  5
44E9
330
1F
100
AcDbEntity
  8
KANAMONO_SCREW
370
    -3
100
AcDbLine
 10
666.2802550654312
 20
211.1377307499592
 30
0.0
 11
667.7277249304174
 21
211.1377307499592
 31
0.0
  0
ARC
  5
44EA
330
1F
100
AcDbEntity
  8
KANAMONO_SCREW
370
    -3
100
AcDbCircle
 10
667.7277249304174
 20
211.5627307499592
 30
0.0
 40
0.425
100
AcDbArc
 50
270.0
 51
90.0
  0
ARC
  5
44EB
330
1F
100
AcDbEntity
  8
KANAMONO_SCREW
370
    -3
100
AcDbCircle
 10
670.8277249304174
 20
211.5627307499592
 30
0.0
 40
0.425
100
AcDbArc
 50
90.0
 51
270.0
  0
LINE
  5
44EC
330
1F
100
AcDbEntity
  8
KANAMONO_SCREW
370
    -3
100
AcDbLine
 10
670.8277249304174
 20
211.9877307499594
 30
0.0
 11
672.2751960435089
 21
211.9877307499594
 31
0.0
  0
LINE
  5
44ED
330
1F
100
AcDbEntity
  8
KANAMONO_SCREW
370
    -3
100
AcDbLine
 10
666.2802550654312
 20
211.9877307499594
 30
0.0
 11
667.7277249304174
 21
211.9877307499594
 31
0.0
  0
LINE
  5
44EE
330
1F
100
AcDbEntity
  8
KANAMONO_SCREW
370
    -3
100
AcDbLine
 10
670.8277249304174
 20
212.4877307499593
 30
0.0
 11
672.2751960435089
 21
212.4877307499593
 31
0.0
  0
LINE
  5
44EF
330
1F
100
AcDbEntity
  8
KANAMONO_SCREW
370
    -3
100
AcDbLine
 10
666.2802550654312
 20
212.4877307499593
 30
0.0
 11
667.7277249304174
 21
212.4877307499593
 31
0.0
  0
LINE
  5
44F0
330
1F
100
AcDbEntity
  8
KANAMONO_SCREW
370
    -3
100
AcDbLine
 10
670.8277249304174
 20
212.9877307499593
 30
0.0
 11
672.2751960435089
 21
212.9877307499593
 31
0.0
  0
LINE
  5
44F1
330
1F
100
AcDbEntity
  8
KANAMONO_SCREW
370
    -3
100
AcDbLine
 10
666.2802550654312
 20
212.9877307499593
 30
0.0
 11
667.7277249304174
 21
212.9877307499593
 31
0.0
  0
LINE
  5
44F2
330
1F
100
AcDbEntity
  8
KANAMONO_SCREW
370
    -3
100
AcDbLine
 10
670.8277249304174
 20
213.4877307499594
 30
0.0
 11
672.2751960435089
 21
213.4877307499594
 31
0.0
  0
LINE
  5
44F3
330
1F
100
AcDbEntity
  8
KANAMONO_SCREW
370
    -3
100
AcDbLine
 10
666.2802550654312
 20
213.4877307499594
 30
0.0
 11
667.7277249304174
 21
213.4877307499594
 31
0.0
  0
LINE
  5
44F4
330
1F
100
AcDbEntity
  8
KANAMONO_SCREW
370
    -3
100
AcDbLine
 10
670.8277249304174
 20
213.9877307499594
 30
0.0
 11
672.2751960435089
 21
213.9877307499594
 31
0.0
  0
LINE
  5
44F5
330
1F
100
AcDbEntity
  8
KANAMONO_SCREW
370
    -3
100
AcDbLine
 10
666.2802550654312
 20
213.9877307499594
 30
0.0
 11
667.7277249304174
 21
213.9877307499594
 31
0.0
  0
LINE
  5
44F6
330
1F
100
AcDbEntity
  8
KANAMONO_SCREW
370
    -3
100
AcDbLine
 10
670.8277249304174
 20
214.4877307499593
 30
0.0
 11
672.2751960435089
 21
214.4877307499593
 31
0.0
  0
LINE
  5
44F7
330
1F
100
AcDbEntity
  8
KANAMONO_SCREW
370
    -3
100
AcDbLine
 10
666.2802550654312
 20
214.4877307499593
 30
0.0
 11
667.7277249304174
 21
214.4877307499593
 31
0.0
  0
LINE
  5
44F8
330
1F
100
AcDbEntity
  8
KANAMONO_SCREW
370
    -3
100
AcDbLine
 10
670.8277249304174
 20
214.9877307499593
 30
0.0
 11
672.2751960435089
 21
214.9877307499593
 31
0.0
  0
LINE
  5
44F9
330
1F
100
AcDbEntity
  8
KANAMONO_SCREW
370
    -3
100
AcDbLine
 10
666.2802550654312
 20
214.9877307499593
 30
0.0
 11
667.7277249304174
 21
214.9877307499593
 31
0.0
  0
LINE
  5
44FA
330
1F
100
AcDbEntity
  8
KANAMONO_SCREW
370
    -3
100
AcDbLine
 10
670.8277249304174
 20
215.4877307499594
 30
0.0
 11
672.2751960435089
 21
215.4877307499594
 31
0.0
  0
LINE
  5
44FB
330
1F
100
AcDbEntity
  8
KANAMONO_SCREW
370
    -3
100
AcDbLine
 10
666.2802550654312
 20
215.4877307499594
 30
0.0
 11
667.7277249304174
 21
215.4877307499594
 31
0.0
  0
LINE
  5
44FC
330
1F
100
AcDbEntity
  8
KANAMONO_SCREW
370
    -3
100
AcDbLine
 10
670.8277249304174
 20
215.9877307499594
 30
0.0
 11
672.2751960435089
 21
215.9877307499594
 31
0.0
  0
LINE
  5
44FD
330
1F
100
AcDbEntity
  8
KANAMONO_SCREW
370
    -3
100
AcDbLine
 10
666.2802550654312
 20
215.9877307499594
 30
0.0
 11
667.7277249304174
 21
215.9877307499594
 31
0.0
  0
LINE
  5
44FE
330
1F
100
AcDbEntity
  8
KANAMONO_SCREW
370
    -3
100
AcDbLine
 10
670.8277249304174
 20
216.4377307499592
 30
0.0
 11
672.2751960435089
 21
216.4377307499592
 31
0.0
  0
LINE
  5
44FF
330
1F
100
AcDbEntity
  8
KANAMONO_SCREW
370
    -3
100
AcDbLine
 10
666.2802550654312
 20
216.4377307499592
 30
0.0
 11
667.7277249304174
 21
216.4377307499592
 31
0.0
  0
LINE
  5
4500
330
1F
100
AcDbEntity
  8
KANAMONO_SCREW
370
    -3
100
AcDbLine
 10
672.2751960435089
 20
211.1377307499592
 30
0.0
 11
672.2751960435089
 21
218.6377307499592
 31
0.0
  0
LINE
  5
4501
330
1F
100
AcDbEntity
  8
KANAMONO_SCREW
370
    -3
100
AcDbLine
 10
666.2802550654312
 20
211.1377307499592
 30
0.0
 11
666.2802550654312
 21
218.6377307499592
 31
0.0
  0
LINE
  5
4502
330
1F
100
AcDbEntity
  8
KANAMONO_SCREW
370
    -3
100
AcDbLine
 10
670.8277249304176
 20
211.1377307499592
 30
0.0
 11
670.8277249304176
 21
208.1877307499591
 31
0.0
  0
LINE
  5
4503
330
1F
100
AcDbEntity
  8
KANAMONO_SCREW
370
    -3
100
AcDbLine
 10
667.7277249304174
 20
211.1377307499592
 30
0.0
 11
667.7277249304174
 21
208.1877307499591
 31
0.0
  0
LINE
  5
4504
330
1F
100
AcDbEntity
  8
KANAMONO_SCREW
370
    -3
100
AcDbLine
 10
670.8277249304174
 20
216.5877307499592
 30
0.0
 11
670.8277249304174
 21
211.9877307499594
 31
0.0
  0
LINE
  5
4505
330
1F
100
AcDbEntity
  8
KANAMONO_SCREW
370
    -3
100
AcDbLine
 10
667.7277249304174
 20
216.5877307499592
 30
0.0
 11
667.7277249304174
 21
211.9877307499594
 31
0.0
  0
ARC
  5
4506
330
1F
100
AcDbEntity
  8
KANAMONO_SCREW
370
    -3
100
AcDbCircle
 10
669.2777249304174
 20
208.1877307499591
 30
0.0
 40
1.55
100
AcDbArc
 50
180.0
 51
0.0
  0
ARC
  5
4507
330
1F
100
AcDbEntity
  8
KANAMONO_SCREW
370
    -3
100
AcDbCircle
 10
669.2777249304174
 20
216.5877307499592
 30
0.0
 40
1.55
100
AcDbArc
 50
0.0
 51
180.0
  0
LINE
  5
4508
330
1F
100
AcDbEntity
  8
KANAMONO_SCREW
370
    -3
100
AcDbLine
 10
662.7777249304174
 20
219.6377307499592
 30
0.0
 11
664.7277249304174
 21
221.1377307499592
 31
0.0
  0
LINE
  5
4509
330
1F
100
AcDbEntity
  8
KANAMONO_SCREW
370
    -3
100
AcDbLine
 10
673.8277249304173
 20
221.1377307499592
 30
0.0
 11
675.7777249304174
 21
219.6377307499592
 31
0.0
  0
LINE
  5
450A
330
1F
100
AcDbEntity
  8
KANAMONO_SCREW
370
    -3
100
AcDbLine
 10
664.7277249304174
 20
221.1377307499592
 30
0.0
 11
673.8277249304173
 21
221.1377307499592
 31
0.0
  0
LINE
  5
450B
330
1F
100
AcDbEntity
  8
KANAMONO_SCREW
370
    -3
100
AcDbLine
 10
675.7777249304174
 20
219.6377307499592
 30
0.0
 11
675.7777249304174
 21
218.6377307499592
 31
0.0
  0
LINE
  5
450C
330
1F
100
AcDbEntity
  8
KANAMONO_SCREW
370
    -3
100
AcDbLine
 10
662.7777249304174
 20
219.6377307499592
 30
0.0
 11
675.7777249304174
 21
219.6377307499592
 31
0.0
  0
LINE
  5
450D
330
1F
100
AcDbEntity
  8
KANAMONO_SCREW
370
    -3
100
AcDbLine
 10
662.7777249304174
 20
219.6377307499592
 30
0.0
 11
662.7777249304174
 21
218.6377307499592
 31
0.0
  0
LINE
  5
450E
330
1F
100
AcDbEntity
  8
KANAMONO_SCREW
370
    -3
100
AcDbLine
 10
662.7777249304174
 20
218.6377307499592
 30
0.0
 11
675.7777249304174
 21
218.6377307499592
 31
0.0
  0
LINE
  5
450F
330
1F
100
AcDbEntity
  8
KANAMONO_SCREW
370
    -3
100
AcDbLine
 10
665.4322730714027
 20
221.2007798536244
 30
0.0
 11
673.1231767894321
 21
221.2007798536244
 31
0.0
  0
ARC
  5
4510
330
1F
100
AcDbEntity
  8
KANAMONO_SCREW
370
    -3
100
AcDbCircle
 10
669.2777249304174
 20
220.5507798536245
 30
0.0
 40
3.900000000000005
100
AcDbArc
 50
170.4059317731384
 51
171.3440832872695
  0
ARC
  5
4511
330
1F
100
AcDbEntity
  8
KANAMONO_SCREW
370
    -3
100
AcDbCircle
 10
669.2777249304174
 20
220.5507798536245
 30
0.0
 40
3.900000000000005
100
AcDbArc
 50
8.655916712730483
 51
9.594068226861594
  0
LINE
  5
4512
330
1F
100
AcDbEntity
  8
KANAMONO_SCREW
370
    -3
100
AcDbLine
 10
669.2777249304174
 20
172.9007798536244
 30
0.0
 11
669.2777249304174
 21
180.3573843194055
 31
0.0
  0
LINE
  5
4513
330
1F
100
AcDbEntity
  8
KANAMONO_SCREW
370
    -3
100
AcDbLine
 10
671.0339632414293
 20
180.9007798536244
 30
0.0
 11
667.5134392161319
 21
180.9007798536244
 31
0.0
  0
LINE
  5
4514
330
1F
100
AcDbEntity
  8
KANAMONO_SCREW
370
    -3
100
AcDbLine
 10
667.5277249304174
 20
180.9007798536244
 30
0.0
 11
667.5277249304174
 21
177.9007798536244
 31
0.0
  0
LINE
  5
4515
330
1F
100
AcDbEntity
  8
KANAMONO_SCREW
370
    -3
100
AcDbLine
 10
671.0277249304174
 20
180.9007798536244
 30
0.0
 11
671.0277249304174
 21
177.9007798536244
 31
0.0
  0
LINE
  5
4516
330
1F
100
AcDbEntity
  8
KANAMONO_SCREW
370
    -3
100
AcDbLine
 10
667.5277249304174
 20
177.9007798536244
 30
0.0
 11
671.0277249304174
 21
177.9007798536244
 31
0.0
  0
ELLIPSE
  5
4517
330
1F
100
AcDbEntity
  8
KANAMONO_SCREW
370
    -3
100
AcDbEllipse
 10
668.0277249304174
 20
177.9007798536244
 30
0.0
 11
0.0000000000000027
 21
1.700000000000017
 31
0.0
210
0.0
220
0.0
230
1.0
 40
0.2941176470588373
 41
0.0
 42
1.570796326794863
  0
ELLIPSE
  5
4518
330
1F
100
AcDbEntity
  8
KANAMONO_SCREW
370
    -3
100
AcDbEllipse
 10
670.5277249304174
 20
177.9007798536244
 30
0.0
 11
0.0000000000000027
 21
1.700000000000017
 31
0.0
210
0.0
220
0.0
230
1.0
 40
0.2941176470588038
 41
-1.570796326794896
 42
0.0
  0
ELLIPSE
  5
4519
330
1F
100
AcDbEntity
  8
KANAMONO_SCREW
370
    -3
100
AcDbEllipse
 10
670.5277249304174
 20
177.9007798536244
 30
0.0
 11
0.0000000000000027
 21
1.700000000000017
 31
0.0
210
0.0
220
0.0
230
1.0
 40
0.7353489374659476
 41
0.0
 42
1.570796326794895
  0
ELLIPSE
  5
451A
330
1F
100
AcDbEntity
  8
KANAMONO_SCREW
370
    -3
100
AcDbEllipse
 10
668.0277249304174
 20
177.9007798536244
 30
0.0
 11
0.0000000000000027
 21
1.700000000000017
 31
0.0
210
0.0
220
0.0
230
1.0
 40
0.7352941176470348
 41
-1.559108661948553
 42
0.0
  0
LINE
  5
451B
330
1F
100
AcDbEntity
  8
KANAMONO_SCREW
370
    -3
100
AcDbLine
 10
671.0277249304174
 20
177.9007798536244
 30
0.0
 11
669.2777249304174
 21
172.9007798536244
 31
0.0
  0
LINE
  5
451C
330
1F
100
AcDbEntity
  8
KANAMONO_SCREW
370
    -3
100
AcDbLine
 10
669.2777249304174
 20
172.9007798536244
 30
0.0
 11
667.5277249304174
 21
177.9007798536244
 31
0.0
  0
LINE
  5
451D
330
1F
100
AcDbEntity
  8
KANAMONO_SCREW
370
    -3
100
AcDbLine
 10
672.2751900573841
 20
199.2743242765032
 30
0.0
 11
672.2748865335175
 21
199.2725911735371
 31
0.0
  0
LINE
  5
451E
330
1F
100
AcDbEntity
  8
KANAMONO_SCREW
370
    -3
100
AcDbLine
 10
671.5277249304174
 20
197.3122179343024
 30
0.0
 11
671.5277249304174
 21
195.5559431635183
 31
0.0
  0
LINE
  5
451F
330
1F
100
AcDbEntity
  8
KANAMONO_SCREW
370
    -3
100
AcDbLine
 10
671.5277249304174
 20
193.5938367045746
 30
0.0
 11
671.5277249304174
 21
191.8375620505335
 31
0.0
  0
LINE
  5
4520
330
1F
100
AcDbEntity
  8
KANAMONO_SCREW
370
    -3
100
AcDbLine
 10
671.5277249304174
 20
189.875455474847
 30
0.0
 11
671.5277249304174
 21
188.1191809375486
 31
0.0
  0
LINE
  5
4521
330
1F
100
AcDbEntity
  8
KANAMONO_SCREW
370
    -3
100
AcDbLine
 10
671.5277249304174
 20
186.2329596906988
 30
0.0
 11
671.5277249304174
 21
184.4766851534002
 31
0.0
  0
LINE
  5
4522
330
1F
100
AcDbEntity
  8
KANAMONO_SCREW
370
    -3
100
AcDbLine
 10
670.4857771800409
 20
196.4912173857099
 30
0.0
 11
670.4857771800409
 21
196.0112552018986
 31
0.0
  0
LINE
  5
4523
330
1F
100
AcDbEntity
  8
KANAMONO_SCREW
370
    -3
100
AcDbLine
 10
671.0777249304165
 20
181.1507798536245
 30
0.0
 11
671.0420106447029
 21
180.9007798536244
 31
0.0
  0
LINE
  5
4524
330
1F
100
AcDbEntity
  8
KANAMONO_SCREW
370
    -3
100
AcDbLine
 10
671.0777249304165
 20
181.1507798536245
 30
0.0
 11
670.9431642429469
 21
181.168080513442
 31
0.0
  0
LWPOLYLINE
  5
4525
330
1F
100
AcDbEntity
  8
KANAMONO_SCREW
370
    -3
100
AcDbPolyline
 90
       39
 70
     0
 43
0.0
 10
672.2751947954036
 20
202.6874316879043
 10
672.0287152418402
 20
201.2913980960256
 10
670.7660950802319
 20
200.634119642564
 42
0.2592004735663025
 10
670.4857771800409
 20
200.2095984986945
 10
670.4857771800409
 20
199.7296363148834
 42
0.2036136011950793
 10
670.6174606721461
 20
199.4196764411512
 42
0.1982842753974383
 10
670.9858222545417
 20
199.2743242765032
 10
672.2751960435089
 20
199.2743242765032
 10
671.9697772257436
 20
197.54233579387
 10
670.7683339168961
 20
196.9169039941781
 42
0.257920399275152
 10
670.4857771800409
 20
196.4912173857099
 10
670.4857771800409
 20
196.0112552018986
 42
0.2036139203470236
 10
670.6174608964068
 20
195.7012953281664
 42
0.1982836950201352
 10
670.9858225963405
 20
195.5559431635183
 10
672.2751902816448
 20
195.5559431635183
 10
671.9697774500043
 20
193.8239546808851
 10
670.7683341411571
 20
193.1985228811933
 42
0.2579203992749133
 10
670.4857774043016
 20
192.772836272725
 10
670.4857774043016
 20
192.2928740889137
 42
0.2036139203458012
 10
670.6174611206649
 20
191.9829142151854
 42
0.1982836950192671
 10
670.9858228206012
 20
191.8375620505335
 10
672.2751905059055
 20
191.8375620505335
 10
671.9697776742653
 20
190.1055735679003
 10
670.7683343654178
 20
189.4801417682084
 42
0.257920399274954
 10
670.4857776285623
 20
189.0544551597401
 10
670.4857775763241
 20
188.5744929105671
 42
0.2036275691502115
 10
670.617477862623
 20
188.2645165166206
 42
0.1982685003745556
 10
670.9858224219713
 20
188.1191809375486
 10
672.2751907301665
 20
188.1191809375486
 10
671.9845103570548
 20
186.4707471329784
 10
670.767756992909
 20
185.8373454229561
 42
0.2582492780404442
 10
670.4857775763241
 20
185.4119594757046
 10
670.4857776285623
 20
184.9319971917805
 42
0.1922719400571094
 10
670.6039915273247
 20
184.6359486046583
 42
0.2110160733286848
 10
670.9859445452186
 20
184.4766851534002
 10
672.2751910499889
 20
184.4766851534002
 10
672.0203121086533
 20
183.0347835592467
 10
670.9256415803115
 20
181.1377306845974
 10
669.2777250181827
 20
181.1377307499592
  0
LINE
  5
4526
330
1F
100
AcDbEntity
  8
KANAMONO_SCREW
370
    -3
100
AcDbLine
 10
669.5812662457631
 20
183.0348639708699
 30
0.0
 11
672.0203121086533
 21
183.0347835592467
 31
0.0
  0
LWPOLYLINE
  5
4527
330
1F
100
AcDbEntity
  8
KANAMONO_SCREW
370
    -3
100
AcDbPolyline
 90
        4
 70
     0
 43
0.0
 10
671.3311029388941
 20
199.2743243734713
 42
-0.4141897041352463
 10
670.8713163874608
 20
199.7296363148834
 10
670.8713163906484
 20
200.4102975034067
 42
-0.279432028215579
 10
671.120863345945
 20
200.8188000750167
 42
-3.4148491111701
  0
LWPOLYLINE
  5
4528
330
1F
100
AcDbEntity
  8
KANAMONO_SCREW
370
    -3
100
AcDbPolyline
 90
        4
 70
     0
 43
0.0
 10
671.3311029388941
 20
195.5559434977454
 42
-0.4141897041352463
 10
670.8713163874608
 20
196.0112554391575
 10
670.8713163906484
 20
196.6919166276808
 42
-0.279432028215579
 10
671.120863345945
 20
197.1004191992908
 42
-3.4148491111701
  0
LWPOLYLINE
  5
4529
330
1F
100
AcDbEntity
  8
KANAMONO_SCREW
370
    -3
100
AcDbPolyline
 90
        4
 70
     0
 43
0.0
 10
671.3311031631551
 20
191.8375621475016
 42
-0.4141897041352463
 10
670.8713166117218
 20
192.2928740889137
 10
670.8713166149093
 20
192.973535277437
 42
-0.279432028215579
 10
671.1208635702059
 20
193.382037849047
 42
-3.4148491111701
  0
LWPOLYLINE
  5
452A
330
1F
100
AcDbEntity
  8
KANAMONO_SCREW
370
    -3
100
AcDbPolyline
 90
        4
 70
     0
 43
0.0
 10
671.3311033874161
 20
188.1191810345168
 42
-0.4141897041352463
 10
670.8713168359827
 20
188.5744929759289
 10
670.8713168391702
 20
189.2551541644521
 42
-0.279432028215579
 10
671.1208637944669
 20
189.6636567360621
 42
-3.4148491111701
  0
LWPOLYLINE
  5
452B
330
1F
100
AcDbEntity
  8
KANAMONO_SCREW
370
    -3
100
AcDbPolyline
 90
        4
 70
     0
 43
0.0
 10
671.3311033874161
 20
184.4766852503683
 42
-0.4141897041352463
 10
670.8713168359827
 20
184.9319971917805
 10
670.8713168391702
 20
185.6126583803037
 42
-0.279432028215579
 10
671.1208637944669
 20
186.0211609519137
 42
-3.4148491111701
  0
LWPOLYLINE
  5
452C
330
1F
100
AcDbEntity
  8
KANAMONO_SCREW
370
    -3
100
AcDbPolyline
 90
        3
 70
     0
 43
0.0
 10
670.4857775763244
 20
181.1377307020441
 10
670.4857775763241
 20
184.6471035409585
 10
670.6039915273247
 20
184.6359486046583
  0
LWPOLYLINE
  5
452D
330
1F
100
AcDbEntity
  8
KANAMONO_SCREW
370
    -3
100
AcDbPolyline
 90
        3
 70
     0
 43
0.0
 10
670.4857775763241
 20
185.4119594766605
 10
670.4857775763655
 20
188.2757463289217
 10
670.617477862623
 20
188.2645165166206
  0
LWPOLYLINE
  5
452E
330
1F
100
AcDbEntity
  8
KANAMONO_SCREW
370
    -3
100
AcDbPolyline
 90
        3
 70
     0
 43
0.0
 10
670.4857775763241
 20
189.054455259853
 10
670.485777576366
 20
191.9941361703981
 10
670.6174611206649
 20
191.9829142151854
  0
LWPOLYLINE
  5
452F
330
1F
100
AcDbEntity
  8
KANAMONO_SCREW
370
    -3
100
AcDbPolyline
 90
        3
 70
     0
 43
0.0
 10
670.4857773520634
 20
192.7728363728379
 10
670.4857773521048
 20
195.7125172833828
 10
670.6174608964068
 20
195.7012953281664
  0
LWPOLYLINE
  5
4530
330
1F
100
AcDbEntity
  8
KANAMONO_SCREW
370
    -3
100
AcDbPolyline
 90
        3
 70
     0
 43
0.0
 10
670.4857771278027
 20
196.4912174858227
 10
670.4857771278027
 20
199.430898396371
 10
670.6174606721461
 20
199.4196764411512
  0
LINE
  5
4531
330
1F
100
AcDbEntity
  8
KANAMONO_SCREW
370
    -3
100
AcDbLine
 10
666.2802598034507
 20
199.2743242765032
 30
0.0
 11
666.2805633273173
 21
199.2725911735371
 31
0.0
  0
LINE
  5
4532
330
1F
100
AcDbEntity
  8
KANAMONO_SCREW
370
    -3
100
AcDbLine
 10
667.0277249304174
 20
197.3122179343024
 30
0.0
 11
667.0277249304174
 21
195.5559431635183
 31
0.0
  0
LINE
  5
4533
330
1F
100
AcDbEntity
  8
KANAMONO_SCREW
370
    -3
100
AcDbLine
 10
667.0277249304174
 20
193.5938367045746
 30
0.0
 11
667.0277249304174
 21
191.8375620505335
 31
0.0
  0
LINE
  5
4534
330
1F
100
AcDbEntity
  8
KANAMONO_SCREW
370
    -3
100
AcDbLine
 10
667.0277249304174
 20
189.875455474847
 30
0.0
 11
667.0277249304174
 21
188.1191809375486
 31
0.0
  0
LINE
  5
4535
330
1F
100
AcDbEntity
  8
KANAMONO_SCREW
370
    -3
100
AcDbLine
 10
667.0277249304174
 20
186.2329596906988
 30
0.0
 11
667.0277249304174
 21
184.4766851534002
 31
0.0
  0
LINE
  5
4536
330
1F
100
AcDbEntity
  8
KANAMONO_SCREW
370
    -3
100
AcDbLine
 10
668.0696726807939
 20
196.4912173857099
 30
0.0
 11
668.0696726807939
 21
196.0112552018986
 31
0.0
  0
LINE
  5
4537
330
1F
100
AcDbEntity
  8
KANAMONO_SCREW
370
    -3
100
AcDbLine
 10
667.4777249304184
 20
181.1507798536245
 30
0.0
 11
667.5134392161319
 21
180.9007798536244
 31
0.0
  0
LINE
  5
4538
330
1F
100
AcDbEntity
  8
KANAMONO_SCREW
370
    -3
100
AcDbLine
 10
667.4777249304184
 20
181.1507798536245
 30
0.0
 11
667.6122856178879
 21
181.168080513442
 31
0.0
  0
LINE
  5
4539
330
1F
100
AcDbEntity
  8
KANAMONO_SCREW
370
    -3
100
AcDbLine
 10
668.9741836150717
 20
183.0348639708699
 30
0.0
 11
666.5351377521815
 21
183.0347835592467
 31
0.0
  0
LWPOLYLINE
  5
453A
330
1F
100
AcDbEntity
  8
KANAMONO_SCREW
370
    -3
100
AcDbPolyline
 90
        4
 70
     0
 43
0.0
 10
667.2243469219406
 20
199.2743243734713
 42
0.4141897041352463
 10
667.6841334733739
 20
199.7296363148834
 10
667.6841334701864
 20
200.4102975034067
 42
0.279432028215579
 10
667.4345865148898
 20
200.8188000750167
 42
3.4148491111701
  0
LWPOLYLINE
  5
453B
330
1F
100
AcDbEntity
  8
KANAMONO_SCREW
370
    -3
100
AcDbPolyline
 90
        4
 70
     0
 43
0.0
 10
667.2243469219406
 20
195.5559434977454
 42
0.4141897041352463
 10
667.6841334733739
 20
196.0112554391575
 10
667.6841334701864
 20
196.6919166276808
 42
0.279432028215579
 10
667.4345865148898
 20
197.1004191992908
 42
3.4148491111701
  0
LWPOLYLINE
  5
453C
330
1F
100
AcDbEntity
  8
KANAMONO_SCREW
370
    -3
100
AcDbPolyline
 90
        4
 70
     0
 43
0.0
 10
667.2243466976797
 20
191.8375621475016
 42
0.4141897041352463
 10
667.6841332491131
 20
192.2928740889137
 10
667.6841332459255
 20
192.973535277437
 42
0.279432028215579
 10
667.4345862906289
 20
193.382037849047
 42
3.4148491111701
  0
LWPOLYLINE
  5
453D
330
1F
100
AcDbEntity
  8
KANAMONO_SCREW
370
    -3
100
AcDbPolyline
 90
        4
 70
     0
 43
0.0
 10
667.2243464734187
 20
188.1191810345168
 42
0.4141897041352463
 10
667.6841330248521
 20
188.5744929759289
 10
667.6841330216646
 20
189.2551541644521
 42
0.279432028215579
 10
667.4345860663679
 20
189.6636567360621
 42
3.4148491111701
  0
LWPOLYLINE
  5
453E
330
1F
100
AcDbEntity
  8
KANAMONO_SCREW
370
    -3
100
AcDbPolyline
 90
        4
 70
     0
 43
0.0
 10
667.2243464734187
 20
184.4766852503683
 42
0.4141897041352463
 10
667.6841330248521
 20
184.9319971917805
 10
667.6841330216646
 20
185.6126583803037
 42
0.279432028215579
 10
667.4345860663679
 20
186.0211609519137
 42
3.4148491111701
  0
LWPOLYLINE
  5
453F
330
1F
100
AcDbEntity
  8
KANAMONO_SCREW
370
    -3
100
AcDbPolyline
 90
        3
 70
     0
 43
0.0
 10
668.0696722845104
 20
181.1377307020441
 10
668.0696722845107
 20
184.6471035409585
 10
667.9514583335101
 20
184.6359486046583
  0
LWPOLYLINE
  5
4540
330
1F
100
AcDbEntity
  8
KANAMONO_SCREW
370
    -3
100
AcDbPolyline
 90
        3
 70
     0
 43
0.0
 10
668.0696722845107
 20
185.4119594766605
 10
668.0696722844693
 20
188.2757463289217
 10
667.9379719982119
 20
188.2645165166206
  0
LWPOLYLINE
  5
4541
330
1F
100
AcDbEntity
  8
KANAMONO_SCREW
370
    -3
100
AcDbPolyline
 90
        3
 70
     0
 43
0.0
 10
668.0696722845107
 20
189.054455259853
 10
668.0696722844689
 20
191.9941361703981
 10
667.9379887401698
 20
191.9829142151854
  0
LWPOLYLINE
  5
4542
330
1F
100
AcDbEntity
  8
KANAMONO_SCREW
370
    -3
100
AcDbPolyline
 90
        3
 70
     0
 43
0.0
 10
668.0696725087714
 20
192.7728363728379
 10
668.06967250873
 20
195.7125172833828
 10
667.937988964428
 20
195.7012953281664
  0
LWPOLYLINE
  5
4543
330
1F
100
AcDbEntity
  8
KANAMONO_SCREW
370
    -3
100
AcDbPolyline
 90
        3
 70
     0
 43
0.0
 10
668.0696727330321
 20
196.4912174858227
 10
668.0696727330321
 20
199.430898396371
 10
667.9379891886887
 20
199.4196764411512
  0
LWPOLYLINE
  5
4544
330
1F
100
AcDbEntity
  8
KANAMONO_SCREW
370
    -3
100
AcDbPolyline
 90
       39
 70
     0
 43
0.0
 10
666.2802600883387
 20
202.6874323621528
 10
666.526739327879
 20
201.2913987148312
 10
667.7893593416397
 20
200.6341199773565
 42
-0.2592004735663025
 10
668.0696771463392
 20
200.2095987704324
 10
668.0696770383767
 20
199.7296365866213
 42
-0.2036136011950793
 10
667.9379934765495
 20
199.41967674251
 42
-0.1982842753974383
 10
667.5696318614584
 20
199.274324660721
 10
666.2802580724912
 20
199.274324950752
 10
666.585676500664
 20
197.5423363994181
 10
667.7871196688272
 20
196.9169043294743
 42
-0.257920399275152
 10
668.0696763099287
 20
196.4912176574479
 10
668.0696762019663
 20
196.0112554736366
 42
-0.2036139203470236
 10
667.9379924158784
 20
195.7012956295253
 42
-0.1982836950201352
 10
667.5696306832492
 20
195.5559435477363
 10
666.2802629979449
 20
195.5559438377658
 10
666.5856754399928
 20
193.8239552864334
 10
667.7871186081558
 20
193.1985232164896
 42
-0.2579203992749133
 10
668.0696752492576
 20
192.7728365444633
 10
668.0696751412952
 20
192.292874360652
 42
-0.2036139203458012
 10
667.9379913552097
 20
191.9829145165445
 42
-0.1982836950192671
 10
667.5696296225781
 20
191.8375624347515
 10
666.2802619372737
 20
191.8375627247812
 10
666.5856743793215
 20
190.1055741734488
 10
667.7871175474847
 20
189.4801421035049
 42
-0.257920399274954
 10
668.0696741885865
 20
189.0544554314785
 10
668.0696741328622
 20
188.5744931823055
 42
-0.2036275691502115
 10
667.9379737768374
 20
188.2645168179836
 42
-0.1982685003745556
 10
667.5696291847976
 20
188.1191813217668
 10
666.2802608766023
 20
188.1191816117965
 10
666.5709408789162
 20
186.4707477418409
 10
667.7876941005852
 20
185.8373457581228
 42
-0.2582492780404442
 10
668.0696734214839
 20
185.4119597474431
 10
668.0696732612832
 20
184.931997463519
 42
-0.1922719400571094
 10
667.9514592959279
 20
184.6359489029878
 42
-0.2110160733286848
 10
667.5695062422094
 20
184.4766855376459
 10
666.280259737439
 20
184.4766858276483
 10
666.5351383544341
 20
183.0347841761624
 10
667.6298084560539
 20
181.1377310552788
 10
669.2777250181825
 20
181.1377307499592
  0
LINE
  5
4545
330
1F
100
AcDbEntity
  8
KANAMONO_SCREW
370
    -3
100
AcDbLine
 10
587.7777249304179
 20
601.2198170600684
 30
0.0
 11
582.7777249304179
 21
601.2198170600684
 31
0.0
  0
LINE
  5
4546
330
1F
100
AcDbEntity
  8
KANAMONO_SCREW
370
    -3
100
AcDbLine
 10
587.7777249304179
 20
595.7198170600683
 30
0.0
 11
582.7777249304179
 21
595.7198170600683
 31
0.0
  0
LINE
  5
4547
330
1F
100
AcDbEntity
  8
KANAMONO_SCREW
370
    -3
100
AcDbLine
 10
575.9143184569618
 20
595.4723459469769
 30
0.0
 11
582.7777249304179
 21
595.4723459469769
 31
0.0
  0
LINE
  5
4548
330
1F
100
AcDbEntity
  8
KANAMONO_SCREW
370
    -3
100
AcDbLine
 10
575.9143184569618
 20
601.4672869250546
 30
0.0
 11
582.7777249304179
 21
601.4672869250546
 31
0.0
  0
LINE
  5
4549
330
1F
100
AcDbEntity
  8
KANAMONO_SCREW
370
    -3
100
AcDbLine
 10
582.7777249304179
 20
595.4723459469769
 30
0.0
 11
582.7777249304179
 21
601.4672869250546
 31
0.0
  0
ARC
  5
454A
330
1F
100
AcDbEntity
  8
KANAMONO_SCREW
370
    -3
100
AcDbCircle
 10
581.177724930418
 20
598.4698170600684
 30
0.0
 40
0.6
100
AcDbArc
 50
210.3912602242429
 51
149.6087397757369
  0
LINE
  5
454B
330
1F
100
AcDbEntity
  8
KANAMONO_SCREW
370
    -3
100
AcDbLine
 10
557.7777249304179
 20
598.1662757447227
 30
0.0
 11
580.660170421329
 21
598.1662757447227
 31
0.0
  0
LINE
  5
454C
330
1F
100
AcDbEntity
  8
KANAMONO_SCREW
370
    -3
100
AcDbLine
 10
559.6748581513286
 20
598.7733583754143
 30
0.0
 11
580.6601704213291
 21
598.7733583754141
 31
0.0
  0
LINE
  5
454D
330
1F
100
AcDbEntity
  8
KANAMONO_SCREW
370
    -3
100
AcDbLine
 10
561.6478767010756
 20
598.7733583754141
 30
0.0
 11
561.6478767010756
 21
598.1662757447227
 31
0.0
  0
LINE
  5
454E
330
1F
100
AcDbEntity
  8
KANAMONO_SCREW
370
    -3
100
AcDbLine
 10
562.2549593317669
 20
598.7733583754141
 30
0.0
 11
562.2549593317669
 21
598.1662757447227
 31
0.0
  0
LINE
  5
454F
330
1F
100
AcDbEntity
  8
KANAMONO_SCREW
370
    -3
100
AcDbLine
 10
587.7777249304179
 20
596.9198170600682
 30
0.0
 11
587.7777249304179
 21
595.4723459469769
 31
0.0
  0
LINE
  5
4550
330
1F
100
AcDbEntity
  8
KANAMONO_SCREW
370
    -3
100
AcDbLine
 10
587.7777249304179
 20
601.4672869250546
 30
0.0
 11
587.7777249304179
 21
600.0198170600683
 31
0.0
  0
ARC
  5
4551
330
1F
100
AcDbEntity
  8
KANAMONO_SCREW
370
    -3
100
AcDbCircle
 10
588.2027249304178
 20
600.0198170600683
 30
0.0
 40
0.425
100
AcDbArc
 50
180.0
 51
0.0
  0
ARC
  5
4552
330
1F
100
AcDbEntity
  8
KANAMONO_SCREW
370
    -3
100
AcDbCircle
 10
588.2027249304178
 20
596.9198170600684
 30
0.0
 40
0.425
100
AcDbArc
 50
0.0
 51
180.0
  0
LINE
  5
4553
330
1F
100
AcDbEntity
  8
KANAMONO_SCREW
370
    -3
100
AcDbLine
 10
588.627724930418
 20
596.9198170600684
 30
0.0
 11
588.627724930418
 21
595.4723459469769
 31
0.0
  0
LINE
  5
4554
330
1F
100
AcDbEntity
  8
KANAMONO_SCREW
370
    -3
100
AcDbLine
 10
588.627724930418
 20
601.4672869250546
 30
0.0
 11
588.627724930418
 21
600.0198170600683
 31
0.0
  0
LINE
  5
4555
330
1F
100
AcDbEntity
  8
KANAMONO_SCREW
370
    -3
100
AcDbLine
 10
589.127724930418
 20
596.9198170600684
 30
0.0
 11
589.127724930418
 21
595.4723459469769
 31
0.0
  0
LINE
  5
4556
330
1F
100
AcDbEntity
  8
KANAMONO_SCREW
370
    -3
100
AcDbLine
 10
589.127724930418
 20
601.4672869250546
 30
0.0
 11
589.127724930418
 21
600.0198170600683
 31
0.0
  0
LINE
  5
4557
330
1F
100
AcDbEntity
  8
KANAMONO_SCREW
370
    -3
100
AcDbLine
 10
589.627724930418
 20
596.9198170600684
 30
0.0
 11
589.627724930418
 21
595.4723459469769
 31
0.0
  0
LINE
  5
4558
330
1F
100
AcDbEntity
  8
KANAMONO_SCREW
370
    -3
100
AcDbLine
 10
589.627724930418
 20
601.4672869250546
 30
0.0
 11
589.627724930418
 21
600.0198170600683
 31
0.0
  0
LINE
  5
4559
330
1F
100
AcDbEntity
  8
KANAMONO_SCREW
370
    -3
100
AcDbLine
 10
590.127724930418
 20
596.9198170600684
 30
0.0
 11
590.127724930418
 21
595.4723459469769
 31
0.0
  0
LINE
  5
455A
330
1F
100
AcDbEntity
  8
KANAMONO_SCREW
370
    -3
100
AcDbLine
 10
590.127724930418
 20
601.4672869250546
 30
0.0
 11
590.127724930418
 21
600.0198170600683
 31
0.0
  0
LINE
  5
455B
330
1F
100
AcDbEntity
  8
KANAMONO_SCREW
370
    -3
100
AcDbLine
 10
590.627724930418
 20
596.9198170600684
 30
0.0
 11
590.627724930418
 21
595.4723459469769
 31
0.0
  0
LINE
  5
455C
330
1F
100
AcDbEntity
  8
KANAMONO_SCREW
370
    -3
100
AcDbLine
 10
590.627724930418
 20
601.4672869250546
 30
0.0
 11
590.627724930418
 21
600.0198170600683
 31
0.0
  0
LINE
  5
455D
330
1F
100
AcDbEntity
  8
KANAMONO_SCREW
370
    -3
100
AcDbLine
 10
591.127724930418
 20
596.9198170600684
 30
0.0
 11
591.127724930418
 21
595.4723459469769
 31
0.0
  0
LINE
  5
455E
330
1F
100
AcDbEntity
  8
KANAMONO_SCREW
370
    -3
100
AcDbLine
 10
591.127724930418
 20
601.4672869250546
 30
0.0
 11
591.127724930418
 21
600.0198170600683
 31
0.0
  0
LINE
  5
455F
330
1F
100
AcDbEntity
  8
KANAMONO_SCREW
370
    -3
100
AcDbLine
 10
591.6277249304179
 20
596.9198170600684
 30
0.0
 11
591.6277249304179
 21
595.4723459469769
 31
0.0
  0
LINE
  5
4560
330
1F
100
AcDbEntity
  8
KANAMONO_SCREW
370
    -3
100
AcDbLine
 10
591.6277249304179
 20
601.4672869250546
 30
0.0
 11
591.6277249304179
 21
600.0198170600683
 31
0.0
  0
LINE
  5
4561
330
1F
100
AcDbEntity
  8
KANAMONO_SCREW
370
    -3
100
AcDbLine
 10
592.127724930418
 20
596.9198170600684
 30
0.0
 11
592.127724930418
 21
595.4723459469769
 31
0.0
  0
LINE
  5
4562
330
1F
100
AcDbEntity
  8
KANAMONO_SCREW
370
    -3
100
AcDbLine
 10
592.127724930418
 20
601.4672869250546
 30
0.0
 11
592.127724930418
 21
600.0198170600683
 31
0.0
  0
LINE
  5
4563
330
1F
100
AcDbEntity
  8
KANAMONO_SCREW
370
    -3
100
AcDbLine
 10
592.627724930418
 20
596.9198170600684
 30
0.0
 11
592.627724930418
 21
595.4723459469769
 31
0.0
  0
LINE
  5
4564
330
1F
100
AcDbEntity
  8
KANAMONO_SCREW
370
    -3
100
AcDbLine
 10
592.627724930418
 20
601.4672869250546
 30
0.0
 11
592.627724930418
 21
600.0198170600683
 31
0.0
  0
LINE
  5
4565
330
1F
100
AcDbEntity
  8
KANAMONO_SCREW
370
    -3
100
AcDbLine
 10
593.0777249304178
 20
596.9198170600684
 30
0.0
 11
593.0777249304178
 21
595.4723459469769
 31
0.0
  0
LINE
  5
4566
330
1F
100
AcDbEntity
  8
KANAMONO_SCREW
370
    -3
100
AcDbLine
 10
593.0777249304178
 20
601.4672869250546
 30
0.0
 11
593.0777249304178
 21
600.0198170600683
 31
0.0
  0
LINE
  5
4567
330
1F
100
AcDbEntity
  8
KANAMONO_SCREW
370
    -3
100
AcDbLine
 10
587.7777249304179
 20
595.4723459469769
 30
0.0
 11
595.2777249304179
 21
595.4723459469769
 31
0.0
  0
LINE
  5
4568
330
1F
100
AcDbEntity
  8
KANAMONO_SCREW
370
    -3
100
AcDbLine
 10
587.7777249304179
 20
601.4672869250546
 30
0.0
 11
595.2777249304179
 21
601.4672869250546
 31
0.0
  0
LINE
  5
4569
330
1F
100
AcDbEntity
  8
KANAMONO_SCREW
370
    -3
100
AcDbLine
 10
587.7777249304179
 20
596.9198170600682
 30
0.0
 11
584.8277249304178
 21
596.9198170600682
 31
0.0
  0
LINE
  5
456A
330
1F
100
AcDbEntity
  8
KANAMONO_SCREW
370
    -3
100
AcDbLine
 10
587.7777249304179
 20
600.0198170600683
 30
0.0
 11
584.8277249304178
 21
600.0198170600683
 31
0.0
  0
LINE
  5
456B
330
1F
100
AcDbEntity
  8
KANAMONO_SCREW
370
    -3
100
AcDbLine
 10
593.2277249304179
 20
596.9198170600684
 30
0.0
 11
588.627724930418
 21
596.9198170600684
 31
0.0
  0
LINE
  5
456C
330
1F
100
AcDbEntity
  8
KANAMONO_SCREW
370
    -3
100
AcDbLine
 10
593.2277249304179
 20
600.0198170600683
 30
0.0
 11
588.627724930418
 21
600.0198170600683
 31
0.0
  0
ARC
  5
456D
330
1F
100
AcDbEntity
  8
KANAMONO_SCREW
370
    -3
100
AcDbCircle
 10
584.8277249304178
 20
598.4698170600684
 30
0.0
 40
1.55
100
AcDbArc
 50
90.0
 51
270.0
  0
ARC
  5
456E
330
1F
100
AcDbEntity
  8
KANAMONO_SCREW
370
    -3
100
AcDbCircle
 10
593.2277249304179
 20
598.4698170600684
 30
0.0
 40
1.55
100
AcDbArc
 50
270.0
 51
90.0
  0
LINE
  5
456F
330
1F
100
AcDbEntity
  8
KANAMONO_SCREW
370
    -3
100
AcDbLine
 10
596.2777249304179
 20
604.9698170600684
 30
0.0
 11
597.7777249304178
 21
603.0198170600684
 31
0.0
  0
LINE
  5
4570
330
1F
100
AcDbEntity
  8
KANAMONO_SCREW
370
    -3
100
AcDbLine
 10
597.7777249304178
 20
593.9198170600684
 30
0.0
 11
596.2777249304179
 21
591.9698170600684
 31
0.0
  0
LINE
  5
4571
330
1F
100
AcDbEntity
  8
KANAMONO_SCREW
370
    -3
100
AcDbLine
 10
597.7777249304178
 20
603.0198170600684
 30
0.0
 11
597.7777249304178
 21
593.9198170600684
 31
0.0
  0
LINE
  5
4572
330
1F
100
AcDbEntity
  8
KANAMONO_SCREW
370
    -3
100
AcDbLine
 10
596.2777249304179
 20
591.9698170600684
 30
0.0
 11
595.2777249304179
 21
591.9698170600684
 31
0.0
  0
LINE
  5
4573
330
1F
100
AcDbEntity
  8
KANAMONO_SCREW
370
    -3
100
AcDbLine
 10
596.2777249304179
 20
604.9698170600684
 30
0.0
 11
596.2777249304179
 21
591.9698170600684
 31
0.0
  0
LINE
  5
4574
330
1F
100
AcDbEntity
  8
KANAMONO_SCREW
370
    -3
100
AcDbLine
 10
596.2777249304179
 20
604.9698170600684
 30
0.0
 11
595.2777249304179
 21
604.9698170600684
 31
0.0
  0
LINE
  5
4575
330
1F
100
AcDbEntity
  8
KANAMONO_SCREW
370
    -3
100
AcDbLine
 10
595.2777249304179
 20
604.9698170600684
 30
0.0
 11
595.2777249304179
 21
591.9698170600684
 31
0.0
  0
LINE
  5
4576
330
1F
100
AcDbEntity
  8
KANAMONO_SCREW
370
    -3
100
AcDbLine
 10
597.8407740340831
 20
602.3152689190831
 30
0.0
 11
597.8407740340831
 21
594.6243652010537
 31
0.0
  0
ARC
  5
4577
330
1F
100
AcDbEntity
  8
KANAMONO_SCREW
370
    -3
100
AcDbCircle
 10
597.1907740340832
 20
598.4698170600684
 30
0.0
 40
3.900000000000005
100
AcDbArc
 50
80.40593177313521
 51
81.34408328726953
  0
ARC
  5
4578
330
1F
100
AcDbEntity
  8
KANAMONO_SCREW
370
    -3
100
AcDbCircle
 10
597.1907740340832
 20
598.4698170600684
 30
0.0
 40
3.900000000000005
100
AcDbArc
 50
278.6559167127304
 51
279.5940682268648
  0
LINE
  5
4579
330
1F
100
AcDbEntity
  8
KANAMONO_SCREW
370
    -3
100
AcDbLine
 10
549.5407740340831
 20
598.4698170600684
 30
0.0
 11
556.9973784998642
 21
598.4698170600684
 31
0.0
  0
LINE
  5
457A
330
1F
100
AcDbEntity
  8
KANAMONO_SCREW
370
    -3
100
AcDbLine
 10
557.5407740340831
 20
596.7135787490565
 30
0.0
 11
557.5407740340831
 21
600.2341027743539
 31
0.0
  0
LINE
  5
457B
330
1F
100
AcDbEntity
  8
KANAMONO_SCREW
370
    -3
100
AcDbLine
 10
557.5407740340831
 20
600.2198170600684
 30
0.0
 11
554.5407740340831
 21
600.2198170600684
 31
0.0
  0
LINE
  5
457C
330
1F
100
AcDbEntity
  8
KANAMONO_SCREW
370
    -3
100
AcDbLine
 10
557.5407740340831
 20
596.7198170600684
 30
0.0
 11
554.5407740340831
 21
596.7198170600684
 31
0.0
  0
LINE
  5
457D
330
1F
100
AcDbEntity
  8
KANAMONO_SCREW
370
    -3
100
AcDbLine
 10
554.5407740340831
 20
600.2198170600684
 30
0.0
 11
554.5407740340831
 21
596.7198170600684
 31
0.0
  0
ELLIPSE
  5
457E
330
1F
100
AcDbEntity
  8
KANAMONO_SCREW
370
    -3
100
AcDbEllipse
 10
554.5407740340831
 20
599.7198170600683
 30
0.0
 11
1.700000000000017
 21
-0.0000000000000031
 31
0.0
210
0.0
220
0.0
230
1.0
 40
0.2941176470588373
 41
0.0
 42
1.570796326794863
  0
ELLIPSE
  5
457F
330
1F
100
AcDbEntity
  8
KANAMONO_SCREW
370
    -3
100
AcDbEllipse
 10
554.5407740340831
 20
597.2198170600684
 30
0.0
 11
1.700000000000017
 21
-0.0000000000000031
 31
0.0
210
0.0
220
0.0
230
1.0
 40
0.2941176470588038
 41
-1.570796326794896
 42
0.0
  0
ELLIPSE
  5
4580
330
1F
100
AcDbEntity
  8
KANAMONO_SCREW
370
    -3
100
AcDbEllipse
 10
554.5407740340831
 20
597.2198170600684
 30
0.0
 11
1.700000000000017
 21
-0.0000000000000031
 31
0.0
210
0.0
220
0.0
230
1.0
 40
0.7353489374659476
 41
0.0
 42
1.570796326794895
  0
ELLIPSE
  5
4581
330
1F
100
AcDbEntity
  8
KANAMONO_SCREW
370
    -3
100
AcDbEllipse
 10
554.5407740340831
 20
599.7198170600683
 30
0.0
 11
1.700000000000017
 21
-0.0000000000000031
 31
0.0
210
0.0
220
0.0
230
1.0
 40
0.7352941176470348
 41
-1.559108661948553
 42
0.0
  0
LINE
  5
4582
330
1F
100
AcDbEntity
  8
KANAMONO_SCREW
370
    -3
100
AcDbLine
 10
554.5407740340831
 20
596.7198170600684
 30
0.0
 11
549.5407740340831
 21
598.4698170600684
 31
0.0
  0
LINE
  5
4583
330
1F
100
AcDbEntity
  8
KANAMONO_SCREW
370
    -3
100
AcDbLine
 10
549.5407740340831
 20
598.4698170600684
 30
0.0
 11
554.5407740340831
 21
600.2198170600684
 31
0.0
  0
LINE
  5
4584
330
1F
100
AcDbEntity
  8
KANAMONO_SCREW
370
    -3
100
AcDbLine
 10
575.9143184569618
 20
595.4723519331016
 30
0.0
 11
575.9125853539958
 21
595.4726554569683
 31
0.0
  0
LINE
  5
4585
330
1F
100
AcDbEntity
  8
KANAMONO_SCREW
370
    -3
100
AcDbLine
 10
573.9522121147611
 20
596.2198170600684
 30
0.0
 11
572.1959373439769
 21
596.2198170600684
 31
0.0
  0
LINE
  5
4586
330
1F
100
AcDbEntity
  8
KANAMONO_SCREW
370
    -3
100
AcDbLine
 10
570.2338308850332
 20
596.2198170600684
 30
0.0
 11
568.4775562309921
 21
596.2198170600684
 31
0.0
  0
LINE
  5
4587
330
1F
100
AcDbEntity
  8
KANAMONO_SCREW
370
    -3
100
AcDbLine
 10
566.5154496553056
 20
596.2198170600684
 30
0.0
 11
564.7591751180073
 21
596.2198170600684
 31
0.0
  0
LINE
  5
4588
330
1F
100
AcDbEntity
  8
KANAMONO_SCREW
370
    -3
100
AcDbLine
 10
562.8729538711574
 20
596.2198170600684
 30
0.0
 11
561.1166793338589
 21
596.2198170600684
 31
0.0
  0
LINE
  5
4589
330
1F
100
AcDbEntity
  8
KANAMONO_SCREW
370
    -3
100
AcDbLine
 10
573.1312115661685
 20
597.2617648104448
 30
0.0
 11
572.6512493823572
 21
597.2617648104448
 31
0.0
  0
LINE
  5
458A
330
1F
100
AcDbEntity
  8
KANAMONO_SCREW
370
    -3
100
AcDbLine
 10
557.7907740340832
 20
596.6698170600693
 30
0.0
 11
557.5407740340831
 21
596.7055313457828
 31
0.0
  0
LINE
  5
458B
330
1F
100
AcDbEntity
  8
KANAMONO_SCREW
370
    -3
100
AcDbLine
 10
557.7907740340832
 20
596.6698170600693
 30
0.0
 11
557.8080746939007
 21
596.8043777475388
 31
0.0
  0
LWPOLYLINE
  5
458C
330
1F
100
AcDbEntity
  8
KANAMONO_SCREW
370
    -3
100
AcDbPolyline
 90
       39
 70
     0
 43
0.0
 10
579.327425868363
 20
595.4723471950821
 10
577.9313922764843
 20
595.7188267486456
 10
577.2741138230226
 20
596.9814469102539
 42
0.2592004735663025
 10
576.8495926791531
 20
597.2617648104448
 10
576.3696304953421
 20
597.2617648104448
 42
0.2036136011950793
 10
576.0596706216099
 20
597.1300813183397
 42
0.1982842753974383
 10
575.9143184569618
 20
596.7617197359441
 10
575.9143184569618
 20
595.4723459469769
 10
574.1823299743287
 20
595.7777647647422
 10
573.5568981746367
 20
596.9792080735897
 42
0.257920399275152
 10
573.1312115661685
 20
597.2617648104448
 10
572.6512493823572
 20
597.2617648104448
 42
0.2036139203470236
 10
572.3412895086251
 20
597.130081094079
 42
0.1982836950201352
 10
572.1959373439769
 20
596.7617193941452
 10
572.1959373439769
 20
595.4723517088409
 10
570.4639488613438
 20
595.7777645404815
 10
569.8385170616519
 20
596.9792078493287
 42
0.2579203992749133
 10
569.4128304531837
 20
597.2617645861841
 10
568.9328682693724
 20
597.2617645861841
 42
0.2036139203458012
 10
568.622908395644
 20
597.1300808698209
 42
0.1982836950192671
 10
568.4775562309921
 20
596.7617191698845
 10
568.4775562309921
 20
595.4723514845802
 10
566.745567748359
 20
595.7777643162205
 10
566.120135948667
 20
596.979207625068
 42
0.257920399274954
 10
565.6944493401988
 20
597.2617643619234
 10
565.2144870910258
 20
597.2617644141616
 42
0.2036275691502115
 10
564.9045106970793
 20
597.1300641278628
 42
0.1982685003745556
 10
564.7591751180073
 20
596.7617195685145
 10
564.7591751180073
 20
595.4723512603193
 10
563.1107413134371
 20
595.7630316334309
 10
562.4773396034147
 20
596.9797849975768
 42
0.2582492780404442
 10
562.0519536561633
 20
597.2617644141616
 10
561.5719913722391
 20
597.2617643619234
 42
0.1922719400571094
 10
561.275942785117
 20
597.143550463161
 42
0.2110160733286848
 10
561.1166793338589
 20
596.7615974452671
 10
561.1166793338589
 20
595.4723509404969
 10
559.6747777397053
 20
595.7272298818325
 10
557.7777248650561
 20
596.8219004101743
 10
557.7777249304179
 20
598.4698169723031
  0
LINE
  5
458D
330
1F
100
AcDbEntity
  8
KANAMONO_SCREW
370
    -3
100
AcDbLine
 10
559.6748581513286
 20
598.1662757447227
 30
0.0
 11
559.6747777397053
 21
595.7272298818325
 31
0.0
  0
LWPOLYLINE
  5
458E
330
1F
100
AcDbEntity
  8
KANAMONO_SCREW
370
    -3
100
AcDbPolyline
 90
        4
 70
     0
 43
0.0
 10
575.91431855393
 20
596.4164390515916
 42
-0.4141897041352463
 10
576.3696304953421
 20
596.876225603025
 10
577.0502916838653
 20
596.8762255998374
 42
-0.279432028215579
 10
577.4587942554753
 20
596.6266786445408
 42
-3.4148491111701
  0
LWPOLYLINE
  5
458F
330
1F
100
AcDbEntity
  8
KANAMONO_SCREW
370
    -3
100
AcDbPolyline
 90
        4
 70
     0
 43
0.0
 10
572.1959376782041
 20
596.4164390515916
 42
-0.4141897041352463
 10
572.6512496196162
 20
596.876225603025
 10
573.3319108081395
 20
596.8762255998374
 42
-0.279432028215579
 10
573.7404133797495
 20
596.6266786445408
 42
-3.4148491111701
  0
LWPOLYLINE
  5
4590
330
1F
100
AcDbEntity
  8
KANAMONO_SCREW
370
    -3
100
AcDbPolyline
 90
        4
 70
     0
 43
0.0
 10
568.4775563279603
 20
596.4164388273307
 42
-0.4141897041352463
 10
568.9328682693724
 20
596.876225378764
 10
569.6135294578956
 20
596.8762253755764
 42
-0.279432028215579
 10
570.0220320295056
 20
596.6266784202798
 42
-3.4148491111701
  0
LWPOLYLINE
  5
4591
330
1F
100
AcDbEntity
  8
KANAMONO_SCREW
370
    -3
100
AcDbPolyline
 90
        4
 70
     0
 43
0.0
 10
564.7591752149755
 20
596.4164386030697
 42
-0.4141897041352463
 10
565.2144871563876
 20
596.876225154503
 10
565.8951483449108
 20
596.8762251513155
 42
-0.279432028215579
 10
566.3036509165208
 20
596.6266781960189
 42
-3.4148491111701
  0
LWPOLYLINE
  5
4592
330
1F
100
AcDbEntity
  8
KANAMONO_SCREW
370
    -3
100
AcDbPolyline
 90
        4
 70
     0
 43
0.0
 10
561.116679430827
 20
596.4164386030697
 42
-0.4141897041352463
 10
561.5719913722391
 20
596.876225154503
 10
562.2526525607623
 20
596.8762251513155
 42
-0.279432028215579
 10
562.6611551323724
 20
596.6266781960189
 42
-3.4148491111701
  0
LWPOLYLINE
  5
4593
330
1F
100
AcDbEntity
  8
KANAMONO_SCREW
370
    -3
100
AcDbPolyline
 90
        3
 70
     0
 43
0.0
 10
557.7777248825027
 20
597.2617644141614
 10
561.2870977214172
 20
597.2617644141616
 10
561.275942785117
 20
597.143550463161
  0
LWPOLYLINE
  5
4594
330
1F
100
AcDbEntity
  8
KANAMONO_SCREW
370
    -3
100
AcDbPolyline
 90
        3
 70
     0
 43
0.0
 10
562.0519536571191
 20
597.2617644141616
 10
564.9157405093803
 20
597.2617644141203
 10
564.9045106970793
 20
597.1300641278628
  0
LWPOLYLINE
  5
4595
330
1F
100
AcDbEntity
  8
KANAMONO_SCREW
370
    -3
100
AcDbPolyline
 90
        3
 70
     0
 43
0.0
 10
565.6944494403116
 20
597.2617644141616
 10
568.6341303508568
 20
597.2617644141198
 10
568.622908395644
 20
597.1300808698209
  0
LWPOLYLINE
  5
4596
330
1F
100
AcDbEntity
  8
KANAMONO_SCREW
370
    -3
100
AcDbPolyline
 90
        3
 70
     0
 43
0.0
 10
569.4128305532965
 20
597.2617646384223
 10
572.3525114638415
 20
597.261764638381
 10
572.3412895086251
 20
597.130081094079
  0
LWPOLYLINE
  5
4597
330
1F
100
AcDbEntity
  8
KANAMONO_SCREW
370
    -3
100
AcDbPolyline
 90
        3
 70
     0
 43
0.0
 10
573.1312116662813
 20
597.261764862683
 10
576.0708925768296
 20
597.261764862683
 10
576.0596706216099
 20
597.1300813183397
  0
LINE
  5
4598
330
1F
100
AcDbEntity
  8
KANAMONO_SCREW
370
    -3
100
AcDbLine
 10
575.9143184569618
 20
601.4672821870351
 30
0.0
 11
575.9125853539958
 21
601.4669786631684
 31
0.0
  0
LINE
  5
4599
330
1F
100
AcDbEntity
  8
KANAMONO_SCREW
370
    -3
100
AcDbLine
 10
573.9522121147611
 20
600.7198170600684
 30
0.0
 11
572.1959373439769
 21
600.7198170600684
 31
0.0
  0
LINE
  5
459A
330
1F
100
AcDbEntity
  8
KANAMONO_SCREW
370
    -3
100
AcDbLine
 10
570.2338308850332
 20
600.7198170600684
 30
0.0
 11
568.4775562309921
 21
600.7198170600684
 31
0.0
  0
LINE
  5
459B
330
1F
100
AcDbEntity
  8
KANAMONO_SCREW
370
    -3
100
AcDbLine
 10
566.5154496553056
 20
600.7198170600684
 30
0.0
 11
564.7591751180073
 21
600.7198170600684
 31
0.0
  0
LINE
  5
459C
330
1F
100
AcDbEntity
  8
KANAMONO_SCREW
370
    -3
100
AcDbLine
 10
562.8729538711574
 20
600.7198170600684
 30
0.0
 11
561.1166793338589
 21
600.7198170600684
 31
0.0
  0
LINE
  5
459D
330
1F
100
AcDbEntity
  8
KANAMONO_SCREW
370
    -3
100
AcDbLine
 10
573.1312115661685
 20
599.6778693096919
 30
0.0
 11
572.6512493823572
 21
599.6778693096919
 31
0.0
  0
LINE
  5
459E
330
1F
100
AcDbEntity
  8
KANAMONO_SCREW
370
    -3
100
AcDbLine
 10
557.7907740340832
 20
600.2698170600674
 30
0.0
 11
557.5407740340831
 21
600.2341027743539
 31
0.0
  0
LINE
  5
459F
330
1F
100
AcDbEntity
  8
KANAMONO_SCREW
370
    -3
100
AcDbLine
 10
557.7907740340832
 20
600.2698170600674
 30
0.0
 11
557.8080746939007
 21
600.1352563725979
 31
0.0
  0
LINE
  5
45A0
330
1F
100
AcDbEntity
  8
KANAMONO_SCREW
370
    -3
100
AcDbLine
 10
559.6748581513286
 20
598.7733583754141
 30
0.0
 11
559.6747777397053
 21
601.2124042383042
 31
0.0
  0
LWPOLYLINE
  5
45A1
330
1F
100
AcDbEntity
  8
KANAMONO_SCREW
370
    -3
100
AcDbPolyline
 90
        4
 70
     0
 43
0.0
 10
575.91431855393
 20
600.5231950685452
 42
0.4141897041352463
 10
576.3696304953421
 20
600.0634085171118
 10
577.0502916838653
 20
600.0634085202993
 42
0.279432028215579
 10
577.4587942554753
 20
600.312955475596
 42
3.4148491111701
  0
LWPOLYLINE
  5
45A2
330
1F
100
AcDbEntity
  8
KANAMONO_SCREW
370
    -3
100
AcDbPolyline
 90
        4
 70
     0
 43
0.0
 10
572.1959376782041
 20
600.5231950685452
 42
0.4141897041352463
 10
572.6512496196162
 20
600.0634085171118
 10
573.3319108081395
 20
600.0634085202993
 42
0.279432028215579
 10
573.7404133797495
 20
600.312955475596
 42
3.4148491111701
  0
LWPOLYLINE
  5
45A3
330
1F
100
AcDbEntity
  8
KANAMONO_SCREW
370
    -3
100
AcDbPolyline
 90
        4
 70
     0
 43
0.0
 10
568.4775563279603
 20
600.5231952928061
 42
0.4141897041352463
 10
568.9328682693724
 20
600.0634087413727
 10
569.6135294578956
 20
600.0634087445603
 42
0.279432028215579
 10
570.0220320295056
 20
600.3129556998569
 42
3.4148491111701
  0
LWPOLYLINE
  5
45A4
330
1F
100
AcDbEntity
  8
KANAMONO_SCREW
370
    -3
100
AcDbPolyline
 90
        4
 70
     0
 43
0.0
 10
564.7591752149755
 20
600.523195517067
 42
0.4141897041352463
 10
565.2144871563876
 20
600.0634089656337
 10
565.8951483449108
 20
600.0634089688212
 42
0.279432028215579
 10
566.3036509165208
 20
600.3129559241179
 42
3.4148491111701
  0
LWPOLYLINE
  5
45A5
330
1F
100
AcDbEntity
  8
KANAMONO_SCREW
370
    -3
100
AcDbPolyline
 90
        4
 70
     0
 43
0.0
 10
561.116679430827
 20
600.523195517067
 42
0.4141897041352463
 10
561.5719913722391
 20
600.0634089656337
 10
562.2526525607623
 20
600.0634089688212
 42
0.279432028215579
 10
562.6611551323724
 20
600.3129559241179
 42
3.4148491111701
  0
LWPOLYLINE
  5
45A6
330
1F
100
AcDbEntity
  8
KANAMONO_SCREW
370
    -3
100
AcDbPolyline
 90
        3
 70
     0
 43
0.0
 10
557.7777248825027
 20
599.6778697059753
 10
561.2870977214172
 20
599.6778697059751
 10
561.275942785117
 20
599.7960836569757
  0
LWPOLYLINE
  5
45A7
330
1F
100
AcDbEntity
  8
KANAMONO_SCREW
370
    -3
100
AcDbPolyline
 90
        3
 70
     0
 43
0.0
 10
562.0519536571191
 20
599.6778697059751
 10
564.9157405093803
 20
599.6778697060165
 10
564.9045106970793
 20
599.8095699922739
  0
LWPOLYLINE
  5
45A8
330
1F
100
AcDbEntity
  8
KANAMONO_SCREW
370
    -3
100
AcDbPolyline
 90
        3
 70
     0
 43
0.0
 10
565.6944494403116
 20
599.6778697059751
 10
568.6341303508568
 20
599.6778697060169
 10
568.622908395644
 20
599.8095532503159
  0
LWPOLYLINE
  5
45A9
330
1F
100
AcDbEntity
  8
KANAMONO_SCREW
370
    -3
100
AcDbPolyline
 90
        3
 70
     0
 43
0.0
 10
569.4128305532965
 20
599.6778694817144
 10
572.3525114638415
 20
599.6778694817558
 10
572.3412895086251
 20
599.8095530260577
  0
LWPOLYLINE
  5
45AA
330
1F
100
AcDbEntity
  8
KANAMONO_SCREW
370
    -3
100
AcDbPolyline
 90
        3
 70
     0
 43
0.0
 10
573.1312116662813
 20
599.6778692574537
 10
576.0708925768296
 20
599.6778692574537
 10
576.0596706216099
 20
599.809552801797
  0
LWPOLYLINE
  5
45AB
330
1F
100
AcDbEntity
  8
KANAMONO_SCREW
370
    -3
100
AcDbPolyline
 90
       39
 70
     0
 43
0.0
 10
579.3274265426114
 20
601.4672819021471
 10
577.9313928952898
 20
601.2208026626067
 10
577.274114157815
 20
599.958182648846
 42
-0.2592004735663025
 10
576.849592950891
 20
599.6778648441465
 10
576.36963076708
 20
599.6778649521091
 42
-0.2036136011950793
 10
576.0596709229687
 20
599.8095485139363
 42
-0.1982842753974383
 10
575.9143188411797
 20
600.1779101290273
 10
575.9143191312107
 20
601.4672839179945
 10
574.1823305798768
 20
601.1618654898218
 10
573.556898509933
 20
599.9604223216586
 42
-0.257920399275152
 10
573.1312118379065
 20
599.677865680557
 10
572.6512496540952
 20
599.6778657885195
 42
-0.2036139203470236
 10
572.341289809984
 20
599.8095495746074
 42
-0.1982836950201352
 10
572.1959377281949
 20
600.1779113072366
 10
572.1959380182245
 20
601.4672789925409
 10
570.4639494668921
 20
601.1618665504929
 10
569.8385173969483
 20
599.9604233823299
 42
-0.2579203992749133
 10
569.4128307249219
 20
599.6778667412281
 10
568.9328685411107
 20
599.6778668491906
 42
-0.2036139203458012
 10
568.6229086970031
 20
599.809550635276
 42
-0.1982836950192671
 10
568.4775566152102
 20
600.1779123679077
 10
568.4775569052399
 20
601.4672800532121
 10
566.7455683539075
 20
601.1618676111643
 10
566.1201362839635
 20
599.9604244430011
 42
-0.257920399274954
 10
565.6944496119372
 20
599.6778678018992
 10
565.2144873627642
 20
599.6778678576236
 42
-0.2036275691502115
 10
564.9045109984423
 20
599.8095682136484
 42
-0.1982685003745556
 10
564.7591755022254
 20
600.1779128056882
 10
564.7591757922551
 20
601.4672811138835
 10
563.1107419222995
 20
601.1766011115696
 10
562.4773399385815
 20
599.9598478899006
 42
-0.2582492780404442
 10
562.0519539279017
 20
599.6778685690019
 10
561.5719916439776
 20
599.6778687292025
 42
-0.1922719400571094
 10
561.2759430834464
 20
599.7960826945579
 42
-0.2110160733286848
 10
561.1166797181046
 20
600.1780357482764
 10
561.1166800081069
 20
601.4672822530467
 10
559.6747783566211
 20
601.2124036360517
 10
557.7777252357375
 20
600.1177335344318
 10
557.7777249304179
 20
598.4698169723032
  0
ENDSEC
  0
SECTION
  2
OBJECTS
  0
DICTIONARY
  5
C
330
0
100
AcDbDictionary
281
     1
  3
ACAD_CIP_PREVIOUS_PRODUCT_INFO
350
3FF7
  3
ACAD_COLOR
350
3FD9
  3
ACAD_DETAILVIEWSTYLE
350
3FF2
  3
ACAD_GROUP
350
D
  3
ACAD_LAYOUT
350
1A
  3
ACAD_MATERIAL
350
3FA7
  3
ACAD_MLEADERSTYLE
350
3FEE
  3
ACAD_MLINESTYLE
350
17
  3
ACAD_PLOTSETTINGS
350
19
  3
ACAD_PLOTSTYLENAME
350
E
  3
ACAD_RENDER_ACTIVE_RAPIDRT_SETTINGS
350
432F
  3
ACAD_RENDER_ACTIVE_SETTINGS
350
45F2
  3
ACAD_SCALELIST
350
3FDC
  3
ACAD_SECTIONVIEWSTYLE
350
3FF0
  3
ACAD_TABLESTYLE
350
3FDA
  3
ACAD_VISUALSTYLE
350
3FC0
  3
ACDB_RECOMPOSE_DATA
350
45AE
  3
AcDbVariableDictionary
350
1835
  3
AEC_PROPERTY_SET_DEFS
350
400B
  3
DWGPROPS
350
45AF
  0
DICTIONARY
  5
4050
330
8
100
AcDbDictionary
280
     1
281
     1
  0
DICTIONARY
  5
2D
330
2
100
AcDbDictionary
280
     1
281
     1
  3
ACAD_LAYERFILTERS
360
2E
  3
ACAD_LAYERSTATES
360
918
  0
DICTIONARY
  5
403B
330
10
100
AcDbDictionary
280
     1
281
     1
  3
ADSK_XREC_LAYER_RECONCILED
360
403C
  0
DICTIONARY
  5
403D
330
235F
100
AcDbDictionary
280
     1
281
     1
  3
ADSK_XREC_LAYER_RECONCILED
360
403E
  0
DICTIONARY
  5
403F
330
2361
100
AcDbDictionary
280
     1
281
     1
  3
ADSK_XREC_LAYER_RECONCILED
360
4040
  0
DICTIONARY
  5
4041
330
32AD
100
AcDbDictionary
280
     1
281
     1
  3
ADSK_XREC_LAYER_RECONCILED
360
4042
  0
DICTIONARY
  5
4043
330
37DE
100
AcDbDictionary
280
     1
281
     1
  3
ADSK_XREC_LAYER_RECONCILED
360
4044
  0
DICTIONARY
  5
4045
330
37DF
100
AcDbDictionary
280
     1
281
     1
  3
ADSK_XREC_LAYER_RECONCILED
360
4046
  0
DICTIONARY
  5
4047
330
37E0
100
AcDbDictionary
280
     1
281
     1
  3
ADSK_XREC_LAYER_RECONCILED
360
4048
  0
DICTIONARY
  5
4049
330
37E1
100
AcDbDictionary
280
     1
281
     1
  3
ADSK_XREC_LAYER_RECONCILED
360
404A
  0
DICTIONARY
  5
3FF9
330
3FF8
100
AcDbDictionary
280
     1
281
     1
  3
ADSK_XREC_LAYER_RECONCILED
360
404B
  0
DICTIONARY
  5
439C
330
439B
100
AcDbDictionary
280
     1
281
     1
  0
DICTIONARY
  5
1C62
330
1F
100
AcDbDictionary
280
     1
281
     1
  3
ACAD_SORTENTS
360
1C63
  0
DICTIONARY
  5
4331
330
4330
100
AcDbDictionary
280
     1
281
     1
  0
XRECORD
  5
3FF7
102
{ACAD_REACTORS
330
C
102
}
330
C
100
AcDbXrecord
280
     1
300
ACD
300
2022
300

  0
DICTIONARY
  5
3FD9
102
{ACAD_REACTORS
330
C
102
}
330
C
100
AcDbDictionary
281
     1
  0
DICTIONARY
  5
3FF2
102
{ACAD_REACTORS
330
C
102
}
330
C
100
AcDbDictionary
281
     1
  3
Metric50
350
3FF3
  0
DICTIONARY
  5
D
102
{ACAD_REACTORS
330
C
102
}
330
C
100
AcDbDictionary
281
     1
  0
DICTIONARY
  5
1A
102
{ACAD_REACTORS
330
C
102
}
330
C
100
AcDbDictionary
281
     1
  3
Model
350
22
  3
\U+FF9A\U+FF72\U+FF71\U+FF73\U+FF841
350
1CD1
  0
DICTIONARY
  5
3FA7
102
{ACAD_REACTORS
330
C
102
}
330
C
100
AcDbDictionary
281
     1
  3
ByBlock
350
3FB0
  3
ByLayer
350
3FA8
  3
Global
350
3FB8
  0
DICTIONARY
  5
3FEE
102
{ACAD_REACTORS
330
C
102
}
330
C
100
AcDbDictionary
281
     1
  3
Standard
350
3FEF
  0
DICTIONARY
  5
17
102
{ACAD_REACTORS
330
C
102
}
330
C
100
AcDbDictionary
281
     1
  3
Standard
350
18
  0
DICTIONARY
  5
19
102
{ACAD_REACTORS
330
C
102
}
330
C
100
AcDbDictionary
281
     1
  0
ACDBDICTIONARYWDFLT
  5
E
102
{ACAD_REACTORS
330
C
102
}
330
C
100
AcDbDictionary
281
     1
  3
Normal
350
F
  3
細線
350
37E2
  3
通常
350
29
100
AcDbDictionaryWithDefault
340
F
  0
RAPIDRTRENDERSETTINGS
  5
432F
102
{ACAD_REACTORS
330
C
102
}
330
C
100
AcDbRenderSettings
 90
        2
  1
中
290
     1
290
     0
290
     1
290
     1
  1

  1
5 レンダリング レベルを適用
 90
        0
100
AcDbRapidRTRenderSettings
 90
        3
 70
     0
 90
        5
 90
        1
 70
     1
 70
     2
 40
3.0
 40
3.0
290
     1
  0
MENTALRAYRENDERSETTINGS
  5
45F2
102
{ACAD_XDICTIONARY
360
45F3
102
}
102
{ACAD_REACTORS
330
C
102
}
330
C
100
AcDbRenderSettings
 90
        2
  1
中間
290
     1
290
     1
290
     1
290
     1
  1

  1

 90
        0
100
AcDbMentalRayRenderSettings
 90
        2
 90
        0
 90
        1
 70
     2
 40
3.0
 40
3.0
 40
0.0500000007450581
 40
0.0500000007450581
 40
0.0500000007450581
 40
0.0500000007450581
 70
     0
290
     0
290
     1
 90
        5
 90
        5
 90
        5
290
     0
 90
      500
290
     0
 40
1.0
 90
    10000
 90
        5
 90
        5
 90
        5
290
     0
 90
      200
290
     0
290
     0
290
     0
 40
1.0
 40
1.0
 40
1500.0
 70
     0
 70
     0
 40
10.0
 70
     0
 70
     0
290
     0
  1

 90
       32
 70
     0
 90
     1048
290
     0
 40
1.0
  0
DICTIONARY
  5
3FDC
102
{ACAD_REACTORS
330
C
102
}
330
C
100
AcDbDictionary
281
     1
  3
A0
350
3FDD
  3
A1
350
3FDE
  3
A2
350
3FDF
  3
A3
350
3FE0
  3
A4
350
3FE1
  3
A5
350
3FE2
  3
A6
350
3FE3
  3
A7
350
3FE4
  3
A8
350
3FE5
  3
A9
350
3FE6
  3
B0
350
3FE7
  3
B1
350
3FE8
  3
B2
350
3FE9
  3
B3
350
3FEA
  3
B4
350
3FEB
  3
B5
350
3FEC
  3
B6
350
3FED
  0
DICTIONARY
  5
3FF0
102
{ACAD_REACTORS
330
C
102
}
330
C
100
AcDbDictionary
281
     1
  3
Metric50
350
3FF1
  0
DICTIONARY
  5
3FDA
102
{ACAD_REACTORS
330
C
102
}
330
C
100
AcDbDictionary
281
     1
  3
Standard
350
3FDB
  0
DICTIONARY
  5
3FC0
102
{ACAD_REACTORS
330
C
102
}
330
C
100
AcDbDictionary
281
     1
  3
2dWireframe
350
3FC6
  3
3D Hidden
350
409B
  3
3dWireframe
350
409A
  3
Basic
350
3FC5
  3
Brighten
350
3FCC
  3
ColorChange
350
3FD0
  3
Conceptual
350
3FC9
  3
Dim
350
3FCB
  3
EdgeColorOff
350
3FD8
  3
Facepattern
350
3FCF
  3
Flat
350
3FC1
  3
FlatWithEdges
350
3FC2
  3
Gouraud
350
3FC3
  3
GouraudWithEdges
350
3FC4
  3
Hidden
350
3FC8
  3
JitterOff
350
3FD6
  3
Linepattern
350
3FCE
  3
OverhangOff
350
3FD7
  3
Realistic
350
3FCA
  3
Shaded
350
3FD5
  3
Shaded with edges
350
3FD4
  3
Shades of Gray
350
3FD1
  3
Sketchy
350
3FD2
  3
Thicken
350
3FCD
  3
Wireframe
350
3FC7
  3
X-Ray
350
3FD3
  0
XRECORD
  5
45AE
102
{ACAD_REACTORS
330
C
102
}
330
C
100
AcDbXrecord
280
     1
 90
        1
330
3FDB
  0
DICTIONARY
  5
1835
102
{ACAD_REACTORS
330
C
102
}
330
C
100
AcDbDictionary
281
     1
  3
CANNOSCALE
350
4095
  3
CMLEADERSTYLE
350
4092
  3
CTABLESTYLE
350
4091
  3
CVIEWDETAILSTYLE
350
4093
  3
CVIEWSECTIONSTYLE
350
4094
  3
DIMASSOC
350
4097
  3
INDEXCTL
350
4096
  3
SORTENTS
350
1836
  3
XCLIPFRAME
350
45AC
  0
DICTIONARY
  5
400B
102
{ACAD_REACTORS
330
C
102
}
330
C
100
AcDbDictionary
281
     1
  0
XRECORD
  5
45AF
102
{ACAD_REACTORS
330
C
102
}
330
C
100
AcDbXrecord
280
     1
  1
DWGPROPS COOKIE
  2

  3

  4

  6

  7

  8
2020009
  9

300
=
301
=
302
=
303
=
304
=
305
=
306
=
307
=
308
=
309
=
 40
0.2351988541666667
 41
2453276.413761574
 42
2459986.618391204
  1

 90
        0
  0
DICTIONARY
  5
2E
102
{ACAD_REACTORS
330
2D
102
}
330
2D
100
AcDbDictionary
280
     1
281
     1
  0
DICTIONARY
  5
918
102
{ACAD_REACTORS
330
2D
102
}
330
2D
100
AcDbDictionary
281
     1
  0
XRECORD
  5
403C
102
{ACAD_REACTORS
330
403B
102
}
330
403B
100
AcDbXrecord
280
     1
290
     1
  0
XRECORD
  5
403E
102
{ACAD_REACTORS
330
403D
102
}
330
403D
100
AcDbXrecord
280
     1
290
     1
  0
XRECORD
  5
4040
102
{ACAD_REACTORS
330
403F
102
}
330
403F
100
AcDbXrecord
280
     1
290
     1
  0
XRECORD
  5
4042
102
{ACAD_REACTORS
330
4041
102
}
330
4041
100
AcDbXrecord
280
     1
290
     1
  0
XRECORD
  5
4044
102
{ACAD_REACTORS
330
4043
102
}
330
4043
100
AcDbXrecord
280
     1
290
     1
  0
XRECORD
  5
4046
102
{ACAD_REACTORS
330
4045
102
}
330
4045
100
AcDbXrecord
280
     1
290
     1
  0
XRECORD
  5
4048
102
{ACAD_REACTORS
330
4047
102
}
330
4047
100
AcDbXrecord
280
     1
290
     1
  0
XRECORD
  5
404A
102
{ACAD_REACTORS
330
4049
102
}
330
4049
100
AcDbXrecord
280
     1
290
     1
  0
XRECORD
  5
404B
102
{ACAD_REACTORS
330
3FF9
102
}
330
3FF9
100
AcDbXrecord
280
     1
290
     1
  0
SORTENTSTABLE
  5
1C63
102
{ACAD_REACTORS
330
1C62
102
}
330
1C62
100
AcDbSortentsTable
330
1F
331
3F01
  5
3F09
331
3F03
  5
3F0F
331
3F05
  5
3F11
331
3F07
  5
3F19
331
3F09
  5
3F1A
331
3F0B
  5
3F20
331
3F0D
  5
3F22
331
3F0F
  5
3F2B
331
3F11
  5
400F
331
3F13
  5
4013
331
3F18
  5
4443
331
3F19
  5
4444
331
3F1A
  5
4445
331
3F1B
  5
4446
331
3F1F
  5
4467
331
3F20
  5
4468
331
3F22
  5
4477
331
3F24
  5
447E
331
3F2A
  5
44CF
331
3F2B
  5
44D0
331
400F
  5
44D5
331
4010
  5
44D6
331
4012
  5
44DB
331
4013
  5
44DC
331
4014
  5
44DD
331
43F8
  5
3F01
331
43F9
  5
3F03
331
43FA
  5
3F05
331
43FB
  5
3F07
331
43FC
  5
3F0B
331
43FD
  5
3F0D
331
43FE
  5
3F13
331
43FF
  5
3F18
331
4400
  5
3F1B
331
4401
  5
3F1F
331
4402
  5
3F24
331
4403
  5
3F2A
331
4404
  5
4010
331
4405
  5
4012
331
4406
  5
4014
331
4407
  5
43F8
331
4408
  5
43F9
331
4409
  5
43FA
331
440A
  5
43FB
331
440B
  5
43FC
331
440C
  5
43FD
331
440D
  5
43FE
331
440E
  5
43FF
331
440F
  5
4400
331
4410
  5
4401
331
4411
  5
4402
331
4412
  5
4403
331
4413
  5
4404
331
4414
  5
4405
331
4415
  5
4406
331
4416
  5
4407
331
4417
  5
4408
331
4418
  5
4409
331
4419
  5
440A
331
441A
  5
440B
331
441B
  5
440C
331
441C
  5
440D
331
441D
  5
440E
331
441E
  5
440F
331
441F
  5
4410
331
4420
  5
4411
331
4421
  5
4412
331
4422
  5
4413
331
4423
  5
4414
331
4424
  5
4415
331
4425
  5
4416
331
4426
  5
4417
331
4427
  5
4418
331
4428
  5
4419
331
4429
  5
441A
331
442A
  5
441B
331
442B
  5
441C
331
442C
  5
441D
331
442D
  5
441E
331
442E
  5
441F
331
442F
  5
4420
331
4430
  5
4421
331
4431
  5
4422
331
4432
  5
4423
331
4433
  5
4424
331
4434
  5
4425
331
4435
  5
4426
331
4436
  5
4427
331
4437
  5
4428
331
4438
  5
4429
331
4439
  5
442A
331
443A
  5
442B
331
443B
  5
442C
331
443C
  5
442D
331
443D
  5
442E
331
443E
  5
442F
331
443F
  5
4430
331
4440
  5
4431
331
4441
  5
4432
331
4442
  5
4433
331
4443
  5
4434
331
4444
  5
4435
331
4445
  5
4436
331
4446
  5
4437
331
4447
  5
4438
331
4448
  5
4439
331
4449
  5
443A
331
444A
  5
443B
331
444B
  5
443C
331
444C
  5
443D
331
444D
  5
443E
331
444E
  5
443F
331
444F
  5
4440
331
4450
  5
4441
331
4451
  5
4442
331
4452
  5
4447
331
4453
  5
4448
331
4454
  5
4449
331
4455
  5
444A
331
4456
  5
444B
331
4457
  5
444C
331
4458
  5
444D
331
4459
  5
444E
331
445A
  5
444F
331
445B
  5
4450
331
445C
  5
4451
331
445D
  5
4452
331
445E
  5
4453
331
445F
  5
4454
331
4460
  5
4455
331
4461
  5
4456
331
4462
  5
4457
331
4463
  5
4458
331
4464
  5
4459
331
4465
  5
445A
331
4466
  5
445B
331
4467
  5
445C
331
4468
  5
445D
331
4469
  5
445E
331
446A
  5
445F
331
446B
  5
4460
331
446C
  5
4461
331
446D
  5
4462
331
446E
  5
4463
331
446F
  5
4464
331
4470
  5
4465
331
4471
  5
4466
331
4472
  5
4469
331
4473
  5
446A
331
4474
  5
446B
331
4475
  5
446C
331
4476
  5
446D
331
4477
  5
446E
331
4478
  5
446F
331
4479
  5
4470
331
447A
  5
4471
331
447B
  5
4472
331
447C
  5
4473
331
447D
  5
4474
331
447E
  5
4475
331
447F
  5
4476
331
4480
  5
4478
331
4481
  5
4479
331
4482
  5
447A
331
4483
  5
447B
331
4484
  5
447C
331
4485
  5
447D
331
4486
  5
447F
331
4487
  5
4480
331
4488
  5
4481
331
4489
  5
4482
331
448A
  5
4483
331
448B
  5
4484
331
448C
  5
4485
331
448D
  5
4486
331
448E
  5
4487
331
448F
  5
4488
331
4490
  5
4489
331
4491
  5
448A
331
4492
  5
448B
331
4493
  5
448C
331
4494
  5
448D
331
4495
  5
448E
331
4496
  5
448F
331
4497
  5
4490
331
4498
  5
4491
331
4499
  5
4492
331
449A
  5
4493
331
449B
  5
4494
331
449C
  5
4495
331
449D
  5
4496
331
449E
  5
4497
331
449F
  5
4498
331
44A0
  5
4499
331
44A1
  5
449A
331
44A2
  5
449B
331
44A3
  5
449C
331
44A4
  5
449D
331
44A5
  5
449E
331
44A6
  5
449F
331
44A7
  5
44A0
331
44A8
  5
44A1
331
44A9
  5
44A2
331
44AA
  5
44A3
331
44AB
  5
44A4
331
44AC
  5
44A5
331
44AD
  5
44A6
331
44AE
  5
44A7
331
44AF
  5
44A8
331
44B0
  5
44A9
331
44B1
  5
44AA
331
44B2
  5
44AB
331
44B3
  5
44AC
331
44B4
  5
44AD
331
44B5
  5
44AE
331
44B6
  5
44AF
331
44B7
  5
44B0
331
44B8
  5
44B1
331
44B9
  5
44B2
331
44BA
  5
44B3
331
44BB
  5
44B4
331
44BC
  5
44B5
331
44BD
  5
44B6
331
44BE
  5
44B7
331
44BF
  5
44B8
331
44C0
  5
44B9
331
44C1
  5
44BA
331
44C2
  5
44BB
331
44C3
  5
44BC
331
44C4
  5
44BD
331
44C5
  5
44BE
331
44C6
  5
44BF
331
44C7
  5
44C0
331
44C8
  5
44C1
331
44C9
  5
44C2
331
44CA
  5
44C3
331
44CB
  5
44C4
331
44CC
  5
44C5
331
44CD
  5
44C6
331
44CE
  5
44C7
331
44CF
  5
44C8
331
44D0
  5
44C9
331
44D1
  5
44CA
331
44D2
  5
44CB
331
44D3
  5
44CC
331
44D4
  5
44CD
331
44D5
  5
44CE
331
44D6
  5
44D1
331
44D7
  5
44D2
331
44D8
  5
44D3
331
44D9
  5
44D4
331
44DA
  5
44D7
331
44DB
  5
44D8
331
44DC
  5
44D9
331
44DD
  5
44DA
  0
ACDBDETAILVIEWSTYLE
  5
3FF3
102
{ACAD_XDICTIONARY
360
45EC
102
}
102
{ACAD_REACTORS
330
3FF2
102
}
330
3FF2
100
AcDbModelDocViewStyle
 70
     0
  3
Metric50
290
     0
100
AcDbDetailViewStyle
 70
     0
 71
     0
 90
        3
 71
     1
340
11
 40
5.0
340
0
 40
5.0
300

 40
0.0
280
     1
 71
     2
340
16
 90
       25
 71
     3
340
11
 40
5.0
 90
        0
 40
15.0
 90
        1
300
%<\AcVar ViewDetailId>% (%<\AcVar ViewScale \f "%sn">%)
 71
     4
340
16
 90
       25
340
16
 90
       25
280
     0
1001
ACAD
1000
AcRTDxfName
1000
ACDBDETAILVIEWSTYLE
  0
LAYOUT
  5
22
102
{ACAD_XDICTIONARY
360
45B0
102
}
102
{ACAD_REACTORS
330
1A
102
}
330
1A
100
AcDbPlotSettings
  1

  2
Canon LBP3800 LIPSLX
  4
A4
  6

 40
5.873749732971191
 41
5.873747825622558
 42
5.873748779296875
 43
5.873748779296875
 44
209.9733276367187
 45
296.9259948730469
 46
0.61
 47
0.59
 48
444.9983463649091
 49
-1090.000000918417
140
2395.001653364909
141
1659.999999081583
142
1.0
143
10.0
 70
 11940
 72
     1
 73
     1
 74
     2
  7
monochrome.ctb
 75
     0
147
0.1
148
0.0
149
0.0
100
AcDbLayout
  1
Model
 70
     1
 71
     0
 10
0.0
 20
0.0
 11
12.0
 21
9.0
 12
0.0
 22
0.0
 32
0.0
 14
0.0
 24
0.0
 34
0.0
 15
0.0
 25
0.0
 35
0.0
146
0.0
 13
0.0
 23
0.0
 33
0.0
 16
1.0
 26
0.0
 36
0.0
 17
0.0
 27
1.0
 37
0.0
 76
     0
330
1F
331
3FA5
  0
LAYOUT
  5
1CD1
102
{ACAD_XDICTIONARY
360
45B2
102
}
102
{ACAD_REACTORS
330
1A
102
}
330
1A
100
AcDbPlotSettings
  1

  2
\\ek_srv\Canon LBP-880 LIPS4
  4

  6

 40
0.0
 41
0.0
 42
0.0
 43
0.0
 44
0.0
 45
0.0
 46
0.0
 47
0.0
 48
0.0
 49
0.0
140
0.0
141
0.0
142
1.0
143
1.0
 70
   688
 72
     0
 73
     0
 74
     5
  7
monochrome.ctb
 75
    16
147
1.0
148
0.0
149
0.0
100
AcDbLayout
  1
\U+FF9A\U+FF72\U+FF71\U+FF73\U+FF841
 70
     1
 71
     1
 10
0.0
 20
0.0
 11
12.0
 21
9.0
 12
0.0
 22
0.0
 32
0.0
 14
0.0
 24
0.0
 34
0.0
 15
0.0
 25
0.0
 35
0.0
146
0.0
 13
0.0
 23
0.0
 33
0.0
 16
1.0
 26
0.0
 36
0.0
 17
0.0
 27
1.0
 37
0.0
 76
     0
330
1CD0
  0
MATERIAL
  5
3FB0
102
{ACAD_XDICTIONARY
360
3FB1
102
}
102
{ACAD_REACTORS
330
3FA7
102
}
330
3FA7
100
AcDbMaterial
  1
ByBlock
 72
     0
 43
0.0008202099737533
 43
0.0
 43
0.0
 43
0.0
 43
0.0
 43
0.0008202099737533
 43
0.0
 43
0.0
 43
0.0
 43
0.0
 43
1.0
 43
0.0
 43
0.0
 43
0.0
 43
0.0
 43
1.0
 77
     0
 47
0.0008202099737533
 47
0.0
 47
0.0
 47
0.0
 47
0.0
 47
0.0008202099737533
 47
0.0
 47
0.0
 47
0.0
 47
0.0
 47
1.0
 47
0.0
 47
0.0
 47
0.0
 47
0.0
 47
1.0
171
     0
 49
0.0008202099737533
 49
0.0
 49
0.0
 49
0.0
 49
0.0
 49
0.0008202099737533
 49
0.0
 49
0.0
 49
0.0
 49
0.0
 49
1.0
 49
0.0
 49
0.0
 49
0.0
 49
0.0
 49
1.0
175
     0
142
0.0008202099737533
142
0.0
142
0.0
142
0.0
142
0.0
142
0.0008202099737533
142
0.0
142
0.0
142
0.0
142
0.0
142
1.0
142
0.0
142
0.0
142
0.0
142
0.0
142
1.0
179
     0
144
0.0008202099737533
144
0.0
144
0.0
144
0.0
144
0.0
144
0.0008202099737533
144
0.0
144
0.0
144
0.0
144
0.0
144
1.0
144
0.0
144
0.0
144
0.0
144
0.0
144
1.0
147
0.0008202099737533
147
0.0
147
0.0
147
0.0
147
0.0
147
0.0008202099737533
147
0.0
147
0.0
147
0.0
147
0.0
147
1.0
147
0.0
147
0.0
147
0.0
147
0.0
147
1.0
  0
MATERIAL
  5
3FA8
102
{ACAD_XDICTIONARY
360
3FA9
102
}
102
{ACAD_REACTORS
330
3FA7
102
}
330
3FA7
100
AcDbMaterial
  1
ByLayer
 72
     0
 43
0.0008202099737533
 43
0.0
 43
0.0
 43
0.0
 43
0.0
 43
0.0008202099737533
 43
0.0
 43
0.0
 43
0.0
 43
0.0
 43
1.0
 43
0.0
 43
0.0
 43
0.0
 43
0.0
 43
1.0
 77
     0
 47
0.0008202099737533
 47
0.0
 47
0.0
 47
0.0
 47
0.0
 47
0.0008202099737533
 47
0.0
 47
0.0
 47
0.0
 47
0.0
 47
1.0
 47
0.0
 47
0.0
 47
0.0
 47
0.0
 47
1.0
171
     0
 49
0.0008202099737533
 49
0.0
 49
0.0
 49
0.0
 49
0.0
 49
0.0008202099737533
 49
0.0
 49
0.0
 49
0.0
 49
0.0
 49
1.0
 49
0.0
 49
0.0
 49
0.0
 49
0.0
 49
1.0
175
     0
142
0.0008202099737533
142
0.0
142
0.0
142
0.0
142
0.0
142
0.0008202099737533
142
0.0
142
0.0
142
0.0
142
0.0
142
1.0
142
0.0
142
0.0
142
0.0
142
0.0
142
1.0
179
     0
144
0.0008202099737533
144
0.0
144
0.0
144
0.0
144
0.0
144
0.0008202099737533
144
0.0
144
0.0
144
0.0
144
0.0
144
1.0
144
0.0
144
0.0
144
0.0
144
0.0
144
1.0
147
0.0008202099737533
147
0.0
147
0.0
147
0.0
147
0.0
147
0.0008202099737533
147
0.0
147
0.0
147
0.0
147
0.0
147
1.0
147
0.0
147
0.0
147
0.0
147
0.0
147
1.0
  0
MATERIAL
  5
3FB8
102
{ACAD_XDICTIONARY
360
3FB9
102
}
102
{ACAD_REACTORS
330
3FA7
102
}
330
3FA7
100
AcDbMaterial
  1
Global
 72
     0
 43
0.0008202099737533
 43
0.0
 43
0.0
 43
0.0
 43
0.0
 43
0.0008202099737533
 43
0.0
 43
0.0
 43
0.0
 43
0.0
 43
1.0
 43
0.0
 43
0.0
 43
0.0
 43
0.0
 43
1.0
 77
     0
 47
0.0008202099737533
 47
0.0
 47
0.0
 47
0.0
 47
0.0
 47
0.0008202099737533
 47
0.0
 47
0.0
 47
0.0
 47
0.0
 47
1.0
 47
0.0
 47
0.0
 47
0.0
 47
0.0
 47
1.0
171
     0
 49
0.0008202099737533
 49
0.0
 49
0.0
 49
0.0
 49
0.0
 49
0.0008202099737533
 49
0.0
 49
0.0
 49
0.0
 49
0.0
 49
1.0
 49
0.0
 49
0.0
 49
0.0
 49
0.0
 49
1.0
175
     0
142
0.0008202099737533
142
0.0
142
0.0
142
0.0
142
0.0
142
0.0008202099737533
142
0.0
142
0.0
142
0.0
142
0.0
142
1.0
142
0.0
142
0.0
142
0.0
142
0.0
142
1.0
179
     0
144
0.0008202099737533
144
0.0
144
0.0
144
0.0
144
0.0
144
0.0008202099737533
144
0.0
144
0.0
144
0.0
144
0.0
144
1.0
144
0.0
144
0.0
144
0.0
144
0.0
144
1.0
147
0.0008202099737533
147
0.0
147
0.0
147
0.0
147
0.0
147
0.0008202099737533
147
0.0
147
0.0
147
0.0
147
0.0
147
1.0
147
0.0
147
0.0
147
0.0
147
0.0
147
1.0
  0
MLEADERSTYLE
  5
3FEF
102
{ACAD_XDICTIONARY
360
45E8
102
}
102
{ACAD_REACTORS
330
3FEE
102
}
330
3FEE
100
AcDbMLeaderStyle
170
     2
171
     1
172
     0
 90
        2
 40
0.0
 41
0.0
173
     1
 91
-1056964608
340
14
 92
       -2
290
     1
 42
2.0
291
     1
 43
0.36
  3
Standard
 44
4.0
300

342
11
174
     1
178
     6
175
     1
176
     0
 93
-1056964608
 45
4.0
292
     0
297
     0
 46
4.0
 94
-1056964608
 47
1.0
 49
1.0
140
1.0
293
     1
141
0.0
294
     1
177
     0
142
1.0
295
     0
296
     0
143
0.125
1001
ACAD_MLEADERVER
1070
     2
  0
MLINESTYLE
  5
18
102
{ACAD_REACTORS
330
17
102
}
330
17
100
AcDbMlineStyle
  2
STANDARD
 70
     0
  3

 62
   256
 51
90.0
 52
90.0
 71
     2
 49
0.5
 62
   256
  6
BYLAYER
 49
-0.5
 62
   256
  6
BYLAYER
  0
ACDBPLACEHOLDER
  5
F
102
{ACAD_REACTORS
330
E
102
}
330
E
  0
ACDBPLACEHOLDER
  5
37E2
102
{ACAD_REACTORS
330
E
102
}
330
E
  0
ACDBPLACEHOLDER
  5
29
102
{ACAD_REACTORS
330
E
102
}
330
E
  0
DICTIONARY
  5
45F3
330
45F2
100
AcDbDictionary
280
     1
281
     1
  3
ADSK_XREC_MENTALRAYSETTINGSINFO
360
45F4
  0
SCALE
  5
3FDD
102
{ACAD_REACTORS
330
3FDC
102
}
330
3FDC
100
AcDbScale
 70
     0
300
1:1
140
1.0
141
1.0
290
     1
  0
SCALE
  5
3FDE
102
{ACAD_REACTORS
330
3FDC
102
}
330
3FDC
100
AcDbScale
 70
     0
300
1:2
140
1.0
141
2.0
290
     0
  0
SCALE
  5
3FDF
102
{ACAD_REACTORS
330
3FDC
102
}
330
3FDC
100
AcDbScale
 70
     0
300
1:4
140
1.0
141
4.0
290
     0
  0
SCALE
  5
3FE0
102
{ACAD_REACTORS
330
3FDC
102
}
330
3FDC
100
AcDbScale
 70
     0
300
1:5
140
1.0
141
5.0
290
     0
  0
SCALE
  5
3FE1
102
{ACAD_REACTORS
330
3FDC
102
}
330
3FDC
100
AcDbScale
 70
     0
300
1:8
140
1.0
141
8.0
290
     0
  0
SCALE
  5
3FE2
102
{ACAD_REACTORS
330
3FDC
102
}
330
3FDC
100
AcDbScale
 70
     0
300
1:10
140
1.0
141
10.0
290
     0
  0
SCALE
  5
3FE3
102
{ACAD_REACTORS
330
3FDC
102
}
330
3FDC
100
AcDbScale
 70
     0
300
1:16
140
1.0
141
16.0
290
     0
  0
SCALE
  5
3FE4
102
{ACAD_REACTORS
330
3FDC
102
}
330
3FDC
100
AcDbScale
 70
     0
300
1:20
140
1.0
141
20.0
290
     0
  0
SCALE
  5
3FE5
102
{ACAD_REACTORS
330
3FDC
102
}
330
3FDC
100
AcDbScale
 70
     0
300
1:30
140
1.0
141
30.0
290
     0
  0
SCALE
  5
3FE6
102
{ACAD_REACTORS
330
3FDC
102
}
330
3FDC
100
AcDbScale
 70
     0
300
1:40
140
1.0
141
40.0
290
     0
  0
SCALE
  5
3FE7
102
{ACAD_REACTORS
330
3FDC
102
}
330
3FDC
100
AcDbScale
 70
     0
300
1:50
140
1.0
141
50.0
290
     0
  0
SCALE
  5
3FE8
102
{ACAD_REACTORS
330
3FDC
102
}
330
3FDC
100
AcDbScale
 70
     0
300
1:100
140
1.0
141
100.0
290
     0
  0
SCALE
  5
3FE9
102
{ACAD_REACTORS
330
3FDC
102
}
330
3FDC
100
AcDbScale
 70
     0
300
2:1
140
2.0
141
1.0
290
     0
  0
SCALE
  5
3FEA
102
{ACAD_REACTORS
330
3FDC
102
}
330
3FDC
100
AcDbScale
 70
     0
300
4:1
140
4.0
141
1.0
290
     0
  0
SCALE
  5
3FEB
102
{ACAD_REACTORS
330
3FDC
102
}
330
3FDC
100
AcDbScale
 70
     0
300
8:1
140
8.0
141
1.0
290
     0
  0
SCALE
  5
3FEC
102
{ACAD_REACTORS
330
3FDC
102
}
330
3FDC
100
AcDbScale
 70
     0
300
10:1
140
10.0
141
1.0
290
     0
  0
SCALE
  5
3FED
102
{ACAD_REACTORS
330
3FDC
102
}
330
3FDC
100
AcDbScale
 70
     0
300
100:1
140
100.0
141
1.0
290
     0
  0
ACDBSECTIONVIEWSTYLE
  5
3FF1
102
{ACAD_XDICTIONARY
360
45EA
102
}
102
{ACAD_REACTORS
330
3FF0
102
}
330
3FF0
100
AcDbModelDocViewStyle
 70
     0
  3
Metric50
290
     0
100
AcDbSectionViewStyle
 70
     0
 71
     0
 90
      102
 71
     1
340
11
 40
5.0
340
0
340
0
 40
5.0
300
I, O, Q, S, X, Z
 40
10.0
 90
        0
 40
2.5
 90
        0
 71
     2
340
16
 90
       25
340
16
 90
       50
 40
5.0
 40
2.5
 40
5.0
 71
     3
340
11
 40
5.0
 90
        0
 40
15.0
 90
        1
300
%<\AcVar ViewSectionStartId>%-%<\AcVar ViewSectionEndId>% (%<\AcVar ViewScale \f "%sn">%)
 71
     4
300
ANSI31
 40
1.0
 90
        0
290
     0
290
     0
 90
        6
 40
0.0
 40
1.570796326794896
 40
0.2617993877991494
 40
1.308996938995747
 40
-0.2617993877991494
 40
1.832595714594046
1001
ACAD
1000
AcRTDxfName
1000
ACDBSECTIONVIEWSTYLE
  0
TABLESTYLE
  5
3FDB
102
{ACAD_XDICTIONARY
360
404C
102
}
102
{ACAD_REACTORS
330
3FDA
102
}
330
3FDA
100
AcDbTableStyle
  3
Standard
 70
     0
 71
     0
 40
1.5
 41
1.5
280
     0
281
     0
  7
Standard
140
4.5
170
     2
 62
     0
 63
     7
283
     0
274
    -2
284
     1
 64
     0
275
    -2
285
     1
 65
     0
276
    -2
286
     1
 66
     0
277
    -2
287
     1
 67
     0
278
    -2
288
     1
 68
     0
279
    -2
289
     1
 69
     0
  7
Standard
140
6.0
170
     5
 62
     0
 63
     7
283
     0
274
    -2
284
     1
 64
     0
275
    -2
285
     1
 65
     0
276
    -2
286
     1
 66
     0
277
    -2
287
     1
 67
     0
278
    -2
288
     1
 68
     0
279
    -2
289
     1
 69
     0
  7
Standard
140
4.5
170
     5
 62
     0
 63
     7
283
     0
274
    -2
284
     1
 64
     0
275
    -2
285
     1
 65
     0
276
    -2
286
     1
 66
     0
277
    -2
287
     1
 67
     0
278
    -2
288
     1
 68
     0
279
    -2
289
     1
 69
     0
  0
VISUALSTYLE
  5
3FC6
102
{ACAD_XDICTIONARY
360
45C1
102
}
102
{ACAD_REACTORS
330
3FC0
102
}
330
3FC0
100
AcDbVisualStyle
  2
2dWireframe
 70
     4
 71
     0
 72
     2
 73
     0
 90
        0
 40
-0.6
 41
-30.0
 62
     5
 63
     7
 74
     1
 91
        4
 64
     7
 65
   257
 75
     1
175
     1
 42
1.0
 92
        0
 66
   257
 43
1.0
 76
     1
 77
     6
 78
     2
 67
     7
 79
     5
170
     0
171
     0
290
     0
174
     0
 93
        1
 44
0.0
173
     0
291
     0
 45
0.0
1001
ACAD
1000
AcDbSavedByObjectVersion
1070
     0
  0
VISUALSTYLE
  5
409B
102
{ACAD_XDICTIONARY
360
45F0
102
}
102
{ACAD_REACTORS
330
3FC0
102
}
330
3FC0
100
AcDbVisualStyle
  2
3D Hidden
 70
     6
 71
     1
 72
     2
 73
     2
 90
        0
 40
-0.6
 41
-30.0
 62
     5
 63
     7
 74
     2
 91
        2
 64
     7
 65
   257
 75
     2
175
     1
 42
179.0
 92
        0
 66
   257
 43
1.0
 76
     1
 77
     6
 78
     2
 67
     7
 79
     3
170
     0
171
     0
290
     0
174
     0
 93
        1
 44
0.0
173
     0
291
     0
 45
0.0
1001
ACAD
1000
AcDbSavedByObjectVersion
1070
     0
  0
VISUALSTYLE
  5
409A
102
{ACAD_XDICTIONARY
360
45EE
102
}
102
{ACAD_REACTORS
330
3FC0
102
}
330
3FC0
100
AcDbVisualStyle
  2
3dWireframe
 70
     5
 71
     0
 72
     2
 73
     0
 90
        0
 40
-0.6
 41
-30.0
 62
     5
 63
     7
 74
     1
 91
        4
 64
     7
 65
   257
 75
     1
175
     1
 42
1.0
 92
        0
 66
   257
 43
1.0
 76
     1
 77
     6
 78
     2
 67
     7
 79
     5
170
     0
171
     0
290
     0
174
     0
 93
        1
 44
0.0
173
     0
291
     0
 45
0.0
1001
ACAD
1000
AcDbSavedByObjectVersion
1070
     0
  0
VISUALSTYLE
  5
3FC5
102
{ACAD_XDICTIONARY
360
45BF
102
}
102
{ACAD_REACTORS
330
3FC0
102
}
330
3FC0
100
AcDbVisualStyle
  2
Basic
 70
     7
 71
     1
 72
     0
 73
     1
 90
        0
 40
-0.6
 41
-30.0
 62
     5
 63
     7
 74
     0
 91
        4
 64
     7
 65
   257
 75
     1
175
     1
 42
1.0
 92
        8
 66
     7
 43
1.0
 76
     1
 77
     6
 78
     2
 67
     7
 79
     5
170
     0
171
     0
290
     0
174
     0
 93
        1
 44
0.0
173
     0
291
     1
 45
0.0
1001
ACAD
1000
AcDbSavedByObjectVersion
1070
     0
  0
VISUALSTYLE
  5
3FCC
102
{ACAD_XDICTIONARY
360
45CD
102
}
102
{ACAD_REACTORS
330
3FC0
102
}
330
3FC0
100
AcDbVisualStyle
  2
Brighten
 70
    12
 71
     2
 72
     2
 73
     0
 90
        0
 40
-0.6
 41
-30.0
 62
     5
 63
     7
 74
     1
 91
        4
 64
     7
 65
   257
 75
     1
175
     1
 42
1.0
 92
        8
 66
     7
 43
1.0
 76
     1
 77
     6
 78
     2
 67
     7
 79
     5
170
     0
171
     0
290
     0
174
     0
 93
        1
 44
50.0
173
     0
291
     1
 45
0.0
1001
ACAD
1000
AcDbSavedByObjectVersion
1070
     0
  0
VISUALSTYLE
  5
3FD0
102
{ACAD_XDICTIONARY
360
45D5
102
}
102
{ACAD_REACTORS
330
3FC0
102
}
330
3FC0
100
AcDbVisualStyle
  2
ColorChange
 70
    16
 71
     2
 72
     2
 73
     3
 90
        0
 40
-0.6
 41
-30.0
 62
     5
 63
     8
 74
     1
 91
        4
 64
     7
 65
   257
 75
     1
175
     1
 42
1.0
 92
        8
 66
     8
 43
1.0
 76
     1
 77
     6
 78
     2
 67
     7
 79
     5
170
     0
171
     0
290
     0
174
     0
 93
        1
 44
0.0
173
     0
291
     1
 45
0.0
1001
ACAD
1000
AcDbSavedByObjectVersion
1070
     0
  0
VISUALSTYLE
  5
3FC9
102
{ACAD_XDICTIONARY
360
45C7
102
}
102
{ACAD_REACTORS
330
3FC0
102
}
330
3FC0
100
AcDbVisualStyle
  2
Conceptual
 70
     9
 71
     3
 72
     2
 73
     0
 90
        0
 40
-0.6
 41
-30.0
 62
     5
 63
     7
 74
     2
 91
        2
 64
     7
 65
   257
 75
     1
175
     1
 42
179.0
 92
        8
 66
     7
 43
1.0
 76
     1
 77
     6
 78
     2
 67
     7
 79
     3
170
     0
171
     0
290
     0
174
     0
 93
        1
 44
0.0
173
     0
291
     0
 45
0.0
1001
ACAD
1000
AcDbSavedByObjectVersion
1070
     0
  0
VISUALSTYLE
  5
3FCB
102
{ACAD_XDICTIONARY
360
45CB
102
}
102
{ACAD_REACTORS
330
3FC0
102
}
330
3FC0
100
AcDbVisualStyle
  2
Dim
 70
    11
 71
     2
 72
     2
 73
     0
 90
        0
 40
-0.6
 41
-30.0
 62
     5
 63
     7
 74
     1
 91
        4
 64
     7
 65
   257
 75
     1
175
     1
 42
1.0
 92
        8
 66
     7
 43
1.0
 76
     1
 77
     6
 78
     2
 67
     7
 79
     5
170
     0
171
     0
290
     0
174
     0
 93
        1
 44
-50.0
173
     0
291
     1
 45
0.0
1001
ACAD
1000
AcDbSavedByObjectVersion
1070
     0
  0
VISUALSTYLE
  5
3FD8
102
{ACAD_XDICTIONARY
360
45E5
102
}
102
{ACAD_REACTORS
330
3FC0
102
}
330
3FC0
100
AcDbVisualStyle
  2
EdgeColorOff
 70
    22
 71
     2
 72
     2
 73
     0
 90
        0
 40
-0.6
 41
-30.0
 62
     5
 63
     7
 74
     1
 91
        4
 64
     7
 65
   257
 75
     1
175
     1
 42
1.0
 92
        8
 66
     7
 43
1.0
 76
     1
 77
     6
 78
     2
 67
     7
 79
     5
170
     0
171
     0
290
     0
174
     0
 93
        1
 44
0.0
173
     0
291
     1
 45
0.0
1001
ACAD
1000
AcDbSavedByObjectVersion
1070
     0
  0
VISUALSTYLE
  5
3FCF
102
{ACAD_XDICTIONARY
360
45D3
102
}
102
{ACAD_REACTORS
330
3FC0
102
}
330
3FC0
100
AcDbVisualStyle
  2
Facepattern
 70
    15
 71
     2
 72
     2
 73
     0
 90
        0
 40
-0.6
 41
-30.0
 62
     5
 63
     7
 74
     1
 91
        4
 64
     7
 65
   257
 75
     1
175
     1
 42
1.0
 92
        8
 66
     7
 43
1.0
 76
     1
 77
     6
 78
     2
 67
     7
 79
     5
170
     0
171
     0
290
     0
174
     0
 93
        1
 44
0.0
173
     0
291
     1
 45
0.0
1001
ACAD
1000
AcDbSavedByObjectVersion
1070
     0
  0
VISUALSTYLE
  5
3FC1
102
{ACAD_XDICTIONARY
360
45B7
102
}
102
{ACAD_REACTORS
330
3FC0
102
}
330
3FC0
100
AcDbVisualStyle
  2
Flat
 70
     0
 71
     2
 72
     1
 73
     1
 90
        2
 40
-0.6
 41
30.0
 62
     5
 63
     7
 74
     0
 91
        0
 64
     7
 65
   257
 75
     1
175
     1
 42
1.0
 92
        8
 66
     7
 43
1.0
 76
     1
 77
     6
 78
     2
 67
     7
 79
     5
170
     0
171
     0
290
     0
174
     0
 93
       13
 44
0.0
173
     0
291
     1
 45
0.0
1001
ACAD
1000
AcDbSavedByObjectVersion
1070
     0
  0
VISUALSTYLE
  5
3FC2
102
{ACAD_XDICTIONARY
360
45B9
102
}
102
{ACAD_REACTORS
330
3FC0
102
}
330
3FC0
100
AcDbVisualStyle
  2
FlatWithEdges
 70
     1
 71
     2
 72
     1
 73
     1
 90
        2
 40
-0.6
 41
30.0
 62
     5
 63
     7
 74
     1
 91
        0
 64
     7
 65
   257
 75
     1
175
     1
 42
1.0
 92
        0
 66
   257
 43
1.0
 76
     1
 77
     6
 78
     2
 67
     7
 79
     5
170
     0
171
     0
290
     0
174
     0
 93
       13
 44
0.0
173
     0
291
     1
 45
0.0
1001
ACAD
1000
AcDbSavedByObjectVersion
1070
     0
  0
VISUALSTYLE
  5
3FC3
102
{ACAD_XDICTIONARY
360
45BB
102
}
102
{ACAD_REACTORS
330
3FC0
102
}
330
3FC0
100
AcDbVisualStyle
  2
Gouraud
 70
     2
 71
     2
 72
     2
 73
     1
 90
        2
 40
-0.6
 41
30.0
 62
     5
 63
     7
 74
     0
 91
        0
 64
     7
 65
   257
 75
     1
175
     1
 42
1.0
 92
        0
 66
     7
 43
1.0
 76
     1
 77
     6
 78
     2
 67
     7
 79
     5
170
     0
171
     0
290
     0
174
     0
 93
       13
 44
0.0
173
     0
291
     1
 45
0.0
1001
ACAD
1000
AcDbSavedByObjectVersion
1070
     0
  0
VISUALSTYLE
  5
3FC4
102
{ACAD_XDICTIONARY
360
45BD
102
}
102
{ACAD_REACTORS
330
3FC0
102
}
330
3FC0
100
AcDbVisualStyle
  2
GouraudWithEdges
 70
     3
 71
     2
 72
     2
 73
     1
 90
        2
 40
-0.6
 41
30.0
 62
     5
 63
     7
 74
     1
 91
        0
 64
     7
 65
   257
 75
     1
175
     1
 42
1.0
 92
        0
 66
   257
 43
1.0
 76
     1
 77
     6
 78
     2
 67
     7
 79
     5
170
     0
171
     0
290
     0
174
     0
 93
       13
 44
0.0
173
     0
291
     1
 45
0.0
1001
ACAD
1000
AcDbSavedByObjectVersion
1070
     0
  0
VISUALSTYLE
  5
3FC8
102
{ACAD_XDICTIONARY
360
45C5
102
}
102
{ACAD_REACTORS
330
3FC0
102
}
330
3FC0
100
AcDbVisualStyle
  2
Hidden
 70
     6
 71
     1
 72
     2
 73
     2
 90
        0
 40
-0.6
 41
-30.0
 62
     5
 63
     7
 74
     2
 91
        2
 64
     7
 65
   257
 75
     2
175
     1
 42
40.0
 92
        0
 66
   257
 43
1.0
 76
     1
 77
     6
 78
     2
 67
     7
 79
     3
170
     0
171
     0
290
     0
174
     0
 93
        1
 44
0.0
173
     0
291
     0
 45
0.0
1001
ACAD
1000
AcDbSavedByObjectVersion
1070
     0
  0
VISUALSTYLE
  5
3FD6
102
{ACAD_XDICTIONARY
360
45E1
102
}
102
{ACAD_REACTORS
330
3FC0
102
}
330
3FC0
100
AcDbVisualStyle
  2
JitterOff
 70
    20
 71
     2
 72
     2
 73
     0
 90
        0
 40
-0.6
 41
-30.0
 62
     5
 63
     7
 74
     1
 91
        4
 64
     7
 65
   257
 75
     1
175
     1
 42
1.0
 92
       10
 66
     7
 43
1.0
 76
     1
 77
     6
 78
     2
 67
     7
 79
     5
170
     0
171
     0
290
     0
174
     0
 93
        1
 44
0.0
173
     0
291
     1
 45
0.0
1001
ACAD
1000
AcDbSavedByObjectVersion
1070
     0
  0
VISUALSTYLE
  5
3FCE
102
{ACAD_XDICTIONARY
360
45D1
102
}
102
{ACAD_REACTORS
330
3FC0
102
}
330
3FC0
100
AcDbVisualStyle
  2
Linepattern
 70
    14
 71
     2
 72
     2
 73
     0
 90
        0
 40
-0.6
 41
-30.0
 62
     5
 63
     7
 74
     1
 91
        4
 64
     7
 65
   257
 75
     7
175
     7
 42
1.0
 92
        8
 66
     7
 43
1.0
 76
     1
 77
     6
 78
     2
 67
     7
 79
     5
170
     0
171
     0
290
     0
174
     0
 93
        1
 44
0.0
173
     0
291
     1
 45
0.0
1001
ACAD
1000
AcDbSavedByObjectVersion
1070
     0
  0
VISUALSTYLE
  5
3FD7
102
{ACAD_XDICTIONARY
360
45E3
102
}
102
{ACAD_REACTORS
330
3FC0
102
}
330
3FC0
100
AcDbVisualStyle
  2
OverhangOff
 70
    21
 71
     2
 72
     2
 73
     0
 90
        0
 40
-0.6
 41
-30.0
 62
     5
 63
     7
 74
     1
 91
        4
 64
     7
 65
   257
 75
     1
175
     1
 42
1.0
 92
        9
 66
     7
 43
1.0
 76
     1
 77
     6
 78
     2
 67
     7
 79
     5
170
     0
171
     0
290
     0
174
     0
 93
        1
 44
0.0
173
     0
291
     1
 45
0.0
1001
ACAD
1000
AcDbSavedByObjectVersion
1070
     0
  0
VISUALSTYLE
  5
3FCA
102
{ACAD_XDICTIONARY
360
45C9
102
}
102
{ACAD_REACTORS
330
3FC0
102
}
330
3FC0
100
AcDbVisualStyle
  2
Realistic
 70
     8
 71
     2
 72
     2
 73
     0
 90
        2
 40
-0.6
 41
30.0
 62
     5
 63
     7
 74
     0
 91
        0
 64
     7
 65
   257
 75
     1
175
     1
 42
1.0
 92
        8
 66
   257
 43
1.0
 76
     1
 77
     6
 78
     2
 67
     7
 79
     3
170
     0
171
     0
290
     0
174
     0
 93
       13
 44
0.0
173
     0
291
     0
 45
0.0
1001
ACAD
1000
AcDbSavedByObjectVersion
1070
     0
  0
VISUALSTYLE
  5
3FD5
102
{ACAD_XDICTIONARY
360
45DF
102
}
102
{ACAD_REACTORS
330
3FC0
102
}
330
3FC0
100
AcDbVisualStyle
  2
Shaded
 70
    27
 71
     2
 72
     2
 73
     1
 90
        2
 40
-0.6
 41
30.0
 62
     5
 63
     7
 74
     0
 91
        4
 64
     7
 65
   257
 75
     1
175
     1
 42
1.0
 92
        8
 66
   257
 43
1.0
 76
     1
 77
     6
 78
     2
 67
     8
 79
     3
170
     0
171
     0
290
     0
174
     0
 93
        5
 44
0.0
173
     0
291
     0
 45
0.0
1001
ACAD
1000
AcDbSavedByObjectVersion
1070
     0
  0
VISUALSTYLE
  5
3FD4
102
{ACAD_XDICTIONARY
360
45DD
102
}
102
{ACAD_REACTORS
330
3FC0
102
}
330
3FC0
100
AcDbVisualStyle
  2
Shaded with edges
 70
    26
 71
     2
 72
     2
 73
     1
 90
        2
 40
-0.6
 41
30.0
 62
     5
 63
     7
 74
     1
 91
        2
 64
     7
 65
   257
 75
     2
175
     1
 42
1.0
 92
        8
 66
   257
 43
1.0
 76
     1
 77
     6
 78
     2
 67
     7
 79
     3
170
     0
171
     0
290
     0
174
     0
 93
        5
 44
0.0
173
     0
291
     0
 45
0.0
1001
ACAD
1000
AcDbSavedByObjectVersion
1070
     0
  0
VISUALSTYLE
  5
3FD1
102
{ACAD_XDICTIONARY
360
45D7
102
}
102
{ACAD_REACTORS
330
3FC0
102
}
330
3FC0
100
AcDbVisualStyle
  2
Shades of Gray
 70
    23
 71
     2
 72
     2
 73
     3
 90
        0
 40
-0.6
 41
-30.0
 62
     5
 63
     7
 74
     2
 91
        2
 64
     7
 65
     7
 75
     1
175
     1
 42
40.0
 92
        8
 66
     7
 43
1.0
 76
     1
 77
     6
 78
     2
 67
     7
 79
     3
170
     0
171
     0
290
     0
174
     0
 93
        1
 44
0.0
173
     0
291
     0
 45
0.0
1001
ACAD
1000
AcDbSavedByObjectVersion
1070
     0
  0
VISUALSTYLE
  5
3FD2
102
{ACAD_XDICTIONARY
360
45D9
102
}
102
{ACAD_REACTORS
330
3FC0
102
}
330
3FC0
100
AcDbVisualStyle
  2
Sketchy
 70
    24
 71
     1
 72
     2
 73
     2
 90
        0
 40
-0.6
 41
-30.0
 62
     5
 63
     7
 74
     2
 91
        2
 64
     7
 65
     7
 75
     1
175
     1
 42
40.0
 92
       11
 66
     7
 43
1.0
 76
     1
 77
     6
 78
     2
 67
     7
 79
     6
170
     0
171
     0
290
     0
174
     0
 93
        1
 44
0.0
173
     0
291
     0
 45
0.0
1001
ACAD
1000
AcDbSavedByObjectVersion
1070
     0
  0
VISUALSTYLE
  5
3FCD
102
{ACAD_XDICTIONARY
360
45CF
102
}
102
{ACAD_REACTORS
330
3FC0
102
}
330
3FC0
100
AcDbVisualStyle
  2
Thicken
 70
    13
 71
     2
 72
     2
 73
     0
 90
        0
 40
-0.6
 41
-30.0
 62
     5
 63
     7
 74
     1
 91
        4
 64
     7
 65
   257
 75
     1
175
     1
 42
1.0
 92
       12
 66
     7
 43
1.0
 76
     1
 77
     6
 78
     2
 67
     7
 79
     5
170
     0
171
     0
290
     0
174
     0
 93
        1
 44
0.0
173
     0
291
     1
 45
0.0
1001
ACAD
1000
AcDbSavedByObjectVersion
1070
     0
  0
VISUALSTYLE
  5
3FC7
102
{ACAD_XDICTIONARY
360
45C3
102
}
102
{ACAD_REACTORS
330
3FC0
102
}
330
3FC0
100
AcDbVisualStyle
  2
Wireframe
 70
     5
 71
     0
 72
     2
 73
     0
 90
        0
 40
-0.6
 41
-30.0
 62
     5
 63
     7
 74
     1
 91
        4
 64
     7
 65
   257
 75
     1
175
     1
 42
1.0
 92
        0
 66
   257
 43
1.0
 76
     1
 77
     6
 78
     2
 67
     7
 79
     3
170
     0
171
     0
290
     0
174
     0
 93
        1
 44
0.0
173
     0
291
     0
 45
0.0
1001
ACAD
1000
AcDbSavedByObjectVersion
1070
     0
  0
VISUALSTYLE
  5
3FD3
102
{ACAD_XDICTIONARY
360
45DB
102
}
102
{ACAD_REACTORS
330
3FC0
102
}
330
3FC0
100
AcDbVisualStyle
  2
X-Ray
 70
    25
 71
     2
 72
     2
 73
     1
 90
        1
 40
0.5
 41
-30.0
 62
     5
 63
     7
 74
     1
 91
        0
 64
     7
 65
   257
 75
     1
175
     1
 42
1.0
 92
        8
 66
     7
 43
1.0
 76
     1
 77
     6
 78
     2
 67
     7
 79
     3
170
     0
171
     0
290
     0
174
     0
 93
       13
 44
0.0
173
     0
291
     0
 45
0.0
1001
ACAD
1000
AcDbSavedByObjectVersion
1070
     0
  0
DICTIONARYVAR
  5
4095
102
{ACAD_REACTORS
330
1835
102
}
330
1835
100
DictionaryVariables
280
     0
  1
1:1
  0
DICTIONARYVAR
  5
4092
102
{ACAD_REACTORS
330
1835
102
}
330
1835
100
DictionaryVariables
280
     0
  1
STANDARD
  0
DICTIONARYVAR
  5
4091
102
{ACAD_REACTORS
330
1835
102
}
330
1835
100
DictionaryVariables
280
     0
  1
STANDARD
  0
DICTIONARYVAR
  5
4093
102
{ACAD_REACTORS
330
1835
102
}
330
1835
100
DictionaryVariables
280
     0
  1
Metric50
  0
DICTIONARYVAR
  5
4094
102
{ACAD_REACTORS
330
1835
102
}
330
1835
100
DictionaryVariables
280
     0
  1
Metric50
  0
DICTIONARYVAR
  5
4097
102
{ACAD_REACTORS
330
1835
102
}
330
1835
100
DictionaryVariables
280
     0
  1
1
  0
DICTIONARYVAR
  5
4096
102
{ACAD_REACTORS
330
1835
102
}
330
1835
100
DictionaryVariables
280
     0
  1
0
  0
DICTIONARYVAR
  5
1836
102
{ACAD_REACTORS
330
1835
102
}
330
1835
100
DictionaryVariables
280
     0
  1
127
  0
DICTIONARYVAR
  5
45AC
102
{ACAD_REACTORS
330
1835
102
}
330
1835
100
DictionaryVariables
280
     0
  1
2
  0
DICTIONARY
  5
45EC
330
3FF3
100
AcDbDictionary
280
     1
281
     1
  3
ACAD_XREC_ROUNDTRIP
360
45ED
  0
DICTIONARY
  5
45B0
330
22
100
AcDbDictionary
280
     1
281
     1
  3
ACAD_XREC_ROUNDTRIP
360
45B1
  0
DICTIONARY
  5
45B2
330
1CD1
100
AcDbDictionary
280
     1
281
     1
  3
ACAD_XREC_ROUNDTRIP
360
45B3
  0
DICTIONARY
  5
3FB1
330
3FB0
100
AcDbDictionary
280
     1
281
     1
  3
ACAD_XREC_ROUNDTRIP
360
45B5
  3
BUMPTILE
360
3FB3
  3
DIFFUSETILE
360
3FB2
  3
OPACITYTILE
360
3FB6
  3
REFLECTIONTILE
360
3FB5
  3
REFRACTIONTILE
360
3FB7
  3
SPECULARTILE
360
3FB4
  0
DICTIONARY
  5
3FA9
330
3FA8
100
AcDbDictionary
280
     1
281
     1
  3
ACAD_XREC_ROUNDTRIP
360
45B4
  3
BUMPTILE
360
3FAB
  3
DIFFUSETILE
360
3FAA
  3
OPACITYTILE
360
3FAE
  3
REFLECTIONTILE
360
3FAD
  3
REFRACTIONTILE
360
3FAF
  3
SPECULARTILE
360
3FAC
  0
DICTIONARY
  5
3FB9
330
3FB8
100
AcDbDictionary
280
     1
281
     1
  3
ACAD_XREC_ROUNDTRIP
360
45B6
  3
BUMPTILE
360
3FBB
  3
DIFFUSETILE
360
3FBA
  3
OPACITYTILE
360
3FBE
  3
REFLECTIONTILE
360
3FBD
  3
REFRACTIONTILE
360
3FBF
  3
SPECULARTILE
360
3FBC
  0
DICTIONARY
  5
45E8
330
3FEF
100
AcDbDictionary
280
     1
281
     1
  3
ACAD_XREC_ROUNDTRIP
360
45E9
  0
XRECORD
  5
45F4
102
{ACAD_REACTORS
330
45F3
102
}
330
45F3
100
AcDbXrecord
280
     1
 70
     2
 71
     3
 72
     0
  0
DICTIONARY
  5
45EA
330
3FF1
100
AcDbDictionary
280
     1
281
     1
  3
ACAD_XREC_ROUNDTRIP
360
45EB
  0
DICTIONARY
  5
404C
330
3FDB
100
AcDbDictionary
280
     1
281
     1
  3
ACAD_ROUNDTRIP_2008_TABLESTYLE_CELLSTYLEMAP
360
45AD
  3
ACAD_XREC_ROUNDTRIP
360
45E7
  0
DICTIONARY
  5
45C1
330
3FC6
100
AcDbDictionary
280
     1
281
     1
  3
ACAD_XREC_ROUNDTRIP
360
45C2
  0
DICTIONARY
  5
45F0
330
409B
100
AcDbDictionary
280
     1
281
     1
  3
ACAD_XREC_ROUNDTRIP
360
45F1
  0
DICTIONARY
  5
45EE
330
409A
100
AcDbDictionary
280
     1
281
     1
  3
ACAD_XREC_ROUNDTRIP
360
45EF
  0
DICTIONARY
  5
45BF
330
3FC5
100
AcDbDictionary
280
     1
281
     1
  3
ACAD_XREC_ROUNDTRIP
360
45C0
  0
DICTIONARY
  5
45CD
330
3FCC
100
AcDbDictionary
280
     1
281
     1
  3
ACAD_XREC_ROUNDTRIP
360
45CE
  0
DICTIONARY
  5
45D5
330
3FD0
100
AcDbDictionary
280
     1
281
     1
  3
ACAD_XREC_ROUNDTRIP
360
45D6
  0
DICTIONARY
  5
45C7
330
3FC9
100
AcDbDictionary
280
     1
281
     1
  3
ACAD_XREC_ROUNDTRIP
360
45C8
  0
DICTIONARY
  5
45CB
330
3FCB
100
AcDbDictionary
280
     1
281
     1
  3
ACAD_XREC_ROUNDTRIP
360
45CC
  0
DICTIONARY
  5
45E5
330
3FD8
100
AcDbDictionary
280
     1
281
     1
  3
ACAD_XREC_ROUNDTRIP
360
45E6
  0
DICTIONARY
  5
45D3
330
3FCF
100
AcDbDictionary
280
     1
281
     1
  3
ACAD_XREC_ROUNDTRIP
360
45D4
  0
DICTIONARY
  5
45B7
330
3FC1
100
AcDbDictionary
280
     1
281
     1
  3
ACAD_XREC_ROUNDTRIP
360
45B8
  0
DICTIONARY
  5
45B9
330
3FC2
100
AcDbDictionary
280
     1
281
     1
  3
ACAD_XREC_ROUNDTRIP
360
45BA
  0
DICTIONARY
  5
45BB
330
3FC3
100
AcDbDictionary
280
     1
281
     1
  3
ACAD_XREC_ROUNDTRIP
360
45BC
  0
DICTIONARY
  5
45BD
330
3FC4
100
AcDbDictionary
280
     1
281
     1
  3
ACAD_XREC_ROUNDTRIP
360
45BE
  0
DICTIONARY
  5
45C5
330
3FC8
100
AcDbDictionary
280
     1
281
     1
  3
ACAD_XREC_ROUNDTRIP
360
45C6
  0
DICTIONARY
  5
45E1
330
3FD6
100
AcDbDictionary
280
     1
281
     1
  3
ACAD_XREC_ROUNDTRIP
360
45E2
  0
DICTIONARY
  5
45D1
330
3FCE
100
AcDbDictionary
280
     1
281
     1
  3
ACAD_XREC_ROUNDTRIP
360
45D2
  0
DICTIONARY
  5
45E3
330
3FD7
100
AcDbDictionary
280
     1
281
     1
  3
ACAD_XREC_ROUNDTRIP
360
45E4
  0
DICTIONARY
  5
45C9
330
3FCA
100
AcDbDictionary
280
     1
281
     1
  3
ACAD_XREC_ROUNDTRIP
360
45CA
  0
DICTIONARY
  5
45DF
330
3FD5
100
AcDbDictionary
280
     1
281
     1
  3
ACAD_XREC_ROUNDTRIP
360
45E0
  0
DICTIONARY
  5
45DD
330
3FD4
100
AcDbDictionary
280
     1
281
     1
  3
ACAD_XREC_ROUNDTRIP
360
45DE
  0
DICTIONARY
  5
45D7
330
3FD1
100
AcDbDictionary
280
     1
281
     1
  3
ACAD_XREC_ROUNDTRIP
360
45D8
  0
DICTIONARY
  5
45D9
330
3FD2
100
AcDbDictionary
280
     1
281
     1
  3
ACAD_XREC_ROUNDTRIP
360
45DA
  0
DICTIONARY
  5
45CF
330
3FCD
100
AcDbDictionary
280
     1
281
     1
  3
ACAD_XREC_ROUNDTRIP
360
45D0
  0
DICTIONARY
  5
45C3
330
3FC7
100
AcDbDictionary
280
     1
281
     1
  3
ACAD_XREC_ROUNDTRIP
360
45C4
  0
DICTIONARY
  5
45DB
330
3FD3
100
AcDbDictionary
280
     1
281
     1
  3
ACAD_XREC_ROUNDTRIP
360
45DC
  0
XRECORD
  5
45ED
102
{ACAD_REACTORS
330
45EC
102
}
330
45EC
100
AcDbXrecord
280
     1
102
DISPLAYNAME
  1
Metric50
102
FLAGS
 90
        0
  0
XRECORD
  5
45B1
102
{ACAD_REACTORS
330
45B0
102
}
330
45B0
100
AcDbXrecord
280
     1
102
SHADEPLOT
 70
     0
102
SHADEPLOTRESLEVEL
 70
     2
102
SHADEPLOTCUSTOMDPI
 70
   300
  0
XRECORD
  5
45B3
102
{ACAD_REACTORS
330
45B2
102
}
330
45B2
100
AcDbXrecord
280
     1
102
SHADEPLOT
 70
     0
102
SHADEPLOTRESLEVEL
 70
     2
102
SHADEPLOTCUSTOMDPI
 70
   300
  0
XRECORD
  5
45B5
102
{ACAD_REACTORS
330
3FB1
102
}
330
3FB1
100
AcDbXrecord
280
     1
102
MATERIAL
148
0.0
149
0.0
149
0.0
 93
        0
 94
      127
282
     0
 72
     0
 77
     0
171
     0
175
     0
179
     0
273
     0
  0
XRECORD
  5
3FB3
102
{ACAD_REACTORS
330
3FB1
102
}
330
3FB1
100
AcDbXrecord
280
     1
270
     1
271
     1
  0
XRECORD
  5
3FB2
102
{ACAD_REACTORS
330
3FB1
102
}
330
3FB1
100
AcDbXrecord
280
     1
270
     1
271
     1
  0
XRECORD
  5
3FB6
102
{ACAD_REACTORS
330
3FB1
102
}
330
3FB1
100
AcDbXrecord
280
     1
270
     1
271
     1
  0
XRECORD
  5
3FB5
102
{ACAD_REACTORS
330
3FB1
102
}
330
3FB1
100
AcDbXrecord
280
     1
270
     1
271
     1
  0
XRECORD
  5
3FB7
102
{ACAD_REACTORS
330
3FB1
102
}
330
3FB1
100
AcDbXrecord
280
     1
270
     1
271
     1
  0
XRECORD
  5
3FB4
102
{ACAD_REACTORS
330
3FB1
102
}
330
3FB1
100
AcDbXrecord
280
     1
270
     1
271
     1
  0
XRECORD
  5
45B4
102
{ACAD_REACTORS
330
3FA9
102
}
330
3FA9
100
AcDbXrecord
280
     1
102
MATERIAL
148
0.0
149
0.0
149
0.0
 93
        0
 94
      127
282
     0
 72
     0
 77
     0
171
     0
175
     0
179
     0
273
     0
  0
XRECORD
  5
3FAB
102
{ACAD_REACTORS
330
3FA9
102
}
330
3FA9
100
AcDbXrecord
280
     1
270
     1
271
     1
  0
XRECORD
  5
3FAA
102
{ACAD_REACTORS
330
3FA9
102
}
330
3FA9
100
AcDbXrecord
280
     1
270
     1
271
     1
  0
XRECORD
  5
3FAE
102
{ACAD_REACTORS
330
3FA9
102
}
330
3FA9
100
AcDbXrecord
280
     1
270
     1
271
     1
  0
XRECORD
  5
3FAD
102
{ACAD_REACTORS
330
3FA9
102
}
330
3FA9
100
AcDbXrecord
280
     1
270
     1
271
     1
  0
XRECORD
  5
3FAF
102
{ACAD_REACTORS
330
3FA9
102
}
330
3FA9
100
AcDbXrecord
280
     1
270
     1
271
     1
  0
XRECORD
  5
3FAC
102
{ACAD_REACTORS
330
3FA9
102
}
330
3FA9
100
AcDbXrecord
280
     1
270
     1
271
     1
  0
XRECORD
  5
45B6
102
{ACAD_REACTORS
330
3FB9
102
}
330
3FB9
100
AcDbXrecord
280
     1
102
MATERIAL
148
0.0
149
0.0
149
0.0
 93
        0
 94
      127
282
     0
 72
     0
 77
     0
171
     0
175
     0
179
     0
273
     0
  0
XRECORD
  5
3FBB
102
{ACAD_REACTORS
330
3FB9
102
}
330
3FB9
100
AcDbXrecord
280
     1
270
     1
271
     1
  0
XRECORD
  5
3FBA
102
{ACAD_REACTORS
330
3FB9
102
}
330
3FB9
100
AcDbXrecord
280
     1
270
     1
271
     1
  0
XRECORD
  5
3FBE
102
{ACAD_REACTORS
330
3FB9
102
}
330
3FB9
100
AcDbXrecord
280
     1
270
     1
271
     1
  0
XRECORD
  5
3FBD
102
{ACAD_REACTORS
330
3FB9
102
}
330
3FB9
100
AcDbXrecord
280
     1
270
     1
271
     1
  0
XRECORD
  5
3FBF
102
{ACAD_REACTORS
330
3FB9
102
}
330
3FB9
100
AcDbXrecord
280
     1
270
     1
271
     1
  0
XRECORD
  5
3FBC
102
{ACAD_REACTORS
330
3FB9
102
}
330
3FB9
100
AcDbXrecord
280
     1
270
     1
271
     1
  0
XRECORD
  5
45E9
102
{ACAD_REACTORS
330
45E8
102
}
330
45E8
100
AcDbXrecord
280
     1
102
ACAD_ROUNDTRIP_2012_MLEADER_STYLE
298
     1
  0
XRECORD
  5
45EB
102
{ACAD_REACTORS
330
45EA
102
}
330
45EA
100
AcDbXrecord
280
     1
102
DISPLAYNAME
  1
Metric50
102
FLAGS
 90
        0
  0
CELLSTYLEMAP
  5
45AD
102
{ACAD_REACTORS
330
404C
102
}
330
404C
100
AcDbCellStyleMap
 90
        3
300
CELLSTYLE
  1
TABLEFORMAT_BEGIN
 90
        5
170
     1
 91
        0
 92
    32768
 62
   257
 93
        1
300
CONTENTFORMAT
  1
CONTENTFORMAT_BEGIN
 90
        0
 91
        0
 92
      512
 93
        0
300

 40
0.0
140
1.0
 94
        5
 62
     0
340
11
144
6.0
309
CONTENTFORMAT_END
171
     1
301
MARGIN
  1
CELLMARGIN_BEGIN
 40
1.5
 40
1.5
 40
1.5
 40
1.5
 40
4.5
 40
4.5
309
CELLMARGIN_END
 94
        6
 95
        1
302
GRIDFORMAT
  1
GRIDFORMAT_BEGIN
 90
        0
 91
        1
 62
     0
 92
       -2
340
0
 93
        0
 40
1.125
309
GRIDFORMAT_END
 95
        2
302
GRIDFORMAT
  1
GRIDFORMAT_BEGIN
 90
        0
 91
        1
 62
     0
 92
       -2
340
0
 93
        0
 40
1.125
309
GRIDFORMAT_END
 95
        4
302
GRIDFORMAT
  1
GRIDFORMAT_BEGIN
 90
        0
 91
        1
 62
     0
 92
       -2
340
0
 93
        0
 40
1.125
309
GRIDFORMAT_END
 95
        8
302
GRIDFORMAT
  1
GRIDFORMAT_BEGIN
 90
        0
 91
        1
 62
     0
 92
       -2
340
0
 93
        0
 40
1.125
309
GRIDFORMAT_END
 95
       16
302
GRIDFORMAT
  1
GRIDFORMAT_BEGIN
 90
        0
 91
        1
 62
     0
 92
       -2
340
0
 93
        0
 40
1.125
309
GRIDFORMAT_END
 95
       32
302
GRIDFORMAT
  1
GRIDFORMAT_BEGIN
 90
        0
 91
        1
 62
     0
 92
       -2
340
0
 93
        0
 40
1.125
309
GRIDFORMAT_END
309
TABLEFORMAT_END
  1
CELLSTYLE_BEGIN
 90
        1
 91
        1
300
_TITLE
309
CELLSTYLE_END
300
CELLSTYLE
  1
TABLEFORMAT_BEGIN
 90
        5
170
     1
 91
        0
 92
        0
 62
   257
 93
        1
300
CONTENTFORMAT
  1
CONTENTFORMAT_BEGIN
 90
        0
 91
        0
 92
      512
 93
        0
300

 40
0.0
140
1.0
 94
        5
 62
     0
340
11
144
4.5
309
CONTENTFORMAT_END
171
     1
301
MARGIN
  1
CELLMARGIN_BEGIN
 40
1.5
 40
1.5
 40
1.5
 40
1.5
 40
4.5
 40
4.5
309
CELLMARGIN_END
 94
        6
 95
        1
302
GRIDFORMAT
  1
GRIDFORMAT_BEGIN
 90
        0
 91
        1
 62
     0
 92
       -2
340
0
 93
        0
 40
1.125
309
GRIDFORMAT_END
 95
        2
302
GRIDFORMAT
  1
GRIDFORMAT_BEGIN
 90
        0
 91
        1
 62
     0
 92
       -2
340
0
 93
        0
 40
1.125
309
GRIDFORMAT_END
 95
        4
302
GRIDFORMAT
  1
GRIDFORMAT_BEGIN
 90
        0
 91
        1
 62
     0
 92
       -2
340
0
 93
        0
 40
1.125
309
GRIDFORMAT_END
 95
        8
302
GRIDFORMAT
  1
GRIDFORMAT_BEGIN
 90
        0
 91
        1
 62
     0
 92
       -2
340
0
 93
        0
 40
1.125
309
GRIDFORMAT_END
 95
       16
302
GRIDFORMAT
  1
GRIDFORMAT_BEGIN
 90
        0
 91
        1
 62
     0
 92
       -2
340
0
 93
        0
 40
1.125
309
GRIDFORMAT_END
 95
       32
302
GRIDFORMAT
  1
GRIDFORMAT_BEGIN
 90
        0
 91
        1
 62
     0
 92
       -2
340
0
 93
        0
 40
1.125
309
GRIDFORMAT_END
309
TABLEFORMAT_END
  1
CELLSTYLE_BEGIN
 90
        2
 91
        1
300
_HEADER
309
CELLSTYLE_END
300
CELLSTYLE
  1
TABLEFORMAT_BEGIN
 90
        5
170
     1
 91
        0
 92
        0
 62
   257
 93
        1
300
CONTENTFORMAT
  1
CONTENTFORMAT_BEGIN
 90
        0
 91
        0
 92
      512
 93
        0
300

 40
0.0
140
1.0
 94
        2
 62
     0
340
11
144
4.5
309
CONTENTFORMAT_END
171
     1
301
MARGIN
  1
CELLMARGIN_BEGIN
 40
1.5
 40
1.5
 40
1.5
 40
1.5
 40
4.5
 40
4.5
309
CELLMARGIN_END
 94
        6
 95
        1
302
GRIDFORMAT
  1
GRIDFORMAT_BEGIN
 90
        0
 91
        1
 62
     0
 92
       -2
340
0
 93
        0
 40
1.125
309
GRIDFORMAT_END
 95
        2
302
GRIDFORMAT
  1
GRIDFORMAT_BEGIN
 90
        0
 91
        1
 62
     0
 92
       -2
340
0
 93
        0
 40
1.125
309
GRIDFORMAT_END
 95
        4
302
GRIDFORMAT
  1
GRIDFORMAT_BEGIN
 90
        0
 91
        1
 62
     0
 92
       -2
340
0
 93
        0
 40
1.125
309
GRIDFORMAT_END
 95
        8
302
GRIDFORMAT
  1
GRIDFORMAT_BEGIN
 90
        0
 91
        1
 62
     0
 92
       -2
340
0
 93
        0
 40
1.125
309
GRIDFORMAT_END
 95
       16
302
GRIDFORMAT
  1
GRIDFORMAT_BEGIN
 90
        0
 91
        1
 62
     0
 92
       -2
340
0
 93
        0
 40
1.125
309
GRIDFORMAT_END
 95
       32
302
GRIDFORMAT
  1
GRIDFORMAT_BEGIN
 90
        0
 91
        1
 62
     0
 92
       -2
340
0
 93
        0
 40
1.125
309
GRIDFORMAT_END
309
TABLEFORMAT_END
  1
CELLSTYLE_BEGIN
 90
        3
 91
        2
300
_DATA
309
CELLSTYLE_END
  0
XRECORD
  5
45E7
102
{ACAD_REACTORS
330
404C
102
}
330
404C
100
AcDbXrecord
280
     1
102
ACAD_ROUNDTRIP_PRE2007_TABLESTYLE
 90
      512
 91
        0
  1

 92
      512
 93
        0
  2

 94
      512
 95
        0
  3

  0
XRECORD
  5
45C2
102
{ACAD_REACTORS
330
45C1
102
}
330
45C1
100
AcDbXrecord
280
     1
102
RTVSPost2010Prop28
280
     1
102
RTVSPost2010PropOp28
 70
     1
102
RTVSPost2010Prop29
280
     1
102
RTVSPost2010PropOp29
 70
     1
102
RTVSPost2010Prop30
280
     0
102
RTVSPost2010PropOp30
 70
     1
102
RTVSPost2010Prop31
280
     0
102
RTVSPost2010PropOp31
 70
     1
102
RTVSPost2010Prop32
280
     0
102
RTVSPost2010PropOp32
 70
     1
102
RTVSPost2010Prop33
280
     0
102
RTVSPost2010PropOp33
 70
     1
102
RTVSPost2010Prop34
280
     0
102
RTVSPost2010PropOp34
 70
     1
102
RTVSPost2010Prop35
280
     0
102
RTVSPost2010PropOp35
 70
     1
102
RTVSPost2010Prop36
280
     0
102
RTVSPost2010PropOp36
 70
     1
102
RTVSPost2010Prop37
 90
       50
102
RTVSPost2010PropOp37
 70
     1
102
RTVSPost2010Prop38
140
0.0
102
RTVSPost2010PropOp38
 70
     1
102
RTVSPost2010Prop39
140
1.0
102
RTVSPost2010PropOp39
 70
     1
102
RTVSPost2010Prop40
 90
        0
102
RTVSPost2010PropOp40
 70
     1
102
RTVSPost2010Prop41ColorIndex
 90
       18
102
RTVSPost2010Prop41ColorRGB
 90
        0
102
RTVSPost2010PropOp41
 70
     1
102
RTVSPost2010Prop42
 90
       50
102
RTVSPost2010PropOp42
 70
     1
102
RTVSPost2010Prop43
 90
        3
102
RTVSPost2010PropOp43
 70
     1
102
RTVSPost2010Prop44ColorIndex
 90
        5
102
RTVSPost2010Prop44ColorRGB
 90
      255
102
RTVSPost2010PropOp44
 70
     1
102
RTVSPost2010Prop45
280
     0
102
RTVSPost2010PropOp45
 70
     1
102
RTVSPost2010Prop46
 90
       50
102
RTVSPost2010PropOp46
 70
     1
102
RTVSPost2010Prop47
 90
       50
102
RTVSPost2010PropOp47
 70
     1
102
RTVSPost2010Prop48
 90
       50
102
RTVSPost2010PropOp48
 70
     1
102
RTVSPost2010Prop49
280
     0
102
RTVSPost2010PropOp49
 70
     1
102
RTVSPost2010Prop50
 90
       50
102
RTVSPost2010PropOp50
 70
     1
102
RTVSPost2010Prop51ColorIndex
 90
      256
102
RTVSPost2010Prop51ColorRGB
 90
-16777216
102
RTVSPost2010PropOp51
 70
     0
102
RTVSPost2010Prop52
140
1.0
102
RTVSPost2010PropOp52
 70
     0
102
RTVSPost2010Prop53
 90
        2
102
RTVSPost2010PropOp53
 70
     1
102
RTVSPost2010Prop54
  1
strokes_ogs.tif
102
RTVSPost2010PropOp54
 70
     1
102
RTVSPost2010Prop55
280
     0
102
RTVSPost2010PropOp55
 70
     1
102
RTVSPost2010Prop56
140
1.0
102
RTVSPost2010PropOp56
 70
     1
102
RTVSPost2010Prop57
140
1.0
102
RTVSPost2010PropOp57
 70
     1
102
RTVSPropertyOp0
 70
     1
102
RTVSPropertyOp1
 70
     1
102
RTVSPropertyOp2
 70
     1
102
RTVSPropertyOp3
 70
     1
102
RTVSPropertyOp4
 70
     1
102
RTVSPropertyOp5
 70
     1
102
RTVSPropertyOp6
 70
     1
102
RTVSPropertyOp7
 70
     1
102
RTVSPropertyOp8
 70
     1
102
RTVSPropertyOp9
 70
     1
102
RTVSPropertyOp10
 70
     1
102
RTVSPropertyOp11
 70
     1
102
RTVSPropertyOp12
 70
     1
102
RTVSPropertyOp13
 70
     1
102
RTVSPropertyOp14
 70
     1
102
RTVSPropertyOp15
 70
     1
102
RTVSPropertyOp16
 70
     1
102
RTVSPropertyOp17
 70
     1
102
RTVSPropertyOp18
 70
     1
102
RTVSPropertyOp19
 70
     1
102
RTVSPropertyOp20
 70
     1
102
RTVSPropertyOp21
 70
     1
102
RTVSPropertyOp22
 70
     1
102
RTVSPropertyOp23
 70
     1
102
RTVSPropertyOp24
 70
     1
102
RTVSPropertyOp25
 70
     1
102
RTVSPropertyOp26
 70
     1
102
RTVSPropertyOp27
 70
     1
102
RTVSPropertyOp28
 70
     1
102
RTVSPropertyOp29
 70
     1
102
RTVSPropertyOp30
 70
     1
102
RTVSPropertyOp31
 70
     1
102
RTVSPropertyOp32
 70
     1
102
RTVSPropertyOp33
 70
     1
102
RTVSPropertyOp34
 70
     1
102
RTVSPropertyOp35
 70
     1
102
RTVSPropertyOp36
 70
     1
102
RTVSPropertyOp37
 70
     1
102
RTVSPropertyOp38
 70
     1
102
RTVSPropertyOp39
 70
     1
102
RTVSPropertyOp40
 70
     1
102
RTVSPropertyOp41
 70
     1
102
RTVSPropertyOp42
 70
     1
102
RTVSPropertyOp43
 70
     1
102
RTVSPropertyOp44
 70
     1
102
RTVSPropertyOp45
 70
     1
102
RTVSPropertyOp46
 70
     1
102
RTVSPropertyOp47
 70
     1
102
RTVSPropertyOp48
 70
     1
102
RTVSPropertyOp49
 70
     1
102
RTVSPropertyOp50
 70
     1
102
RTVSPropertyOp51
 70
     0
102
RTVSPropertyOp52
 70
     0
102
RTVSPropertyOp53
 70
     1
102
RTVSPropertyOp54
 70
     1
102
RTVSPropertyOp55
 70
     1
102
RTVSPropertyOp56
 70
     1
102
RTVSPropertyOp57
 70
     1
102
RTVSPropertyOp58
 70
     1
102
RTVSPropertyOp59
 70
     1
102
RTVSPropertyOp60
 70
     1
102
RTVSPropertyOp61
 70
     1
102
RTVSPropertyOp62
 70
     1
  0
XRECORD
  5
45F1
102
{ACAD_REACTORS
330
45F0
102
}
330
45F0
100
AcDbXrecord
280
     1
102
RTVSPost2010Prop28
280
     0
102
RTVSPost2010PropOp28
 70
     1
102
RTVSPost2010Prop29
280
     1
102
RTVSPost2010PropOp29
 70
     1
102
RTVSPost2010Prop30
280
     1
102
RTVSPost2010PropOp30
 70
     1
102
RTVSPost2010Prop31
280
     0
102
RTVSPost2010PropOp31
 70
     1
102
RTVSPost2010Prop32
280
     0
102
RTVSPost2010PropOp32
 70
     1
102
RTVSPost2010Prop33
280
     0
102
RTVSPost2010PropOp33
 70
     1
102
RTVSPost2010Prop34
280
     0
102
RTVSPost2010PropOp34
 70
     1
102
RTVSPost2010Prop35
280
     0
102
RTVSPost2010PropOp35
 70
     1
102
RTVSPost2010Prop36
280
     0
102
RTVSPost2010PropOp36
 70
     1
102
RTVSPost2010Prop37
 90
       50
102
RTVSPost2010PropOp37
 70
     1
102
RTVSPost2010Prop38
140
0.0
102
RTVSPost2010PropOp38
 70
     1
102
RTVSPost2010Prop39
140
1.0
102
RTVSPost2010PropOp39
 70
     1
102
RTVSPost2010Prop40
 90
        0
102
RTVSPost2010PropOp40
 70
     1
102
RTVSPost2010Prop41ColorIndex
 90
       18
102
RTVSPost2010Prop41ColorRGB
 90
        0
102
RTVSPost2010PropOp41
 70
     1
102
RTVSPost2010Prop42
 90
       50
102
RTVSPost2010PropOp42
 70
     1
102
RTVSPost2010Prop43
 90
        3
102
RTVSPost2010PropOp43
 70
     1
102
RTVSPost2010Prop44ColorIndex
 90
        5
102
RTVSPost2010Prop44ColorRGB
 90
      255
102
RTVSPost2010PropOp44
 70
     1
102
RTVSPost2010Prop45
280
     0
102
RTVSPost2010PropOp45
 70
     1
102
RTVSPost2010Prop46
 90
       50
102
RTVSPost2010PropOp46
 70
     1
102
RTVSPost2010Prop47
 90
       50
102
RTVSPost2010PropOp47
 70
     1
102
RTVSPost2010Prop48
 90
       50
102
RTVSPost2010PropOp48
 70
     1
102
RTVSPost2010Prop49
280
     0
102
RTVSPost2010PropOp49
 70
     1
102
RTVSPost2010Prop50
 90
       50
102
RTVSPost2010PropOp50
 70
     1
102
RTVSPost2010Prop51ColorIndex
 90
      256
102
RTVSPost2010Prop51ColorRGB
 90
-16777216
102
RTVSPost2010PropOp51
 70
     0
102
RTVSPost2010Prop52
140
1.0
102
RTVSPost2010PropOp52
 70
     0
102
RTVSPost2010Prop53
 90
        2
102
RTVSPost2010PropOp53
 70
     1
102
RTVSPost2010Prop54
  1
strokes_ogs.tif
102
RTVSPost2010PropOp54
 70
     1
102
RTVSPost2010Prop55
280
     0
102
RTVSPost2010PropOp55
 70
     1
102
RTVSPost2010Prop56
140
1.0
102
RTVSPost2010PropOp56
 70
     1
102
RTVSPost2010Prop57
140
1.0
102
RTVSPost2010PropOp57
 70
     1
102
RTVSPropertyOp0
 70
     1
102
RTVSPropertyOp1
 70
     1
102
RTVSPropertyOp2
 70
     1
102
RTVSPropertyOp3
 70
     1
102
RTVSPropertyOp4
 70
     1
102
RTVSPropertyOp5
 70
     1
102
RTVSPropertyOp6
 70
     1
102
RTVSPropertyOp7
 70
     1
102
RTVSPropertyOp8
 70
     1
102
RTVSPropertyOp9
 70
     1
102
RTVSPropertyOp10
 70
     1
102
RTVSPropertyOp11
 70
     1
102
RTVSPropertyOp12
 70
     1
102
RTVSPropertyOp13
 70
     1
102
RTVSPropertyOp14
 70
     1
102
RTVSPropertyOp15
 70
     1
102
RTVSPropertyOp16
 70
     1
102
RTVSPropertyOp17
 70
     1
102
RTVSPropertyOp18
 70
     1
102
RTVSPropertyOp19
 70
     1
102
RTVSPropertyOp20
 70
     1
102
RTVSPropertyOp21
 70
     1
102
RTVSPropertyOp22
 70
     1
102
RTVSPropertyOp23
 70
     1
102
RTVSPropertyOp24
 70
     1
102
RTVSPropertyOp25
 70
     1
102
RTVSPropertyOp26
 70
     1
102
RTVSPropertyOp27
 70
     1
102
RTVSPropertyOp28
 70
     1
102
RTVSPropertyOp29
 70
     1
102
RTVSPropertyOp30
 70
     1
102
RTVSPropertyOp31
 70
     1
102
RTVSPropertyOp32
 70
     1
102
RTVSPropertyOp33
 70
     1
102
RTVSPropertyOp34
 70
     1
102
RTVSPropertyOp35
 70
     1
102
RTVSPropertyOp36
 70
     1
102
RTVSPropertyOp37
 70
     1
102
RTVSPropertyOp38
 70
     1
102
RTVSPropertyOp39
 70
     1
102
RTVSPropertyOp40
 70
     1
102
RTVSPropertyOp41
 70
     1
102
RTVSPropertyOp42
 70
     1
102
RTVSPropertyOp43
 70
     1
102
RTVSPropertyOp44
 70
     1
102
RTVSPropertyOp45
 70
     1
102
RTVSPropertyOp46
 70
     1
102
RTVSPropertyOp47
 70
     1
102
RTVSPropertyOp48
 70
     1
102
RTVSPropertyOp49
 70
     1
102
RTVSPropertyOp50
 70
     1
102
RTVSPropertyOp51
 70
     0
102
RTVSPropertyOp52
 70
     0
102
RTVSPropertyOp53
 70
     1
102
RTVSPropertyOp54
 70
     1
102
RTVSPropertyOp55
 70
     1
102
RTVSPropertyOp56
 70
     1
102
RTVSPropertyOp57
 70
     1
102
RTVSPropertyOp58
 70
     1
102
RTVSPropertyOp59
 70
     1
102
RTVSPropertyOp60
 70
     1
102
RTVSPropertyOp61
 70
     1
102
RTVSPropertyOp62
 70
     1
  0
XRECORD
  5
45EF
102
{ACAD_REACTORS
330
45EE
102
}
330
45EE
100
AcDbXrecord
280
     1
102
RTVSPost2010Prop28
280
     0
102
RTVSPost2010PropOp28
 70
     1
102
RTVSPost2010Prop29
280
     1
102
RTVSPost2010PropOp29
 70
     1
102
RTVSPost2010Prop30
280
     1
102
RTVSPost2010PropOp30
 70
     1
102
RTVSPost2010Prop31
280
     0
102
RTVSPost2010PropOp31
 70
     1
102
RTVSPost2010Prop32
280
     0
102
RTVSPost2010PropOp32
 70
     1
102
RTVSPost2010Prop33
280
     0
102
RTVSPost2010PropOp33
 70
     1
102
RTVSPost2010Prop34
280
     0
102
RTVSPost2010PropOp34
 70
     1
102
RTVSPost2010Prop35
280
     0
102
RTVSPost2010PropOp35
 70
     1
102
RTVSPost2010Prop36
280
     0
102
RTVSPost2010PropOp36
 70
     1
102
RTVSPost2010Prop37
 90
       50
102
RTVSPost2010PropOp37
 70
     1
102
RTVSPost2010Prop38
140
0.0
102
RTVSPost2010PropOp38
 70
     1
102
RTVSPost2010Prop39
140
1.0
102
RTVSPost2010PropOp39
 70
     1
102
RTVSPost2010Prop40
 90
        0
102
RTVSPost2010PropOp40
 70
     1
102
RTVSPost2010Prop41ColorIndex
 90
       18
102
RTVSPost2010Prop41ColorRGB
 90
        0
102
RTVSPost2010PropOp41
 70
     1
102
RTVSPost2010Prop42
 90
       50
102
RTVSPost2010PropOp42
 70
     1
102
RTVSPost2010Prop43
 90
        3
102
RTVSPost2010PropOp43
 70
     1
102
RTVSPost2010Prop44ColorIndex
 90
        5
102
RTVSPost2010Prop44ColorRGB
 90
      255
102
RTVSPost2010PropOp44
 70
     1
102
RTVSPost2010Prop45
280
     0
102
RTVSPost2010PropOp45
 70
     1
102
RTVSPost2010Prop46
 90
       50
102
RTVSPost2010PropOp46
 70
     1
102
RTVSPost2010Prop47
 90
       50
102
RTVSPost2010PropOp47
 70
     1
102
RTVSPost2010Prop48
 90
       50
102
RTVSPost2010PropOp48
 70
     1
102
RTVSPost2010Prop49
280
     0
102
RTVSPost2010PropOp49
 70
     1
102
RTVSPost2010Prop50
 90
       50
102
RTVSPost2010PropOp50
 70
     1
102
RTVSPost2010Prop51ColorIndex
 90
      256
102
RTVSPost2010Prop51ColorRGB
 90
-16777216
102
RTVSPost2010PropOp51
 70
     0
102
RTVSPost2010Prop52
140
1.0
102
RTVSPost2010PropOp52
 70
     0
102
RTVSPost2010Prop53
 90
        2
102
RTVSPost2010PropOp53
 70
     1
102
RTVSPost2010Prop54
  1
strokes_ogs.tif
102
RTVSPost2010PropOp54
 70
     1
102
RTVSPost2010Prop55
280
     0
102
RTVSPost2010PropOp55
 70
     1
102
RTVSPost2010Prop56
140
1.0
102
RTVSPost2010PropOp56
 70
     1
102
RTVSPost2010Prop57
140
1.0
102
RTVSPost2010PropOp57
 70
     1
102
RTVSPropertyOp0
 70
     1
102
RTVSPropertyOp1
 70
     1
102
RTVSPropertyOp2
 70
     1
102
RTVSPropertyOp3
 70
     1
102
RTVSPropertyOp4
 70
     1
102
RTVSPropertyOp5
 70
     1
102
RTVSPropertyOp6
 70
     1
102
RTVSPropertyOp7
 70
     1
102
RTVSPropertyOp8
 70
     1
102
RTVSPropertyOp9
 70
     1
102
RTVSPropertyOp10
 70
     1
102
RTVSPropertyOp11
 70
     1
102
RTVSPropertyOp12
 70
     1
102
RTVSPropertyOp13
 70
     1
102
RTVSPropertyOp14
 70
     1
102
RTVSPropertyOp15
 70
     1
102
RTVSPropertyOp16
 70
     1
102
RTVSPropertyOp17
 70
     1
102
RTVSPropertyOp18
 70
     1
102
RTVSPropertyOp19
 70
     1
102
RTVSPropertyOp20
 70
     1
102
RTVSPropertyOp21
 70
     1
102
RTVSPropertyOp22
 70
     1
102
RTVSPropertyOp23
 70
     1
102
RTVSPropertyOp24
 70
     1
102
RTVSPropertyOp25
 70
     1
102
RTVSPropertyOp26
 70
     1
102
RTVSPropertyOp27
 70
     1
102
RTVSPropertyOp28
 70
     1
102
RTVSPropertyOp29
 70
     1
102
RTVSPropertyOp30
 70
     1
102
RTVSPropertyOp31
 70
     1
102
RTVSPropertyOp32
 70
     1
102
RTVSPropertyOp33
 70
     1
102
RTVSPropertyOp34
 70
     1
102
RTVSPropertyOp35
 70
     1
102
RTVSPropertyOp36
 70
     1
102
RTVSPropertyOp37
 70
     1
102
RTVSPropertyOp38
 70
     1
102
RTVSPropertyOp39
 70
     1
102
RTVSPropertyOp40
 70
     1
102
RTVSPropertyOp41
 70
     1
102
RTVSPropertyOp42
 70
     1
102
RTVSPropertyOp43
 70
     1
102
RTVSPropertyOp44
 70
     1
102
RTVSPropertyOp45
 70
     1
102
RTVSPropertyOp46
 70
     1
102
RTVSPropertyOp47
 70
     1
102
RTVSPropertyOp48
 70
     1
102
RTVSPropertyOp49
 70
     1
102
RTVSPropertyOp50
 70
     1
102
RTVSPropertyOp51
 70
     0
102
RTVSPropertyOp52
 70
     0
102
RTVSPropertyOp53
 70
     1
102
RTVSPropertyOp54
 70
     1
102
RTVSPropertyOp55
 70
     1
102
RTVSPropertyOp56
 70
     1
102
RTVSPropertyOp57
 70
     1
102
RTVSPropertyOp58
 70
     1
102
RTVSPropertyOp59
 70
     1
102
RTVSPropertyOp60
 70
     1
102
RTVSPropertyOp61
 70
     1
102
RTVSPropertyOp62
 70
     1
  0
XRECORD
  5
45C0
102
{ACAD_REACTORS
330
45BF
102
}
330
45BF
100
AcDbXrecord
280
     1
102
RTVSPost2010Prop28
280
     0
102
RTVSPost2010PropOp28
 70
     1
102
RTVSPost2010Prop29
280
     1
102
RTVSPost2010PropOp29
 70
     1
102
RTVSPost2010Prop30
280
     1
102
RTVSPost2010PropOp30
 70
     1
102
RTVSPost2010Prop31
280
     0
102
RTVSPost2010PropOp31
 70
     1
102
RTVSPost2010Prop32
280
     0
102
RTVSPost2010PropOp32
 70
     1
102
RTVSPost2010Prop33
280
     0
102
RTVSPost2010PropOp33
 70
     1
102
RTVSPost2010Prop34
280
     0
102
RTVSPost2010PropOp34
 70
     1
102
RTVSPost2010Prop35
280
     0
102
RTVSPost2010PropOp35
 70
     1
102
RTVSPost2010Prop36
280
     0
102
RTVSPost2010PropOp36
 70
     1
102
RTVSPost2010Prop37
 90
       50
102
RTVSPost2010PropOp37
 70
     1
102
RTVSPost2010Prop38
140
0.0
102
RTVSPost2010PropOp38
 70
     1
102
RTVSPost2010Prop39
140
1.0
102
RTVSPost2010PropOp39
 70
     1
102
RTVSPost2010Prop40
 90
        0
102
RTVSPost2010PropOp40
 70
     1
102
RTVSPost2010Prop41ColorIndex
 90
       18
102
RTVSPost2010Prop41ColorRGB
 90
        0
102
RTVSPost2010PropOp41
 70
     1
102
RTVSPost2010Prop42
 90
       50
102
RTVSPost2010PropOp42
 70
     1
102
RTVSPost2010Prop43
 90
        3
102
RTVSPost2010PropOp43
 70
     1
102
RTVSPost2010Prop44ColorIndex
 90
        5
102
RTVSPost2010Prop44ColorRGB
 90
      255
102
RTVSPost2010PropOp44
 70
     1
102
RTVSPost2010Prop45
280
     0
102
RTVSPost2010PropOp45
 70
     1
102
RTVSPost2010Prop46
 90
       50
102
RTVSPost2010PropOp46
 70
     1
102
RTVSPost2010Prop47
 90
       50
102
RTVSPost2010PropOp47
 70
     1
102
RTVSPost2010Prop48
 90
       50
102
RTVSPost2010PropOp48
 70
     1
102
RTVSPost2010Prop49
280
     0
102
RTVSPost2010PropOp49
 70
     1
102
RTVSPost2010Prop50
 90
       50
102
RTVSPost2010PropOp50
 70
     1
102
RTVSPost2010Prop51ColorIndex
 90
      256
102
RTVSPost2010Prop51ColorRGB
 90
-16777216
102
RTVSPost2010PropOp51
 70
     0
102
RTVSPost2010Prop52
140
1.0
102
RTVSPost2010PropOp52
 70
     0
102
RTVSPost2010Prop53
 90
        2
102
RTVSPost2010PropOp53
 70
     1
102
RTVSPost2010Prop54
  1
strokes_ogs.tif
102
RTVSPost2010PropOp54
 70
     1
102
RTVSPost2010Prop55
280
     0
102
RTVSPost2010PropOp55
 70
     1
102
RTVSPost2010Prop56
140
1.0
102
RTVSPost2010PropOp56
 70
     1
102
RTVSPost2010Prop57
140
1.0
102
RTVSPost2010PropOp57
 70
     1
102
RTVSPropertyOp0
 70
     1
102
RTVSPropertyOp1
 70
     1
102
RTVSPropertyOp2
 70
     1
102
RTVSPropertyOp3
 70
     1
102
RTVSPropertyOp4
 70
     1
102
RTVSPropertyOp5
 70
     1
102
RTVSPropertyOp6
 70
     1
102
RTVSPropertyOp7
 70
     1
102
RTVSPropertyOp8
 70
     1
102
RTVSPropertyOp9
 70
     1
102
RTVSPropertyOp10
 70
     1
102
RTVSPropertyOp11
 70
     1
102
RTVSPropertyOp12
 70
     1
102
RTVSPropertyOp13
 70
     1
102
RTVSPropertyOp14
 70
     1
102
RTVSPropertyOp15
 70
     1
102
RTVSPropertyOp16
 70
     1
102
RTVSPropertyOp17
 70
     1
102
RTVSPropertyOp18
 70
     1
102
RTVSPropertyOp19
 70
     1
102
RTVSPropertyOp20
 70
     1
102
RTVSPropertyOp21
 70
     1
102
RTVSPropertyOp22
 70
     1
102
RTVSPropertyOp23
 70
     1
102
RTVSPropertyOp24
 70
     1
102
RTVSPropertyOp25
 70
     1
102
RTVSPropertyOp26
 70
     1
102
RTVSPropertyOp27
 70
     1
102
RTVSPropertyOp28
 70
     1
102
RTVSPropertyOp29
 70
     1
102
RTVSPropertyOp30
 70
     1
102
RTVSPropertyOp31
 70
     1
102
RTVSPropertyOp32
 70
     1
102
RTVSPropertyOp33
 70
     1
102
RTVSPropertyOp34
 70
     1
102
RTVSPropertyOp35
 70
     1
102
RTVSPropertyOp36
 70
     1
102
RTVSPropertyOp37
 70
     1
102
RTVSPropertyOp38
 70
     1
102
RTVSPropertyOp39
 70
     1
102
RTVSPropertyOp40
 70
     1
102
RTVSPropertyOp41
 70
     1
102
RTVSPropertyOp42
 70
     1
102
RTVSPropertyOp43
 70
     1
102
RTVSPropertyOp44
 70
     1
102
RTVSPropertyOp45
 70
     1
102
RTVSPropertyOp46
 70
     1
102
RTVSPropertyOp47
 70
     1
102
RTVSPropertyOp48
 70
     1
102
RTVSPropertyOp49
 70
     1
102
RTVSPropertyOp50
 70
     1
102
RTVSPropertyOp51
 70
     0
102
RTVSPropertyOp52
 70
     0
102
RTVSPropertyOp53
 70
     1
102
RTVSPropertyOp54
 70
     1
102
RTVSPropertyOp55
 70
     1
102
RTVSPropertyOp56
 70
     1
102
RTVSPropertyOp57
 70
     1
102
RTVSPropertyOp58
 70
     1
102
RTVSPropertyOp59
 70
     1
102
RTVSPropertyOp60
 70
     1
102
RTVSPropertyOp61
 70
     1
102
RTVSPropertyOp62
 70
     1
  0
XRECORD
  5
45CE
102
{ACAD_REACTORS
330
45CD
102
}
330
45CD
100
AcDbXrecord
280
     1
102
RTVSPost2010Prop28
280
     0
102
RTVSPost2010PropOp28
 70
     1
102
RTVSPost2010Prop29
280
     1
102
RTVSPost2010PropOp29
 70
     1
102
RTVSPost2010Prop30
280
     1
102
RTVSPost2010PropOp30
 70
     1
102
RTVSPost2010Prop31
280
     0
102
RTVSPost2010PropOp31
 70
     1
102
RTVSPost2010Prop32
280
     0
102
RTVSPost2010PropOp32
 70
     1
102
RTVSPost2010Prop33
280
     0
102
RTVSPost2010PropOp33
 70
     1
102
RTVSPost2010Prop34
280
     0
102
RTVSPost2010PropOp34
 70
     1
102
RTVSPost2010Prop35
280
     0
102
RTVSPost2010PropOp35
 70
     1
102
RTVSPost2010Prop36
280
     0
102
RTVSPost2010PropOp36
 70
     1
102
RTVSPost2010Prop37
 90
       50
102
RTVSPost2010PropOp37
 70
     1
102
RTVSPost2010Prop38
140
0.0
102
RTVSPost2010PropOp38
 70
     1
102
RTVSPost2010Prop39
140
1.0
102
RTVSPost2010PropOp39
 70
     1
102
RTVSPost2010Prop40
 90
        0
102
RTVSPost2010PropOp40
 70
     1
102
RTVSPost2010Prop41ColorIndex
 90
       18
102
RTVSPost2010Prop41ColorRGB
 90
        0
102
RTVSPost2010PropOp41
 70
     1
102
RTVSPost2010Prop42
 90
       50
102
RTVSPost2010PropOp42
 70
     1
102
RTVSPost2010Prop43
 90
        3
102
RTVSPost2010PropOp43
 70
     1
102
RTVSPost2010Prop44ColorIndex
 90
        5
102
RTVSPost2010Prop44ColorRGB
 90
      255
102
RTVSPost2010PropOp44
 70
     1
102
RTVSPost2010Prop45
280
     0
102
RTVSPost2010PropOp45
 70
     1
102
RTVSPost2010Prop46
 90
       50
102
RTVSPost2010PropOp46
 70
     1
102
RTVSPost2010Prop47
 90
       50
102
RTVSPost2010PropOp47
 70
     1
102
RTVSPost2010Prop48
 90
       50
102
RTVSPost2010PropOp48
 70
     1
102
RTVSPost2010Prop49
280
     0
102
RTVSPost2010PropOp49
 70
     1
102
RTVSPost2010Prop50
 90
       50
102
RTVSPost2010PropOp50
 70
     1
102
RTVSPost2010Prop51ColorIndex
 90
      256
102
RTVSPost2010Prop51ColorRGB
 90
-16777216
102
RTVSPost2010PropOp51
 70
     0
102
RTVSPost2010Prop52
140
1.0
102
RTVSPost2010PropOp52
 70
     0
102
RTVSPost2010Prop53
 90
        2
102
RTVSPost2010PropOp53
 70
     1
102
RTVSPost2010Prop54
  1
strokes_ogs.tif
102
RTVSPost2010PropOp54
 70
     1
102
RTVSPost2010Prop55
280
     0
102
RTVSPost2010PropOp55
 70
     1
102
RTVSPost2010Prop56
140
1.0
102
RTVSPost2010PropOp56
 70
     1
102
RTVSPost2010Prop57
140
1.0
102
RTVSPost2010PropOp57
 70
     1
102
RTVSPropertyOp0
 70
     1
102
RTVSPropertyOp1
 70
     1
102
RTVSPropertyOp2
 70
     1
102
RTVSPropertyOp3
 70
     1
102
RTVSPropertyOp4
 70
     1
102
RTVSPropertyOp5
 70
     1
102
RTVSPropertyOp6
 70
     1
102
RTVSPropertyOp7
 70
     1
102
RTVSPropertyOp8
 70
     1
102
RTVSPropertyOp9
 70
     1
102
RTVSPropertyOp10
 70
     1
102
RTVSPropertyOp11
 70
     1
102
RTVSPropertyOp12
 70
     1
102
RTVSPropertyOp13
 70
     1
102
RTVSPropertyOp14
 70
     1
102
RTVSPropertyOp15
 70
     1
102
RTVSPropertyOp16
 70
     1
102
RTVSPropertyOp17
 70
     1
102
RTVSPropertyOp18
 70
     1
102
RTVSPropertyOp19
 70
     1
102
RTVSPropertyOp20
 70
     1
102
RTVSPropertyOp21
 70
     1
102
RTVSPropertyOp22
 70
     1
102
RTVSPropertyOp23
 70
     1
102
RTVSPropertyOp24
 70
     1
102
RTVSPropertyOp25
 70
     1
102
RTVSPropertyOp26
 70
     1
102
RTVSPropertyOp27
 70
     1
102
RTVSPropertyOp28
 70
     1
102
RTVSPropertyOp29
 70
     1
102
RTVSPropertyOp30
 70
     1
102
RTVSPropertyOp31
 70
     1
102
RTVSPropertyOp32
 70
     1
102
RTVSPropertyOp33
 70
     1
102
RTVSPropertyOp34
 70
     1
102
RTVSPropertyOp35
 70
     1
102
RTVSPropertyOp36
 70
     1
102
RTVSPropertyOp37
 70
     1
102
RTVSPropertyOp38
 70
     1
102
RTVSPropertyOp39
 70
     1
102
RTVSPropertyOp40
 70
     1
102
RTVSPropertyOp41
 70
     1
102
RTVSPropertyOp42
 70
     1
102
RTVSPropertyOp43
 70
     1
102
RTVSPropertyOp44
 70
     1
102
RTVSPropertyOp45
 70
     1
102
RTVSPropertyOp46
 70
     1
102
RTVSPropertyOp47
 70
     1
102
RTVSPropertyOp48
 70
     1
102
RTVSPropertyOp49
 70
     1
102
RTVSPropertyOp50
 70
     1
102
RTVSPropertyOp51
 70
     0
102
RTVSPropertyOp52
 70
     0
102
RTVSPropertyOp53
 70
     1
102
RTVSPropertyOp54
 70
     1
102
RTVSPropertyOp55
 70
     1
102
RTVSPropertyOp56
 70
     1
102
RTVSPropertyOp57
 70
     1
102
RTVSPropertyOp58
 70
     1
102
RTVSPropertyOp59
 70
     1
102
RTVSPropertyOp60
 70
     1
102
RTVSPropertyOp61
 70
     1
102
RTVSPropertyOp62
 70
     1
  0
XRECORD
  5
45D6
102
{ACAD_REACTORS
330
45D5
102
}
330
45D5
100
AcDbXrecord
280
     1
102
RTVSPost2010Prop28
280
     0
102
RTVSPost2010PropOp28
 70
     1
102
RTVSPost2010Prop29
280
     1
102
RTVSPost2010PropOp29
 70
     1
102
RTVSPost2010Prop30
280
     1
102
RTVSPost2010PropOp30
 70
     1
102
RTVSPost2010Prop31
280
     0
102
RTVSPost2010PropOp31
 70
     1
102
RTVSPost2010Prop32
280
     0
102
RTVSPost2010PropOp32
 70
     1
102
RTVSPost2010Prop33
280
     0
102
RTVSPost2010PropOp33
 70
     1
102
RTVSPost2010Prop34
280
     0
102
RTVSPost2010PropOp34
 70
     1
102
RTVSPost2010Prop35
280
     0
102
RTVSPost2010PropOp35
 70
     1
102
RTVSPost2010Prop36
280
     0
102
RTVSPost2010PropOp36
 70
     1
102
RTVSPost2010Prop37
 90
       50
102
RTVSPost2010PropOp37
 70
     1
102
RTVSPost2010Prop38
140
0.0
102
RTVSPost2010PropOp38
 70
     1
102
RTVSPost2010Prop39
140
1.0
102
RTVSPost2010PropOp39
 70
     1
102
RTVSPost2010Prop40
 90
        0
102
RTVSPost2010PropOp40
 70
     1
102
RTVSPost2010Prop41ColorIndex
 90
       18
102
RTVSPost2010Prop41ColorRGB
 90
        0
102
RTVSPost2010PropOp41
 70
     1
102
RTVSPost2010Prop42
 90
       50
102
RTVSPost2010PropOp42
 70
     1
102
RTVSPost2010Prop43
 90
        3
102
RTVSPost2010PropOp43
 70
     1
102
RTVSPost2010Prop44ColorIndex
 90
        5
102
RTVSPost2010Prop44ColorRGB
 90
      255
102
RTVSPost2010PropOp44
 70
     1
102
RTVSPost2010Prop45
280
     0
102
RTVSPost2010PropOp45
 70
     1
102
RTVSPost2010Prop46
 90
       50
102
RTVSPost2010PropOp46
 70
     1
102
RTVSPost2010Prop47
 90
       50
102
RTVSPost2010PropOp47
 70
     1
102
RTVSPost2010Prop48
 90
       50
102
RTVSPost2010PropOp48
 70
     1
102
RTVSPost2010Prop49
280
     0
102
RTVSPost2010PropOp49
 70
     1
102
RTVSPost2010Prop50
 90
       50
102
RTVSPost2010PropOp50
 70
     1
102
RTVSPost2010Prop51ColorIndex
 90
      256
102
RTVSPost2010Prop51ColorRGB
 90
-16777216
102
RTVSPost2010PropOp51
 70
     0
102
RTVSPost2010Prop52
140
1.0
102
RTVSPost2010PropOp52
 70
     0
102
RTVSPost2010Prop53
 90
        2
102
RTVSPost2010PropOp53
 70
     1
102
RTVSPost2010Prop54
  1
strokes_ogs.tif
102
RTVSPost2010PropOp54
 70
     1
102
RTVSPost2010Prop55
280
     0
102
RTVSPost2010PropOp55
 70
     1
102
RTVSPost2010Prop56
140
1.0
102
RTVSPost2010PropOp56
 70
     1
102
RTVSPost2010Prop57
140
1.0
102
RTVSPost2010PropOp57
 70
     1
102
RTVSPropertyOp0
 70
     1
102
RTVSPropertyOp1
 70
     1
102
RTVSPropertyOp2
 70
     1
102
RTVSPropertyOp3
 70
     1
102
RTVSPropertyOp4
 70
     1
102
RTVSPropertyOp5
 70
     1
102
RTVSPropertyOp6
 70
     1
102
RTVSPropertyOp7
 70
     1
102
RTVSPropertyOp8
 70
     1
102
RTVSPropertyOp9
 70
     1
102
RTVSPropertyOp10
 70
     1
102
RTVSPropertyOp11
 70
     1
102
RTVSPropertyOp12
 70
     1
102
RTVSPropertyOp13
 70
     1
102
RTVSPropertyOp14
 70
     1
102
RTVSPropertyOp15
 70
     1
102
RTVSPropertyOp16
 70
     1
102
RTVSPropertyOp17
 70
     1
102
RTVSPropertyOp18
 70
     1
102
RTVSPropertyOp19
 70
     1
102
RTVSPropertyOp20
 70
     1
102
RTVSPropertyOp21
 70
     1
102
RTVSPropertyOp22
 70
     1
102
RTVSPropertyOp23
 70
     1
102
RTVSPropertyOp24
 70
     1
102
RTVSPropertyOp25
 70
     1
102
RTVSPropertyOp26
 70
     1
102
RTVSPropertyOp27
 70
     1
102
RTVSPropertyOp28
 70
     1
102
RTVSPropertyOp29
 70
     1
102
RTVSPropertyOp30
 70
     1
102
RTVSPropertyOp31
 70
     1
102
RTVSPropertyOp32
 70
     1
102
RTVSPropertyOp33
 70
     1
102
RTVSPropertyOp34
 70
     1
102
RTVSPropertyOp35
 70
     1
102
RTVSPropertyOp36
 70
     1
102
RTVSPropertyOp37
 70
     1
102
RTVSPropertyOp38
 70
     1
102
RTVSPropertyOp39
 70
     1
102
RTVSPropertyOp40
 70
     1
102
RTVSPropertyOp41
 70
     1
102
RTVSPropertyOp42
 70
     1
102
RTVSPropertyOp43
 70
     1
102
RTVSPropertyOp44
 70
     1
102
RTVSPropertyOp45
 70
     1
102
RTVSPropertyOp46
 70
     1
102
RTVSPropertyOp47
 70
     1
102
RTVSPropertyOp48
 70
     1
102
RTVSPropertyOp49
 70
     1
102
RTVSPropertyOp50
 70
     1
102
RTVSPropertyOp51
 70
     0
102
RTVSPropertyOp52
 70
     0
102
RTVSPropertyOp53
 70
     1
102
RTVSPropertyOp54
 70
     1
102
RTVSPropertyOp55
 70
     1
102
RTVSPropertyOp56
 70
     1
102
RTVSPropertyOp57
 70
     1
102
RTVSPropertyOp58
 70
     1
102
RTVSPropertyOp59
 70
     1
102
RTVSPropertyOp60
 70
     1
102
RTVSPropertyOp61
 70
     1
102
RTVSPropertyOp62
 70
     1
  0
XRECORD
  5
45C8
102
{ACAD_REACTORS
330
45C7
102
}
330
45C7
100
AcDbXrecord
280
     1
102
RTVSPost2010Prop28
280
     0
102
RTVSPost2010PropOp28
 70
     1
102
RTVSPost2010Prop29
280
     1
102
RTVSPost2010PropOp29
 70
     1
102
RTVSPost2010Prop30
280
     1
102
RTVSPost2010PropOp30
 70
     1
102
RTVSPost2010Prop31
280
     0
102
RTVSPost2010PropOp31
 70
     1
102
RTVSPost2010Prop32
280
     0
102
RTVSPost2010PropOp32
 70
     1
102
RTVSPost2010Prop33
280
     0
102
RTVSPost2010PropOp33
 70
     1
102
RTVSPost2010Prop34
280
     0
102
RTVSPost2010PropOp34
 70
     1
102
RTVSPost2010Prop35
280
     0
102
RTVSPost2010PropOp35
 70
     1
102
RTVSPost2010Prop36
280
     0
102
RTVSPost2010PropOp36
 70
     1
102
RTVSPost2010Prop37
 90
       50
102
RTVSPost2010PropOp37
 70
     1
102
RTVSPost2010Prop38
140
0.0
102
RTVSPost2010PropOp38
 70
     1
102
RTVSPost2010Prop39
140
1.0
102
RTVSPost2010PropOp39
 70
     1
102
RTVSPost2010Prop40
 90
        0
102
RTVSPost2010PropOp40
 70
     1
102
RTVSPost2010Prop41ColorIndex
 90
       18
102
RTVSPost2010Prop41ColorRGB
 90
        0
102
RTVSPost2010PropOp41
 70
     1
102
RTVSPost2010Prop42
 90
       50
102
RTVSPost2010PropOp42
 70
     1
102
RTVSPost2010Prop43
 90
        3
102
RTVSPost2010PropOp43
 70
     1
102
RTVSPost2010Prop44ColorIndex
 90
        5
102
RTVSPost2010Prop44ColorRGB
 90
      255
102
RTVSPost2010PropOp44
 70
     1
102
RTVSPost2010Prop45
280
     0
102
RTVSPost2010PropOp45
 70
     1
102
RTVSPost2010Prop46
 90
       50
102
RTVSPost2010PropOp46
 70
     1
102
RTVSPost2010Prop47
 90
       50
102
RTVSPost2010PropOp47
 70
     1
102
RTVSPost2010Prop48
 90
       50
102
RTVSPost2010PropOp48
 70
     1
102
RTVSPost2010Prop49
280
     0
102
RTVSPost2010PropOp49
 70
     1
102
RTVSPost2010Prop50
 90
       50
102
RTVSPost2010PropOp50
 70
     1
102
RTVSPost2010Prop51ColorIndex
 90
      256
102
RTVSPost2010Prop51ColorRGB
 90
-16777216
102
RTVSPost2010PropOp51
 70
     0
102
RTVSPost2010Prop52
140
1.0
102
RTVSPost2010PropOp52
 70
     0
102
RTVSPost2010Prop53
 90
        2
102
RTVSPost2010PropOp53
 70
     1
102
RTVSPost2010Prop54
  1
strokes_ogs.tif
102
RTVSPost2010PropOp54
 70
     1
102
RTVSPost2010Prop55
280
     0
102
RTVSPost2010PropOp55
 70
     1
102
RTVSPost2010Prop56
140
1.0
102
RTVSPost2010PropOp56
 70
     1
102
RTVSPost2010Prop57
140
1.0
102
RTVSPost2010PropOp57
 70
     1
102
RTVSPropertyOp0
 70
     1
102
RTVSPropertyOp1
 70
     1
102
RTVSPropertyOp2
 70
     1
102
RTVSPropertyOp3
 70
     1
102
RTVSPropertyOp4
 70
     1
102
RTVSPropertyOp5
 70
     1
102
RTVSPropertyOp6
 70
     1
102
RTVSPropertyOp7
 70
     1
102
RTVSPropertyOp8
 70
     1
102
RTVSPropertyOp9
 70
     1
102
RTVSPropertyOp10
 70
     1
102
RTVSPropertyOp11
 70
     1
102
RTVSPropertyOp12
 70
     1
102
RTVSPropertyOp13
 70
     1
102
RTVSPropertyOp14
 70
     1
102
RTVSPropertyOp15
 70
     1
102
RTVSPropertyOp16
 70
     1
102
RTVSPropertyOp17
 70
     1
102
RTVSPropertyOp18
 70
     1
102
RTVSPropertyOp19
 70
     1
102
RTVSPropertyOp20
 70
     1
102
RTVSPropertyOp21
 70
     1
102
RTVSPropertyOp22
 70
     1
102
RTVSPropertyOp23
 70
     1
102
RTVSPropertyOp24
 70
     1
102
RTVSPropertyOp25
 70
     1
102
RTVSPropertyOp26
 70
     1
102
RTVSPropertyOp27
 70
     1
102
RTVSPropertyOp28
 70
     1
102
RTVSPropertyOp29
 70
     1
102
RTVSPropertyOp30
 70
     1
102
RTVSPropertyOp31
 70
     1
102
RTVSPropertyOp32
 70
     1
102
RTVSPropertyOp33
 70
     1
102
RTVSPropertyOp34
 70
     1
102
RTVSPropertyOp35
 70
     1
102
RTVSPropertyOp36
 70
     1
102
RTVSPropertyOp37
 70
     1
102
RTVSPropertyOp38
 70
     1
102
RTVSPropertyOp39
 70
     1
102
RTVSPropertyOp40
 70
     1
102
RTVSPropertyOp41
 70
     1
102
RTVSPropertyOp42
 70
     1
102
RTVSPropertyOp43
 70
     1
102
RTVSPropertyOp44
 70
     1
102
RTVSPropertyOp45
 70
     1
102
RTVSPropertyOp46
 70
     1
102
RTVSPropertyOp47
 70
     1
102
RTVSPropertyOp48
 70
     1
102
RTVSPropertyOp49
 70
     1
102
RTVSPropertyOp50
 70
     1
102
RTVSPropertyOp51
 70
     0
102
RTVSPropertyOp52
 70
     0
102
RTVSPropertyOp53
 70
     1
102
RTVSPropertyOp54
 70
     1
102
RTVSPropertyOp55
 70
     1
102
RTVSPropertyOp56
 70
     1
102
RTVSPropertyOp57
 70
     1
102
RTVSPropertyOp58
 70
     1
102
RTVSPropertyOp59
 70
     1
102
RTVSPropertyOp60
 70
     1
102
RTVSPropertyOp61
 70
     1
102
RTVSPropertyOp62
 70
     1
  0
XRECORD
  5
45CC
102
{ACAD_REACTORS
330
45CB
102
}
330
45CB
100
AcDbXrecord
280
     1
102
RTVSPost2010Prop28
280
     0
102
RTVSPost2010PropOp28
 70
     1
102
RTVSPost2010Prop29
280
     1
102
RTVSPost2010PropOp29
 70
     1
102
RTVSPost2010Prop30
280
     1
102
RTVSPost2010PropOp30
 70
     1
102
RTVSPost2010Prop31
280
     0
102
RTVSPost2010PropOp31
 70
     1
102
RTVSPost2010Prop32
280
     0
102
RTVSPost2010PropOp32
 70
     1
102
RTVSPost2010Prop33
280
     0
102
RTVSPost2010PropOp33
 70
     1
102
RTVSPost2010Prop34
280
     0
102
RTVSPost2010PropOp34
 70
     1
102
RTVSPost2010Prop35
280
     0
102
RTVSPost2010PropOp35
 70
     1
102
RTVSPost2010Prop36
280
     0
102
RTVSPost2010PropOp36
 70
     1
102
RTVSPost2010Prop37
 90
       50
102
RTVSPost2010PropOp37
 70
     1
102
RTVSPost2010Prop38
140
0.0
102
RTVSPost2010PropOp38
 70
     1
102
RTVSPost2010Prop39
140
1.0
102
RTVSPost2010PropOp39
 70
     1
102
RTVSPost2010Prop40
 90
        0
102
RTVSPost2010PropOp40
 70
     1
102
RTVSPost2010Prop41ColorIndex
 90
       18
102
RTVSPost2010Prop41ColorRGB
 90
        0
102
RTVSPost2010PropOp41
 70
     1
102
RTVSPost2010Prop42
 90
       50
102
RTVSPost2010PropOp42
 70
     1
102
RTVSPost2010Prop43
 90
        3
102
RTVSPost2010PropOp43
 70
     1
102
RTVSPost2010Prop44ColorIndex
 90
        5
102
RTVSPost2010Prop44ColorRGB
 90
      255
102
RTVSPost2010PropOp44
 70
     1
102
RTVSPost2010Prop45
280
     0
102
RTVSPost2010PropOp45
 70
     1
102
RTVSPost2010Prop46
 90
       50
102
RTVSPost2010PropOp46
 70
     1
102
RTVSPost2010Prop47
 90
       50
102
RTVSPost2010PropOp47
 70
     1
102
RTVSPost2010Prop48
 90
       50
102
RTVSPost2010PropOp48
 70
     1
102
RTVSPost2010Prop49
280
     0
102
RTVSPost2010PropOp49
 70
     1
102
RTVSPost2010Prop50
 90
       50
102
RTVSPost2010PropOp50
 70
     1
102
RTVSPost2010Prop51ColorIndex
 90
      256
102
RTVSPost2010Prop51ColorRGB
 90
-16777216
102
RTVSPost2010PropOp51
 70
     0
102
RTVSPost2010Prop52
140
1.0
102
RTVSPost2010PropOp52
 70
     0
102
RTVSPost2010Prop53
 90
        2
102
RTVSPost2010PropOp53
 70
     1
102
RTVSPost2010Prop54
  1
strokes_ogs.tif
102
RTVSPost2010PropOp54
 70
     1
102
RTVSPost2010Prop55
280
     0
102
RTVSPost2010PropOp55
 70
     1
102
RTVSPost2010Prop56
140
1.0
102
RTVSPost2010PropOp56
 70
     1
102
RTVSPost2010Prop57
140
1.0
102
RTVSPost2010PropOp57
 70
     1
102
RTVSPropertyOp0
 70
     1
102
RTVSPropertyOp1
 70
     1
102
RTVSPropertyOp2
 70
     1
102
RTVSPropertyOp3
 70
     1
102
RTVSPropertyOp4
 70
     1
102
RTVSPropertyOp5
 70
     1
102
RTVSPropertyOp6
 70
     1
102
RTVSPropertyOp7
 70
     1
102
RTVSPropertyOp8
 70
     1
102
RTVSPropertyOp9
 70
     1
102
RTVSPropertyOp10
 70
     1
102
RTVSPropertyOp11
 70
     1
102
RTVSPropertyOp12
 70
     1
102
RTVSPropertyOp13
 70
     1
102
RTVSPropertyOp14
 70
     1
102
RTVSPropertyOp15
 70
     1
102
RTVSPropertyOp16
 70
     1
102
RTVSPropertyOp17
 70
     1
102
RTVSPropertyOp18
 70
     1
102
RTVSPropertyOp19
 70
     1
102
RTVSPropertyOp20
 70
     1
102
RTVSPropertyOp21
 70
     1
102
RTVSPropertyOp22
 70
     1
102
RTVSPropertyOp23
 70
     1
102
RTVSPropertyOp24
 70
     1
102
RTVSPropertyOp25
 70
     1
102
RTVSPropertyOp26
 70
     1
102
RTVSPropertyOp27
 70
     1
102
RTVSPropertyOp28
 70
     1
102
RTVSPropertyOp29
 70
     1
102
RTVSPropertyOp30
 70
     1
102
RTVSPropertyOp31
 70
     1
102
RTVSPropertyOp32
 70
     1
102
RTVSPropertyOp33
 70
     1
102
RTVSPropertyOp34
 70
     1
102
RTVSPropertyOp35
 70
     1
102
RTVSPropertyOp36
 70
     1
102
RTVSPropertyOp37
 70
     1
102
RTVSPropertyOp38
 70
     1
102
RTVSPropertyOp39
 70
     1
102
RTVSPropertyOp40
 70
     1
102
RTVSPropertyOp41
 70
     1
102
RTVSPropertyOp42
 70
     1
102
RTVSPropertyOp43
 70
     1
102
RTVSPropertyOp44
 70
     1
102
RTVSPropertyOp45
 70
     1
102
RTVSPropertyOp46
 70
     1
102
RTVSPropertyOp47
 70
     1
102
RTVSPropertyOp48
 70
     1
102
RTVSPropertyOp49
 70
     1
102
RTVSPropertyOp50
 70
     1
102
RTVSPropertyOp51
 70
     0
102
RTVSPropertyOp52
 70
     0
102
RTVSPropertyOp53
 70
     1
102
RTVSPropertyOp54
 70
     1
102
RTVSPropertyOp55
 70
     1
102
RTVSPropertyOp56
 70
     1
102
RTVSPropertyOp57
 70
     1
102
RTVSPropertyOp58
 70
     1
102
RTVSPropertyOp59
 70
     1
102
RTVSPropertyOp60
 70
     1
102
RTVSPropertyOp61
 70
     1
102
RTVSPropertyOp62
 70
     1
  0
XRECORD
  5
45E6
102
{ACAD_REACTORS
330
45E5
102
}
330
45E5
100
AcDbXrecord
280
     1
102
RTVSPost2010Prop28
280
     0
102
RTVSPost2010PropOp28
 70
     0
102
RTVSPost2010Prop29
280
     1
102
RTVSPost2010PropOp29
 70
     0
102
RTVSPost2010Prop30
280
     1
102
RTVSPost2010PropOp30
 70
     0
102
RTVSPost2010Prop31
280
     0
102
RTVSPost2010PropOp31
 70
     0
102
RTVSPost2010Prop32
280
     0
102
RTVSPost2010PropOp32
 70
     0
102
RTVSPost2010Prop33
280
     0
102
RTVSPost2010PropOp33
 70
     0
102
RTVSPost2010Prop34
280
     0
102
RTVSPost2010PropOp34
 70
     0
102
RTVSPost2010Prop35
280
     0
102
RTVSPost2010PropOp35
 70
     0
102
RTVSPost2010Prop36
280
     0
102
RTVSPost2010PropOp36
 70
     0
102
RTVSPost2010Prop37
 90
       50
102
RTVSPost2010PropOp37
 70
     0
102
RTVSPost2010Prop38
140
0.0
102
RTVSPost2010PropOp38
 70
     0
102
RTVSPost2010Prop39
140
1.0
102
RTVSPost2010PropOp39
 70
     0
102
RTVSPost2010Prop40
 90
        0
102
RTVSPost2010PropOp40
 70
     0
102
RTVSPost2010Prop41ColorIndex
 90
       18
102
RTVSPost2010Prop41ColorRGB
 90
        0
102
RTVSPost2010PropOp41
 70
     0
102
RTVSPost2010Prop42
 90
       50
102
RTVSPost2010PropOp42
 70
     0
102
RTVSPost2010Prop43
 90
        3
102
RTVSPost2010PropOp43
 70
     0
102
RTVSPost2010Prop44ColorIndex
 90
        5
102
RTVSPost2010Prop44ColorRGB
 90
      255
102
RTVSPost2010PropOp44
 70
     0
102
RTVSPost2010Prop45
280
     0
102
RTVSPost2010PropOp45
 70
     0
102
RTVSPost2010Prop46
 90
       50
102
RTVSPost2010PropOp46
 70
     0
102
RTVSPost2010Prop47
 90
       50
102
RTVSPost2010PropOp47
 70
     0
102
RTVSPost2010Prop48
 90
       50
102
RTVSPost2010PropOp48
 70
     0
102
RTVSPost2010Prop49
280
     0
102
RTVSPost2010PropOp49
 70
     0
102
RTVSPost2010Prop50
 90
       50
102
RTVSPost2010PropOp50
 70
     0
102
RTVSPost2010Prop51ColorIndex
 90
      256
102
RTVSPost2010Prop51ColorRGB
 90
-16777216
102
RTVSPost2010PropOp51
 70
     0
102
RTVSPost2010Prop52
140
1.0
102
RTVSPost2010PropOp52
 70
     0
102
RTVSPost2010Prop53
 90
        2
102
RTVSPost2010PropOp53
 70
     0
102
RTVSPost2010Prop54
  1
strokes_ogs.tif
102
RTVSPost2010PropOp54
 70
     0
102
RTVSPost2010Prop55
280
     0
102
RTVSPost2010PropOp55
 70
     0
102
RTVSPost2010Prop56
140
1.0
102
RTVSPost2010PropOp56
 70
     0
102
RTVSPost2010Prop57
140
1.0
102
RTVSPost2010PropOp57
 70
     0
102
RTVSPropertyOp0
 70
     0
102
RTVSPropertyOp1
 70
     0
102
RTVSPropertyOp2
 70
     0
102
RTVSPropertyOp3
 70
     0
102
RTVSPropertyOp4
 70
     0
102
RTVSPropertyOp5
 70
     0
102
RTVSPropertyOp6
 70
     0
102
RTVSPropertyOp7
 70
     0
102
RTVSPropertyOp8
 70
     0
102
RTVSPropertyOp9
 70
     0
102
RTVSPropertyOp10
 70
     0
102
RTVSPropertyOp11
 70
     0
102
RTVSPropertyOp12
 70
     0
102
RTVSPropertyOp13
 70
     0
102
RTVSPropertyOp14
 70
     2
102
RTVSPropertyOp15
 70
     0
102
RTVSPropertyOp16
 70
     0
102
RTVSPropertyOp17
 70
     0
102
RTVSPropertyOp18
 70
     0
102
RTVSPropertyOp19
 70
     0
102
RTVSPropertyOp20
 70
     0
102
RTVSPropertyOp21
 70
     0
102
RTVSPropertyOp22
 70
     0
102
RTVSPropertyOp23
 70
     0
102
RTVSPropertyOp24
 70
     0
102
RTVSPropertyOp25
 70
     0
102
RTVSPropertyOp26
 70
     0
102
RTVSPropertyOp27
 70
     0
102
RTVSPropertyOp28
 70
     0
102
RTVSPropertyOp29
 70
     0
102
RTVSPropertyOp30
 70
     0
102
RTVSPropertyOp31
 70
     0
102
RTVSPropertyOp32
 70
     0
102
RTVSPropertyOp33
 70
     0
102
RTVSPropertyOp34
 70
     0
102
RTVSPropertyOp35
 70
     0
102
RTVSPropertyOp36
 70
     0
102
RTVSPropertyOp37
 70
     0
102
RTVSPropertyOp38
 70
     0
102
RTVSPropertyOp39
 70
     0
102
RTVSPropertyOp40
 70
     0
102
RTVSPropertyOp41
 70
     0
102
RTVSPropertyOp42
 70
     0
102
RTVSPropertyOp43
 70
     0
102
RTVSPropertyOp44
 70
     0
102
RTVSPropertyOp45
 70
     0
102
RTVSPropertyOp46
 70
     0
102
RTVSPropertyOp47
 70
     0
102
RTVSPropertyOp48
 70
     0
102
RTVSPropertyOp49
 70
     0
102
RTVSPropertyOp50
 70
     0
102
RTVSPropertyOp51
 70
     0
102
RTVSPropertyOp52
 70
     0
102
RTVSPropertyOp53
 70
     0
102
RTVSPropertyOp54
 70
     0
102
RTVSPropertyOp55
 70
     0
102
RTVSPropertyOp56
 70
     0
102
RTVSPropertyOp57
 70
     0
102
RTVSPropertyOp58
 70
     0
102
RTVSPropertyOp59
 70
     0
102
RTVSPropertyOp60
 70
     0
102
RTVSPropertyOp61
 70
     0
102
RTVSPropertyOp62
 70
     0
  0
XRECORD
  5
45D4
102
{ACAD_REACTORS
330
45D3
102
}
330
45D3
100
AcDbXrecord
280
     1
102
RTVSPost2010Prop28
280
     0
102
RTVSPost2010PropOp28
 70
     1
102
RTVSPost2010Prop29
280
     1
102
RTVSPost2010PropOp29
 70
     1
102
RTVSPost2010Prop30
280
     1
102
RTVSPost2010PropOp30
 70
     1
102
RTVSPost2010Prop31
280
     0
102
RTVSPost2010PropOp31
 70
     1
102
RTVSPost2010Prop32
280
     0
102
RTVSPost2010PropOp32
 70
     1
102
RTVSPost2010Prop33
280
     0
102
RTVSPost2010PropOp33
 70
     1
102
RTVSPost2010Prop34
280
     0
102
RTVSPost2010PropOp34
 70
     1
102
RTVSPost2010Prop35
280
     0
102
RTVSPost2010PropOp35
 70
     1
102
RTVSPost2010Prop36
280
     0
102
RTVSPost2010PropOp36
 70
     1
102
RTVSPost2010Prop37
 90
       50
102
RTVSPost2010PropOp37
 70
     1
102
RTVSPost2010Prop38
140
0.0
102
RTVSPost2010PropOp38
 70
     1
102
RTVSPost2010Prop39
140
1.0
102
RTVSPost2010PropOp39
 70
     1
102
RTVSPost2010Prop40
 90
        0
102
RTVSPost2010PropOp40
 70
     1
102
RTVSPost2010Prop41ColorIndex
 90
       18
102
RTVSPost2010Prop41ColorRGB
 90
        0
102
RTVSPost2010PropOp41
 70
     1
102
RTVSPost2010Prop42
 90
       50
102
RTVSPost2010PropOp42
 70
     1
102
RTVSPost2010Prop43
 90
        3
102
RTVSPost2010PropOp43
 70
     1
102
RTVSPost2010Prop44ColorIndex
 90
        5
102
RTVSPost2010Prop44ColorRGB
 90
      255
102
RTVSPost2010PropOp44
 70
     1
102
RTVSPost2010Prop45
280
     0
102
RTVSPost2010PropOp45
 70
     1
102
RTVSPost2010Prop46
 90
       50
102
RTVSPost2010PropOp46
 70
     1
102
RTVSPost2010Prop47
 90
       50
102
RTVSPost2010PropOp47
 70
     1
102
RTVSPost2010Prop48
 90
       50
102
RTVSPost2010PropOp48
 70
     1
102
RTVSPost2010Prop49
280
     0
102
RTVSPost2010PropOp49
 70
     1
102
RTVSPost2010Prop50
 90
       50
102
RTVSPost2010PropOp50
 70
     1
102
RTVSPost2010Prop51ColorIndex
 90
      256
102
RTVSPost2010Prop51ColorRGB
 90
-16777216
102
RTVSPost2010PropOp51
 70
     0
102
RTVSPost2010Prop52
140
1.0
102
RTVSPost2010PropOp52
 70
     0
102
RTVSPost2010Prop53
 90
        2
102
RTVSPost2010PropOp53
 70
     1
102
RTVSPost2010Prop54
  1
strokes_ogs.tif
102
RTVSPost2010PropOp54
 70
     1
102
RTVSPost2010Prop55
280
     0
102
RTVSPost2010PropOp55
 70
     1
102
RTVSPost2010Prop56
140
1.0
102
RTVSPost2010PropOp56
 70
     1
102
RTVSPost2010Prop57
140
1.0
102
RTVSPost2010PropOp57
 70
     1
102
RTVSPropertyOp0
 70
     1
102
RTVSPropertyOp1
 70
     1
102
RTVSPropertyOp2
 70
     1
102
RTVSPropertyOp3
 70
     1
102
RTVSPropertyOp4
 70
     1
102
RTVSPropertyOp5
 70
     1
102
RTVSPropertyOp6
 70
     1
102
RTVSPropertyOp7
 70
     1
102
RTVSPropertyOp8
 70
     1
102
RTVSPropertyOp9
 70
     1
102
RTVSPropertyOp10
 70
     1
102
RTVSPropertyOp11
 70
     1
102
RTVSPropertyOp12
 70
     1
102
RTVSPropertyOp13
 70
     1
102
RTVSPropertyOp14
 70
     1
102
RTVSPropertyOp15
 70
     1
102
RTVSPropertyOp16
 70
     1
102
RTVSPropertyOp17
 70
     1
102
RTVSPropertyOp18
 70
     1
102
RTVSPropertyOp19
 70
     1
102
RTVSPropertyOp20
 70
     1
102
RTVSPropertyOp21
 70
     1
102
RTVSPropertyOp22
 70
     1
102
RTVSPropertyOp23
 70
     1
102
RTVSPropertyOp24
 70
     1
102
RTVSPropertyOp25
 70
     1
102
RTVSPropertyOp26
 70
     1
102
RTVSPropertyOp27
 70
     1
102
RTVSPropertyOp28
 70
     1
102
RTVSPropertyOp29
 70
     1
102
RTVSPropertyOp30
 70
     1
102
RTVSPropertyOp31
 70
     1
102
RTVSPropertyOp32
 70
     1
102
RTVSPropertyOp33
 70
     1
102
RTVSPropertyOp34
 70
     1
102
RTVSPropertyOp35
 70
     1
102
RTVSPropertyOp36
 70
     1
102
RTVSPropertyOp37
 70
     1
102
RTVSPropertyOp38
 70
     1
102
RTVSPropertyOp39
 70
     1
102
RTVSPropertyOp40
 70
     1
102
RTVSPropertyOp41
 70
     1
102
RTVSPropertyOp42
 70
     1
102
RTVSPropertyOp43
 70
     1
102
RTVSPropertyOp44
 70
     1
102
RTVSPropertyOp45
 70
     1
102
RTVSPropertyOp46
 70
     1
102
RTVSPropertyOp47
 70
     1
102
RTVSPropertyOp48
 70
     1
102
RTVSPropertyOp49
 70
     1
102
RTVSPropertyOp50
 70
     1
102
RTVSPropertyOp51
 70
     0
102
RTVSPropertyOp52
 70
     0
102
RTVSPropertyOp53
 70
     1
102
RTVSPropertyOp54
 70
     1
102
RTVSPropertyOp55
 70
     1
102
RTVSPropertyOp56
 70
     1
102
RTVSPropertyOp57
 70
     1
102
RTVSPropertyOp58
 70
     1
102
RTVSPropertyOp59
 70
     1
102
RTVSPropertyOp60
 70
     1
102
RTVSPropertyOp61
 70
     1
102
RTVSPropertyOp62
 70
     1
  0
XRECORD
  5
45B8
102
{ACAD_REACTORS
330
45B7
102
}
330
45B7
100
AcDbXrecord
280
     1
102
RTVSPost2010Prop28
280
     0
102
RTVSPost2010PropOp28
 70
     1
102
RTVSPost2010Prop29
280
     1
102
RTVSPost2010PropOp29
 70
     1
102
RTVSPost2010Prop30
280
     1
102
RTVSPost2010PropOp30
 70
     1
102
RTVSPost2010Prop31
280
     0
102
RTVSPost2010PropOp31
 70
     1
102
RTVSPost2010Prop32
280
     0
102
RTVSPost2010PropOp32
 70
     1
102
RTVSPost2010Prop33
280
     0
102
RTVSPost2010PropOp33
 70
     1
102
RTVSPost2010Prop34
280
     0
102
RTVSPost2010PropOp34
 70
     1
102
RTVSPost2010Prop35
280
     0
102
RTVSPost2010PropOp35
 70
     1
102
RTVSPost2010Prop36
280
     0
102
RTVSPost2010PropOp36
 70
     1
102
RTVSPost2010Prop37
 90
       50
102
RTVSPost2010PropOp37
 70
     1
102
RTVSPost2010Prop38
140
0.0
102
RTVSPost2010PropOp38
 70
     1
102
RTVSPost2010Prop39
140
1.0
102
RTVSPost2010PropOp39
 70
     1
102
RTVSPost2010Prop40
 90
        0
102
RTVSPost2010PropOp40
 70
     1
102
RTVSPost2010Prop41ColorIndex
 90
       18
102
RTVSPost2010Prop41ColorRGB
 90
        0
102
RTVSPost2010PropOp41
 70
     1
102
RTVSPost2010Prop42
 90
       50
102
RTVSPost2010PropOp42
 70
     1
102
RTVSPost2010Prop43
 90
        3
102
RTVSPost2010PropOp43
 70
     1
102
RTVSPost2010Prop44ColorIndex
 90
        5
102
RTVSPost2010Prop44ColorRGB
 90
      255
102
RTVSPost2010PropOp44
 70
     1
102
RTVSPost2010Prop45
280
     0
102
RTVSPost2010PropOp45
 70
     1
102
RTVSPost2010Prop46
 90
       50
102
RTVSPost2010PropOp46
 70
     1
102
RTVSPost2010Prop47
 90
       50
102
RTVSPost2010PropOp47
 70
     1
102
RTVSPost2010Prop48
 90
       50
102
RTVSPost2010PropOp48
 70
     1
102
RTVSPost2010Prop49
280
     0
102
RTVSPost2010PropOp49
 70
     1
102
RTVSPost2010Prop50
 90
       50
102
RTVSPost2010PropOp50
 70
     1
102
RTVSPost2010Prop51ColorIndex
 90
      256
102
RTVSPost2010Prop51ColorRGB
 90
-16777216
102
RTVSPost2010PropOp51
 70
     0
102
RTVSPost2010Prop52
140
1.0
102
RTVSPost2010PropOp52
 70
     0
102
RTVSPost2010Prop53
 90
        2
102
RTVSPost2010PropOp53
 70
     1
102
RTVSPost2010Prop54
  1
strokes_ogs.tif
102
RTVSPost2010PropOp54
 70
     1
102
RTVSPost2010Prop55
280
     0
102
RTVSPost2010PropOp55
 70
     1
102
RTVSPost2010Prop56
140
1.0
102
RTVSPost2010PropOp56
 70
     1
102
RTVSPost2010Prop57
140
1.0
102
RTVSPost2010PropOp57
 70
     1
102
RTVSPropertyOp0
 70
     1
102
RTVSPropertyOp1
 70
     1
102
RTVSPropertyOp2
 70
     1
102
RTVSPropertyOp3
 70
     1
102
RTVSPropertyOp4
 70
     1
102
RTVSPropertyOp5
 70
     1
102
RTVSPropertyOp6
 70
     1
102
RTVSPropertyOp7
 70
     1
102
RTVSPropertyOp8
 70
     1
102
RTVSPropertyOp9
 70
     1
102
RTVSPropertyOp10
 70
     1
102
RTVSPropertyOp11
 70
     1
102
RTVSPropertyOp12
 70
     1
102
RTVSPropertyOp13
 70
     1
102
RTVSPropertyOp14
 70
     1
102
RTVSPropertyOp15
 70
     1
102
RTVSPropertyOp16
 70
     1
102
RTVSPropertyOp17
 70
     1
102
RTVSPropertyOp18
 70
     1
102
RTVSPropertyOp19
 70
     1
102
RTVSPropertyOp20
 70
     1
102
RTVSPropertyOp21
 70
     1
102
RTVSPropertyOp22
 70
     1
102
RTVSPropertyOp23
 70
     1
102
RTVSPropertyOp24
 70
     1
102
RTVSPropertyOp25
 70
     1
102
RTVSPropertyOp26
 70
     1
102
RTVSPropertyOp27
 70
     1
102
RTVSPropertyOp28
 70
     1
102
RTVSPropertyOp29
 70
     1
102
RTVSPropertyOp30
 70
     1
102
RTVSPropertyOp31
 70
     1
102
RTVSPropertyOp32
 70
     1
102
RTVSPropertyOp33
 70
     1
102
RTVSPropertyOp34
 70
     1
102
RTVSPropertyOp35
 70
     1
102
RTVSPropertyOp36
 70
     1
102
RTVSPropertyOp37
 70
     1
102
RTVSPropertyOp38
 70
     1
102
RTVSPropertyOp39
 70
     1
102
RTVSPropertyOp40
 70
     1
102
RTVSPropertyOp41
 70
     1
102
RTVSPropertyOp42
 70
     1
102
RTVSPropertyOp43
 70
     1
102
RTVSPropertyOp44
 70
     1
102
RTVSPropertyOp45
 70
     1
102
RTVSPropertyOp46
 70
     1
102
RTVSPropertyOp47
 70
     1
102
RTVSPropertyOp48
 70
     1
102
RTVSPropertyOp49
 70
     1
102
RTVSPropertyOp50
 70
     1
102
RTVSPropertyOp51
 70
     0
102
RTVSPropertyOp52
 70
     0
102
RTVSPropertyOp53
 70
     1
102
RTVSPropertyOp54
 70
     1
102
RTVSPropertyOp55
 70
     1
102
RTVSPropertyOp56
 70
     1
102
RTVSPropertyOp57
 70
     1
102
RTVSPropertyOp58
 70
     1
102
RTVSPropertyOp59
 70
     1
102
RTVSPropertyOp60
 70
     1
102
RTVSPropertyOp61
 70
     1
102
RTVSPropertyOp62
 70
     1
  0
XRECORD
  5
45BA
102
{ACAD_REACTORS
330
45B9
102
}
330
45B9
100
AcDbXrecord
280
     1
102
RTVSPost2010Prop28
280
     0
102
RTVSPost2010PropOp28
 70
     1
102
RTVSPost2010Prop29
280
     1
102
RTVSPost2010PropOp29
 70
     1
102
RTVSPost2010Prop30
280
     1
102
RTVSPost2010PropOp30
 70
     1
102
RTVSPost2010Prop31
280
     0
102
RTVSPost2010PropOp31
 70
     1
102
RTVSPost2010Prop32
280
     0
102
RTVSPost2010PropOp32
 70
     1
102
RTVSPost2010Prop33
280
     0
102
RTVSPost2010PropOp33
 70
     1
102
RTVSPost2010Prop34
280
     0
102
RTVSPost2010PropOp34
 70
     1
102
RTVSPost2010Prop35
280
     0
102
RTVSPost2010PropOp35
 70
     1
102
RTVSPost2010Prop36
280
     0
102
RTVSPost2010PropOp36
 70
     1
102
RTVSPost2010Prop37
 90
       50
102
RTVSPost2010PropOp37
 70
     1
102
RTVSPost2010Prop38
140
0.0
102
RTVSPost2010PropOp38
 70
     1
102
RTVSPost2010Prop39
140
1.0
102
RTVSPost2010PropOp39
 70
     1
102
RTVSPost2010Prop40
 90
        0
102
RTVSPost2010PropOp40
 70
     1
102
RTVSPost2010Prop41ColorIndex
 90
       18
102
RTVSPost2010Prop41ColorRGB
 90
        0
102
RTVSPost2010PropOp41
 70
     1
102
RTVSPost2010Prop42
 90
       50
102
RTVSPost2010PropOp42
 70
     1
102
RTVSPost2010Prop43
 90
        3
102
RTVSPost2010PropOp43
 70
     1
102
RTVSPost2010Prop44ColorIndex
 90
        5
102
RTVSPost2010Prop44ColorRGB
 90
      255
102
RTVSPost2010PropOp44
 70
     1
102
RTVSPost2010Prop45
280
     0
102
RTVSPost2010PropOp45
 70
     1
102
RTVSPost2010Prop46
 90
       50
102
RTVSPost2010PropOp46
 70
     1
102
RTVSPost2010Prop47
 90
       50
102
RTVSPost2010PropOp47
 70
     1
102
RTVSPost2010Prop48
 90
       50
102
RTVSPost2010PropOp48
 70
     1
102
RTVSPost2010Prop49
280
     0
102
RTVSPost2010PropOp49
 70
     1
102
RTVSPost2010Prop50
 90
       50
102
RTVSPost2010PropOp50
 70
     1
102
RTVSPost2010Prop51ColorIndex
 90
      256
102
RTVSPost2010Prop51ColorRGB
 90
-16777216
102
RTVSPost2010PropOp51
 70
     0
102
RTVSPost2010Prop52
140
1.0
102
RTVSPost2010PropOp52
 70
     0
102
RTVSPost2010Prop53
 90
        2
102
RTVSPost2010PropOp53
 70
     1
102
RTVSPost2010Prop54
  1
strokes_ogs.tif
102
RTVSPost2010PropOp54
 70
     1
102
RTVSPost2010Prop55
280
     0
102
RTVSPost2010PropOp55
 70
     1
102
RTVSPost2010Prop56
140
1.0
102
RTVSPost2010PropOp56
 70
     1
102
RTVSPost2010Prop57
140
1.0
102
RTVSPost2010PropOp57
 70
     1
102
RTVSPropertyOp0
 70
     1
102
RTVSPropertyOp1
 70
     1
102
RTVSPropertyOp2
 70
     1
102
RTVSPropertyOp3
 70
     1
102
RTVSPropertyOp4
 70
     1
102
RTVSPropertyOp5
 70
     1
102
RTVSPropertyOp6
 70
     1
102
RTVSPropertyOp7
 70
     1
102
RTVSPropertyOp8
 70
     1
102
RTVSPropertyOp9
 70
     1
102
RTVSPropertyOp10
 70
     1
102
RTVSPropertyOp11
 70
     1
102
RTVSPropertyOp12
 70
     1
102
RTVSPropertyOp13
 70
     1
102
RTVSPropertyOp14
 70
     1
102
RTVSPropertyOp15
 70
     1
102
RTVSPropertyOp16
 70
     1
102
RTVSPropertyOp17
 70
     1
102
RTVSPropertyOp18
 70
     1
102
RTVSPropertyOp19
 70
     1
102
RTVSPropertyOp20
 70
     1
102
RTVSPropertyOp21
 70
     1
102
RTVSPropertyOp22
 70
     1
102
RTVSPropertyOp23
 70
     1
102
RTVSPropertyOp24
 70
     1
102
RTVSPropertyOp25
 70
     1
102
RTVSPropertyOp26
 70
     1
102
RTVSPropertyOp27
 70
     1
102
RTVSPropertyOp28
 70
     1
102
RTVSPropertyOp29
 70
     1
102
RTVSPropertyOp30
 70
     1
102
RTVSPropertyOp31
 70
     1
102
RTVSPropertyOp32
 70
     1
102
RTVSPropertyOp33
 70
     1
102
RTVSPropertyOp34
 70
     1
102
RTVSPropertyOp35
 70
     1
102
RTVSPropertyOp36
 70
     1
102
RTVSPropertyOp37
 70
     1
102
RTVSPropertyOp38
 70
     1
102
RTVSPropertyOp39
 70
     1
102
RTVSPropertyOp40
 70
     1
102
RTVSPropertyOp41
 70
     1
102
RTVSPropertyOp42
 70
     1
102
RTVSPropertyOp43
 70
     1
102
RTVSPropertyOp44
 70
     1
102
RTVSPropertyOp45
 70
     1
102
RTVSPropertyOp46
 70
     1
102
RTVSPropertyOp47
 70
     1
102
RTVSPropertyOp48
 70
     1
102
RTVSPropertyOp49
 70
     1
102
RTVSPropertyOp50
 70
     1
102
RTVSPropertyOp51
 70
     0
102
RTVSPropertyOp52
 70
     0
102
RTVSPropertyOp53
 70
     1
102
RTVSPropertyOp54
 70
     1
102
RTVSPropertyOp55
 70
     1
102
RTVSPropertyOp56
 70
     1
102
RTVSPropertyOp57
 70
     1
102
RTVSPropertyOp58
 70
     1
102
RTVSPropertyOp59
 70
     1
102
RTVSPropertyOp60
 70
     1
102
RTVSPropertyOp61
 70
     1
102
RTVSPropertyOp62
 70
     1
  0
XRECORD
  5
45BC
102
{ACAD_REACTORS
330
45BB
102
}
330
45BB
100
AcDbXrecord
280
     1
102
RTVSPost2010Prop28
280
     0
102
RTVSPost2010PropOp28
 70
     1
102
RTVSPost2010Prop29
280
     1
102
RTVSPost2010PropOp29
 70
     1
102
RTVSPost2010Prop30
280
     1
102
RTVSPost2010PropOp30
 70
     1
102
RTVSPost2010Prop31
280
     0
102
RTVSPost2010PropOp31
 70
     1
102
RTVSPost2010Prop32
280
     0
102
RTVSPost2010PropOp32
 70
     1
102
RTVSPost2010Prop33
280
     0
102
RTVSPost2010PropOp33
 70
     1
102
RTVSPost2010Prop34
280
     0
102
RTVSPost2010PropOp34
 70
     1
102
RTVSPost2010Prop35
280
     0
102
RTVSPost2010PropOp35
 70
     1
102
RTVSPost2010Prop36
280
     0
102
RTVSPost2010PropOp36
 70
     1
102
RTVSPost2010Prop37
 90
       50
102
RTVSPost2010PropOp37
 70
     1
102
RTVSPost2010Prop38
140
0.0
102
RTVSPost2010PropOp38
 70
     1
102
RTVSPost2010Prop39
140
1.0
102
RTVSPost2010PropOp39
 70
     1
102
RTVSPost2010Prop40
 90
        0
102
RTVSPost2010PropOp40
 70
     1
102
RTVSPost2010Prop41ColorIndex
 90
       18
102
RTVSPost2010Prop41ColorRGB
 90
        0
102
RTVSPost2010PropOp41
 70
     1
102
RTVSPost2010Prop42
 90
       50
102
RTVSPost2010PropOp42
 70
     1
102
RTVSPost2010Prop43
 90
        3
102
RTVSPost2010PropOp43
 70
     1
102
RTVSPost2010Prop44ColorIndex
 90
        5
102
RTVSPost2010Prop44ColorRGB
 90
      255
102
RTVSPost2010PropOp44
 70
     1
102
RTVSPost2010Prop45
280
     0
102
RTVSPost2010PropOp45
 70
     1
102
RTVSPost2010Prop46
 90
       50
102
RTVSPost2010PropOp46
 70
     1
102
RTVSPost2010Prop47
 90
       50
102
RTVSPost2010PropOp47
 70
     1
102
RTVSPost2010Prop48
 90
       50
102
RTVSPost2010PropOp48
 70
     1
102
RTVSPost2010Prop49
280
     0
102
RTVSPost2010PropOp49
 70
     1
102
RTVSPost2010Prop50
 90
       50
102
RTVSPost2010PropOp50
 70
     1
102
RTVSPost2010Prop51ColorIndex
 90
      256
102
RTVSPost2010Prop51ColorRGB
 90
-16777216
102
RTVSPost2010PropOp51
 70
     0
102
RTVSPost2010Prop52
140
1.0
102
RTVSPost2010PropOp52
 70
     0
102
RTVSPost2010Prop53
 90
        2
102
RTVSPost2010PropOp53
 70
     1
102
RTVSPost2010Prop54
  1
strokes_ogs.tif
102
RTVSPost2010PropOp54
 70
     1
102
RTVSPost2010Prop55
280
     0
102
RTVSPost2010PropOp55
 70
     1
102
RTVSPost2010Prop56
140
1.0
102
RTVSPost2010PropOp56
 70
     1
102
RTVSPost2010Prop57
140
1.0
102
RTVSPost2010PropOp57
 70
     1
102
RTVSPropertyOp0
 70
     1
102
RTVSPropertyOp1
 70
     1
102
RTVSPropertyOp2
 70
     1
102
RTVSPropertyOp3
 70
     1
102
RTVSPropertyOp4
 70
     1
102
RTVSPropertyOp5
 70
     1
102
RTVSPropertyOp6
 70
     1
102
RTVSPropertyOp7
 70
     1
102
RTVSPropertyOp8
 70
     1
102
RTVSPropertyOp9
 70
     1
102
RTVSPropertyOp10
 70
     1
102
RTVSPropertyOp11
 70
     1
102
RTVSPropertyOp12
 70
     1
102
RTVSPropertyOp13
 70
     1
102
RTVSPropertyOp14
 70
     1
102
RTVSPropertyOp15
 70
     1
102
RTVSPropertyOp16
 70
     1
102
RTVSPropertyOp17
 70
     1
102
RTVSPropertyOp18
 70
     1
102
RTVSPropertyOp19
 70
     1
102
RTVSPropertyOp20
 70
     1
102
RTVSPropertyOp21
 70
     1
102
RTVSPropertyOp22
 70
     1
102
RTVSPropertyOp23
 70
     1
102
RTVSPropertyOp24
 70
     1
102
RTVSPropertyOp25
 70
     1
102
RTVSPropertyOp26
 70
     1
102
RTVSPropertyOp27
 70
     1
102
RTVSPropertyOp28
 70
     1
102
RTVSPropertyOp29
 70
     1
102
RTVSPropertyOp30
 70
     1
102
RTVSPropertyOp31
 70
     1
102
RTVSPropertyOp32
 70
     1
102
RTVSPropertyOp33
 70
     1
102
RTVSPropertyOp34
 70
     1
102
RTVSPropertyOp35
 70
     1
102
RTVSPropertyOp36
 70
     1
102
RTVSPropertyOp37
 70
     1
102
RTVSPropertyOp38
 70
     1
102
RTVSPropertyOp39
 70
     1
102
RTVSPropertyOp40
 70
     1
102
RTVSPropertyOp41
 70
     1
102
RTVSPropertyOp42
 70
     1
102
RTVSPropertyOp43
 70
     1
102
RTVSPropertyOp44
 70
     1
102
RTVSPropertyOp45
 70
     1
102
RTVSPropertyOp46
 70
     1
102
RTVSPropertyOp47
 70
     1
102
RTVSPropertyOp48
 70
     1
102
RTVSPropertyOp49
 70
     1
102
RTVSPropertyOp50
 70
     1
102
RTVSPropertyOp51
 70
     0
102
RTVSPropertyOp52
 70
     0
102
RTVSPropertyOp53
 70
     1
102
RTVSPropertyOp54
 70
     1
102
RTVSPropertyOp55
 70
     1
102
RTVSPropertyOp56
 70
     1
102
RTVSPropertyOp57
 70
     1
102
RTVSPropertyOp58
 70
     1
102
RTVSPropertyOp59
 70
     1
102
RTVSPropertyOp60
 70
     1
102
RTVSPropertyOp61
 70
     1
102
RTVSPropertyOp62
 70
     1
  0
XRECORD
  5
45BE
102
{ACAD_REACTORS
330
45BD
102
}
330
45BD
100
AcDbXrecord
280
     1
102
RTVSPost2010Prop28
280
     0
102
RTVSPost2010PropOp28
 70
     1
102
RTVSPost2010Prop29
280
     1
102
RTVSPost2010PropOp29
 70
     1
102
RTVSPost2010Prop30
280
     1
102
RTVSPost2010PropOp30
 70
     1
102
RTVSPost2010Prop31
280
     0
102
RTVSPost2010PropOp31
 70
     1
102
RTVSPost2010Prop32
280
     0
102
RTVSPost2010PropOp32
 70
     1
102
RTVSPost2010Prop33
280
     0
102
RTVSPost2010PropOp33
 70
     1
102
RTVSPost2010Prop34
280
     0
102
RTVSPost2010PropOp34
 70
     1
102
RTVSPost2010Prop35
280
     0
102
RTVSPost2010PropOp35
 70
     1
102
RTVSPost2010Prop36
280
     0
102
RTVSPost2010PropOp36
 70
     1
102
RTVSPost2010Prop37
 90
       50
102
RTVSPost2010PropOp37
 70
     1
102
RTVSPost2010Prop38
140
0.0
102
RTVSPost2010PropOp38
 70
     1
102
RTVSPost2010Prop39
140
1.0
102
RTVSPost2010PropOp39
 70
     1
102
RTVSPost2010Prop40
 90
        0
102
RTVSPost2010PropOp40
 70
     1
102
RTVSPost2010Prop41ColorIndex
 90
       18
102
RTVSPost2010Prop41ColorRGB
 90
        0
102
RTVSPost2010PropOp41
 70
     1
102
RTVSPost2010Prop42
 90
       50
102
RTVSPost2010PropOp42
 70
     1
102
RTVSPost2010Prop43
 90
        3
102
RTVSPost2010PropOp43
 70
     1
102
RTVSPost2010Prop44ColorIndex
 90
        5
102
RTVSPost2010Prop44ColorRGB
 90
      255
102
RTVSPost2010PropOp44
 70
     1
102
RTVSPost2010Prop45
280
     0
102
RTVSPost2010PropOp45
 70
     1
102
RTVSPost2010Prop46
 90
       50
102
RTVSPost2010PropOp46
 70
     1
102
RTVSPost2010Prop47
 90
       50
102
RTVSPost2010PropOp47
 70
     1
102
RTVSPost2010Prop48
 90
       50
102
RTVSPost2010PropOp48
 70
     1
102
RTVSPost2010Prop49
280
     0
102
RTVSPost2010PropOp49
 70
     1
102
RTVSPost2010Prop50
 90
       50
102
RTVSPost2010PropOp50
 70
     1
102
RTVSPost2010Prop51ColorIndex
 90
      256
102
RTVSPost2010Prop51ColorRGB
 90
-16777216
102
RTVSPost2010PropOp51
 70
     0
102
RTVSPost2010Prop52
140
1.0
102
RTVSPost2010PropOp52
 70
     0
102
RTVSPost2010Prop53
 90
        2
102
RTVSPost2010PropOp53
 70
     1
102
RTVSPost2010Prop54
  1
strokes_ogs.tif
102
RTVSPost2010PropOp54
 70
     1
102
RTVSPost2010Prop55
280
     0
102
RTVSPost2010PropOp55
 70
     1
102
RTVSPost2010Prop56
140
1.0
102
RTVSPost2010PropOp56
 70
     1
102
RTVSPost2010Prop57
140
1.0
102
RTVSPost2010PropOp57
 70
     1
102
RTVSPropertyOp0
 70
     1
102
RTVSPropertyOp1
 70
     1
102
RTVSPropertyOp2
 70
     1
102
RTVSPropertyOp3
 70
     1
102
RTVSPropertyOp4
 70
     1
102
RTVSPropertyOp5
 70
     1
102
RTVSPropertyOp6
 70
     1
102
RTVSPropertyOp7
 70
     1
102
RTVSPropertyOp8
 70
     1
102
RTVSPropertyOp9
 70
     1
102
RTVSPropertyOp10
 70
     1
102
RTVSPropertyOp11
 70
     1
102
RTVSPropertyOp12
 70
     1
102
RTVSPropertyOp13
 70
     1
102
RTVSPropertyOp14
 70
     1
102
RTVSPropertyOp15
 70
     1
102
RTVSPropertyOp16
 70
     1
102
RTVSPropertyOp17
 70
     1
102
RTVSPropertyOp18
 70
     1
102
RTVSPropertyOp19
 70
     1
102
RTVSPropertyOp20
 70
     1
102
RTVSPropertyOp21
 70
     1
102
RTVSPropertyOp22
 70
     1
102
RTVSPropertyOp23
 70
     1
102
RTVSPropertyOp24
 70
     1
102
RTVSPropertyOp25
 70
     1
102
RTVSPropertyOp26
 70
     1
102
RTVSPropertyOp27
 70
     1
102
RTVSPropertyOp28
 70
     1
102
RTVSPropertyOp29
 70
     1
102
RTVSPropertyOp30
 70
     1
102
RTVSPropertyOp31
 70
     1
102
RTVSPropertyOp32
 70
     1
102
RTVSPropertyOp33
 70
     1
102
RTVSPropertyOp34
 70
     1
102
RTVSPropertyOp35
 70
     1
102
RTVSPropertyOp36
 70
     1
102
RTVSPropertyOp37
 70
     1
102
RTVSPropertyOp38
 70
     1
102
RTVSPropertyOp39
 70
     1
102
RTVSPropertyOp40
 70
     1
102
RTVSPropertyOp41
 70
     1
102
RTVSPropertyOp42
 70
     1
102
RTVSPropertyOp43
 70
     1
102
RTVSPropertyOp44
 70
     1
102
RTVSPropertyOp45
 70
     1
102
RTVSPropertyOp46
 70
     1
102
RTVSPropertyOp47
 70
     1
102
RTVSPropertyOp48
 70
     1
102
RTVSPropertyOp49
 70
     1
102
RTVSPropertyOp50
 70
     1
102
RTVSPropertyOp51
 70
     0
102
RTVSPropertyOp52
 70
     0
102
RTVSPropertyOp53
 70
     1
102
RTVSPropertyOp54
 70
     1
102
RTVSPropertyOp55
 70
     1
102
RTVSPropertyOp56
 70
     1
102
RTVSPropertyOp57
 70
     1
102
RTVSPropertyOp58
 70
     1
102
RTVSPropertyOp59
 70
     1
102
RTVSPropertyOp60
 70
     1
102
RTVSPropertyOp61
 70
     1
102
RTVSPropertyOp62
 70
     1
  0
XRECORD
  5
45C6
102
{ACAD_REACTORS
330
45C5
102
}
330
45C5
100
AcDbXrecord
280
     1
102
RTVSPost2010Prop28
280
     0
102
RTVSPost2010PropOp28
 70
     1
102
RTVSPost2010Prop29
280
     1
102
RTVSPost2010PropOp29
 70
     1
102
RTVSPost2010Prop30
280
     1
102
RTVSPost2010PropOp30
 70
     1
102
RTVSPost2010Prop31
280
     0
102
RTVSPost2010PropOp31
 70
     1
102
RTVSPost2010Prop32
280
     0
102
RTVSPost2010PropOp32
 70
     1
102
RTVSPost2010Prop33
280
     0
102
RTVSPost2010PropOp33
 70
     1
102
RTVSPost2010Prop34
280
     0
102
RTVSPost2010PropOp34
 70
     1
102
RTVSPost2010Prop35
280
     0
102
RTVSPost2010PropOp35
 70
     1
102
RTVSPost2010Prop36
280
     0
102
RTVSPost2010PropOp36
 70
     1
102
RTVSPost2010Prop37
 90
       50
102
RTVSPost2010PropOp37
 70
     1
102
RTVSPost2010Prop38
140
0.0
102
RTVSPost2010PropOp38
 70
     1
102
RTVSPost2010Prop39
140
1.0
102
RTVSPost2010PropOp39
 70
     1
102
RTVSPost2010Prop40
 90
        0
102
RTVSPost2010PropOp40
 70
     1
102
RTVSPost2010Prop41ColorIndex
 90
       18
102
RTVSPost2010Prop41ColorRGB
 90
        0
102
RTVSPost2010PropOp41
 70
     1
102
RTVSPost2010Prop42
 90
       50
102
RTVSPost2010PropOp42
 70
     1
102
RTVSPost2010Prop43
 90
        3
102
RTVSPost2010PropOp43
 70
     1
102
RTVSPost2010Prop44ColorIndex
 90
        5
102
RTVSPost2010Prop44ColorRGB
 90
      255
102
RTVSPost2010PropOp44
 70
     1
102
RTVSPost2010Prop45
280
     0
102
RTVSPost2010PropOp45
 70
     1
102
RTVSPost2010Prop46
 90
       50
102
RTVSPost2010PropOp46
 70
     1
102
RTVSPost2010Prop47
 90
       50
102
RTVSPost2010PropOp47
 70
     1
102
RTVSPost2010Prop48
 90
       50
102
RTVSPost2010PropOp48
 70
     1
102
RTVSPost2010Prop49
280
     0
102
RTVSPost2010PropOp49
 70
     1
102
RTVSPost2010Prop50
 90
       50
102
RTVSPost2010PropOp50
 70
     1
102
RTVSPost2010Prop51ColorIndex
 90
      256
102
RTVSPost2010Prop51ColorRGB
 90
-16777216
102
RTVSPost2010PropOp51
 70
     0
102
RTVSPost2010Prop52
140
1.0
102
RTVSPost2010PropOp52
 70
     0
102
RTVSPost2010Prop53
 90
        2
102
RTVSPost2010PropOp53
 70
     1
102
RTVSPost2010Prop54
  1
strokes_ogs.tif
102
RTVSPost2010PropOp54
 70
     1
102
RTVSPost2010Prop55
280
     0
102
RTVSPost2010PropOp55
 70
     1
102
RTVSPost2010Prop56
140
1.0
102
RTVSPost2010PropOp56
 70
     1
102
RTVSPost2010Prop57
140
1.0
102
RTVSPost2010PropOp57
 70
     1
102
RTVSPropertyOp0
 70
     1
102
RTVSPropertyOp1
 70
     1
102
RTVSPropertyOp2
 70
     1
102
RTVSPropertyOp3
 70
     1
102
RTVSPropertyOp4
 70
     1
102
RTVSPropertyOp5
 70
     1
102
RTVSPropertyOp6
 70
     1
102
RTVSPropertyOp7
 70
     1
102
RTVSPropertyOp8
 70
     1
102
RTVSPropertyOp9
 70
     1
102
RTVSPropertyOp10
 70
     1
102
RTVSPropertyOp11
 70
     1
102
RTVSPropertyOp12
 70
     1
102
RTVSPropertyOp13
 70
     1
102
RTVSPropertyOp14
 70
     1
102
RTVSPropertyOp15
 70
     1
102
RTVSPropertyOp16
 70
     1
102
RTVSPropertyOp17
 70
     1
102
RTVSPropertyOp18
 70
     1
102
RTVSPropertyOp19
 70
     1
102
RTVSPropertyOp20
 70
     1
102
RTVSPropertyOp21
 70
     1
102
RTVSPropertyOp22
 70
     1
102
RTVSPropertyOp23
 70
     1
102
RTVSPropertyOp24
 70
     1
102
RTVSPropertyOp25
 70
     1
102
RTVSPropertyOp26
 70
     1
102
RTVSPropertyOp27
 70
     1
102
RTVSPropertyOp28
 70
     1
102
RTVSPropertyOp29
 70
     1
102
RTVSPropertyOp30
 70
     1
102
RTVSPropertyOp31
 70
     1
102
RTVSPropertyOp32
 70
     1
102
RTVSPropertyOp33
 70
     1
102
RTVSPropertyOp34
 70
     1
102
RTVSPropertyOp35
 70
     1
102
RTVSPropertyOp36
 70
     1
102
RTVSPropertyOp37
 70
     1
102
RTVSPropertyOp38
 70
     1
102
RTVSPropertyOp39
 70
     1
102
RTVSPropertyOp40
 70
     1
102
RTVSPropertyOp41
 70
     1
102
RTVSPropertyOp42
 70
     1
102
RTVSPropertyOp43
 70
     1
102
RTVSPropertyOp44
 70
     1
102
RTVSPropertyOp45
 70
     1
102
RTVSPropertyOp46
 70
     1
102
RTVSPropertyOp47
 70
     1
102
RTVSPropertyOp48
 70
     1
102
RTVSPropertyOp49
 70
     1
102
RTVSPropertyOp50
 70
     1
102
RTVSPropertyOp51
 70
     0
102
RTVSPropertyOp52
 70
     0
102
RTVSPropertyOp53
 70
     1
102
RTVSPropertyOp54
 70
     1
102
RTVSPropertyOp55
 70
     1
102
RTVSPropertyOp56
 70
     1
102
RTVSPropertyOp57
 70
     1
102
RTVSPropertyOp58
 70
     1
102
RTVSPropertyOp59
 70
     1
102
RTVSPropertyOp60
 70
     1
102
RTVSPropertyOp61
 70
     1
102
RTVSPropertyOp62
 70
     1
  0
XRECORD
  5
45E2
102
{ACAD_REACTORS
330
45E1
102
}
330
45E1
100
AcDbXrecord
280
     1
102
RTVSPost2010Prop28
280
     0
102
RTVSPost2010PropOp28
 70
     0
102
RTVSPost2010Prop29
280
     1
102
RTVSPost2010PropOp29
 70
     0
102
RTVSPost2010Prop30
280
     1
102
RTVSPost2010PropOp30
 70
     0
102
RTVSPost2010Prop31
280
     0
102
RTVSPost2010PropOp31
 70
     0
102
RTVSPost2010Prop32
280
     0
102
RTVSPost2010PropOp32
 70
     0
102
RTVSPost2010Prop33
280
     0
102
RTVSPost2010PropOp33
 70
     0
102
RTVSPost2010Prop34
280
     0
102
RTVSPost2010PropOp34
 70
     0
102
RTVSPost2010Prop35
280
     0
102
RTVSPost2010PropOp35
 70
     0
102
RTVSPost2010Prop36
280
     0
102
RTVSPost2010PropOp36
 70
     0
102
RTVSPost2010Prop37
 90
       50
102
RTVSPost2010PropOp37
 70
     0
102
RTVSPost2010Prop38
140
0.0
102
RTVSPost2010PropOp38
 70
     0
102
RTVSPost2010Prop39
140
1.0
102
RTVSPost2010PropOp39
 70
     0
102
RTVSPost2010Prop40
 90
        0
102
RTVSPost2010PropOp40
 70
     0
102
RTVSPost2010Prop41ColorIndex
 90
       18
102
RTVSPost2010Prop41ColorRGB
 90
        0
102
RTVSPost2010PropOp41
 70
     0
102
RTVSPost2010Prop42
 90
       50
102
RTVSPost2010PropOp42
 70
     0
102
RTVSPost2010Prop43
 90
        3
102
RTVSPost2010PropOp43
 70
     0
102
RTVSPost2010Prop44ColorIndex
 90
        5
102
RTVSPost2010Prop44ColorRGB
 90
      255
102
RTVSPost2010PropOp44
 70
     0
102
RTVSPost2010Prop45
280
     0
102
RTVSPost2010PropOp45
 70
     0
102
RTVSPost2010Prop46
 90
       50
102
RTVSPost2010PropOp46
 70
     0
102
RTVSPost2010Prop47
 90
       50
102
RTVSPost2010PropOp47
 70
     0
102
RTVSPost2010Prop48
 90
       50
102
RTVSPost2010PropOp48
 70
     0
102
RTVSPost2010Prop49
280
     0
102
RTVSPost2010PropOp49
 70
     0
102
RTVSPost2010Prop50
 90
       50
102
RTVSPost2010PropOp50
 70
     0
102
RTVSPost2010Prop51ColorIndex
 90
      256
102
RTVSPost2010Prop51ColorRGB
 90
-16777216
102
RTVSPost2010PropOp51
 70
     0
102
RTVSPost2010Prop52
140
1.0
102
RTVSPost2010PropOp52
 70
     0
102
RTVSPost2010Prop53
 90
        2
102
RTVSPost2010PropOp53
 70
     0
102
RTVSPost2010Prop54
  1
strokes_ogs.tif
102
RTVSPost2010PropOp54
 70
     0
102
RTVSPost2010Prop55
280
     0
102
RTVSPost2010PropOp55
 70
     0
102
RTVSPost2010Prop56
140
1.0
102
RTVSPost2010PropOp56
 70
     0
102
RTVSPost2010Prop57
140
1.0
102
RTVSPost2010PropOp57
 70
     0
102
RTVSPropertyOp0
 70
     0
102
RTVSPropertyOp1
 70
     0
102
RTVSPropertyOp2
 70
     0
102
RTVSPropertyOp3
 70
     0
102
RTVSPropertyOp4
 70
     0
102
RTVSPropertyOp5
 70
     0
102
RTVSPropertyOp6
 70
     0
102
RTVSPropertyOp7
 70
     0
102
RTVSPropertyOp8
 70
     0
102
RTVSPropertyOp9
 70
     0
102
RTVSPropertyOp10
 70
     0
102
RTVSPropertyOp11
 70
     0
102
RTVSPropertyOp12
 70
     0
102
RTVSPropertyOp13
 70
     0
102
RTVSPropertyOp14
 70
     2
102
RTVSPropertyOp15
 70
     0
102
RTVSPropertyOp16
 70
     0
102
RTVSPropertyOp17
 70
     0
102
RTVSPropertyOp18
 70
     0
102
RTVSPropertyOp19
 70
     0
102
RTVSPropertyOp20
 70
     0
102
RTVSPropertyOp21
 70
     0
102
RTVSPropertyOp22
 70
     0
102
RTVSPropertyOp23
 70
     0
102
RTVSPropertyOp24
 70
     0
102
RTVSPropertyOp25
 70
     0
102
RTVSPropertyOp26
 70
     0
102
RTVSPropertyOp27
 70
     0
102
RTVSPropertyOp28
 70
     0
102
RTVSPropertyOp29
 70
     0
102
RTVSPropertyOp30
 70
     0
102
RTVSPropertyOp31
 70
     0
102
RTVSPropertyOp32
 70
     0
102
RTVSPropertyOp33
 70
     0
102
RTVSPropertyOp34
 70
     0
102
RTVSPropertyOp35
 70
     0
102
RTVSPropertyOp36
 70
     0
102
RTVSPropertyOp37
 70
     0
102
RTVSPropertyOp38
 70
     0
102
RTVSPropertyOp39
 70
     0
102
RTVSPropertyOp40
 70
     0
102
RTVSPropertyOp41
 70
     0
102
RTVSPropertyOp42
 70
     0
102
RTVSPropertyOp43
 70
     0
102
RTVSPropertyOp44
 70
     0
102
RTVSPropertyOp45
 70
     0
102
RTVSPropertyOp46
 70
     0
102
RTVSPropertyOp47
 70
     0
102
RTVSPropertyOp48
 70
     0
102
RTVSPropertyOp49
 70
     0
102
RTVSPropertyOp50
 70
     0
102
RTVSPropertyOp51
 70
     0
102
RTVSPropertyOp52
 70
     0
102
RTVSPropertyOp53
 70
     0
102
RTVSPropertyOp54
 70
     0
102
RTVSPropertyOp55
 70
     0
102
RTVSPropertyOp56
 70
     0
102
RTVSPropertyOp57
 70
     0
102
RTVSPropertyOp58
 70
     0
102
RTVSPropertyOp59
 70
     0
102
RTVSPropertyOp60
 70
     0
102
RTVSPropertyOp61
 70
     0
102
RTVSPropertyOp62
 70
     0
  0
XRECORD
  5
45D2
102
{ACAD_REACTORS
330
45D1
102
}
330
45D1
100
AcDbXrecord
280
     1
102
RTVSPost2010Prop28
280
     0
102
RTVSPost2010PropOp28
 70
     1
102
RTVSPost2010Prop29
280
     1
102
RTVSPost2010PropOp29
 70
     1
102
RTVSPost2010Prop30
280
     1
102
RTVSPost2010PropOp30
 70
     1
102
RTVSPost2010Prop31
280
     0
102
RTVSPost2010PropOp31
 70
     1
102
RTVSPost2010Prop32
280
     0
102
RTVSPost2010PropOp32
 70
     1
102
RTVSPost2010Prop33
280
     0
102
RTVSPost2010PropOp33
 70
     1
102
RTVSPost2010Prop34
280
     0
102
RTVSPost2010PropOp34
 70
     1
102
RTVSPost2010Prop35
280
     0
102
RTVSPost2010PropOp35
 70
     1
102
RTVSPost2010Prop36
280
     0
102
RTVSPost2010PropOp36
 70
     1
102
RTVSPost2010Prop37
 90
       50
102
RTVSPost2010PropOp37
 70
     1
102
RTVSPost2010Prop38
140
0.0
102
RTVSPost2010PropOp38
 70
     1
102
RTVSPost2010Prop39
140
1.0
102
RTVSPost2010PropOp39
 70
     1
102
RTVSPost2010Prop40
 90
        0
102
RTVSPost2010PropOp40
 70
     1
102
RTVSPost2010Prop41ColorIndex
 90
       18
102
RTVSPost2010Prop41ColorRGB
 90
        0
102
RTVSPost2010PropOp41
 70
     1
102
RTVSPost2010Prop42
 90
       50
102
RTVSPost2010PropOp42
 70
     1
102
RTVSPost2010Prop43
 90
        3
102
RTVSPost2010PropOp43
 70
     1
102
RTVSPost2010Prop44ColorIndex
 90
        5
102
RTVSPost2010Prop44ColorRGB
 90
      255
102
RTVSPost2010PropOp44
 70
     1
102
RTVSPost2010Prop45
280
     0
102
RTVSPost2010PropOp45
 70
     1
102
RTVSPost2010Prop46
 90
       50
102
RTVSPost2010PropOp46
 70
     1
102
RTVSPost2010Prop47
 90
       50
102
RTVSPost2010PropOp47
 70
     1
102
RTVSPost2010Prop48
 90
       50
102
RTVSPost2010PropOp48
 70
     1
102
RTVSPost2010Prop49
280
     0
102
RTVSPost2010PropOp49
 70
     1
102
RTVSPost2010Prop50
 90
       50
102
RTVSPost2010PropOp50
 70
     1
102
RTVSPost2010Prop51ColorIndex
 90
      256
102
RTVSPost2010Prop51ColorRGB
 90
-16777216
102
RTVSPost2010PropOp51
 70
     0
102
RTVSPost2010Prop52
140
1.0
102
RTVSPost2010PropOp52
 70
     0
102
RTVSPost2010Prop53
 90
        2
102
RTVSPost2010PropOp53
 70
     1
102
RTVSPost2010Prop54
  1
strokes_ogs.tif
102
RTVSPost2010PropOp54
 70
     1
102
RTVSPost2010Prop55
280
     0
102
RTVSPost2010PropOp55
 70
     1
102
RTVSPost2010Prop56
140
1.0
102
RTVSPost2010PropOp56
 70
     1
102
RTVSPost2010Prop57
140
1.0
102
RTVSPost2010PropOp57
 70
     1
102
RTVSPropertyOp0
 70
     1
102
RTVSPropertyOp1
 70
     1
102
RTVSPropertyOp2
 70
     1
102
RTVSPropertyOp3
 70
     1
102
RTVSPropertyOp4
 70
     1
102
RTVSPropertyOp5
 70
     1
102
RTVSPropertyOp6
 70
     1
102
RTVSPropertyOp7
 70
     1
102
RTVSPropertyOp8
 70
     1
102
RTVSPropertyOp9
 70
     1
102
RTVSPropertyOp10
 70
     1
102
RTVSPropertyOp11
 70
     1
102
RTVSPropertyOp12
 70
     1
102
RTVSPropertyOp13
 70
     1
102
RTVSPropertyOp14
 70
     1
102
RTVSPropertyOp15
 70
     1
102
RTVSPropertyOp16
 70
     1
102
RTVSPropertyOp17
 70
     1
102
RTVSPropertyOp18
 70
     1
102
RTVSPropertyOp19
 70
     1
102
RTVSPropertyOp20
 70
     1
102
RTVSPropertyOp21
 70
     1
102
RTVSPropertyOp22
 70
     1
102
RTVSPropertyOp23
 70
     1
102
RTVSPropertyOp24
 70
     1
102
RTVSPropertyOp25
 70
     1
102
RTVSPropertyOp26
 70
     1
102
RTVSPropertyOp27
 70
     1
102
RTVSPropertyOp28
 70
     1
102
RTVSPropertyOp29
 70
     1
102
RTVSPropertyOp30
 70
     1
102
RTVSPropertyOp31
 70
     1
102
RTVSPropertyOp32
 70
     1
102
RTVSPropertyOp33
 70
     1
102
RTVSPropertyOp34
 70
     1
102
RTVSPropertyOp35
 70
     1
102
RTVSPropertyOp36
 70
     1
102
RTVSPropertyOp37
 70
     1
102
RTVSPropertyOp38
 70
     1
102
RTVSPropertyOp39
 70
     1
102
RTVSPropertyOp40
 70
     1
102
RTVSPropertyOp41
 70
     1
102
RTVSPropertyOp42
 70
     1
102
RTVSPropertyOp43
 70
     1
102
RTVSPropertyOp44
 70
     1
102
RTVSPropertyOp45
 70
     1
102
RTVSPropertyOp46
 70
     1
102
RTVSPropertyOp47
 70
     1
102
RTVSPropertyOp48
 70
     1
102
RTVSPropertyOp49
 70
     1
102
RTVSPropertyOp50
 70
     1
102
RTVSPropertyOp51
 70
     0
102
RTVSPropertyOp52
 70
     0
102
RTVSPropertyOp53
 70
     1
102
RTVSPropertyOp54
 70
     1
102
RTVSPropertyOp55
 70
     1
102
RTVSPropertyOp56
 70
     1
102
RTVSPropertyOp57
 70
     1
102
RTVSPropertyOp58
 70
     1
102
RTVSPropertyOp59
 70
     1
102
RTVSPropertyOp60
 70
     1
102
RTVSPropertyOp61
 70
     1
102
RTVSPropertyOp62
 70
     1
  0
XRECORD
  5
45E4
102
{ACAD_REACTORS
330
45E3
102
}
330
45E3
100
AcDbXrecord
280
     1
102
RTVSPost2010Prop28
280
     0
102
RTVSPost2010PropOp28
 70
     0
102
RTVSPost2010Prop29
280
     1
102
RTVSPost2010PropOp29
 70
     0
102
RTVSPost2010Prop30
280
     1
102
RTVSPost2010PropOp30
 70
     0
102
RTVSPost2010Prop31
280
     0
102
RTVSPost2010PropOp31
 70
     0
102
RTVSPost2010Prop32
280
     0
102
RTVSPost2010PropOp32
 70
     0
102
RTVSPost2010Prop33
280
     0
102
RTVSPost2010PropOp33
 70
     0
102
RTVSPost2010Prop34
280
     0
102
RTVSPost2010PropOp34
 70
     0
102
RTVSPost2010Prop35
280
     0
102
RTVSPost2010PropOp35
 70
     0
102
RTVSPost2010Prop36
280
     0
102
RTVSPost2010PropOp36
 70
     0
102
RTVSPost2010Prop37
 90
       50
102
RTVSPost2010PropOp37
 70
     0
102
RTVSPost2010Prop38
140
0.0
102
RTVSPost2010PropOp38
 70
     0
102
RTVSPost2010Prop39
140
1.0
102
RTVSPost2010PropOp39
 70
     0
102
RTVSPost2010Prop40
 90
        0
102
RTVSPost2010PropOp40
 70
     0
102
RTVSPost2010Prop41ColorIndex
 90
       18
102
RTVSPost2010Prop41ColorRGB
 90
        0
102
RTVSPost2010PropOp41
 70
     0
102
RTVSPost2010Prop42
 90
       50
102
RTVSPost2010PropOp42
 70
     0
102
RTVSPost2010Prop43
 90
        3
102
RTVSPost2010PropOp43
 70
     0
102
RTVSPost2010Prop44ColorIndex
 90
        5
102
RTVSPost2010Prop44ColorRGB
 90
      255
102
RTVSPost2010PropOp44
 70
     0
102
RTVSPost2010Prop45
280
     0
102
RTVSPost2010PropOp45
 70
     0
102
RTVSPost2010Prop46
 90
       50
102
RTVSPost2010PropOp46
 70
     0
102
RTVSPost2010Prop47
 90
       50
102
RTVSPost2010PropOp47
 70
     0
102
RTVSPost2010Prop48
 90
       50
102
RTVSPost2010PropOp48
 70
     0
102
RTVSPost2010Prop49
280
     0
102
RTVSPost2010PropOp49
 70
     0
102
RTVSPost2010Prop50
 90
       50
102
RTVSPost2010PropOp50
 70
     0
102
RTVSPost2010Prop51ColorIndex
 90
      256
102
RTVSPost2010Prop51ColorRGB
 90
-16777216
102
RTVSPost2010PropOp51
 70
     0
102
RTVSPost2010Prop52
140
1.0
102
RTVSPost2010PropOp52
 70
     0
102
RTVSPost2010Prop53
 90
        2
102
RTVSPost2010PropOp53
 70
     0
102
RTVSPost2010Prop54
  1
strokes_ogs.tif
102
RTVSPost2010PropOp54
 70
     0
102
RTVSPost2010Prop55
280
     0
102
RTVSPost2010PropOp55
 70
     0
102
RTVSPost2010Prop56
140
1.0
102
RTVSPost2010PropOp56
 70
     0
102
RTVSPost2010Prop57
140
1.0
102
RTVSPost2010PropOp57
 70
     0
102
RTVSPropertyOp0
 70
     0
102
RTVSPropertyOp1
 70
     0
102
RTVSPropertyOp2
 70
     0
102
RTVSPropertyOp3
 70
     0
102
RTVSPropertyOp4
 70
     0
102
RTVSPropertyOp5
 70
     0
102
RTVSPropertyOp6
 70
     0
102
RTVSPropertyOp7
 70
     0
102
RTVSPropertyOp8
 70
     0
102
RTVSPropertyOp9
 70
     0
102
RTVSPropertyOp10
 70
     0
102
RTVSPropertyOp11
 70
     0
102
RTVSPropertyOp12
 70
     0
102
RTVSPropertyOp13
 70
     0
102
RTVSPropertyOp14
 70
     2
102
RTVSPropertyOp15
 70
     0
102
RTVSPropertyOp16
 70
     0
102
RTVSPropertyOp17
 70
     0
102
RTVSPropertyOp18
 70
     0
102
RTVSPropertyOp19
 70
     0
102
RTVSPropertyOp20
 70
     0
102
RTVSPropertyOp21
 70
     0
102
RTVSPropertyOp22
 70
     0
102
RTVSPropertyOp23
 70
     0
102
RTVSPropertyOp24
 70
     0
102
RTVSPropertyOp25
 70
     0
102
RTVSPropertyOp26
 70
     0
102
RTVSPropertyOp27
 70
     0
102
RTVSPropertyOp28
 70
     0
102
RTVSPropertyOp29
 70
     0
102
RTVSPropertyOp30
 70
     0
102
RTVSPropertyOp31
 70
     0
102
RTVSPropertyOp32
 70
     0
102
RTVSPropertyOp33
 70
     0
102
RTVSPropertyOp34
 70
     0
102
RTVSPropertyOp35
 70
     0
102
RTVSPropertyOp36
 70
     0
102
RTVSPropertyOp37
 70
     0
102
RTVSPropertyOp38
 70
     0
102
RTVSPropertyOp39
 70
     0
102
RTVSPropertyOp40
 70
     0
102
RTVSPropertyOp41
 70
     0
102
RTVSPropertyOp42
 70
     0
102
RTVSPropertyOp43
 70
     0
102
RTVSPropertyOp44
 70
     0
102
RTVSPropertyOp45
 70
     0
102
RTVSPropertyOp46
 70
     0
102
RTVSPropertyOp47
 70
     0
102
RTVSPropertyOp48
 70
     0
102
RTVSPropertyOp49
 70
     0
102
RTVSPropertyOp50
 70
     0
102
RTVSPropertyOp51
 70
     0
102
RTVSPropertyOp52
 70
     0
102
RTVSPropertyOp53
 70
     0
102
RTVSPropertyOp54
 70
     0
102
RTVSPropertyOp55
 70
     0
102
RTVSPropertyOp56
 70
     0
102
RTVSPropertyOp57
 70
     0
102
RTVSPropertyOp58
 70
     0
102
RTVSPropertyOp59
 70
     0
102
RTVSPropertyOp60
 70
     0
102
RTVSPropertyOp61
 70
     0
102
RTVSPropertyOp62
 70
     0
  0
XRECORD
  5
45CA
102
{ACAD_REACTORS
330
45C9
102
}
330
45C9
100
AcDbXrecord
280
     1
102
RTVSPost2010Prop28
280
     0
102
RTVSPost2010PropOp28
 70
     1
102
RTVSPost2010Prop29
280
     1
102
RTVSPost2010PropOp29
 70
     1
102
RTVSPost2010Prop30
280
     1
102
RTVSPost2010PropOp30
 70
     1
102
RTVSPost2010Prop31
280
     0
102
RTVSPost2010PropOp31
 70
     1
102
RTVSPost2010Prop32
280
     0
102
RTVSPost2010PropOp32
 70
     1
102
RTVSPost2010Prop33
280
     0
102
RTVSPost2010PropOp33
 70
     1
102
RTVSPost2010Prop34
280
     0
102
RTVSPost2010PropOp34
 70
     1
102
RTVSPost2010Prop35
280
     0
102
RTVSPost2010PropOp35
 70
     1
102
RTVSPost2010Prop36
280
     0
102
RTVSPost2010PropOp36
 70
     1
102
RTVSPost2010Prop37
 90
       50
102
RTVSPost2010PropOp37
 70
     1
102
RTVSPost2010Prop38
140
0.0
102
RTVSPost2010PropOp38
 70
     1
102
RTVSPost2010Prop39
140
1.0
102
RTVSPost2010PropOp39
 70
     1
102
RTVSPost2010Prop40
 90
        0
102
RTVSPost2010PropOp40
 70
     1
102
RTVSPost2010Prop41ColorIndex
 90
       18
102
RTVSPost2010Prop41ColorRGB
 90
        0
102
RTVSPost2010PropOp41
 70
     1
102
RTVSPost2010Prop42
 90
       50
102
RTVSPost2010PropOp42
 70
     1
102
RTVSPost2010Prop43
 90
        3
102
RTVSPost2010PropOp43
 70
     1
102
RTVSPost2010Prop44ColorIndex
 90
        5
102
RTVSPost2010Prop44ColorRGB
 90
      255
102
RTVSPost2010PropOp44
 70
     1
102
RTVSPost2010Prop45
280
     0
102
RTVSPost2010PropOp45
 70
     1
102
RTVSPost2010Prop46
 90
       50
102
RTVSPost2010PropOp46
 70
     1
102
RTVSPost2010Prop47
 90
       50
102
RTVSPost2010PropOp47
 70
     1
102
RTVSPost2010Prop48
 90
       50
102
RTVSPost2010PropOp48
 70
     1
102
RTVSPost2010Prop49
280
     0
102
RTVSPost2010PropOp49
 70
     1
102
RTVSPost2010Prop50
 90
       50
102
RTVSPost2010PropOp50
 70
     1
102
RTVSPost2010Prop51ColorIndex
 90
      256
102
RTVSPost2010Prop51ColorRGB
 90
-16777216
102
RTVSPost2010PropOp51
 70
     0
102
RTVSPost2010Prop52
140
1.0
102
RTVSPost2010PropOp52
 70
     0
102
RTVSPost2010Prop53
 90
        2
102
RTVSPost2010PropOp53
 70
     1
102
RTVSPost2010Prop54
  1
strokes_ogs.tif
102
RTVSPost2010PropOp54
 70
     1
102
RTVSPost2010Prop55
280
     0
102
RTVSPost2010PropOp55
 70
     1
102
RTVSPost2010Prop56
140
1.0
102
RTVSPost2010PropOp56
 70
     1
102
RTVSPost2010Prop57
140
1.0
102
RTVSPost2010PropOp57
 70
     1
102
RTVSPropertyOp0
 70
     1
102
RTVSPropertyOp1
 70
     1
102
RTVSPropertyOp2
 70
     1
102
RTVSPropertyOp3
 70
     1
102
RTVSPropertyOp4
 70
     1
102
RTVSPropertyOp5
 70
     1
102
RTVSPropertyOp6
 70
     1
102
RTVSPropertyOp7
 70
     1
102
RTVSPropertyOp8
 70
     1
102
RTVSPropertyOp9
 70
     1
102
RTVSPropertyOp10
 70
     1
102
RTVSPropertyOp11
 70
     1
102
RTVSPropertyOp12
 70
     1
102
RTVSPropertyOp13
 70
     1
102
RTVSPropertyOp14
 70
     1
102
RTVSPropertyOp15
 70
     1
102
RTVSPropertyOp16
 70
     1
102
RTVSPropertyOp17
 70
     1
102
RTVSPropertyOp18
 70
     1
102
RTVSPropertyOp19
 70
     1
102
RTVSPropertyOp20
 70
     1
102
RTVSPropertyOp21
 70
     1
102
RTVSPropertyOp22
 70
     1
102
RTVSPropertyOp23
 70
     1
102
RTVSPropertyOp24
 70
     1
102
RTVSPropertyOp25
 70
     1
102
RTVSPropertyOp26
 70
     1
102
RTVSPropertyOp27
 70
     1
102
RTVSPropertyOp28
 70
     1
102
RTVSPropertyOp29
 70
     1
102
RTVSPropertyOp30
 70
     1
102
RTVSPropertyOp31
 70
     1
102
RTVSPropertyOp32
 70
     1
102
RTVSPropertyOp33
 70
     1
102
RTVSPropertyOp34
 70
     1
102
RTVSPropertyOp35
 70
     1
102
RTVSPropertyOp36
 70
     1
102
RTVSPropertyOp37
 70
     1
102
RTVSPropertyOp38
 70
     1
102
RTVSPropertyOp39
 70
     1
102
RTVSPropertyOp40
 70
     1
102
RTVSPropertyOp41
 70
     1
102
RTVSPropertyOp42
 70
     1
102
RTVSPropertyOp43
 70
     1
102
RTVSPropertyOp44
 70
     1
102
RTVSPropertyOp45
 70
     1
102
RTVSPropertyOp46
 70
     1
102
RTVSPropertyOp47
 70
     1
102
RTVSPropertyOp48
 70
     1
102
RTVSPropertyOp49
 70
     1
102
RTVSPropertyOp50
 70
     1
102
RTVSPropertyOp51
 70
     0
102
RTVSPropertyOp52
 70
     0
102
RTVSPropertyOp53
 70
     1
102
RTVSPropertyOp54
 70
     1
102
RTVSPropertyOp55
 70
     1
102
RTVSPropertyOp56
 70
     1
102
RTVSPropertyOp57
 70
     1
102
RTVSPropertyOp58
 70
     1
102
RTVSPropertyOp59
 70
     1
102
RTVSPropertyOp60
 70
     1
102
RTVSPropertyOp61
 70
     1
102
RTVSPropertyOp62
 70
     1
  0
XRECORD
  5
45E0
102
{ACAD_REACTORS
330
45DF
102
}
330
45DF
100
AcDbXrecord
280
     1
102
RTVSPost2010Prop28
280
     0
102
RTVSPost2010PropOp28
 70
     1
102
RTVSPost2010Prop29
280
     1
102
RTVSPost2010PropOp29
 70
     1
102
RTVSPost2010Prop30
280
     1
102
RTVSPost2010PropOp30
 70
     1
102
RTVSPost2010Prop31
280
     0
102
RTVSPost2010PropOp31
 70
     1
102
RTVSPost2010Prop32
280
     0
102
RTVSPost2010PropOp32
 70
     1
102
RTVSPost2010Prop33
280
     0
102
RTVSPost2010PropOp33
 70
     1
102
RTVSPost2010Prop34
280
     0
102
RTVSPost2010PropOp34
 70
     1
102
RTVSPost2010Prop35
280
     0
102
RTVSPost2010PropOp35
 70
     1
102
RTVSPost2010Prop36
280
     0
102
RTVSPost2010PropOp36
 70
     1
102
RTVSPost2010Prop37
 90
       50
102
RTVSPost2010PropOp37
 70
     1
102
RTVSPost2010Prop38
140
0.0
102
RTVSPost2010PropOp38
 70
     1
102
RTVSPost2010Prop39
140
1.0
102
RTVSPost2010PropOp39
 70
     1
102
RTVSPost2010Prop40
 90
        0
102
RTVSPost2010PropOp40
 70
     1
102
RTVSPost2010Prop41ColorIndex
 90
       18
102
RTVSPost2010Prop41ColorRGB
 90
        0
102
RTVSPost2010PropOp41
 70
     1
102
RTVSPost2010Prop42
 90
       50
102
RTVSPost2010PropOp42
 70
     1
102
RTVSPost2010Prop43
 90
        3
102
RTVSPost2010PropOp43
 70
     1
102
RTVSPost2010Prop44ColorIndex
 90
        5
102
RTVSPost2010Prop44ColorRGB
 90
      255
102
RTVSPost2010PropOp44
 70
     1
102
RTVSPost2010Prop45
280
     0
102
RTVSPost2010PropOp45
 70
     1
102
RTVSPost2010Prop46
 90
       50
102
RTVSPost2010PropOp46
 70
     1
102
RTVSPost2010Prop47
 90
       50
102
RTVSPost2010PropOp47
 70
     1
102
RTVSPost2010Prop48
 90
       50
102
RTVSPost2010PropOp48
 70
     1
102
RTVSPost2010Prop49
280
     0
102
RTVSPost2010PropOp49
 70
     1
102
RTVSPost2010Prop50
 90
       50
102
RTVSPost2010PropOp50
 70
     1
102
RTVSPost2010Prop51ColorIndex
 90
      256
102
RTVSPost2010Prop51ColorRGB
 90
-16777216
102
RTVSPost2010PropOp51
 70
     0
102
RTVSPost2010Prop52
140
1.0
102
RTVSPost2010PropOp52
 70
     0
102
RTVSPost2010Prop53
 90
        2
102
RTVSPost2010PropOp53
 70
     1
102
RTVSPost2010Prop54
  1
strokes_ogs.tif
102
RTVSPost2010PropOp54
 70
     1
102
RTVSPost2010Prop55
280
     0
102
RTVSPost2010PropOp55
 70
     1
102
RTVSPost2010Prop56
140
1.0
102
RTVSPost2010PropOp56
 70
     1
102
RTVSPost2010Prop57
140
1.0
102
RTVSPost2010PropOp57
 70
     1
102
RTVSPropertyOp0
 70
     1
102
RTVSPropertyOp1
 70
     1
102
RTVSPropertyOp2
 70
     1
102
RTVSPropertyOp3
 70
     1
102
RTVSPropertyOp4
 70
     1
102
RTVSPropertyOp5
 70
     1
102
RTVSPropertyOp6
 70
     1
102
RTVSPropertyOp7
 70
     1
102
RTVSPropertyOp8
 70
     1
102
RTVSPropertyOp9
 70
     1
102
RTVSPropertyOp10
 70
     1
102
RTVSPropertyOp11
 70
     1
102
RTVSPropertyOp12
 70
     1
102
RTVSPropertyOp13
 70
     1
102
RTVSPropertyOp14
 70
     1
102
RTVSPropertyOp15
 70
     1
102
RTVSPropertyOp16
 70
     1
102
RTVSPropertyOp17
 70
     1
102
RTVSPropertyOp18
 70
     1
102
RTVSPropertyOp19
 70
     1
102
RTVSPropertyOp20
 70
     1
102
RTVSPropertyOp21
 70
     1
102
RTVSPropertyOp22
 70
     1
102
RTVSPropertyOp23
 70
     1
102
RTVSPropertyOp24
 70
     1
102
RTVSPropertyOp25
 70
     1
102
RTVSPropertyOp26
 70
     1
102
RTVSPropertyOp27
 70
     1
102
RTVSPropertyOp28
 70
     1
102
RTVSPropertyOp29
 70
     1
102
RTVSPropertyOp30
 70
     1
102
RTVSPropertyOp31
 70
     1
102
RTVSPropertyOp32
 70
     1
102
RTVSPropertyOp33
 70
     1
102
RTVSPropertyOp34
 70
     1
102
RTVSPropertyOp35
 70
     1
102
RTVSPropertyOp36
 70
     1
102
RTVSPropertyOp37
 70
     1
102
RTVSPropertyOp38
 70
     1
102
RTVSPropertyOp39
 70
     1
102
RTVSPropertyOp40
 70
     1
102
RTVSPropertyOp41
 70
     1
102
RTVSPropertyOp42
 70
     1
102
RTVSPropertyOp43
 70
     1
102
RTVSPropertyOp44
 70
     1
102
RTVSPropertyOp45
 70
     1
102
RTVSPropertyOp46
 70
     1
102
RTVSPropertyOp47
 70
     1
102
RTVSPropertyOp48
 70
     1
102
RTVSPropertyOp49
 70
     1
102
RTVSPropertyOp50
 70
     1
102
RTVSPropertyOp51
 70
     0
102
RTVSPropertyOp52
 70
     0
102
RTVSPropertyOp53
 70
     1
102
RTVSPropertyOp54
 70
     1
102
RTVSPropertyOp55
 70
     1
102
RTVSPropertyOp56
 70
     1
102
RTVSPropertyOp57
 70
     1
102
RTVSPropertyOp58
 70
     1
102
RTVSPropertyOp59
 70
     1
102
RTVSPropertyOp60
 70
     1
102
RTVSPropertyOp61
 70
     1
102
RTVSPropertyOp62
 70
     1
  0
XRECORD
  5
45DE
102
{ACAD_REACTORS
330
45DD
102
}
330
45DD
100
AcDbXrecord
280
     1
102
RTVSPost2010Prop28
280
     0
102
RTVSPost2010PropOp28
 70
     1
102
RTVSPost2010Prop29
280
     1
102
RTVSPost2010PropOp29
 70
     1
102
RTVSPost2010Prop30
280
     1
102
RTVSPost2010PropOp30
 70
     1
102
RTVSPost2010Prop31
280
     0
102
RTVSPost2010PropOp31
 70
     1
102
RTVSPost2010Prop32
280
     0
102
RTVSPost2010PropOp32
 70
     1
102
RTVSPost2010Prop33
280
     0
102
RTVSPost2010PropOp33
 70
     1
102
RTVSPost2010Prop34
280
     0
102
RTVSPost2010PropOp34
 70
     1
102
RTVSPost2010Prop35
280
     0
102
RTVSPost2010PropOp35
 70
     1
102
RTVSPost2010Prop36
280
     0
102
RTVSPost2010PropOp36
 70
     1
102
RTVSPost2010Prop37
 90
       50
102
RTVSPost2010PropOp37
 70
     1
102
RTVSPost2010Prop38
140
0.0
102
RTVSPost2010PropOp38
 70
     1
102
RTVSPost2010Prop39
140
1.0
102
RTVSPost2010PropOp39
 70
     1
102
RTVSPost2010Prop40
 90
        0
102
RTVSPost2010PropOp40
 70
     1
102
RTVSPost2010Prop41ColorIndex
 90
       18
102
RTVSPost2010Prop41ColorRGB
 90
        0
102
RTVSPost2010PropOp41
 70
     1
102
RTVSPost2010Prop42
 90
       50
102
RTVSPost2010PropOp42
 70
     1
102
RTVSPost2010Prop43
 90
        3
102
RTVSPost2010PropOp43
 70
     1
102
RTVSPost2010Prop44ColorIndex
 90
        5
102
RTVSPost2010Prop44ColorRGB
 90
      255
102
RTVSPost2010PropOp44
 70
     1
102
RTVSPost2010Prop45
280
     0
102
RTVSPost2010PropOp45
 70
     1
102
RTVSPost2010Prop46
 90
       50
102
RTVSPost2010PropOp46
 70
     1
102
RTVSPost2010Prop47
 90
       50
102
RTVSPost2010PropOp47
 70
     1
102
RTVSPost2010Prop48
 90
       50
102
RTVSPost2010PropOp48
 70
     1
102
RTVSPost2010Prop49
280
     0
102
RTVSPost2010PropOp49
 70
     1
102
RTVSPost2010Prop50
 90
       50
102
RTVSPost2010PropOp50
 70
     1
102
RTVSPost2010Prop51ColorIndex
 90
      256
102
RTVSPost2010Prop51ColorRGB
 90
-16777216
102
RTVSPost2010PropOp51
 70
     0
102
RTVSPost2010Prop52
140
1.0
102
RTVSPost2010PropOp52
 70
     0
102
RTVSPost2010Prop53
 90
        2
102
RTVSPost2010PropOp53
 70
     1
102
RTVSPost2010Prop54
  1
strokes_ogs.tif
102
RTVSPost2010PropOp54
 70
     1
102
RTVSPost2010Prop55
280
     0
102
RTVSPost2010PropOp55
 70
     1
102
RTVSPost2010Prop56
140
1.0
102
RTVSPost2010PropOp56
 70
     1
102
RTVSPost2010Prop57
140
1.0
102
RTVSPost2010PropOp57
 70
     1
102
RTVSPropertyOp0
 70
     1
102
RTVSPropertyOp1
 70
     1
102
RTVSPropertyOp2
 70
     1
102
RTVSPropertyOp3
 70
     1
102
RTVSPropertyOp4
 70
     1
102
RTVSPropertyOp5
 70
     1
102
RTVSPropertyOp6
 70
     1
102
RTVSPropertyOp7
 70
     1
102
RTVSPropertyOp8
 70
     1
102
RTVSPropertyOp9
 70
     1
102
RTVSPropertyOp10
 70
     1
102
RTVSPropertyOp11
 70
     1
102
RTVSPropertyOp12
 70
     1
102
RTVSPropertyOp13
 70
     1
102
RTVSPropertyOp14
 70
     1
102
RTVSPropertyOp15
 70
     1
102
RTVSPropertyOp16
 70
     1
102
RTVSPropertyOp17
 70
     1
102
RTVSPropertyOp18
 70
     1
102
RTVSPropertyOp19
 70
     1
102
RTVSPropertyOp20
 70
     1
102
RTVSPropertyOp21
 70
     1
102
RTVSPropertyOp22
 70
     1
102
RTVSPropertyOp23
 70
     1
102
RTVSPropertyOp24
 70
     1
102
RTVSPropertyOp25
 70
     1
102
RTVSPropertyOp26
 70
     1
102
RTVSPropertyOp27
 70
     1
102
RTVSPropertyOp28
 70
     1
102
RTVSPropertyOp29
 70
     1
102
RTVSPropertyOp30
 70
     1
102
RTVSPropertyOp31
 70
     1
102
RTVSPropertyOp32
 70
     1
102
RTVSPropertyOp33
 70
     1
102
RTVSPropertyOp34
 70
     1
102
RTVSPropertyOp35
 70
     1
102
RTVSPropertyOp36
 70
     1
102
RTVSPropertyOp37
 70
     1
102
RTVSPropertyOp38
 70
     1
102
RTVSPropertyOp39
 70
     1
102
RTVSPropertyOp40
 70
     1
102
RTVSPropertyOp41
 70
     1
102
RTVSPropertyOp42
 70
     1
102
RTVSPropertyOp43
 70
     1
102
RTVSPropertyOp44
 70
     1
102
RTVSPropertyOp45
 70
     1
102
RTVSPropertyOp46
 70
     1
102
RTVSPropertyOp47
 70
     1
102
RTVSPropertyOp48
 70
     1
102
RTVSPropertyOp49
 70
     1
102
RTVSPropertyOp50
 70
     1
102
RTVSPropertyOp51
 70
     0
102
RTVSPropertyOp52
 70
     0
102
RTVSPropertyOp53
 70
     1
102
RTVSPropertyOp54
 70
     1
102
RTVSPropertyOp55
 70
     1
102
RTVSPropertyOp56
 70
     1
102
RTVSPropertyOp57
 70
     1
102
RTVSPropertyOp58
 70
     1
102
RTVSPropertyOp59
 70
     1
102
RTVSPropertyOp60
 70
     1
102
RTVSPropertyOp61
 70
     1
102
RTVSPropertyOp62
 70
     1
  0
XRECORD
  5
45D8
102
{ACAD_REACTORS
330
45D7
102
}
330
45D7
100
AcDbXrecord
280
     1
102
RTVSPost2010Prop28
280
     0
102
RTVSPost2010PropOp28
 70
     1
102
RTVSPost2010Prop29
280
     1
102
RTVSPost2010PropOp29
 70
     1
102
RTVSPost2010Prop30
280
     1
102
RTVSPost2010PropOp30
 70
     1
102
RTVSPost2010Prop31
280
     0
102
RTVSPost2010PropOp31
 70
     1
102
RTVSPost2010Prop32
280
     0
102
RTVSPost2010PropOp32
 70
     1
102
RTVSPost2010Prop33
280
     0
102
RTVSPost2010PropOp33
 70
     1
102
RTVSPost2010Prop34
280
     0
102
RTVSPost2010PropOp34
 70
     1
102
RTVSPost2010Prop35
280
     0
102
RTVSPost2010PropOp35
 70
     1
102
RTVSPost2010Prop36
280
     0
102
RTVSPost2010PropOp36
 70
     1
102
RTVSPost2010Prop37
 90
       50
102
RTVSPost2010PropOp37
 70
     1
102
RTVSPost2010Prop38
140
0.0
102
RTVSPost2010PropOp38
 70
     1
102
RTVSPost2010Prop39
140
1.0
102
RTVSPost2010PropOp39
 70
     1
102
RTVSPost2010Prop40
 90
        0
102
RTVSPost2010PropOp40
 70
     1
102
RTVSPost2010Prop41ColorIndex
 90
       18
102
RTVSPost2010Prop41ColorRGB
 90
        0
102
RTVSPost2010PropOp41
 70
     1
102
RTVSPost2010Prop42
 90
       50
102
RTVSPost2010PropOp42
 70
     1
102
RTVSPost2010Prop43
 90
        3
102
RTVSPost2010PropOp43
 70
     1
102
RTVSPost2010Prop44ColorIndex
 90
        5
102
RTVSPost2010Prop44ColorRGB
 90
      255
102
RTVSPost2010PropOp44
 70
     1
102
RTVSPost2010Prop45
280
     0
102
RTVSPost2010PropOp45
 70
     1
102
RTVSPost2010Prop46
 90
       50
102
RTVSPost2010PropOp46
 70
     1
102
RTVSPost2010Prop47
 90
       50
102
RTVSPost2010PropOp47
 70
     1
102
RTVSPost2010Prop48
 90
       50
102
RTVSPost2010PropOp48
 70
     1
102
RTVSPost2010Prop49
280
     0
102
RTVSPost2010PropOp49
 70
     1
102
RTVSPost2010Prop50
 90
       50
102
RTVSPost2010PropOp50
 70
     1
102
RTVSPost2010Prop51ColorIndex
 90
      256
102
RTVSPost2010Prop51ColorRGB
 90
-16777216
102
RTVSPost2010PropOp51
 70
     0
102
RTVSPost2010Prop52
140
1.0
102
RTVSPost2010PropOp52
 70
     0
102
RTVSPost2010Prop53
 90
        2
102
RTVSPost2010PropOp53
 70
     1
102
RTVSPost2010Prop54
  1
strokes_ogs.tif
102
RTVSPost2010PropOp54
 70
     1
102
RTVSPost2010Prop55
280
     0
102
RTVSPost2010PropOp55
 70
     1
102
RTVSPost2010Prop56
140
1.0
102
RTVSPost2010PropOp56
 70
     1
102
RTVSPost2010Prop57
140
1.0
102
RTVSPost2010PropOp57
 70
     1
102
RTVSPropertyOp0
 70
     1
102
RTVSPropertyOp1
 70
     1
102
RTVSPropertyOp2
 70
     1
102
RTVSPropertyOp3
 70
     1
102
RTVSPropertyOp4
 70
     1
102
RTVSPropertyOp5
 70
     1
102
RTVSPropertyOp6
 70
     1
102
RTVSPropertyOp7
 70
     1
102
RTVSPropertyOp8
 70
     1
102
RTVSPropertyOp9
 70
     1
102
RTVSPropertyOp10
 70
     1
102
RTVSPropertyOp11
 70
     1
102
RTVSPropertyOp12
 70
     1
102
RTVSPropertyOp13
 70
     1
102
RTVSPropertyOp14
 70
     1
102
RTVSPropertyOp15
 70
     1
102
RTVSPropertyOp16
 70
     1
102
RTVSPropertyOp17
 70
     1
102
RTVSPropertyOp18
 70
     1
102
RTVSPropertyOp19
 70
     1
102
RTVSPropertyOp20
 70
     1
102
RTVSPropertyOp21
 70
     1
102
RTVSPropertyOp22
 70
     1
102
RTVSPropertyOp23
 70
     1
102
RTVSPropertyOp24
 70
     1
102
RTVSPropertyOp25
 70
     1
102
RTVSPropertyOp26
 70
     1
102
RTVSPropertyOp27
 70
     1
102
RTVSPropertyOp28
 70
     1
102
RTVSPropertyOp29
 70
     1
102
RTVSPropertyOp30
 70
     1
102
RTVSPropertyOp31
 70
     1
102
RTVSPropertyOp32
 70
     1
102
RTVSPropertyOp33
 70
     1
102
RTVSPropertyOp34
 70
     1
102
RTVSPropertyOp35
 70
     1
102
RTVSPropertyOp36
 70
     1
102
RTVSPropertyOp37
 70
     1
102
RTVSPropertyOp38
 70
     1
102
RTVSPropertyOp39
 70
     1
102
RTVSPropertyOp40
 70
     1
102
RTVSPropertyOp41
 70
     1
102
RTVSPropertyOp42
 70
     1
102
RTVSPropertyOp43
 70
     1
102
RTVSPropertyOp44
 70
     1
102
RTVSPropertyOp45
 70
     1
102
RTVSPropertyOp46
 70
     1
102
RTVSPropertyOp47
 70
     1
102
RTVSPropertyOp48
 70
     1
102
RTVSPropertyOp49
 70
     1
102
RTVSPropertyOp50
 70
     1
102
RTVSPropertyOp51
 70
     0
102
RTVSPropertyOp52
 70
     0
102
RTVSPropertyOp53
 70
     1
102
RTVSPropertyOp54
 70
     1
102
RTVSPropertyOp55
 70
     1
102
RTVSPropertyOp56
 70
     1
102
RTVSPropertyOp57
 70
     1
102
RTVSPropertyOp58
 70
     1
102
RTVSPropertyOp59
 70
     1
102
RTVSPropertyOp60
 70
     1
102
RTVSPropertyOp61
 70
     1
102
RTVSPropertyOp62
 70
     1
  0
XRECORD
  5
45DA
102
{ACAD_REACTORS
330
45D9
102
}
330
45D9
100
AcDbXrecord
280
     1
102
RTVSPost2010Prop28
280
     0
102
RTVSPost2010PropOp28
 70
     1
102
RTVSPost2010Prop29
280
     1
102
RTVSPost2010PropOp29
 70
     1
102
RTVSPost2010Prop30
280
     1
102
RTVSPost2010PropOp30
 70
     1
102
RTVSPost2010Prop31
280
     0
102
RTVSPost2010PropOp31
 70
     1
102
RTVSPost2010Prop32
280
     0
102
RTVSPost2010PropOp32
 70
     1
102
RTVSPost2010Prop33
280
     0
102
RTVSPost2010PropOp33
 70
     1
102
RTVSPost2010Prop34
280
     0
102
RTVSPost2010PropOp34
 70
     1
102
RTVSPost2010Prop35
280
     0
102
RTVSPost2010PropOp35
 70
     1
102
RTVSPost2010Prop36
280
     0
102
RTVSPost2010PropOp36
 70
     1
102
RTVSPost2010Prop37
 90
       50
102
RTVSPost2010PropOp37
 70
     1
102
RTVSPost2010Prop38
140
0.0
102
RTVSPost2010PropOp38
 70
     1
102
RTVSPost2010Prop39
140
1.0
102
RTVSPost2010PropOp39
 70
     1
102
RTVSPost2010Prop40
 90
        0
102
RTVSPost2010PropOp40
 70
     1
102
RTVSPost2010Prop41ColorIndex
 90
       18
102
RTVSPost2010Prop41ColorRGB
 90
        0
102
RTVSPost2010PropOp41
 70
     1
102
RTVSPost2010Prop42
 90
       50
102
RTVSPost2010PropOp42
 70
     1
102
RTVSPost2010Prop43
 90
        3
102
RTVSPost2010PropOp43
 70
     1
102
RTVSPost2010Prop44ColorIndex
 90
        5
102
RTVSPost2010Prop44ColorRGB
 90
      255
102
RTVSPost2010PropOp44
 70
     1
102
RTVSPost2010Prop45
280
     0
102
RTVSPost2010PropOp45
 70
     1
102
RTVSPost2010Prop46
 90
       50
102
RTVSPost2010PropOp46
 70
     1
102
RTVSPost2010Prop47
 90
       50
102
RTVSPost2010PropOp47
 70
     1
102
RTVSPost2010Prop48
 90
       50
102
RTVSPost2010PropOp48
 70
     1
102
RTVSPost2010Prop49
280
     0
102
RTVSPost2010PropOp49
 70
     1
102
RTVSPost2010Prop50
 90
       50
102
RTVSPost2010PropOp50
 70
     1
102
RTVSPost2010Prop51ColorIndex
 90
      256
102
RTVSPost2010Prop51ColorRGB
 90
-16777216
102
RTVSPost2010PropOp51
 70
     0
102
RTVSPost2010Prop52
140
1.0
102
RTVSPost2010PropOp52
 70
     0
102
RTVSPost2010Prop53
 90
        2
102
RTVSPost2010PropOp53
 70
     1
102
RTVSPost2010Prop54
  1
strokes_ogs.tif
102
RTVSPost2010PropOp54
 70
     1
102
RTVSPost2010Prop55
280
     0
102
RTVSPost2010PropOp55
 70
     1
102
RTVSPost2010Prop56
140
1.0
102
RTVSPost2010PropOp56
 70
     1
102
RTVSPost2010Prop57
140
1.0
102
RTVSPost2010PropOp57
 70
     1
102
RTVSPropertyOp0
 70
     1
102
RTVSPropertyOp1
 70
     1
102
RTVSPropertyOp2
 70
     1
102
RTVSPropertyOp3
 70
     1
102
RTVSPropertyOp4
 70
     1
102
RTVSPropertyOp5
 70
     1
102
RTVSPropertyOp6
 70
     1
102
RTVSPropertyOp7
 70
     1
102
RTVSPropertyOp8
 70
     1
102
RTVSPropertyOp9
 70
     1
102
RTVSPropertyOp10
 70
     1
102
RTVSPropertyOp11
 70
     1
102
RTVSPropertyOp12
 70
     1
102
RTVSPropertyOp13
 70
     1
102
RTVSPropertyOp14
 70
     1
102
RTVSPropertyOp15
 70
     1
102
RTVSPropertyOp16
 70
     1
102
RTVSPropertyOp17
 70
     1
102
RTVSPropertyOp18
 70
     1
102
RTVSPropertyOp19
 70
     1
102
RTVSPropertyOp20
 70
     1
102
RTVSPropertyOp21
 70
     1
102
RTVSPropertyOp22
 70
     1
102
RTVSPropertyOp23
 70
     1
102
RTVSPropertyOp24
 70
     1
102
RTVSPropertyOp25
 70
     1
102
RTVSPropertyOp26
 70
     1
102
RTVSPropertyOp27
 70
     1
102
RTVSPropertyOp28
 70
     1
102
RTVSPropertyOp29
 70
     1
102
RTVSPropertyOp30
 70
     1
102
RTVSPropertyOp31
 70
     1
102
RTVSPropertyOp32
 70
     1
102
RTVSPropertyOp33
 70
     1
102
RTVSPropertyOp34
 70
     1
102
RTVSPropertyOp35
 70
     1
102
RTVSPropertyOp36
 70
     1
102
RTVSPropertyOp37
 70
     1
102
RTVSPropertyOp38
 70
     1
102
RTVSPropertyOp39
 70
     1
102
RTVSPropertyOp40
 70
     1
102
RTVSPropertyOp41
 70
     1
102
RTVSPropertyOp42
 70
     1
102
RTVSPropertyOp43
 70
     1
102
RTVSPropertyOp44
 70
     1
102
RTVSPropertyOp45
 70
     1
102
RTVSPropertyOp46
 70
     1
102
RTVSPropertyOp47
 70
     1
102
RTVSPropertyOp48
 70
     1
102
RTVSPropertyOp49
 70
     1
102
RTVSPropertyOp50
 70
     1
102
RTVSPropertyOp51
 70
     0
102
RTVSPropertyOp52
 70
     0
102
RTVSPropertyOp53
 70
     1
102
RTVSPropertyOp54
 70
     1
102
RTVSPropertyOp55
 70
     1
102
RTVSPropertyOp56
 70
     1
102
RTVSPropertyOp57
 70
     1
102
RTVSPropertyOp58
 70
     1
102
RTVSPropertyOp59
 70
     1
102
RTVSPropertyOp60
 70
     1
102
RTVSPropertyOp61
 70
     1
102
RTVSPropertyOp62
 70
     1
  0
XRECORD
  5
45D0
102
{ACAD_REACTORS
330
45CF
102
}
330
45CF
100
AcDbXrecord
280
     1
102
RTVSPost2010Prop28
280
     0
102
RTVSPost2010PropOp28
 70
     1
102
RTVSPost2010Prop29
280
     1
102
RTVSPost2010PropOp29
 70
     1
102
RTVSPost2010Prop30
280
     1
102
RTVSPost2010PropOp30
 70
     1
102
RTVSPost2010Prop31
280
     0
102
RTVSPost2010PropOp31
 70
     1
102
RTVSPost2010Prop32
280
     0
102
RTVSPost2010PropOp32
 70
     1
102
RTVSPost2010Prop33
280
     0
102
RTVSPost2010PropOp33
 70
     1
102
RTVSPost2010Prop34
280
     0
102
RTVSPost2010PropOp34
 70
     1
102
RTVSPost2010Prop35
280
     0
102
RTVSPost2010PropOp35
 70
     1
102
RTVSPost2010Prop36
280
     0
102
RTVSPost2010PropOp36
 70
     1
102
RTVSPost2010Prop37
 90
       50
102
RTVSPost2010PropOp37
 70
     1
102
RTVSPost2010Prop38
140
0.0
102
RTVSPost2010PropOp38
 70
     1
102
RTVSPost2010Prop39
140
1.0
102
RTVSPost2010PropOp39
 70
     1
102
RTVSPost2010Prop40
 90
        0
102
RTVSPost2010PropOp40
 70
     1
102
RTVSPost2010Prop41ColorIndex
 90
       18
102
RTVSPost2010Prop41ColorRGB
 90
        0
102
RTVSPost2010PropOp41
 70
     1
102
RTVSPost2010Prop42
 90
       50
102
RTVSPost2010PropOp42
 70
     1
102
RTVSPost2010Prop43
 90
        3
102
RTVSPost2010PropOp43
 70
     1
102
RTVSPost2010Prop44ColorIndex
 90
        5
102
RTVSPost2010Prop44ColorRGB
 90
      255
102
RTVSPost2010PropOp44
 70
     1
102
RTVSPost2010Prop45
280
     0
102
RTVSPost2010PropOp45
 70
     1
102
RTVSPost2010Prop46
 90
       50
102
RTVSPost2010PropOp46
 70
     1
102
RTVSPost2010Prop47
 90
       50
102
RTVSPost2010PropOp47
 70
     1
102
RTVSPost2010Prop48
 90
       50
102
RTVSPost2010PropOp48
 70
     1
102
RTVSPost2010Prop49
280
     0
102
RTVSPost2010PropOp49
 70
     1
102
RTVSPost2010Prop50
 90
       50
102
RTVSPost2010PropOp50
 70
     1
102
RTVSPost2010Prop51ColorIndex
 90
      256
102
RTVSPost2010Prop51ColorRGB
 90
-16777216
102
RTVSPost2010PropOp51
 70
     0
102
RTVSPost2010Prop52
140
1.0
102
RTVSPost2010PropOp52
 70
     0
102
RTVSPost2010Prop53
 90
        2
102
RTVSPost2010PropOp53
 70
     1
102
RTVSPost2010Prop54
  1
strokes_ogs.tif
102
RTVSPost2010PropOp54
 70
     1
102
RTVSPost2010Prop55
280
     0
102
RTVSPost2010PropOp55
 70
     1
102
RTVSPost2010Prop56
140
1.0
102
RTVSPost2010PropOp56
 70
     1
102
RTVSPost2010Prop57
140
1.0
102
RTVSPost2010PropOp57
 70
     1
102
RTVSPropertyOp0
 70
     1
102
RTVSPropertyOp1
 70
     1
102
RTVSPropertyOp2
 70
     1
102
RTVSPropertyOp3
 70
     1
102
RTVSPropertyOp4
 70
     1
102
RTVSPropertyOp5
 70
     1
102
RTVSPropertyOp6
 70
     1
102
RTVSPropertyOp7
 70
     1
102
RTVSPropertyOp8
 70
     1
102
RTVSPropertyOp9
 70
     1
102
RTVSPropertyOp10
 70
     1
102
RTVSPropertyOp11
 70
     1
102
RTVSPropertyOp12
 70
     1
102
RTVSPropertyOp13
 70
     1
102
RTVSPropertyOp14
 70
     1
102
RTVSPropertyOp15
 70
     1
102
RTVSPropertyOp16
 70
     1
102
RTVSPropertyOp17
 70
     1
102
RTVSPropertyOp18
 70
     1
102
RTVSPropertyOp19
 70
     1
102
RTVSPropertyOp20
 70
     1
102
RTVSPropertyOp21
 70
     1
102
RTVSPropertyOp22
 70
     1
102
RTVSPropertyOp23
 70
     1
102
RTVSPropertyOp24
 70
     1
102
RTVSPropertyOp25
 70
     1
102
RTVSPropertyOp26
 70
     1
102
RTVSPropertyOp27
 70
     1
102
RTVSPropertyOp28
 70
     1
102
RTVSPropertyOp29
 70
     1
102
RTVSPropertyOp30
 70
     1
102
RTVSPropertyOp31
 70
     1
102
RTVSPropertyOp32
 70
     1
102
RTVSPropertyOp33
 70
     1
102
RTVSPropertyOp34
 70
     1
102
RTVSPropertyOp35
 70
     1
102
RTVSPropertyOp36
 70
     1
102
RTVSPropertyOp37
 70
     1
102
RTVSPropertyOp38
 70
     1
102
RTVSPropertyOp39
 70
     1
102
RTVSPropertyOp40
 70
     1
102
RTVSPropertyOp41
 70
     1
102
RTVSPropertyOp42
 70
     1
102
RTVSPropertyOp43
 70
     1
102
RTVSPropertyOp44
 70
     1
102
RTVSPropertyOp45
 70
     1
102
RTVSPropertyOp46
 70
     1
102
RTVSPropertyOp47
 70
     1
102
RTVSPropertyOp48
 70
     1
102
RTVSPropertyOp49
 70
     1
102
RTVSPropertyOp50
 70
     1
102
RTVSPropertyOp51
 70
     0
102
RTVSPropertyOp52
 70
     0
102
RTVSPropertyOp53
 70
     1
102
RTVSPropertyOp54
 70
     1
102
RTVSPropertyOp55
 70
     1
102
RTVSPropertyOp56
 70
     1
102
RTVSPropertyOp57
 70
     1
102
RTVSPropertyOp58
 70
     1
102
RTVSPropertyOp59
 70
     1
102
RTVSPropertyOp60
 70
     1
102
RTVSPropertyOp61
 70
     1
102
RTVSPropertyOp62
 70
     1
  0
XRECORD
  5
45C4
102
{ACAD_REACTORS
330
45C3
102
}
330
45C3
100
AcDbXrecord
280
     1
102
RTVSPost2010Prop28
280
     0
102
RTVSPost2010PropOp28
 70
     1
102
RTVSPost2010Prop29
280
     1
102
RTVSPost2010PropOp29
 70
     1
102
RTVSPost2010Prop30
280
     1
102
RTVSPost2010PropOp30
 70
     1
102
RTVSPost2010Prop31
280
     0
102
RTVSPost2010PropOp31
 70
     1
102
RTVSPost2010Prop32
280
     0
102
RTVSPost2010PropOp32
 70
     1
102
RTVSPost2010Prop33
280
     0
102
RTVSPost2010PropOp33
 70
     1
102
RTVSPost2010Prop34
280
     0
102
RTVSPost2010PropOp34
 70
     1
102
RTVSPost2010Prop35
280
     0
102
RTVSPost2010PropOp35
 70
     1
102
RTVSPost2010Prop36
280
     0
102
RTVSPost2010PropOp36
 70
     1
102
RTVSPost2010Prop37
 90
       50
102
RTVSPost2010PropOp37
 70
     1
102
RTVSPost2010Prop38
140
0.0
102
RTVSPost2010PropOp38
 70
     1
102
RTVSPost2010Prop39
140
1.0
102
RTVSPost2010PropOp39
 70
     1
102
RTVSPost2010Prop40
 90
        0
102
RTVSPost2010PropOp40
 70
     1
102
RTVSPost2010Prop41ColorIndex
 90
       18
102
RTVSPost2010Prop41ColorRGB
 90
        0
102
RTVSPost2010PropOp41
 70
     1
102
RTVSPost2010Prop42
 90
       50
102
RTVSPost2010PropOp42
 70
     1
102
RTVSPost2010Prop43
 90
        3
102
RTVSPost2010PropOp43
 70
     1
102
RTVSPost2010Prop44ColorIndex
 90
        5
102
RTVSPost2010Prop44ColorRGB
 90
      255
102
RTVSPost2010PropOp44
 70
     1
102
RTVSPost2010Prop45
280
     0
102
RTVSPost2010PropOp45
 70
     1
102
RTVSPost2010Prop46
 90
       50
102
RTVSPost2010PropOp46
 70
     1
102
RTVSPost2010Prop47
 90
       50
102
RTVSPost2010PropOp47
 70
     1
102
RTVSPost2010Prop48
 90
       50
102
RTVSPost2010PropOp48
 70
     1
102
RTVSPost2010Prop49
280
     0
102
RTVSPost2010PropOp49
 70
     1
102
RTVSPost2010Prop50
 90
       50
102
RTVSPost2010PropOp50
 70
     1
102
RTVSPost2010Prop51ColorIndex
 90
      256
102
RTVSPost2010Prop51ColorRGB
 90
-16777216
102
RTVSPost2010PropOp51
 70
     0
102
RTVSPost2010Prop52
140
1.0
102
RTVSPost2010PropOp52
 70
     0
102
RTVSPost2010Prop53
 90
        2
102
RTVSPost2010PropOp53
 70
     1
102
RTVSPost2010Prop54
  1
strokes_ogs.tif
102
RTVSPost2010PropOp54
 70
     1
102
RTVSPost2010Prop55
280
     0
102
RTVSPost2010PropOp55
 70
     1
102
RTVSPost2010Prop56
140
1.0
102
RTVSPost2010PropOp56
 70
     1
102
RTVSPost2010Prop57
140
1.0
102
RTVSPost2010PropOp57
 70
     1
102
RTVSPropertyOp0
 70
     1
102
RTVSPropertyOp1
 70
     1
102
RTVSPropertyOp2
 70
     1
102
RTVSPropertyOp3
 70
     1
102
RTVSPropertyOp4
 70
     1
102
RTVSPropertyOp5
 70
     1
102
RTVSPropertyOp6
 70
     1
102
RTVSPropertyOp7
 70
     1
102
RTVSPropertyOp8
 70
     1
102
RTVSPropertyOp9
 70
     1
102
RTVSPropertyOp10
 70
     1
102
RTVSPropertyOp11
 70
     1
102
RTVSPropertyOp12
 70
     1
102
RTVSPropertyOp13
 70
     1
102
RTVSPropertyOp14
 70
     1
102
RTVSPropertyOp15
 70
     1
102
RTVSPropertyOp16
 70
     1
102
RTVSPropertyOp17
 70
     1
102
RTVSPropertyOp18
 70
     1
102
RTVSPropertyOp19
 70
     1
102
RTVSPropertyOp20
 70
     1
102
RTVSPropertyOp21
 70
     1
102
RTVSPropertyOp22
 70
     1
102
RTVSPropertyOp23
 70
     1
102
RTVSPropertyOp24
 70
     1
102
RTVSPropertyOp25
 70
     1
102
RTVSPropertyOp26
 70
     1
102
RTVSPropertyOp27
 70
     1
102
RTVSPropertyOp28
 70
     1
102
RTVSPropertyOp29
 70
     1
102
RTVSPropertyOp30
 70
     1
102
RTVSPropertyOp31
 70
     1
102
RTVSPropertyOp32
 70
     1
102
RTVSPropertyOp33
 70
     1
102
RTVSPropertyOp34
 70
     1
102
RTVSPropertyOp35
 70
     1
102
RTVSPropertyOp36
 70
     1
102
RTVSPropertyOp37
 70
     1
102
RTVSPropertyOp38
 70
     1
102
RTVSPropertyOp39
 70
     1
102
RTVSPropertyOp40
 70
     1
102
RTVSPropertyOp41
 70
     1
102
RTVSPropertyOp42
 70
     1
102
RTVSPropertyOp43
 70
     1
102
RTVSPropertyOp44
 70
     1
102
RTVSPropertyOp45
 70
     1
102
RTVSPropertyOp46
 70
     1
102
RTVSPropertyOp47
 70
     1
102
RTVSPropertyOp48
 70
     1
102
RTVSPropertyOp49
 70
     1
102
RTVSPropertyOp50
 70
     1
102
RTVSPropertyOp51
 70
     0
102
RTVSPropertyOp52
 70
     0
102
RTVSPropertyOp53
 70
     1
102
RTVSPropertyOp54
 70
     1
102
RTVSPropertyOp55
 70
     1
102
RTVSPropertyOp56
 70
     1
102
RTVSPropertyOp57
 70
     1
102
RTVSPropertyOp58
 70
     1
102
RTVSPropertyOp59
 70
     1
102
RTVSPropertyOp60
 70
     1
102
RTVSPropertyOp61
 70
     1
102
RTVSPropertyOp62
 70
     1
  0
XRECORD
  5
45DC
102
{ACAD_REACTORS
330
45DB
102
}
330
45DB
100
AcDbXrecord
280
     1
102
RTVSPost2010Prop28
280
     0
102
RTVSPost2010PropOp28
 70
     1
102
RTVSPost2010Prop29
280
     1
102
RTVSPost2010PropOp29
 70
     1
102
RTVSPost2010Prop30
280
     1
102
RTVSPost2010PropOp30
 70
     1
102
RTVSPost2010Prop31
280
     0
102
RTVSPost2010PropOp31
 70
     1
102
RTVSPost2010Prop32
280
     0
102
RTVSPost2010PropOp32
 70
     1
102
RTVSPost2010Prop33
280
     0
102
RTVSPost2010PropOp33
 70
     1
102
RTVSPost2010Prop34
280
     0
102
RTVSPost2010PropOp34
 70
     1
102
RTVSPost2010Prop35
280
     0
102
RTVSPost2010PropOp35
 70
     1
102
RTVSPost2010Prop36
280
     0
102
RTVSPost2010PropOp36
 70
     1
102
RTVSPost2010Prop37
 90
       50
102
RTVSPost2010PropOp37
 70
     1
102
RTVSPost2010Prop38
140
0.0
102
RTVSPost2010PropOp38
 70
     1
102
RTVSPost2010Prop39
140
1.0
102
RTVSPost2010PropOp39
 70
     1
102
RTVSPost2010Prop40
 90
        0
102
RTVSPost2010PropOp40
 70
     1
102
RTVSPost2010Prop41ColorIndex
 90
       18
102
RTVSPost2010Prop41ColorRGB
 90
        0
102
RTVSPost2010PropOp41
 70
     1
102
RTVSPost2010Prop42
 90
       50
102
RTVSPost2010PropOp42
 70
     1
102
RTVSPost2010Prop43
 90
        3
102
RTVSPost2010PropOp43
 70
     1
102
RTVSPost2010Prop44ColorIndex
 90
        5
102
RTVSPost2010Prop44ColorRGB
 90
      255
102
RTVSPost2010PropOp44
 70
     1
102
RTVSPost2010Prop45
280
     0
102
RTVSPost2010PropOp45
 70
     1
102
RTVSPost2010Prop46
 90
       50
102
RTVSPost2010PropOp46
 70
     1
102
RTVSPost2010Prop47
 90
       50
102
RTVSPost2010PropOp47
 70
     1
102
RTVSPost2010Prop48
 90
       50
102
RTVSPost2010PropOp48
 70
     1
102
RTVSPost2010Prop49
280
     0
102
RTVSPost2010PropOp49
 70
     1
102
RTVSPost2010Prop50
 90
       50
102
RTVSPost2010PropOp50
 70
     1
102
RTVSPost2010Prop51ColorIndex
 90
      256
102
RTVSPost2010Prop51ColorRGB
 90
-16777216
102
RTVSPost2010PropOp51
 70
     0
102
RTVSPost2010Prop52
140
1.0
102
RTVSPost2010PropOp52
 70
     0
102
RTVSPost2010Prop53
 90
        2
102
RTVSPost2010PropOp53
 70
     1
102
RTVSPost2010Prop54
  1
strokes_ogs.tif
102
RTVSPost2010PropOp54
 70
     1
102
RTVSPost2010Prop55
280
     0
102
RTVSPost2010PropOp55
 70
     1
102
RTVSPost2010Prop56
140
1.0
102
RTVSPost2010PropOp56
 70
     1
102
RTVSPost2010Prop57
140
1.0
102
RTVSPost2010PropOp57
 70
     1
102
RTVSPropertyOp0
 70
     1
102
RTVSPropertyOp1
 70
     1
102
RTVSPropertyOp2
 70
     1
102
RTVSPropertyOp3
 70
     1
102
RTVSPropertyOp4
 70
     1
102
RTVSPropertyOp5
 70
     1
102
RTVSPropertyOp6
 70
     1
102
RTVSPropertyOp7
 70
     1
102
RTVSPropertyOp8
 70
     1
102
RTVSPropertyOp9
 70
     1
102
RTVSPropertyOp10
 70
     1
102
RTVSPropertyOp11
 70
     1
102
RTVSPropertyOp12
 70
     1
102
RTVSPropertyOp13
 70
     1
102
RTVSPropertyOp14
 70
     1
102
RTVSPropertyOp15
 70
     1
102
RTVSPropertyOp16
 70
     1
102
RTVSPropertyOp17
 70
     1
102
RTVSPropertyOp18
 70
     1
102
RTVSPropertyOp19
 70
     1
102
RTVSPropertyOp20
 70
     1
102
RTVSPropertyOp21
 70
     1
102
RTVSPropertyOp22
 70
     1
102
RTVSPropertyOp23
 70
     1
102
RTVSPropertyOp24
 70
     1
102
RTVSPropertyOp25
 70
     1
102
RTVSPropertyOp26
 70
     1
102
RTVSPropertyOp27
 70
     1
102
RTVSPropertyOp28
 70
     1
102
RTVSPropertyOp29
 70
     1
102
RTVSPropertyOp30
 70
     1
102
RTVSPropertyOp31
 70
     1
102
RTVSPropertyOp32
 70
     1
102
RTVSPropertyOp33
 70
     1
102
RTVSPropertyOp34
 70
     1
102
RTVSPropertyOp35
 70
     1
102
RTVSPropertyOp36
 70
     1
102
RTVSPropertyOp37
 70
     1
102
RTVSPropertyOp38
 70
     1
102
RTVSPropertyOp39
 70
     1
102
RTVSPropertyOp40
 70
     1
102
RTVSPropertyOp41
 70
     1
102
RTVSPropertyOp42
 70
     1
102
RTVSPropertyOp43
 70
     1
102
RTVSPropertyOp44
 70
     1
102
RTVSPropertyOp45
 70
     1
102
RTVSPropertyOp46
 70
     1
102
RTVSPropertyOp47
 70
     1
102
RTVSPropertyOp48
 70
     1
102
RTVSPropertyOp49
 70
     1
102
RTVSPropertyOp50
 70
     1
102
RTVSPropertyOp51
 70
     0
102
RTVSPropertyOp52
 70
     0
102
RTVSPropertyOp53
 70
     1
102
RTVSPropertyOp54
 70
     1
102
RTVSPropertyOp55
 70
     1
102
RTVSPropertyOp56
 70
     1
102
RTVSPropertyOp57
 70
     1
102
RTVSPropertyOp58
 70
     1
102
RTVSPropertyOp59
 70
     1
102
RTVSPropertyOp60
 70
     1
102
RTVSPropertyOp61
 70
     1
102
RTVSPropertyOp62
 70
     1
  0
ENDSEC
  0
EOF
