  0
SECTION
  2
HEADER
  9
$ACADVER
  1
AC1015
  9
$ACADMAINTVER
 70
    20
  9
$DWGCODEPAGE
  3
ANSI_932
  9
$INSBASE
 10
0.0
 20
0.0
 30
0.0
  9
$EXTMIN
 10
-0.2166417405669563
 20
-0.1502761369429209
 30
-0.0015258207003583
  9
$EXTMAX
 10
1380.06502902551
 20
955.0440400241768
 30
0.0000000349246037
  9
$LIMMIN
 10
0.0
 20
0.0
  9
$LIMMAX
 10
2840.0
 20
1970.0
  9
$ORTHOMODE
 70
     0
  9
$REGENMODE
 70
     1
  9
$FILLMODE
 70
     1
  9
$QTEXTMODE
 70
     0
  9
$MIRRTEXT
 70
     1
  9
$LTSCALE
 40
1.0
  9
$ATTMODE
 70
     1
  9
$TEXTSIZE
 40
2.5
  9
$TRACEWID
 40
1.0
  9
$TEXTSTYLE
  7
Standard
  9
$CLAYER
  8
KUTAI
  9
$CELTYPE
  6
DASHED
  9
$CECOLOR
 62
   256
  9
$CELTSCALE
 40
1.0
  9
$DISPSILH
 70
     0
  9
$DIMSCALE
 40
5.0
  9
$DIMASZ
 40
0.8
  9
$DIMEXO
 40
1.0
  9
$DIMDLI
 40
0.0
  9
$DIMRND
 40
0.0
  9
$DIMDLE
 40
0.0
  9
$DIMEXE
 40
0.0
  9
$DIMTP
 40
0.0
  9
$DIMTM
 40
0.0
  9
$DIMTXT
 40
2.0
  9
$DIMCEN
 40
2.5
  9
$DIMTSZ
 40
0.0
  9
$DIMTOL
 70
     0
  9
$DIMLIM
 70
     0
  9
$DIMTIH
 70
     0
  9
$DIMTOH
 70
     0
  9
$DIMSE1
 70
     0
  9
$DIMSE2
 70
     0
  9
$DIMTAD
 70
     2
  9
$DIMZIN
 70
     8
  9
$DIMBLK
  1

  9
$DIMASO
 70
     1
  9
$DIMSHO
 70
     1
  9
$DIMPOST
  1

  9
$DIMAPOST
  1

  9
$DIMALT
 70
     0
  9
$DIMALTD
 70
     4
  9
$DIMALTF
 40
0.0394
  9
$DIMLFAC
 40
1.0
  9
$DIMTOFL
 70
     1
  9
$DIMTVP
 40
0.0
  9
$DIMTIX
 70
     0
  9
$DIMSOXD
 70
     0
  9
$DIMSAH
 70
     1
  9
$DIMBLK1
  1
DOT
  9
$DIMBLK2
  1
DOT
  9
$DIMSTYLE
  2
STANDARD
  9
$DIMCLRD
 70
     0
  9
$DIMCLRE
 70
     0
  9
$DIMCLRT
 70
     0
  9
$DIMTFAC
 40
1.0
  9
$DIMGAP
 40
0.1
  9
$DIMJUST
 70
     0
  9
$DIMSD1
 70
     0
  9
$DIMSD2
 70
     0
  9
$DIMTOLJ
 70
     1
  9
$DIMTZIN
 70
     0
  9
$DIMALTZ
 70
     0
  9
$DIMALTTZ
 70
     0
  9
$DIMUPT
 70
     0
  9
$DIMDEC
 70
     8
  9
$DIMTDEC
 70
     8
  9
$DIMALTU
 70
     8
  9
$DIMALTTD
 70
     4
  9
$DIMTXSTY
  7
Standard
  9
$DIMAUNIT
 70
     0
  9
$DIMADEC
 70
     0
  9
$DIMALTRND
 40
0.0
  9
$DIMAZIN
 70
     0
  9
$DIMDSEP
 70
    46
  9
$DIMATFIT
 70
     3
  9
$DIMFRAC
 70
     0
  9
$DIMLDRBLK
  1
DOT
  9
$DIMLUNIT
 70
     2
  9
$DIMLWD
 70
    -2
  9
$DIMLWE
 70
    -2
  9
$DIMTMOVE
 70
     1
  9
$LUNITS
 70
     2
  9
$LUPREC
 70
     8
  9
$SKETCHINC
 40
1.0
  9
$FILLETRAD
 40
10.0
  9
$AUNITS
 70
     0
  9
$AUPREC
 70
     8
  9
$MENU
  1
.
  9
$ELEVATION
 40
0.0
  9
$PELEVATION
 40
0.0
  9
$THICKNESS
 40
0.0
  9
$LIMCHECK
 70
     0
  9
$CHAMFERA
 40
20.0
  9
$CHAMFERB
 40
20.0
  9
$CHAMFERC
 40
20.0
  9
$CHAMFERD
 40
0.0
  9
$SKPOLY
 70
     0
  9
$TDCREATE
 40
2453276.413761574
  9
$TDUCREATE
 40
2453276.038766620
  9
$TDUPDATE
 40
2459986.617696760
  9
$TDUUPDATE
 40
2459986.242696759
  9
$TDINDWG
 40
0.2342274884
  9
$TDUSRTIMER
 40
0.2342274884
  9
$USRTIMER
 70
     1
  9
$ANGBASE
 50
0.0
  9
$ANGDIR
 70
     0
  9
$PDMODE
 70
     0
  9
$PDSIZE
 40
0.0
  9
$PLINEWID
 40
0.0
  9
$SPLFRAME
 70
     0
  9
$SPLINETYPE
 70
     6
  9
$SPLINESEGS
 70
     8
  9
$HANDSEED
  5
457F
  9
$SURFTAB1
 70
     6
  9
$SURFTAB2
 70
     6
  9
$SURFTYPE
 70
     6
  9
$SURFU
 70
     6
  9
$SURFV
 70
     6
  9
$UCSBASE
  2

  9
$UCSNAME
  2

  9
$UCSORG
 10
0.0
 20
0.0
 30
0.0
  9
$UCSXDIR
 10
1.0
 20
0.0
 30
0.0
  9
$UCSYDIR
 10
0.0
 20
1.0
 30
0.0
  9
$UCSORTHOREF
  2

  9
$UCSORTHOVIEW
 70
     0
  9
$UCSORGTOP
 10
0.0
 20
0.0
 30
0.0
  9
$UCSORGBOTTOM
 10
0.0
 20
0.0
 30
0.0
  9
$UCSORGLEFT
 10
0.0
 20
0.0
 30
0.0
  9
$UCSORGRIGHT
 10
0.0
 20
0.0
 30
0.0
  9
$UCSORGFRONT
 10
0.0
 20
0.0
 30
0.0
  9
$UCSORGBACK
 10
0.0
 20
0.0
 30
0.0
  9
$PUCSBASE
  2

  9
$PUCSNAME
  2

  9
$PUCSORG
 10
0.0
 20
0.0
 30
0.0
  9
$PUCSXDIR
 10
1.0
 20
0.0
 30
0.0
  9
$PUCSYDIR
 10
0.0
 20
1.0
 30
0.0
  9
$PUCSORTHOREF
  2

  9
$PUCSORTHOVIEW
 70
     0
  9
$PUCSORGTOP
 10
0.0
 20
0.0
 30
0.0
  9
$PUCSORGBOTTOM
 10
0.0
 20
0.0
 30
0.0
  9
$PUCSORGLEFT
 10
0.0
 20
0.0
 30
0.0
  9
$PUCSORGRIGHT
 10
0.0
 20
0.0
 30
0.0
  9
$PUCSORGFRONT
 10
0.0
 20
0.0
 30
0.0
  9
$PUCSORGBACK
 10
0.0
 20
0.0
 30
0.0
  9
$USERI1
 70
     0
  9
$USERI2
 70
     0
  9
$USERI3
 70
     0
  9
$USERI4
 70
     0
  9
$USERI5
 70
     0
  9
$USERR1
 40
0.0
  9
$USERR2
 40
0.0
  9
$USERR3
 40
0.0
  9
$USERR4
 40
0.0
  9
$USERR5
 40
0.0
  9
$WORLDVIEW
 70
     1
  9
$SHADEDGE
 70
     2
  9
$SHADEDIF
 70
    70
  9
$TILEMODE
 70
     1
  9
$MAXACTVP
 70
    64
  9
$PINSBASE
 10
0.0
 20
0.0
 30
0.0
  9
$PLIMCHECK
 70
     0
  9
$PEXTMIN
 10
0.0
 20
0.0
 30
0.0
  9
$PEXTMAX
 10
0.0
 20
0.0
 30
0.0
  9
$PLIMMIN
 10
0.0
 20
0.0
  9
$PLIMMAX
 10
12.0
 20
9.0
  9
$UNITMODE
 70
     0
  9
$VISRETAIN
 70
     1
  9
$PLINEGEN
 70
     0
  9
$PSLTSCALE
 70
     1
  9
$TREEDEPTH
 70
  3020
  9
$CMLSTYLE
  2
Standard
  9
$CMLJUST
 70
     0
  9
$CMLSCALE
 40
20.0
  9
$PROXYGRAPHICS
 70
     1
  9
$MEASUREMENT
 70
     1
  9
$CELWEIGHT
370
    -1
  9
$ENDCAPS
280
     0
  9
$JOINSTYLE
280
     0
  9
$LWDISPLAY
290
     0
  9
$INSUNITS
 70
     4
  9
$HYPERLINKBASE
  1

  9
$STYLESHEET
  1
monochrome.stb
  9
$XEDIT
290
     1
  9
$CEPSNTYPE
380
     0
  9
$PSTYLEMODE
290
     1
  9
$FINGERPRINTGUID
  2
{B4E61C12-08AD-407D-A83C-7C7812CA1D8B}
  9
$VERSIONGUID
  2
{7F1F20E3-AFFA-6A41-8193-E1AC38E40E50}
  9
$EXTNAMES
290
     1
  9
$PSVPSCALE
 40
0.0
  9
$OLESTARTUP
290
     0
  0
ENDSEC
  0
SECTION
  2
CLASSES
  0
CLASS
  1
ACDBDICTIONARYWDFLT
  2
AcDbDictionaryWithDefault
  3
ObjectDBX Classes
 90
        0
280
     0
281
     0
  0
CLASS
  1
ACDBPLACEHOLDER
  2
AcDbPlaceHolder
  3
ObjectDBX Classes
 90
        0
280
     0
281
     0
  0
CLASS
  1
LAYOUT
  2
AcDbLayout
  3
ObjectDBX Classes
 90
        0
280
     0
281
     0
  0
CLASS
  1
DICTIONARYVAR
  2
AcDbDictionaryVar
  3
ObjectDBX Classes
 90
        0
280
     0
281
     0
  0
CLASS
  1
SORTENTSTABLE
  2
AcDbSortentsTable
  3
ObjectDBX Classes
 90
        0
280
     0
281
     0
  0
CLASS
  1
MATERIAL
  2
AcDbMaterial
  3
ObjectDBX Classes
 90
     1153
280
     0
281
     0
  0
CLASS
  1
VISUALSTYLE
  2
AcDbVisualStyle
  3
ObjectDBX Classes
 90
     4095
280
     0
281
     0
  0
CLASS
  1
TABLESTYLE
  2
AcDbTableStyle
  3
ObjectDBX Classes
 90
     4095
280
     0
281
     0
  0
CLASS
  1
SCALE
  2
AcDbScale
  3
ObjectDBX Classes
 90
     1153
280
     0
281
     0
  0
CLASS
  1
MLEADERSTYLE
  2
AcDbMLeaderStyle
  3
ACDB_MLEADERSTYLE_CLASS
 90
     4095
280
     0
281
     0
  0
CLASS
  1
ACDBSECTIONVIEWSTYLE
  2
AcDbSectionViewStyle
  3
ObjectDBX Classes
 90
     1025
280
     0
281
     0
  0
CLASS
  1
ACDBDETAILVIEWSTYLE
  2
AcDbDetailViewStyle
  3
ObjectDBX Classes
 90
     1025
280
     0
281
     0
  0
CLASS
  1
CELLSTYLEMAP
  2
AcDbCellStyleMap
  3
ObjectDBX Classes
 90
     1152
280
     0
281
     0
  0
CLASS
  1
RAPIDRTRENDERSETTINGS
  2
AcDbRapidRTRenderSettings
  3
ObjectDBX Classes
 90
     1024
280
     0
281
     0
  0
CLASS
  1
MENTALRAYRENDERSETTINGS
  2
AcDbMentalRayRenderSettings
  3
SCENEOE
 90
     1024
280
     0
281
     0
  0
ENDSEC
  0
SECTION
  2
TABLES
  0
TABLE
  2
VPORT
  5
8
102
{ACAD_XDICTIONARY
360
3F5D
102
}
330
0
100
AcDbSymbolTable
 70
     1
  0
VPORT
  5
3E61
330
8
100
AcDbSymbolTableRecord
100
AcDbViewportTableRecord
  2
*Active
 70
     0
 10
0.0
 20
0.0
 11
1.0
 21
1.0
 12
689.9241936424714
 22
477.4468819436169
 13
0.0
 23
0.0
 14
10.0
 24
10.0
 15
10.0
 25
10.0
 16
0.0
 26
0.0
 36
1.0
 17
0.0
 27
0.0
 37
0.0
 40
962.2698296141649
 41
2.122373300370828
 42
50.0
 43
0.0
 44
0.0
 50
0.0
 51
0.0
 71
     0
 72
   100
 73
     1
 74
     3
 75
     0
 76
     0
 77
     0
 78
     0
281
     0
 65
     1
110
0.0
120
0.0
130
0.0
111
1.0
121
0.0
131
0.0
112
0.0
122
1.0
132
0.0
 79
     0
146
0.0
1001
ACAD_NAV_VCDISPLAY
1070
     3
  0
ENDTAB
  0
TABLE
  2
LTYPE
  5
5
330
0
100
AcDbSymbolTable
 70
     3
  0
LTYPE
  5
14
330
5
100
AcDbSymbolTableRecord
100
AcDbLinetypeTableRecord
  2
ByBlock
 70
     0
  3

 72
    65
 73
     0
 40
0.0
  0
LTYPE
  5
15
330
5
100
AcDbSymbolTableRecord
100
AcDbLinetypeTableRecord
  2
ByLayer
 70
     0
  3

 72
    65
 73
     0
 40
0.0
  0
LTYPE
  5
16
330
5
100
AcDbSymbolTableRecord
100
AcDbLinetypeTableRecord
  2
Continuous
 70
     0
  3
Solid line
 72
    65
 73
     0
 40
0.0
  0
LTYPE
  5
255D
330
5
100
AcDbSymbolTableRecord
100
AcDbLinetypeTableRecord
  2
DASHED
 70
     0
  3
Dashed __ __ __ __ __ __ __ __ __ __ __ __ __ _
 72
    65
 73
     2
 40
19.05
 49
12.7
 74
     0
 49
-6.349999999999999
 74
     0
  0
LTYPE
  5
37DC
330
5
100
AcDbSymbolTableRecord
100
AcDbLinetypeTableRecord
  2
HIDDEN
 70
     0
  3
Hidden __ __ __ __ __ __ __ __ __ __ __ __ __ _
 72
    65
 73
     2
 40
9.524999999999998
 49
6.349999999999999
 74
     0
 49
-3.174999999999999
 74
     0
  0
ENDTAB
  0
TABLE
  2
LAYER
  5
2
102
{ACAD_XDICTIONARY
360
2D
102
}
330
0
100
AcDbSymbolTable
 70
    13
  0
LAYER
  5
10
102
{ACAD_XDICTIONARY
360
3EF7
102
}
330
2
100
AcDbSymbolTableRecord
100
AcDbLayerTableRecord
  2
0
 70
     0
 62
     7
  6
Continuous
290
     0
370
    -3
390
29
  0
LAYER
  5
2301
330
2
100
AcDbSymbolTableRecord
100
AcDbLayerTableRecord
  2
Defpoints
 70
     0
 62
     7
  6
Continuous
290
     0
370
    -3
390
F
  0
LAYER
  5
235F
102
{ACAD_XDICTIONARY
360
3EF9
102
}
330
2
100
AcDbSymbolTableRecord
100
AcDbLayerTableRecord
  2
KUTAI
 70
     0
 62
     3
  6
Continuous
370
    -3
390
29
  0
LAYER
  5
2361
102
{ACAD_XDICTIONARY
360
3EFB
102
}
330
2
100
AcDbSymbolTableRecord
100
AcDbLayerTableRecord
  2
MOJI
 70
     0
 62
     7
  6
Continuous
370
    -3
390
29
  0
LAYER
  5
2363
102
{ACAD_XDICTIONARY
360
3EFD
102
}
330
2
100
AcDbSymbolTableRecord
100
AcDbLayerTableRecord
  2
sunpo
 70
     0
 62
     7
  6
Continuous
370
    -3
390
29
  0
LAYER
  5
32AD
102
{ACAD_XDICTIONARY
360
3EFF
102
}
330
2
100
AcDbSymbolTableRecord
100
AcDbLayerTableRecord
  2
KANAMONO
 70
     0
 62
     5
  6
Continuous
370
    -3
390
29
  0
LAYER
  5
37DE
102
{ACAD_XDICTIONARY
360
3F01
102
}
330
2
100
AcDbSymbolTableRecord
100
AcDbLayerTableRecord
  2
KANAMONO_SCREW
 70
     0
 62
     4
  6
Continuous
370
    -3
390
29
  0
LAYER
  5
37DF
102
{ACAD_XDICTIONARY
360
3F03
102
}
330
2
100
AcDbSymbolTableRecord
100
AcDbLayerTableRecord
  2
BUHIN
 70
     0
 62
    50
  6
Continuous
370
    -3
390
29
  0
LAYER
  5
37E0
102
{ACAD_XDICTIONARY
360
3F05
102
}
330
2
100
AcDbSymbolTableRecord
100
AcDbLayerTableRecord
  2
hide-1
 70
     0
 62
     3
  6
HIDDEN
370
    -3
390
37E2
  0
LAYER
  5
37E1
102
{ACAD_XDICTIONARY
360
3F07
102
}
330
2
100
AcDbSymbolTableRecord
100
AcDbLayerTableRecord
  2
hide-2
 70
     0
 62
     4
  6
HIDDEN
370
    -3
390
37E2
  0
LAYER
  5
3D82
102
{ACAD_XDICTIONARY
360
3F09
102
}
330
2
100
AcDbSymbolTableRecord
100
AcDbLayerTableRecord
  2
BOUSUI
 70
     0
 62
     1
  6
Continuous
370
    -3
390
29
  0
LAYER
  5
3EB4
102
{ACAD_XDICTIONARY
360
3EB5
102
}
330
2
100
AcDbSymbolTableRecord
100
AcDbLayerTableRecord
  2
WAKU
 70
     0
 62
     7
  6
Continuous
370
    -3
390
29
  0
LAYER
  5
4311
102
{ACAD_XDICTIONARY
360
4312
102
}
330
2
100
AcDbSymbolTableRecord
100
AcDbLayerTableRecord
  2
single
 70
     0
 62
     6
  6
Continuous
370
    -3
390
F
  0
ENDTAB
  0
TABLE
  2
STYLE
  5
3
330
0
100
AcDbSymbolTable
 70
     2
  0
STYLE
  5
11
330
3
100
AcDbSymbolTableRecord
100
AcDbTextStyleTableRecord
  2
Standard
 70
     0
 40
0.0
 41
1.0
 50
0.0
 71
     0
 42
2.5
  3

  4

1001
ACAD
1000
MS Gothic
1071
    32817
  0
STYLE
  5
3EB6
330
3
100
AcDbSymbolTableRecord
100
AcDbTextStyleTableRecord
  2
MSゴシック
 70
     0
 40
0.0
 41
1.0
 50
0.0
 71
     0
 42
2.5
  3

  4

1001
ACAD
1000
MS Gothic
1071
    32817
  0
ENDTAB
  0
TABLE
  2
VIEW
  5
6
330
0
100
AcDbSymbolTable
 70
     0
  0
ENDTAB
  0
TABLE
  2
UCS
  5
7
330
0
100
AcDbSymbolTable
 70
     0
  0
ENDTAB
  0
TABLE
  2
APPID
  5
9
330
0
100
AcDbSymbolTable
 70
     7
  0
APPID
  5
12
330
9
100
AcDbSymbolTableRecord
100
AcDbRegAppTableRecord
  2
ACAD
 70
     0
  0
APPID
  5
3EB7
330
9
100
AcDbSymbolTableRecord
100
AcDbRegAppTableRecord
  2
ACAD_NAV_VCDISPLAY
 70
     0
  0
APPID
  5
3F97
330
9
100
AcDbSymbolTableRecord
100
AcDbRegAppTableRecord
  2
ACAD_MLEADERVER
 70
     0
  0
APPID
  5
3FAE
330
9
100
AcDbSymbolTableRecord
100
AcDbRegAppTableRecord
  2
ACAD_EXEMPT_FROM_CAD_STANDARDS
 70
     0
  0
APPID
  5
417E
330
9
100
AcDbSymbolTableRecord
100
AcDbRegAppTableRecord
  2
AcadAnnoPO
 70
     0
  0
APPID
  5
41CA
330
9
100
AcDbSymbolTableRecord
100
AcDbRegAppTableRecord
  2
Acad_TC
 70
     0
  0
APPID
  5
4313
330
9
100
AcDbSymbolTableRecord
100
AcDbRegAppTableRecord
  2
AcDbDynamicBlockGUID
 70
     0
  0
ENDTAB
  0
TABLE
  2
DIMSTYLE
  5
A
330
0
100
AcDbSymbolTable
 70
     1
100
AcDbDimStyleTable
 71
     1
340
22E4
  0
DIMSTYLE
105
22E4
330
A
100
AcDbSymbolTableRecord
100
AcDbDimStyleTableRecord
  2
STANDARD
 70
     0
 40
5.0
 41
0.8
 42
1.0
 43
0.0
 44
0.0
 73
     0
 74
     0
 77
     2
 78
     8
140
2.0
141
2.5
143
0.0394
147
0.1
171
     4
172
     1
173
     1
271
     8
272
     8
273
     8
274
     4
279
     1
340
11
341
903
343
903
344
903
  0
ENDTAB
  0
TABLE
  2
BLOCK_RECORD
  5
1
330
0
100
AcDbSymbolTable
 70
     9
  0
BLOCK_RECORD
  5
1F
102
{ACAD_XDICTIONARY
360
1C62
102
}
330
1
100
AcDbSymbolTableRecord
100
AcDbBlockTableRecord
  2
*Model_Space
340
22
  0
BLOCK_RECORD
  5
1CD0
330
1
100
AcDbSymbolTableRecord
100
AcDbBlockTableRecord
  2
*Paper_Space
340
1CD1
  0
BLOCK_RECORD
  5
903
330
1
100
AcDbSymbolTableRecord
100
AcDbBlockTableRecord
  2
_DOT
340
0
102
{BLKREFS
331
437D
331
437E
331
438A
331
438B
331
4427
331
4428
331
442F
331
4430
331
41F3
331
41F4
331
41FD
331
41FE
331
4205
331
4206
331
420E
331
420F
102
}
  0
BLOCK_RECORD
  5
3D49
330
1
100
AcDbSymbolTableRecord
100
AcDbBlockTableRecord
  2
hps6-15-40
340
0
310
2800000020000000200000000100080000000000000400000000000000000000000000000000000000000000000080000080000000808000800000008000800080800000C0C0C000C0DCC000F0CAA6000020400000206000002080000020A0000020C0000020E00000400000004020000040400000406000004080000040A0
310
000040C0000040E00000600000006020000060400000606000006080000060A0000060C0000060E00000800000008020000080400000806000008080000080A0000080C0000080E00000A0000000A0200000A0400000A0600000A0800000A0A00000A0C00000A0E00000C0000000C0200000C0400000C0600000C0800000C0
310
A00000C0C00000C0E00000E0000000E0200000E0400000E0600000E0800000E0A00000E0C00000E0E00040000000400020004000400040006000400080004000A0004000C0004000E00040200000402020004020400040206000402080004020A0004020C0004020E000404000004040200040404000404060004040800040
310
40A0004040C0004040E00040600000406020004060400040606000406080004060A0004060C0004060E00040800000408020004080400040806000408080004080A0004080C0004080E00040A0000040A0200040A0400040A0600040A0800040A0A00040A0C00040A0E00040C0000040C0200040C0400040C0600040C08000
310
40C0A00040C0C00040C0E00040E0000040E0200040E0400040E0600040E0800040E0A00040E0C00040E0E00080000000800020008000400080006000800080008000A0008000C0008000E00080200000802020008020400080206000802080008020A0008020C0008020E00080400000804020008040400080406000804080
310
008040A0008040C0008040E00080600000806020008060400080606000806080008060A0008060C0008060E00080800000808020008080400080806000808080008080A0008080C0008080E00080A0000080A0200080A0400080A0600080A0800080A0A00080A0C00080A0E00080C0000080C0200080C0400080C0600080C0
310
800080C0A00080C0C00080C0E00080E0000080E0200080E0400080E0600080E0800080E0A00080E0C00080E0E000C0000000C0002000C0004000C0006000C0008000C000A000C000C000C000E000C0200000C0202000C0204000C0206000C0208000C020A000C020C000C020E000C0400000C0402000C0404000C0406000C0
310
408000C040A000C040C000C040E000C0600000C0602000C0604000C0606000C0608000C060A000C060C000C060E000C0800000C0802000C0804000C0806000C0808000C080A000C080C000C080E000C0A00000C0A02000C0A04000C0A06000C0A08000C0A0A000C0A0C000C0A0E000C0C00000C0C02000C0C04000C0C06000
310
C0C08000C0C0A000F0FBFF00A4A0A000808080000000FF0000FF000000FFFF00FF000000FF00FF00FFFF0000FFFFFF00FFFFFFFFFFFFFFFFFFFFFFFFFFFFFFFFFFFFFFFFFFFFFFFFFFFFFFFFFFFFFFFFFFFFFFFFFFFFFFFFFFFFFFFFFFFFFFFFFFFFFFFFFFFFFFFFFFFFFFFFFFFFFFFFFFFFFFFFFFFFFFFFFFFFFFFFFFFFFF
310
FEFEFFFFFFFFFFFFFFFFFFFFFFFFFFFFFFFFFFFFFFFFFFFFFFFFFFFFFFFFFFFFFEFFFEFFFFFFFFFFFFFFFFFFFFFFFFFFFFFFFFFFFFFFFFFFFFFFFFFFFFFFFFFEFEFEFEFFFFFFFFFFFFFFFFFFFFFFFFFFFFFFFFFFFFFFFFFFFFFFFFFFFFFFFEFFFEFEFFFEFFFFFFFFFFFFFFFFFFFFFFFFFFFFFFFFFFFFFFFFFFFFFFFFFFFFFE
310
FFFEFEFFFEFFFFFFFFFFFFFFFFFFFFFFFFFFFFFFFFFFFFFFFFFFFFFFFFFFFFFEFFFEFEFFFEFFFFFFFFFFFFFFFFFFFFFFFFFFFFFFFFFFFFFFFFFFFFFFFFFFFFFEFFFEFEFFFEFFFFFFFFFFFFFFFFFFFFFFFFFFFFFFFFFFFFFFFFFFFFFFFFFFFFFFFEFEFEFEFFFFFFFFFFFFFFFFFFFFFFFFFFFFFFFFFFFFFFFFFFFFFFFFFFFFFF
310
FFFEFEFEFEFFFFFFFFFFFFFFFFFFFFFFFFFFFFFFFFFFFFFFFFFFFFFFFFFFFFFFFFFEFEFEFEFFFFFFFFFFFFFFFFFFFFFFFFFFFFFFFFFFFFFFFFFFFFFFFFFFFFFFFFFEFEFEFEFFFFFFFFFFFFFFFFFFFFFFFFFFFFFFFFFFFFFFFFFFFFFFFFFFFFFFFFFEFEFEFEFFFFFFFFFFFFFFFFFFFFFFFFFFFFFFFFFFFFFFFFFFFFFFFFFFFF
310
FFFFFEFEFEFEFFFFFFFFFFFFFFFFFFFFFFFFFFFFFFFFFFFFFFFFFFFFFFFFFFFFFFFFFEFEFEFEFFFFFFFFFFFFFFFFFFFFFFFFFFFFFFFFFFFFFFFFFFFFFFFFFFFFFFFFFEFFFFFEFFFFFFFFFFFFFFFFFFFFFFFFFFFFFFFFFFFFFFFFFFFFFFFFFFFFFFFFFEFEFEFEFFFFFFFFFFFFFFFFFFFFFFFFFFFFFFFFFFFFFFFFFFFFFFFFFF
310
FFFFFFFEFFFFFEFFFFFFFFFFFFFFFFFFFFFFFFFFFFFFFFFFFFFFFFFFFFFFFFFFFFFFFFFEFFFFFEFFFFFFFFFFFFFFFFFFFFFFFFFFFFFFFFFFFFFFFFFFFFFFFFFFFFFFFFFEFFFFFEFFFFFFFFFFFFFFFFFFFFFFFFFFFFFFFFFFFFFFFFFFFFFFFFFFFFFFFFFEFFFFFEFFFFFFFFFFFFFFFFFFFFFFFFFFFFFFFFFFFFFFFFFFFFFFFF
310
FFFFFFFFFEFFFFFEFFFFFFFFFFFFFFFFFFFFFFFFFFFFFFFFFFFFFFFFFFFFFFFFFFFFFFFFFEFFFFFEFFFFFFFFFFFFFFFFFFFFFFFFFFFFFFFFFFFFFFFFFFFFFFFFFFFFFFFFFEFFFFFEFFFFFFFFFFFFFFFFFFFFFFFFFFFFFFFFFFFFFFFFFFFFFFFFFFFFFFFFFEFFFFFEFFFFFFFFFFFFFFFFFFFFFFFFFFFFFFFFFFFFFFFFFFFFFF
310
FFFFFFFFFFFEFFFFFEFFFFFFFFFFFFFFFFFFFFFFFFFFFFFFFFFFFFFFFFFFFFFFFFFFFFFFFFFEFFFFFEFFFFFFFFFFFFFFFFFFFFFFFFFFFFFFFFFFFFFFFFFFFFFFFFFFFFFEFEFEFEFEFEFEFEFFFFFFFFFFFFFFFFFFFFFFFFFFFFFFFFFFFFFFFFFFFFFFFFFEFEFEFEFEFEFEFEFFFFFFFFFFFFFFFFFFFFFFFFFFFFFFFFFFFFFFFF
310
FFFFFFFFFFFFFEFEFEFEFFFFFFFFFFFFFFFFFFFFFFFFFFFFFFFFFFFFFFFFFFFFFFFFFFFFFFFFFFFFFFFFFFFFFFFFFFFFFFFFFFFFFFFFFFFF
1001
ACAD
1000
DesignCenter Data
1002
{
1070
     1
1070
     4
1002
}
  0
BLOCK_RECORD
  5
3DE9
330
1
100
AcDbSymbolTableRecord
100
AcDbBlockTableRecord
  2
*D2
340
0
  0
BLOCK_RECORD
  5
3DF5
330
1
100
AcDbSymbolTableRecord
100
AcDbBlockTableRecord
  2
*D3
340
0
  0
BLOCK_RECORD
  5
3E01
330
1
100
AcDbSymbolTableRecord
100
AcDbBlockTableRecord
  2
*D4
340
0
  0
BLOCK_RECORD
  5
3E0D
330
1
100
AcDbSymbolTableRecord
100
AcDbBlockTableRecord
  2
*D5
340
0
  0
BLOCK_RECORD
  5
42A6
102
{ACAD_XDICTIONARY
360
42A7
102
}
330
1
100
AcDbSymbolTableRecord
100
AcDbBlockTableRecord
  2
hf6-40
340
0
310
28000000200000002000000001002000000000000010000001000000010000000000000000000000302821FF302821FF302821FF302821FF302821FF302821FF302821FF302821FF302821FF302821FF302821FF302821FF302821FF302821FF302821FF302821FF302821FF302821FF302821FF302821FF302821FF302821
310
FF302821FF302821FF302821FF302821FF302821FF302821FF302821FF302821FF302821FF302821FF302821FF302821FF302821FF302821FF302821FF302821FF302821FF302821FF302821FF302821FF302821FF302821FF302821FF302821FF302821FF302821FFFFFF00FF302821FF302821FF302821FF302821FF3028
310
21FF302821FF302821FF302821FF302821FF302821FF302821FF302821FF302821FF302821FF302821FF302821FF302821FF302821FF302821FF302821FF302821FF302821FF302821FF302821FF302821FF302821FF302821FF302821FF302821FF302821FFFFFF00FFFFFF00FF302821FF302821FF302821FF302821FF30
310
2821FF302821FF302821FF302821FF302821FF302821FF302821FF302821FF302821FF302821FF302821FF302821FF302821FF302821FF302821FF302821FF302821FF302821FF302821FF302821FF302821FF302821FF302821FF302821FF302821FF302821FFFFFF00FFFFFF00FFFFFF00FF302821FF302821FF302821FF
310
302821FF302821FF302821FF302821FF302821FF302821FF302821FF302821FF302821FF302821FF302821FF302821FF302821FF302821FF302821FF302821FF302821FF302821FF302821FF302821FF302821FF302821FF302821FF302821FF302821FFFFFF00FFFFFF00FFFFFF00FFFFFF00FF302821FF302821FF302821
310
FF302821FF302821FF302821FF302821FF302821FF302821FF302821FF302821FF302821FF302821FF302821FF302821FF302821FF302821FF302821FF302821FF302821FF302821FF302821FF302821FF302821FF302821FF302821FF302821FF302821FFFFFF00FFFFFF00FFFFFF00FFFFFF00FF302821FF302821FF3028
310
21FF302821FF302821FF302821FF302821FF302821FF302821FF302821FF302821FF302821FF302821FF302821FF302821FF302821FF302821FF302821FF302821FF302821FF302821FF302821FF302821FF302821FF302821FF302821FF302821FF302821FFFFFF00FFFFFF00FFFFFF00FFFFFF00FF302821FF302821FF30
310
2821FF302821FF302821FF302821FF302821FF302821FF302821FF302821FF302821FF302821FF302821FF302821FF302821FF302821FF302821FF302821FF302821FF302821FF302821FF302821FF302821FF302821FF302821FF302821FF302821FF302821FFFFFF00FFFFFF00FFFFFF00FFFFFF00FF302821FF302821FF
310
302821FF302821FF302821FF302821FF302821FF302821FF302821FF302821FF302821FF302821FF302821FF302821FF302821FF302821FF302821FF302821FF302821FF302821FF302821FF302821FF302821FF302821FF302821FF302821FF302821FF302821FFFFFF00FFFFFF00FFFFFF00FFFFFF00FF302821FF302821
310
FF302821FF302821FF302821FF302821FF302821FF302821FF302821FF302821FF302821FF302821FF302821FF302821FF302821FF302821FF302821FF302821FF302821FF302821FF302821FF302821FF302821FF302821FF302821FF302821FF302821FF302821FFFFFF00FFFFFF00FFFFFF00FFFFFF00FF302821FF3028
310
21FF302821FF302821FF302821FF302821FF302821FF302821FF302821FF302821FF302821FF302821FF302821FF302821FF302821FF302821FF302821FF302821FF302821FF302821FF302821FF302821FF302821FF302821FF302821FF302821FF302821FF302821FFFFFF00FFFFFF00FFFFFF00FFFFFF00FF302821FF30
310
2821FF302821FF302821FF302821FF302821FF302821FF302821FF302821FF302821FF302821FF302821FF302821FF302821FF302821FF302821FF302821FF302821FF302821FF302821FF302821FF302821FF302821FF302821FF302821FF302821FF302821FF302821FFFFFF00FFFFFF00FFFFFF00FFFFFF00FF302821FF
310
302821FF302821FF302821FF302821FF302821FF302821FF302821FF302821FF302821FF302821FF302821FF302821FF302821FF302821FF302821FF302821FF302821FF302821FF302821FF302821FF302821FF302821FF302821FF302821FF302821FF302821FF302821FFFFFF00FFFFFF00FFFFFF00FFFFFF00FF302821
310
FF302821FF302821FF302821FF302821FF302821FF302821FF302821FF302821FF302821FF302821FF302821FF302821FF302821FF302821FF302821FF302821FF302821FF302821FF302821FF302821FF302821FF302821FF302821FF302821FF302821FF302821FF302821FFFFFF00FFFFFF00FFFFFF00FFFFFF00FF3028
310
21FF302821FF302821FF302821FF302821FF302821FF302821FF302821FF302821FF302821FF302821FF302821FF302821FF302821FF302821FF302821FF302821FF302821FF302821FF302821FF302821FF302821FF302821FF302821FF302821FF302821FF302821FF302821FFFFFF00FFFFFF00FFFFFF00FFFFFF00FF30
310
2821FF302821FF302821FF302821FF302821FF302821FF302821FF302821FF302821FF302821FF302821FF302821FF302821FF302821FF302821FF302821FF302821FF302821FF302821FF302821FF302821FF302821FF302821FF302821FF302821FF302821FF302821FF302821FFFFFF00FFFFFF00FFFFFF00FFFFFF00FF
310
302821FF302821FF302821FF302821FF302821FF302821FF302821FF302821FF302821FF302821FF302821FF302821FF302821FF302821FF302821FF302821FF302821FF302821FF302821FF302821FF302821FF302821FF302821FF302821FF302821FF302821FF302821FF302821FFFFFF00FFFFFF00FFFFFF00FFFFFF00
310
FF302821FF302821FF302821FF302821FF302821FF302821FF302821FF302821FF302821FF302821FF302821FF302821FF302821FF302821FF302821FF302821FF302821FF302821FF302821FF302821FF302821FF302821FF302821FF302821FF302821FF302821FF302821FF302821FFFFFF00FFFFFF00FFFFFF00FFFFFF
310
00FF302821FF302821FF302821FF302821FF302821FF302821FF302821FF302821FF302821FF302821FF302821FF302821FF302821FF302821FF302821FF302821FF302821FF302821FF302821FF302821FF302821FF302821FF302821FF302821FF302821FF302821FF302821FF302821FFFFFF00FFFFFF00FFFFFF00FFFF
310
FF00FF302821FF302821FF302821FF302821FF302821FF302821FF302821FF302821FF302821FF302821FF302821FF302821FF302821FF302821FF302821FF302821FF302821FF302821FF302821FF302821FF302821FF302821FF302821FF302821FF302821FF302821FF302821FF302821FFFFFF00FFFFFF00FFFFFF00FF
310
FFFF00FF302821FF302821FF302821FF302821FF302821FF302821FF302821FF302821FF302821FF302821FF302821FF302821FF302821FF302821FF302821FF302821FF302821FF302821FF302821FF302821FF302821FF302821FF302821FF302821FF302821FF302821FF302821FF302821FFFFFF00FFFFFF00FFFFFF00
310
FFFFFF00FF302821FF302821FF302821FF302821FF302821FF302821FF302821FF302821FF302821FF302821FF302821FF302821FF302821FF302821FF302821FF302821FF302821FF302821FF302821FF302821FF302821FF302821FF302821FF302821FF302821FF302821FF302821FF302821FFFFFF00FFFFFF00FFFFFF
310
00FFFFFF00FF302821FF302821FF302821FF302821FF302821FF302821FF302821FF302821FF302821FF302821FF302821FF302821FF302821FF302821FF302821FF302821FF302821FF302821FF302821FF302821FF302821FF302821FF302821FF302821FF302821FF302821FF302821FF302821FFFFFF00FFFFFF00FFFF
310
FF00FFFFFF00FF302821FF302821FF302821FF302821FF302821FF302821FF302821FF302821FF302821FF302821FF302821FF302821FF302821FF302821FF302821FF302821FF302821FF302821FF302821FF302821FF302821FF302821FF302821FF302821FF302821FF302821FF302821FF302821FFFFFF00FFFFFF00FF
310
FFFF00FFFFFF00FF302821FF302821FF302821FF302821FF302821FF302821FF302821FF302821FF302821FF302821FF302821FF302821FF302821FF302821FF302821FF302821FF302821FF302821FF302821FF302821FF302821FF302821FF302821FF302821FF302821FF302821FF302821FF302821FFFFFF00FFFFFF00
310
FFFFFF00FFFFFF00FF302821FF302821FF302821FF302821FF302821FF302821FF302821FF302821FF302821FF302821FF302821FF302821FF302821FF302821FF302821FF302821FF302821FF302821FF302821FF302821FF302821FF302821FF302821FF302821FF302821FF302821FF302821FF302821FFFFFF00FFFFFF
310
00FFFFFF00FFFFFF00FF302821FF302821FF302821FF302821FF302821FF302821FF302821FF302821FF302821FF302821FF302821FF302821FF302821FF302821FF302821FF302821FF302821FF302821FF302821FF302821FF302821FF302821FF302821FF302821FF302821FF302821FF302821FF302821FFFFFF00FFFF
310
FF00FFFFFF00FFFFFF00FF302821FF302821FF302821FF302821FF302821FF302821FF302821FF302821FF302821FF302821FF302821FF302821FF302821FF302821FF302821FF302821FF302821FF302821FF302821FF302821FF302821FF302821FF302821FF302821FF302821FF302821FF302821FF302821FFFFFF00FF
310
FFFF00FFFFFF00FFFFFF00FF302821FF302821FF302821FF302821FF302821FF302821FF302821FF302821FF302821FF302821FF302821FF302821FF302821FF302821FF302821FF302821FF302821FF302821FF302821FF302821FF302821FF302821FF302821FF302821FF302821FF302821FFFFFF00FFFFFF00FFFFFF00
310
FFFFFF00FFFFFF00FFFFFF00FFFFFF00FFFFFF00FF302821FF302821FF302821FF302821FF302821FF302821FF302821FF302821FF302821FF302821FF302821FF302821FF302821FF302821FF302821FF302821FF302821FF302821FF302821FF302821FF302821FF302821FF302821FF302821FFFFFF00FFFFFF00FFFFFF
310
00FFFFFF00FFFFFF00FFFFFF00FFFFFF00FFFFFF00FF302821FF302821FF302821FF302821FF302821FF302821FF302821FF302821FF302821FF302821FF302821FF302821FF302821FF302821FF302821FF302821FF302821FF302821FF302821FF302821FF302821FF302821FF302821FF302821FF302821FFFFFF00FFFF
310
FF00FFFFFF00FFFFFF00FFFFFF00FFFFFF00FF302821FF302821FF302821FF302821FF302821FF302821FF302821FF302821FF302821FF302821FF302821FF302821FF302821FF302821FF302821FF302821FF302821FF302821FF302821FF302821FF302821FF302821FF302821FF302821FF302821FF302821FF302821FF
310
302821FF302821FF302821FF302821FF302821FF302821FF302821FF302821FF302821FF302821FF302821FF302821FF302821FF302821FF302821FF302821FF302821FF302821FF
102
{BLKREFS
102
}
1001
AcDbDynamicBlockGUID
1000
{0BC69769-0555-4E4A-9F81-E641B076B9A3}
1001
ACAD
1000
DesignCenter Data
1002
{
1070
     1
1070
     4
1002
}
  0
ENDTAB
  0
ENDSEC
  0
SECTION
  2
BLOCKS
  0
BLOCK
  5
20
330
1F
100
AcDbEntity
  8
0
100
AcDbBlockBegin
  2
*Model_Space
 70
     0
 10
0.0
 20
0.0
 30
0.0
  3
*Model_Space
  1

  0
ENDBLK
  5
21
330
1F
100
AcDbEntity
  8
0
100
AcDbBlockEnd
  0
BLOCK
  5
1CD2
330
1CD0
100
AcDbEntity
 67
     1
  8
0
100
AcDbBlockBegin
  2
*Paper_Space
 70
     0
 10
0.0
 20
0.0
 30
0.0
  3
*Paper_Space
  1

  0
ENDBLK
  5
1CD3
330
1CD0
100
AcDbEntity
 67
     1
  8
0
100
AcDbBlockEnd
  0
BLOCK
  5
906
330
903
100
AcDbEntity
  8
0
100
AcDbBlockBegin
  2
_DOT
 70
     0
 10
0.0
 20
0.0
 30
0.0
  3
_DOT
  1

  0
LWPOLYLINE
  5
904
330
903
100
AcDbEntity
  8
0
  6
ByBlock
 62
     0
100
AcDbPolyline
 90
        2
 70
     1
 43
0.5
 10
-0.25
 20
0.0
 42
1.0
 10
0.25
 20
0.0
 42
1.0
  0
LINE
  5
905
330
903
100
AcDbEntity
  8
0
  6
ByBlock
 62
     0
100
AcDbLine
 10
-0.5
 20
0.0
 30
0.0
 11
-1.0
 21
0.0
 31
0.0
  0
ENDBLK
  5
907
330
903
100
AcDbEntity
  8
0
100
AcDbBlockEnd
  0
BLOCK
  5
3D80
330
3D49
100
AcDbEntity
  8
0
 48
20.0
100
AcDbBlockBegin
  2
hps6-15-40
 70
     0
 10
0.0
 20
0.0
 30
0.0
  3
hps6-15-40
  1

  0
LINE
  5
3D4A
330
3D49
100
AcDbEntity
  8
KANAMONO_SCREW
 48
20.0
100
AcDbLine
 10
3.000000000000028
 20
-1.000000000000028
 30
0.0
 11
3.0
 21
-23.00000000000003
 31
0.0
  0
LINE
  5
3D4B
330
3D49
100
AcDbEntity
  8
KANAMONO_SCREW
 48
20.0
100
AcDbLine
 10
-2.999999999999971
 20
-1.0
 30
0.0
 11
-2.999999999999971
 21
-23.00000000000006
 31
0.0
  0
LINE
  5
3D4C
330
3D49
100
AcDbEntity
  8
KANAMONO_SCREW
 48
20.0
100
AcDbLine
 10
-0.9581933694132658
 20
-39.05238304003339
 30
0.0
 11
0.9372873322623718
 21
-38.57851286461448
 31
0.0
  0
LINE
  5
3D4D
330
3D49
100
AcDbEntity
  8
KANAMONO_SCREW
 48
20.0
100
AcDbLine
 10
-0.25
 20
-23.00000000000006
 30
0.0
 11
-1.0
 21
-40.00000000000002
 31
0.0
  0
LINE
  5
3D4E
330
3D49
100
AcDbEntity
  8
KANAMONO_SCREW
 48
20.0
100
AcDbLine
 10
-3.0
 20
-40.00000000000002
 30
0.0
 11
-3.689189189189193
 21
-38.62162162162164
 31
0.0
  0
LINE
  5
3D4F
330
3D49
100
AcDbEntity
  8
KANAMONO_SCREW
 48
20.0
100
AcDbLine
 10
0.25
 20
-23.00000000000006
 30
0.0
 11
1.0
 21
-40.00000000000002
 31
0.0
  0
LINE
  5
3D50
330
3D49
100
AcDbEntity
  8
KANAMONO_SCREW
 48
20.0
100
AcDbLine
 10
3.0
 20
-40.00000000000002
 30
0.0
 11
3.689189189189193
 21
-38.62162162162164
 31
0.0
  0
LINE
  5
3D51
330
3D49
100
AcDbEntity
  8
KANAMONO_SCREW
 48
20.0
100
AcDbLine
 10
-1.616448107290779
 20
-40.71694672450277
 30
0.0
 11
1.251338790720183
 21
-40.00000000000002
 31
0.0
  0
ARC
  5
3D52
330
3D49
100
AcDbEntity
  8
KANAMONO_SCREW
 48
20.0
100
AcDbCircle
 10
-0.0000000110134692
 20
-43.31283469768007
 30
0.0
 40
0.5
100
AcDbArc
 50
202.5000000000006
 51
337.4999999999994
  0
LINE
  5
3D53
330
3D49
100
AcDbEntity
  8
KANAMONO_SCREW
 48
20.0
100
AcDbLine
 10
-0.9999999999999715
 20
-40.00000000000002
 30
0.0
 11
-3.0
 21
-40.00000000000002
 31
0.0
  0
LINE
  5
3D54
330
3D49
100
AcDbEntity
  8
KANAMONO_SCREW
 48
20.0
100
AcDbLine
 10
-1.913417161825464
 20
-40.00000000000002
 30
0.0
 11
-0.461939777269123
 21
-43.5041764138626
 31
0.0
  0
LINE
  5
3D55
330
3D49
100
AcDbEntity
  8
KANAMONO_SCREW
 48
20.0
100
AcDbLine
 10
0.9999999999999715
 20
-40.00000000000002
 30
0.0
 11
3.0
 21
-40.00000000000002
 31
0.0
  0
LINE
  5
3D56
330
3D49
100
AcDbEntity
  8
KANAMONO_SCREW
 48
20.0
100
AcDbLine
 10
1.913417161825464
 20
-40.00000000000002
 30
0.0
 11
0.4619397552421845
 21
-43.5041764138626
 31
0.0
  0
LINE
  5
3D57
330
3D49
100
AcDbEntity
  8
KANAMONO_SCREW
 48
20.0
100
AcDbLine
 10
-3.154261712747711
 20
-26.49659882228088
 30
0.0
 11
-3.689189189189193
 21
-38.62162162162164
 31
0.0
  0
LINE
  5
3D58
330
3D49
100
AcDbEntity
  8
KANAMONO_SCREW
 48
20.0
100
AcDbLine
 10
-0.489791882424413
 20
-28.43528266828619
 30
0.0
 11
0.4791055140805725
 21
-28.19305831915995
 31
0.0
  0
LINE
  5
3D59
330
3D49
100
AcDbEntity
  8
KANAMONO_SCREW
 48
20.0
100
AcDbLine
 10
3.154261712756664
 20
-26.49659882228048
 30
0.0
 11
3.689189189189193
 21
-38.62162162162164
 31
0.0
  0
LINE
  5
3D5A
330
3D49
100
AcDbEntity
  8
KANAMONO_SCREW
 48
20.0
100
AcDbLine
 10
-0.7574498749894758
 20
-34.50219716642744
 30
0.0
 11
0.7409236958987436
 21
-34.12760377370537
 31
0.0
  0
LINE
  5
3D5B
330
3D49
100
AcDbEntity
  8
KANAMONO_SCREW
 48
20.0
100
AcDbLine
 10
-0.8243643731307201
 20
-36.01892579096276
 30
0.0
 11
0.8063782413532862
 21
-35.61124013734172
 31
0.0
  0
LINE
  5
3D5C
330
3D49
100
AcDbEntity
  8
KANAMONO_SCREW
 48
20.0
100
AcDbLine
 10
-0.891278871271993
 20
-37.5356544154981
 30
0.0
 11
0.871832786807829
 21
-37.0948765009781
 31
0.0
  0
LINE
  5
3D5D
330
3D49
100
AcDbEntity
  8
KANAMONO_SCREW
 48
20.0
100
AcDbLine
 10
-0.5567063805656574
 20
-29.95201129282148
 30
0.0
 11
0.5445600595351153
 21
-29.6766946827963
 31
0.0
  0
LINE
  5
3D5E
330
3D49
100
AcDbEntity
  8
KANAMONO_SCREW
 48
20.0
100
AcDbLine
 10
-0.6236208787069586
 20
-31.46873991735683
 30
0.0
 11
0.610014604989658
 21
-31.16033104643268
 31
0.0
  0
LINE
  5
3D5F
330
3D49
100
AcDbEntity
  8
KANAMONO_SCREW
 48
20.0
100
AcDbLine
 10
-0.690535376848203
 20
-32.98546854189209
 30
0.0
 11
0.6754691504442008
 21
-32.643967410069
 31
0.0
  0
LINE
  5
3D60
330
3D49
100
AcDbEntity
  8
KANAMONO_SCREW
 48
20.0
100
AcDbLine
 10
-0.4228773842831402
 20
-26.91855404375085
 30
0.0
 11
0.4136509686260297
 21
-26.70942195552357
 31
0.0
  0
LINE
  5
3D61
330
3D49
100
AcDbEntity
  8
KANAMONO_SCREW
 48
20.0
100
AcDbLine
 10
-2.904504654022304
 20
-26.50761751604881
 30
0.0
 11
-3.154261712756664
 21
-26.49659882228048
 31
0.0
  0
LINE
  5
3D62
330
3D49
100
AcDbEntity
  8
KANAMONO_SCREW
 48
20.0
100
AcDbLine
 10
-2.893485960253968
 20
-26.25786045731445
 30
0.0
 11
-3.143243018988329
 21
-26.24684176354612
 31
0.0
  0
LINE
  5
3D63
330
3D49
100
AcDbEntity
  8
KANAMONO_SCREW
 48
20.0
100
AcDbLine
 10
-2.761261635033946
 20
-23.2607757525021
 30
0.0
 11
-3.011018693768306
 21
-23.24975705873376
 31
0.0
  0
LINE
  5
3D64
330
3D49
100
AcDbEntity
  8
KANAMONO_SCREW
 48
20.0
100
AcDbLine
 10
-2.750242941265611
 20
-23.01101869376774
 30
0.0
 11
-2.999999999999971
 21
-22.9999999999994
 31
0.0
  0
LINE
  5
3D65
330
3D49
100
AcDbEntity
  8
KANAMONO_SCREW
 48
20.0
100
AcDbLine
 10
-2.750242941265611
 20
-23.01101869376774
 30
0.0
 11
-2.904504654013322
 21
-26.50761751604924
 31
0.0
  0
LINE
  5
3D66
330
3D49
100
AcDbEntity
  8
KANAMONO_SCREW
 48
20.0
100
AcDbLine
 10
-3.011018693767681
 20
-23.24975705873379
 30
0.0
 11
-3.143243018980001
 21
-26.24684176354652
 31
0.0
  0
LINE
  5
3D67
330
3D49
100
AcDbEntity
  8
KANAMONO_SCREW
 48
20.0
100
AcDbLine
 10
2.750242941265611
 20
-23.01101869376774
 30
0.0
 11
2.999999999999971
 21
-22.9999999999994
 31
0.0
  0
LINE
  5
3D68
330
3D49
100
AcDbEntity
  8
KANAMONO_SCREW
 48
20.0
100
AcDbLine
 10
2.761261635033946
 20
-23.2607757525021
 30
0.0
 11
3.011018693768306
 21
-23.24975705873376
 31
0.0
  0
LINE
  5
3D69
330
3D49
100
AcDbEntity
  8
KANAMONO_SCREW
 48
20.0
100
AcDbLine
 10
2.893485960253968
 20
-26.25786045731445
 30
0.0
 11
3.143243018988329
 21
-26.24684176354612
 31
0.0
  0
LINE
  5
3D6A
330
3D49
100
AcDbEntity
  8
KANAMONO_SCREW
 48
20.0
100
AcDbLine
 10
2.904504654022304
 20
-26.50761751604881
 30
0.0
 11
3.154261712756664
 21
-26.49659882228048
 31
0.0
  0
LINE
  5
3D6B
330
3D49
100
AcDbEntity
  8
KANAMONO_SCREW
 48
20.0
100
AcDbLine
 10
3.011018693767681
 20
-23.24975705873379
 30
0.0
 11
3.143243018980001
 21
-26.24684176354652
 31
0.0
  0
LINE
  5
3D6C
330
3D49
100
AcDbEntity
  8
KANAMONO_SCREW
 48
20.0
100
AcDbLine
 10
2.750242941265611
 20
-23.01101869376774
 30
0.0
 11
2.904504654013322
 21
-26.50761751604924
 31
0.0
  0
LINE
  5
3D6D
330
3D49
100
AcDbEntity
  8
KANAMONO_SCREW
 48
20.0
100
AcDbLine
 10
-0.2890483880005945
 20
-23.88509679468027
 30
0.0
 11
0.2827418777169157
 21
-23.74214922825087
 31
0.0
  0
LINE
  5
3D6E
330
3D49
100
AcDbEntity
  8
KANAMONO_SCREW
 48
20.0
100
AcDbLine
 10
-0.3559628861419242
 20
-25.40182541921553
 30
0.0
 11
0.3481964231714585
 21
-25.22578559188719
 31
0.0
  0
LINE
  5
3D6F
330
3D49
100
AcDbEntity
  8
KANAMONO_SCREW
 48
20.0
100
AcDbLine
 10
-0.25
 20
-23.00000000000006
 30
0.0
 11
0.25
 21
-23.00000000000006
 31
0.0
  0
LINE
  5
3D70
330
3D49
100
AcDbEntity
  8
KANAMONO_SCREW
 48
20.0
100
AcDbLine
 10
-2.999999999999971
 20
-17.9999999999994
 30
0.0
 11
3.0
 21
-17.9999999999994
 31
0.0
  0
LINE
  5
3D71
330
3D49
100
AcDbEntity
  8
KANAMONO_SCREW
 48
20.0
100
AcDbLine
 10
-2.999999999999971
 20
-20.99999999999941
 30
0.0
 11
3.0
 21
-20.99999999999941
 31
0.0
  0
LINE
  5
3D72
330
3D49
100
AcDbEntity
  8
KANAMONO_SCREW
 48
20.0
100
AcDbLine
 10
-5.5
 20
1.999999999999971
 30
0.0
 11
5.5
 21
1.999999999999971
 31
0.0
  0
LINE
  5
3D73
330
3D49
100
AcDbEntity
  8
KANAMONO_SCREW
 48
20.0
100
AcDbLine
 10
-5.5
 20
-0.0000000000000284
 30
0.0
 11
-3.999999999999971
 21
0.0
 31
0.0
  0
LINE
  5
3D74
330
3D49
100
AcDbEntity
  8
KANAMONO_SCREW
 48
20.0
100
AcDbLine
 10
-5.5
 20
-0.0000000000000284
 30
0.0
 11
-5.5
 21
1.999999999999971
 31
0.0
  0
LINE
  5
3D75
330
3D49
100
AcDbEntity
  8
KANAMONO_SCREW
 48
20.0
100
AcDbLine
 10
3.0
 20
2.749999999999971
 30
0.0
 11
4.25
 21
2.499999999999971
 31
0.0
  0
LINE
  5
3D76
330
3D49
100
AcDbEntity
  8
KANAMONO_SCREW
 48
20.0
100
AcDbLine
 10
4.25
 20
2.499999999999971
 30
0.0
 11
-4.25
 21
2.499999999999971
 31
0.0
  0
LINE
  5
3D77
330
3D49
100
AcDbEntity
  8
KANAMONO_SCREW
 48
20.0
100
AcDbLine
 10
-4.0
 20
0.0000000000000284
 30
0.0
 11
4.000000000000028
 21
-0.0000000000000284
 31
0.0
  0
ARC
  5
3D78
330
3D49
100
AcDbEntity
  8
KANAMONO_SCREW
 48
20.0
100
AcDbCircle
 10
4.000000000000028
 20
-1.000000000000028
 30
0.0
 40
1.0
100
AcDbArc
 50
90.0
 51
180.0
  0
LINE
  5
3D79
330
3D49
100
AcDbEntity
  8
KANAMONO_SCREW
 48
20.0
100
AcDbLine
 10
3.0
 20
2.749999999999971
 30
0.0
 11
-3.0
 21
2.749999999999971
 31
0.0
  0
LINE
  5
3D7A
330
3D49
100
AcDbEntity
  8
KANAMONO_SCREW
 48
20.0
100
AcDbLine
 10
-4.25
 20
2.499999999999971
 30
0.0
 11
-3.0
 21
2.749999999999971
 31
0.0
  0
LINE
  5
3D7B
330
3D49
100
AcDbEntity
  8
KANAMONO_SCREW
 48
20.0
100
AcDbLine
 10
-4.25
 20
2.499999999999971
 30
0.0
 11
-4.25
 21
1.999999999999971
 31
0.0
  0
ARC
  5
3D7C
330
3D49
100
AcDbEntity
  8
KANAMONO_SCREW
 48
20.0
100
AcDbCircle
 10
-3.999999999999971
 20
-1.0
 30
0.0
 40
1.0
100
AcDbArc
 50
0.0
 51
90.0
  0
LINE
  5
3D7D
330
3D49
100
AcDbEntity
  8
KANAMONO_SCREW
 48
20.0
100
AcDbLine
 10
4.25
 20
1.999999999999971
 30
0.0
 11
4.25
 21
2.499999999999971
 31
0.0
  0
LINE
  5
3D7E
330
3D49
100
AcDbEntity
  8
KANAMONO_SCREW
 48
20.0
100
AcDbLine
 10
4.000000000000028
 20
-0.0000000000000284
 30
0.0
 11
5.5
 21
-0.0000000000000284
 31
0.0
  0
LINE
  5
3D7F
330
3D49
100
AcDbEntity
  8
KANAMONO_SCREW
 48
20.0
100
AcDbLine
 10
5.5
 20
1.999999999999971
 30
0.0
 11
5.5
 21
-0.0000000000000284
 31
0.0
  0
ENDBLK
  5
3D81
330
3D49
100
AcDbEntity
  8
0
 48
20.0
100
AcDbBlockEnd
  0
BLOCK
  5
3DF3
330
3DE9
100
AcDbEntity
  8
0
100
AcDbBlockBegin
  2
*D2
 70
     1
 10
0.0
 20
0.0
 30
0.0
  3
*D2
  1

  0
LINE
  5
41F0
330
3DE9
100
AcDbEntity
  8
sunpo
 62
     0
370
    -2
100
AcDbLine
 10
611.277724930419
 20
409.3751639150791
 30
0.0
 11
611.277724930419
 21
426.6864249781356
 31
0.0
  0
LINE
  5
41F1
330
3DE9
100
AcDbEntity
  8
sunpo
 62
     0
370
    -2
100
AcDbLine
 10
626.277724930419
 20
409.3751639150791
 30
0.0
 11
626.277724930419
 21
426.6864249781356
 31
0.0
  0
LINE
  5
41F2
330
3DE9
100
AcDbEntity
  8
sunpo
 62
     0
370
    -2
100
AcDbLine
 10
615.277724930419
 20
426.6864249781356
 30
0.0
 11
622.277724930419
 21
426.6864249781356
 31
0.0
  0
INSERT
  5
41F3
330
3DE9
100
AcDbEntity
  8
sunpo
 62
     0
370
    -2
100
AcDbBlockReference
  2
_DOT
 10
611.277724930419
 20
426.6864249781356
 30
0.0
 41
4.0
 42
4.0
 43
4.0
 50
180.0
  0
INSERT
  5
41F4
330
3DE9
100
AcDbEntity
  8
sunpo
 62
     0
370
    -2
100
AcDbBlockReference
  2
_DOT
 10
626.277724930419
 20
426.6864249781356
 30
0.0
 41
4.0
 42
4.0
 43
4.0
  0
MTEXT
  5
41F5
330
3DE9
100
AcDbEntity
  8
sunpo
 62
     0
100
AcDbMText
 10
618.777724930419
 20
432.1864249781356
 30
0.0
 40
10.0
 41
0.0
 71
     5
 72
     1
  1
\A1;15
  7
MSゴシック
 73
     1
 44
1.0
1001
ACAD
1000
MTEXTBEGIN
1070
    73
1070
     1
1070
    44
1040
1.0
1070
    74
1070
     0
1000
MTEXTEND
  0
POINT
  5
41F6
330
3DE9
100
AcDbEntity
  8
Defpoints
 62
     0
100
AcDbPoint
 10
611.277724930419
 20
404.3751639150791
 30
0.0
  0
POINT
  5
41F7
330
3DE9
100
AcDbEntity
  8
Defpoints
 62
     0
100
AcDbPoint
 10
626.277724930419
 20
404.3751639150791
 30
0.0
  0
POINT
  5
41F8
330
3DE9
100
AcDbEntity
  8
Defpoints
 62
     0
100
AcDbPoint
 10
626.277724930419
 20
426.6864249781356
 30
0.0
  0
ENDBLK
  5
3DF4
330
3DE9
100
AcDbEntity
  8
0
100
AcDbBlockEnd
  0
BLOCK
  5
3DFF
330
3DF5
100
AcDbEntity
  8
0
100
AcDbBlockBegin
  2
*D3
 70
     1
 10
0.0
 20
0.0
 30
0.0
  3
*D3
  1

  0
LINE
  5
41F9
330
3DF5
100
AcDbEntity
  8
sunpo
 62
     0
370
    -2
100
AcDbLine
 10
578.7777249304181
 20
625.6377307499592
 30
0.0
 11
564.2556171941362
 21
625.6377307499592
 31
0.0
  0
LINE
  5
41FA
330
3DF5
100
AcDbEntity
  8
sunpo
 62
     0
370
    -2
100
AcDbLine
 10
578.7777249304181
 20
610.6377307499592
 30
0.0
 11
564.2556171941362
 21
610.6377307499592
 31
0.0
  0
LINE
  5
41FB
330
3DF5
100
AcDbEntity
  8
sunpo
 62
     0
370
    -2
100
AcDbLine
 10
564.2556171941362
 20
621.6377307499592
 30
0.0
 11
564.2556171941362
 21
614.6377307499592
 31
0.0
  0
MTEXT
  5
41FC
330
3DF5
100
AcDbEntity
  8
sunpo
 62
     0
100
AcDbMText
 10
558.7556171941357
 20
618.137730749959
 30
0.0
 40
10.0
 41
0.0
 71
     5
 72
     1
  1
\A1;15
  7
MSゴシック
 11
0.0000000000000001
 21
1.0
 31
0.0
 73
     1
 44
1.0
1001
ACAD
1000
MTEXTBEGIN
1070
    73
1070
     1
1070
    44
1040
1.0
1070
    74
1070
     0
1000
MTEXTEND
  0
INSERT
  5
41FD
330
3DF5
100
AcDbEntity
  8
sunpo
 62
     0
370
    -2
100
AcDbBlockReference
  2
_DOT
 10
564.2556171941362
 20
625.6377307499592
 30
0.0
 41
4.0
 42
4.0
 43
4.0
 50
90.0
  0
INSERT
  5
41FE
330
3DF5
100
AcDbEntity
  8
sunpo
 62
     0
370
    -2
100
AcDbBlockReference
  2
_DOT
 10
564.2556171941362
 20
610.6377307499592
 30
0.0
 41
4.0
 42
4.0
 43
4.0
 50
270.0
  0
POINT
  5
41FF
330
3DF5
100
AcDbEntity
  8
Defpoints
 62
     0
100
AcDbPoint
 10
583.777724930418
 20
625.6377307499592
 30
0.0
  0
POINT
  5
4200
330
3DF5
100
AcDbEntity
  8
Defpoints
 62
     0
100
AcDbPoint
 10
583.777724930418
 20
610.6377307499592
 30
0.0
  0
POINT
  5
4201
330
3DF5
100
AcDbEntity
  8
Defpoints
 62
     0
100
AcDbPoint
 10
564.2556171941362
 20
610.6377307499592
 30
0.0
  0
ENDBLK
  5
3E00
330
3DF5
100
AcDbEntity
  8
0
100
AcDbBlockEnd
  0
BLOCK
  5
3E0B
330
3E01
100
AcDbEntity
  8
0
100
AcDbBlockBegin
  2
*D4
 70
     1
 10
0.0
 20
0.0
 30
0.0
  3
*D4
  1

  0
LINE
  5
4202
330
3E01
100
AcDbEntity
  8
sunpo
 62
     0
370
    -2
100
AcDbLine
 10
633.7777249304183
 20
534.1377307499585
 30
0.0
 11
633.7777249304183
 21
455.7799678853878
 31
0.0
  0
LINE
  5
4203
330
3E01
100
AcDbEntity
  8
sunpo
 62
     0
370
    -2
100
AcDbLine
 10
583.7777249304179
 20
487.4588493176731
 30
0.0
 11
583.7777249304179
 21
455.7799678853878
 31
0.0
  0
LINE
  5
4204
330
3E01
100
AcDbEntity
  8
sunpo
 62
     0
370
    -2
100
AcDbLine
 10
629.7777249304183
 20
455.7799678853878
 30
0.0
 11
587.7777249304179
 21
455.7799678853878
 31
0.0
  0
INSERT
  5
4205
330
3E01
100
AcDbEntity
  8
sunpo
 62
     0
370
    -2
100
AcDbBlockReference
  2
_DOT
 10
633.7777249304183
 20
455.7799678853878
 30
0.0
 41
4.0
 42
4.0
 43
4.0
  0
INSERT
  5
4206
330
3E01
100
AcDbEntity
  8
sunpo
 62
     0
370
    -2
100
AcDbBlockReference
  2
_DOT
 10
583.7777249304179
 20
455.7799678853878
 30
0.0
 41
4.0
 42
4.0
 43
4.0
 50
180.0
  0
MTEXT
  5
4207
330
3E01
100
AcDbEntity
  8
sunpo
 62
     0
100
AcDbMText
 10
608.7777249304181
 20
450.2799678853878
 30
0.0
 40
10.0
 41
0.0
 71
     5
 72
     1
  1
\A1;50
  7
MSゴシック
 73
     1
 44
1.0
1001
ACAD
1000
MTEXTBEGIN
1070
    73
1070
     1
1070
    44
1040
1.0
1070
    74
1070
     0
1000
MTEXTEND
  0
POINT
  5
4208
330
3E01
100
AcDbEntity
  8
Defpoints
 62
     0
100
AcDbPoint
 10
633.7777249304183
 20
539.1377307499586
 30
0.0
  0
POINT
  5
4209
330
3E01
100
AcDbEntity
  8
Defpoints
 62
     0
100
AcDbPoint
 10
583.7777249304179
 20
492.4588493176732
 30
0.0
  0
POINT
  5
420A
330
3E01
100
AcDbEntity
  8
Defpoints
 62
     0
100
AcDbPoint
 10
583.7777249304179
 20
455.7799678853878
 30
0.0
  0
ENDBLK
  5
3E0C
330
3E01
100
AcDbEntity
  8
0
100
AcDbBlockEnd
  0
BLOCK
  5
3E17
330
3E0D
100
AcDbEntity
  8
0
100
AcDbBlockBegin
  2
*D5
 70
     1
 10
0.0
 20
0.0
 30
0.0
  3
*D5
  1

  0
LINE
  5
420B
330
3E0D
100
AcDbEntity
  8
sunpo
 62
     0
370
    -2
100
AcDbLine
 10
578.7777249304181
 20
625.6377307499592
 30
0.0
 11
533.3446602612146
 21
625.6377307499592
 31
0.0
  0
LINE
  5
420C
330
3E0D
100
AcDbEntity
  8
sunpo
 62
     0
370
    -2
100
AcDbLine
 10
578.7777249304181
 20
555.6377307499592
 30
0.0
 11
533.3446602612146
 21
555.6377307499592
 31
0.0
  0
LINE
  5
420D
330
3E0D
100
AcDbEntity
  8
sunpo
 62
     0
370
    -2
100
AcDbLine
 10
533.3446602612146
 20
621.6377307499592
 30
0.0
 11
533.3446602612146
 21
559.6377307499592
 31
0.0
  0
INSERT
  5
420E
330
3E0D
100
AcDbEntity
  8
sunpo
 62
     0
370
    -2
100
AcDbBlockReference
  2
_DOT
 10
533.3446602612146
 20
625.6377307499592
 30
0.0
 41
4.0
 42
4.0
 43
4.0
 50
90.0
  0
INSERT
  5
420F
330
3E0D
100
AcDbEntity
  8
sunpo
 62
     0
370
    -2
100
AcDbBlockReference
  2
_DOT
 10
533.3446602612146
 20
555.6377307499592
 30
0.0
 41
4.0
 42
4.0
 43
4.0
 50
270.0
  0
MTEXT
  5
4210
330
3E0D
100
AcDbEntity
  8
sunpo
 62
     0
100
AcDbMText
 10
527.8446602612145
 20
590.637730749959
 30
0.0
 40
10.0
 41
0.0
 71
     5
 72
     1
  1
\A1;70
  7
MSゴシック
 11
0.0000000000000001
 21
1.0
 31
0.0
 73
     1
 44
1.0
1001
ACAD
1000
MTEXTBEGIN
1070
    73
1070
     1
1070
    44
1040
1.0
1070
    74
1070
     0
1000
MTEXTEND
  0
POINT
  5
4211
330
3E0D
100
AcDbEntity
  8
Defpoints
 62
     0
100
AcDbPoint
 10
583.777724930418
 20
625.6377307499592
 30
0.0
  0
POINT
  5
4212
330
3E0D
100
AcDbEntity
  8
Defpoints
 62
     0
100
AcDbPoint
 10
583.777724930418
 20
555.6377307499592
 30
0.0
  0
POINT
  5
4213
330
3E0D
100
AcDbEntity
  8
Defpoints
 62
     0
100
AcDbPoint
 10
533.3446602612146
 20
555.6377307499592
 30
0.0
  0
ENDBLK
  5
3E18
330
3E0D
100
AcDbEntity
  8
0
100
AcDbBlockEnd
  0
BLOCK
  5
42A8
330
42A6
100
AcDbEntity
  8
0
100
AcDbBlockBegin
  2
hf6-40
 70
     0
 10
0.0
 20
0.0
 30
0.0
  3
hf6-40
  1

  0
LINE
  5
42A9
330
42A6
100
AcDbEntity
  8
KANAMONO_SCREW
370
    -3
100
AcDbLine
 10
-2.75
 20
-7.5
 30
0.0
 11
-2.75
 21
-12.5
 31
0.0
  0
LINE
  5
42AA
330
42A6
100
AcDbEntity
  8
KANAMONO_SCREW
370
    -3
100
AcDbLine
 10
2.75
 20
-7.5
 30
0.0
 11
2.75
 21
-12.5
 31
0.0
  0
LINE
  5
42AB
330
42A6
100
AcDbEntity
  8
KANAMONO_SCREW
370
    -3
100
AcDbLine
 10
2.997471113091478
 20
-19.36340647345605
 30
0.0
 11
2.997471113091478
 21
-12.5
 31
0.0
  0
LINE
  5
42AC
330
42A6
100
AcDbEntity
  8
KANAMONO_SCREW
370
    -3
100
AcDbLine
 10
-2.997469864986214
 20
-19.36340647345605
 30
0.0
 11
-2.997469864986214
 21
-12.5
 31
0.0
  0
LINE
  5
42AD
330
42A6
100
AcDbEntity
  8
KANAMONO_SCREW
370
    -3
100
AcDbLine
 10
2.997471113091478
 20
-12.5
 30
0.0
 11
-2.997469864986214
 21
-12.5
 31
0.0
  0
ARC
  5
42AE
330
42A6
100
AcDbEntity
  8
KANAMONO_SCREW
370
    -3
100
AcDbCircle
 10
0.0
 20
-14.09999999999991
 30
0.0
 40
0.6
100
AcDbArc
 50
300.391260224242
 51
239.6087397757361
  0
LINE
  5
42AF
330
42A6
100
AcDbEntity
  8
KANAMONO_SCREW
370
    -3
100
AcDbLine
 10
0.303541315345683
 20
-37.5
 30
0.0
 11
0.303541315345683
 21
-14.6175545090889
 31
0.0
  0
LINE
  5
42B0
330
42A6
100
AcDbEntity
  8
KANAMONO_SCREW
370
    -3
100
AcDbLine
 10
-0.3035413153459103
 20
-35.60286677908925
 30
0.0
 11
-0.303541315345683
 21
-14.61755450908867
 31
0.0
  0
LINE
  5
42B1
330
42A6
100
AcDbEntity
  8
KANAMONO_SCREW
370
    -3
100
AcDbLine
 10
-0.303541315345683
 20
-33.62984822934232
 30
0.0
 11
0.303541315345683
 21
-33.62984822934232
 31
0.0
  0
LINE
  5
42B2
330
42A6
100
AcDbEntity
  8
KANAMONO_SCREW
370
    -3
100
AcDbLine
 10
-0.303541315345683
 20
-33.02276559865095
 30
0.0
 11
0.303541315345683
 21
-33.02276559865095
 31
0.0
  0
LINE
  5
42B3
330
42A6
100
AcDbEntity
  8
KANAMONO_SCREW
370
    -3
100
AcDbLine
 10
1.550000000000181
 20
-7.5
 30
0.0
 11
2.997471113091478
 21
-7.5
 31
0.0
  0
LINE
  5
42B4
330
42A6
100
AcDbEntity
  8
KANAMONO_SCREW
370
    -3
100
AcDbLine
 10
-2.997469864986214
 20
-7.5
 30
0.0
 11
-1.549999999999954
 21
-7.5
 31
0.0
  0
ARC
  5
42B5
330
42A6
100
AcDbEntity
  8
KANAMONO_SCREW
370
    -3
100
AcDbCircle
 10
-1.549999999999954
 20
-7.075000000000045
 30
0.0
 40
0.425
100
AcDbArc
 50
270.0
 51
90.0
  0
ARC
  5
42B6
330
42A6
100
AcDbEntity
  8
KANAMONO_SCREW
370
    -3
100
AcDbCircle
 10
1.549999999999954
 20
-7.075000000000045
 30
0.0
 40
0.425
100
AcDbArc
 50
90.0
 51
270.0
  0
LINE
  5
42B7
330
42A6
100
AcDbEntity
  8
KANAMONO_SCREW
370
    -3
100
AcDbLine
 10
1.549999999999954
 20
-6.649999999999863
 30
0.0
 11
2.997471113091478
 21
-6.649999999999863
 31
0.0
  0
LINE
  5
42B8
330
42A6
100
AcDbEntity
  8
KANAMONO_SCREW
370
    -3
100
AcDbLine
 10
-2.997469864986214
 20
-6.649999999999863
 30
0.0
 11
-1.549999999999954
 21
-6.649999999999863
 31
0.0
  0
LINE
  5
42B9
330
42A6
100
AcDbEntity
  8
KANAMONO_SCREW
370
    -3
100
AcDbLine
 10
1.549999999999954
 20
-6.149999999999863
 30
0.0
 11
2.997471113091478
 21
-6.149999999999863
 31
0.0
  0
LINE
  5
42BA
330
42A6
100
AcDbEntity
  8
KANAMONO_SCREW
370
    -3
100
AcDbLine
 10
-2.997469864986214
 20
-6.149999999999863
 30
0.0
 11
-1.549999999999954
 21
-6.149999999999863
 31
0.0
  0
LINE
  5
42BB
330
42A6
100
AcDbEntity
  8
KANAMONO_SCREW
370
    -3
100
AcDbLine
 10
1.549999999999954
 20
-5.649999999999863
 30
0.0
 11
2.997471113091478
 21
-5.649999999999863
 31
0.0
  0
LINE
  5
42BC
330
42A6
100
AcDbEntity
  8
KANAMONO_SCREW
370
    -3
100
AcDbLine
 10
-2.997469864986214
 20
-5.649999999999863
 30
0.0
 11
-1.549999999999954
 21
-5.649999999999863
 31
0.0
  0
LINE
  5
42BD
330
42A6
100
AcDbEntity
  8
KANAMONO_SCREW
370
    -3
100
AcDbLine
 10
1.549999999999954
 20
-5.149999999999863
 30
0.0
 11
2.997471113091478
 21
-5.149999999999863
 31
0.0
  0
LINE
  5
42BE
330
42A6
100
AcDbEntity
  8
KANAMONO_SCREW
370
    -3
100
AcDbLine
 10
-2.997469864986214
 20
-5.149999999999863
 30
0.0
 11
-1.549999999999954
 21
-5.149999999999863
 31
0.0
  0
LINE
  5
42BF
330
42A6
100
AcDbEntity
  8
KANAMONO_SCREW
370
    -3
100
AcDbLine
 10
1.549999999999954
 20
-4.649999999999863
 30
0.0
 11
2.997471113091478
 21
-4.649999999999863
 31
0.0
  0
LINE
  5
42C0
330
42A6
100
AcDbEntity
  8
KANAMONO_SCREW
370
    -3
100
AcDbLine
 10
-2.997469864986214
 20
-4.649999999999863
 30
0.0
 11
-1.549999999999954
 21
-4.649999999999863
 31
0.0
  0
LINE
  5
42C1
330
42A6
100
AcDbEntity
  8
KANAMONO_SCREW
370
    -3
100
AcDbLine
 10
1.549999999999954
 20
-4.149999999999863
 30
0.0
 11
2.997471113091478
 21
-4.149999999999863
 31
0.0
  0
LINE
  5
42C2
330
42A6
100
AcDbEntity
  8
KANAMONO_SCREW
370
    -3
100
AcDbLine
 10
-2.997469864986214
 20
-4.149999999999863
 30
0.0
 11
-1.549999999999954
 21
-4.149999999999863
 31
0.0
  0
LINE
  5
42C3
330
42A6
100
AcDbEntity
  8
KANAMONO_SCREW
370
    -3
100
AcDbLine
 10
1.549999999999954
 20
-3.649999999999863
 30
0.0
 11
2.997471113091478
 21
-3.649999999999863
 31
0.0
  0
LINE
  5
42C4
330
42A6
100
AcDbEntity
  8
KANAMONO_SCREW
370
    -3
100
AcDbLine
 10
-2.997469864986214
 20
-3.649999999999863
 30
0.0
 11
-1.549999999999954
 21
-3.649999999999863
 31
0.0
  0
LINE
  5
42C5
330
42A6
100
AcDbEntity
  8
KANAMONO_SCREW
370
    -3
100
AcDbLine
 10
1.549999999999954
 20
-3.149999999999863
 30
0.0
 11
2.997471113091478
 21
-3.149999999999863
 31
0.0
  0
LINE
  5
42C6
330
42A6
100
AcDbEntity
  8
KANAMONO_SCREW
370
    -3
100
AcDbLine
 10
-2.997469864986214
 20
-3.149999999999863
 30
0.0
 11
-1.549999999999954
 21
-3.149999999999863
 31
0.0
  0
LINE
  5
42C7
330
42A6
100
AcDbEntity
  8
KANAMONO_SCREW
370
    -3
100
AcDbLine
 10
1.549999999999954
 20
-2.649999999999863
 30
0.0
 11
2.997471113091478
 21
-2.649999999999863
 31
0.0
  0
LINE
  5
42C8
330
42A6
100
AcDbEntity
  8
KANAMONO_SCREW
370
    -3
100
AcDbLine
 10
-2.997469864986214
 20
-2.649999999999863
 30
0.0
 11
-1.549999999999954
 21
-2.649999999999863
 31
0.0
  0
LINE
  5
42C9
330
42A6
100
AcDbEntity
  8
KANAMONO_SCREW
370
    -3
100
AcDbLine
 10
1.549999999999954
 20
-2.200000000000045
 30
0.0
 11
2.997471113091478
 21
-2.200000000000045
 31
0.0
  0
LINE
  5
42CA
330
42A6
100
AcDbEntity
  8
KANAMONO_SCREW
370
    -3
100
AcDbLine
 10
-2.997469864986214
 20
-2.200000000000045
 30
0.0
 11
-1.549999999999954
 21
-2.200000000000045
 31
0.0
  0
LINE
  5
42CB
330
42A6
100
AcDbEntity
  8
KANAMONO_SCREW
370
    -3
100
AcDbLine
 10
2.997471113091478
 20
-7.5
 30
0.0
 11
2.997471113091478
 21
0.0
 31
0.0
  0
LINE
  5
42CC
330
42A6
100
AcDbEntity
  8
KANAMONO_SCREW
370
    -3
100
AcDbLine
 10
-2.997469864986214
 20
-7.5
 30
0.0
 11
-2.997469864986214
 21
0.0
 31
0.0
  0
LINE
  5
42CD
330
42A6
100
AcDbEntity
  8
KANAMONO_SCREW
370
    -3
100
AcDbLine
 10
1.550000000000181
 20
-7.5
 30
0.0
 11
1.550000000000181
 21
-10.45000000000004
 31
0.0
  0
LINE
  5
42CE
330
42A6
100
AcDbEntity
  8
KANAMONO_SCREW
370
    -3
100
AcDbLine
 10
-1.549999999999954
 20
-7.5
 30
0.0
 11
-1.549999999999954
 21
-10.45000000000004
 31
0.0
  0
LINE
  5
42CF
330
42A6
100
AcDbEntity
  8
KANAMONO_SCREW
370
    -3
100
AcDbLine
 10
1.549999999999954
 20
-2.049999999999954
 30
0.0
 11
1.549999999999954
 21
-6.649999999999863
 31
0.0
  0
LINE
  5
42D0
330
42A6
100
AcDbEntity
  8
KANAMONO_SCREW
370
    -3
100
AcDbLine
 10
-1.549999999999954
 20
-2.049999999999954
 30
0.0
 11
-1.549999999999954
 21
-6.649999999999863
 31
0.0
  0
ARC
  5
42D1
330
42A6
100
AcDbEntity
  8
KANAMONO_SCREW
370
    -3
100
AcDbCircle
 10
0.0
 20
-10.45000000000004
 30
0.0
 40
1.55
100
AcDbArc
 50
180.0
 51
0.0
  0
ARC
  5
42D2
330
42A6
100
AcDbEntity
  8
KANAMONO_SCREW
370
    -3
100
AcDbCircle
 10
0.0
 20
-2.049999999999954
 30
0.0
 40
1.55
100
AcDbArc
 50
0.0
 51
180.0
  0
LINE
  5
42D3
330
42A6
100
AcDbEntity
  8
KANAMONO_SCREW
370
    -3
100
AcDbLine
 10
-6.5
 20
1.0
 30
0.0
 11
-4.549999999999954
 21
2.5
 31
0.0
  0
LINE
  5
42D4
330
42A6
100
AcDbEntity
  8
KANAMONO_SCREW
370
    -3
100
AcDbLine
 10
4.549999999999954
 20
2.5
 30
0.0
 11
6.5
 21
1.0
 31
0.0
  0
LINE
  5
42D5
330
42A6
100
AcDbEntity
  8
KANAMONO_SCREW
370
    -3
100
AcDbLine
 10
-4.549999999999954
 20
2.5
 30
0.0
 11
4.549999999999954
 21
2.5
 31
0.0
  0
LINE
  5
42D6
330
42A6
100
AcDbEntity
  8
KANAMONO_SCREW
370
    -3
100
AcDbLine
 10
6.5
 20
1.0
 30
0.0
 11
6.5
 21
0.0
 31
0.0
  0
LINE
  5
42D7
330
42A6
100
AcDbEntity
  8
KANAMONO_SCREW
370
    -3
100
AcDbLine
 10
-6.5
 20
1.0
 30
0.0
 11
6.5
 21
1.0
 31
0.0
  0
LINE
  5
42D8
330
42A6
100
AcDbEntity
  8
KANAMONO_SCREW
370
    -3
100
AcDbLine
 10
-6.5
 20
1.0
 30
0.0
 11
-6.5
 21
0.0
 31
0.0
  0
LINE
  5
42D9
330
42A6
100
AcDbEntity
  8
KANAMONO_SCREW
370
    -3
100
AcDbLine
 10
-6.5
 20
0.0
 30
0.0
 11
6.5
 21
0.0
 31
0.0
  0
LINE
  5
42DA
330
42A6
100
AcDbEntity
  8
KANAMONO_SCREW
370
    -3
100
AcDbLine
 10
-3.845451859014701
 20
2.563049103665207
 30
0.0
 11
3.845451859014701
 21
2.563049103665207
 31
0.0
  0
ARC
  5
42DB
330
42A6
100
AcDbEntity
  8
KANAMONO_SCREW
370
    -3
100
AcDbCircle
 10
0.0
 20
1.913049103665343
 30
0.0
 40
3.900000000000005
100
AcDbArc
 50
170.4059317731384
 51
171.3440832872695
  0
ARC
  5
42DC
330
42A6
100
AcDbEntity
  8
KANAMONO_SCREW
370
    -3
100
AcDbCircle
 10
0.0
 20
1.913049103665343
 30
0.0
 40
3.900000000000005
100
AcDbArc
 50
8.655916712730483
 51
9.594068226861594
  0
LINE
  5
42DD
330
42A6
100
AcDbEntity
  8
KANAMONO_SCREW
370
    -3
100
AcDbLine
 10
0.0
 20
-45.73695089633474
 30
0.0
 11
0.0
 21
-38.28034643055366
 31
0.0
  0
LINE
  5
42DE
330
42A6
100
AcDbEntity
  8
KANAMONO_SCREW
370
    -3
100
AcDbLine
 10
1.756238311011884
 20
-37.73695089633475
 30
0.0
 11
-1.764285714285506
 21
-37.73695089633475
 31
0.0
  0
LINE
  5
42DF
330
42A6
100
AcDbEntity
  8
KANAMONO_SCREW
370
    -3
100
AcDbLine
 10
-1.75
 20
-37.73695089633475
 30
0.0
 11
-1.75
 21
-40.73695089633474
 31
0.0
  0
LINE
  5
42E0
330
42A6
100
AcDbEntity
  8
KANAMONO_SCREW
370
    -3
100
AcDbLine
 10
1.75
 20
-37.73695089633475
 30
0.0
 11
1.75
 21
-40.73695089633474
 31
0.0
  0
LINE
  5
42E1
330
42A6
100
AcDbEntity
  8
KANAMONO_SCREW
370
    -3
100
AcDbLine
 10
-1.75
 20
-40.73695089633474
 30
0.0
 11
1.75
 21
-40.73695089633474
 31
0.0
  0
ELLIPSE
  5
42E2
330
42A6
100
AcDbEntity
  8
KANAMONO_SCREW
370
    -3
100
AcDbEllipse
 10
-1.25
 20
-40.73695089633474
 30
0.0
 11
0.0000000000000027
 21
1.700000000000017
 31
0.0
210
0.0
220
0.0
230
1.0
 40
0.2941176470588373
 41
0.0
 42
1.570796326794863
  0
ELLIPSE
  5
42E3
330
42A6
100
AcDbEntity
  8
KANAMONO_SCREW
370
    -3
100
AcDbEllipse
 10
1.25
 20
-40.73695089633474
 30
0.0
 11
0.0000000000000027
 21
1.700000000000017
 31
0.0
210
0.0
220
0.0
230
1.0
 40
0.2941176470588038
 41
-1.570796326794896
 42
0.0
  0
ELLIPSE
  5
42E4
330
42A6
100
AcDbEntity
  8
KANAMONO_SCREW
370
    -3
100
AcDbEllipse
 10
1.25
 20
-40.73695089633474
 30
0.0
 11
0.0000000000000027
 21
1.700000000000017
 31
0.0
210
0.0
220
0.0
230
1.0
 40
0.7353489374659476
 41
0.0
 42
1.570796326794895
  0
ELLIPSE
  5
42E5
330
42A6
100
AcDbEntity
  8
KANAMONO_SCREW
370
    -3
100
AcDbEllipse
 10
-1.25
 20
-40.73695089633474
 30
0.0
 11
0.0000000000000027
 21
1.700000000000017
 31
0.0
210
0.0
220
0.0
230
1.0
 40
0.7352941176470348
 41
-1.559108661948553
 42
0.0
  0
LINE
  5
42E6
330
42A6
100
AcDbEntity
  8
KANAMONO_SCREW
370
    -3
100
AcDbLine
 10
1.75
 20
-40.73695089633474
 30
0.0
 11
0.0
 21
-45.73695089633474
 31
0.0
  0
LINE
  5
42E7
330
42A6
100
AcDbEntity
  8
KANAMONO_SCREW
370
    -3
100
AcDbLine
 10
0.0
 20
-45.73695089633474
 30
0.0
 11
-1.75
 21
-40.73695089633474
 31
0.0
  0
LINE
  5
42E8
330
42A6
100
AcDbEntity
  8
KANAMONO_SCREW
370
    -3
100
AcDbLine
 10
2.997465126966744
 20
-19.36340647345605
 30
0.0
 11
2.997161603100039
 21
-19.36513957642205
 31
0.0
  0
LINE
  5
42E9
330
42A6
100
AcDbEntity
  8
KANAMONO_SCREW
370
    -3
100
AcDbLine
 10
2.25
 20
-21.32551281565679
 30
0.0
 11
2.25
 21
-23.0817875864409
 31
0.0
  0
LINE
  5
42EA
330
42A6
100
AcDbEntity
  8
KANAMONO_SCREW
370
    -3
100
AcDbLine
 10
2.25
 20
-25.04389404538461
 30
0.0
 11
2.25
 21
-26.80016869942574
 31
0.0
  0
LINE
  5
42EB
330
42A6
100
AcDbEntity
  8
KANAMONO_SCREW
370
    -3
100
AcDbLine
 10
2.25
 20
-28.76227527511219
 30
0.0
 11
2.25
 21
-30.51854981241059
 31
0.0
  0
LINE
  5
42EC
330
42A6
100
AcDbEntity
  8
KANAMONO_SCREW
370
    -3
100
AcDbLine
 10
2.25
 20
-32.40477105926038
 30
0.0
 11
2.25
 21
-34.16104559655901
 31
0.0
  0
LINE
  5
42ED
330
42A6
100
AcDbEntity
  8
KANAMONO_SCREW
370
    -3
100
AcDbLine
 10
1.208052249623506
 20
-22.14651336424936
 30
0.0
 11
1.208052249623506
 21
-22.62647554806063
 31
0.0
  0
LINE
  5
42EE
330
42A6
100
AcDbEntity
  8
KANAMONO_SCREW
370
    -3
100
AcDbLine
 10
1.799999999999045
 20
-37.48695089633463
 30
0.0
 11
1.764285714285506
 21
-37.73695089633475
 31
0.0
  0
LINE
  5
42EF
330
42A6
100
AcDbEntity
  8
KANAMONO_SCREW
370
    -3
100
AcDbLine
 10
1.799999999999045
 20
-37.48695089633463
 30
0.0
 11
1.665439312529542
 21
-37.46965023651717
 31
0.0
  0
LWPOLYLINE
  5
42F0
330
42A6
100
AcDbEntity
  8
KANAMONO_SCREW
370
    -3
100
AcDbPolyline
 90
       39
 70
     0
 43
0.0
 10
2.997469864986214
 20
-15.95029906205491
 10
2.75099031142281
 20
-17.34633265393358
 10
1.4883701498145
 20
-18.00361110739527
 42
0.2592004735663025
 10
1.208052249623506
 20
-18.42813225126474
 10
1.208052249623506
 20
-18.90809443507578
 42
0.2036136011950793
 10
1.339735741728645
 20
-19.21805430880795
 42
0.1982842753974383
 10
1.70809732412431
 20
-19.36340647345605
 10
2.997471113091478
 20
-19.36340647345605
 10
2.69205229532622
 20
-21.09539495608919
 10
1.490608986478719
 20
-21.7208267557811
 42
0.257920399275152
 10
1.208052249623506
 20
-22.14651336424936
 10
1.208052249623506
 20
-22.62647554806063
 42
0.2036139203470236
 10
1.339735965989348
 20
-22.9364354217928
 42
0.1982836950201352
 10
1.708097665923105
 20
-23.0817875864409
 10
2.997465351227447
 20
-23.0817875864409
 10
2.692052519586923
 20
-24.81377606907404
 10
1.490609210739648
 20
-25.43920786876595
 42
0.2579203992749133
 10
1.208052473884208
 20
-25.8648944772342
 10
1.208052473884208
 20
-26.34485666104547
 42
0.2036139203458012
 10
1.339736190247549
 20
-26.65481653477377
 42
0.1982836950192671
 10
1.708097890183807
 20
-26.80016869942574
 10
2.997465575488149
 20
-26.80016869942574
 10
2.692052743847852
 20
-28.53215718205888
 10
1.490609435000351
 20
-29.15758898175079
 42
0.257920399274954
 10
1.208052698144911
 20
-29.58327559021905
 10
1.208052645906718
 20
-30.06323783939206
 42
0.2036275691502115
 10
1.339752932205556
 20
-30.37321423333856
 42
0.1982685003745556
 10
1.708097491553871
 20
-30.51854981241059
 10
2.997465799749079
 20
-30.51854981241059
 10
2.706785426637452
 20
-32.16698361698082
 10
1.490032062491536
 20
-32.80038532700314
 42
0.2582492780404442
 10
1.208052645906718
 20
-33.22577127425461
 10
1.208052698144911
 20
-33.70573355817874
 42
0.1922719400571094
 10
1.326266596907316
 20
-34.00178214530092
 42
0.2110160733286848
 10
1.708219614801237
 20
-34.16104559655901
 10
2.997466119571527
 20
-34.16104559655901
 10
2.742587178235908
 20
-35.60294719071249
 10
1.647916649894114
 20
-37.50000006536175
 10
0.0000000877653292
 20
-37.5
  0
LINE
  5
42F1
330
42A6
100
AcDbEntity
  8
KANAMONO_SCREW
370
    -3
100
AcDbLine
 10
0.303541315345683
 20
-35.60286677908925
 30
0.0
 11
2.742587178235908
 21
-35.60294719071249
 31
0.0
  0
LWPOLYLINE
  5
42F2
330
42A6
100
AcDbEntity
  8
KANAMONO_SCREW
370
    -3
100
AcDbPolyline
 90
        4
 70
     0
 43
0.0
 10
2.053378008476784
 20
-19.36340637648789
 42
-0.4141897041352463
 10
1.59359145704343
 20
-18.90809443507578
 10
1.593591460230982
 20
-18.22743324655255
 42
-0.279432028215579
 10
1.843138415527619
 20
-17.81893067494252
 42
-3.4148491111701
  0
LWPOLYLINE
  5
42F3
330
42A6
100
AcDbEntity
  8
KANAMONO_SCREW
370
    -3
100
AcDbPolyline
 90
        4
 70
     0
 43
0.0
 10
2.053378008476784
 20
-23.08178725221376
 42
-0.4141897041352463
 10
1.59359145704343
 20
-22.62647531080165
 10
1.593591460230982
 20
-21.94581412227842
 42
-0.279432028215579
 10
1.843138415527619
 20
-21.53731155066839
 42
-3.4148491111701
  0
LWPOLYLINE
  5
42F4
330
42A6
100
AcDbEntity
  8
KANAMONO_SCREW
370
    -3
100
AcDbPolyline
 90
        4
 70
     0
 43
0.0
 10
2.053378232737713
 20
-26.80016860245757
 42
-0.4141897041352463
 10
1.59359168130436
 20
-26.34485666104547
 10
1.593591684491912
 20
-25.66419547252224
 42
-0.279432028215579
 10
1.843138639788548
 20
-25.25569290091221
 42
-3.4148491111701
  0
LWPOLYLINE
  5
42F5
330
42A6
100
AcDbEntity
  8
KANAMONO_SCREW
370
    -3
100
AcDbPolyline
 90
        4
 70
     0
 43
0.0
 10
2.053378456998643
 20
-30.51854971544242
 42
-0.4141897041352463
 10
1.59359190556529
 20
-30.06323777403031
 10
1.593591908752841
 20
-29.38257658550708
 42
-0.279432028215579
 10
1.843138864049478
 20
-28.97407401389705
 42
-3.4148491111701
  0
LWPOLYLINE
  5
42F6
330
42A6
100
AcDbEntity
  8
KANAMONO_SCREW
370
    -3
100
AcDbPolyline
 90
        4
 70
     0
 43
0.0
 10
2.053378456998643
 20
-34.16104549959084
 42
-0.4141897041352463
 10
1.59359190556529
 20
-33.70573355817874
 10
1.593591908752841
 20
-33.02507236965551
 42
-0.279432028215579
 10
1.843138864049478
 20
-32.61656979804548
 42
-3.4148491111701
  0
LWPOLYLINE
  5
42F7
330
42A6
100
AcDbEntity
  8
KANAMONO_SCREW
370
    -3
100
AcDbPolyline
 90
        3
 70
     0
 43
0.0
 10
1.208052645906946
 20
-37.50000004791514
 10
1.208052645906718
 20
-33.99062720900065
 10
1.326266596907316
 20
-34.00178214530092
  0
LWPOLYLINE
  5
42F8
330
42A6
100
AcDbEntity
  8
KANAMONO_SCREW
370
    -3
100
AcDbPolyline
 90
        3
 70
     0
 43
0.0
 10
1.208052645906718
 20
-33.22577127329874
 10
1.2080526459481
 20
-30.36198442103751
 10
1.339752932205556
 20
-30.37321423333856
  0
LWPOLYLINE
  5
42F9
330
42A6
100
AcDbEntity
  8
KANAMONO_SCREW
370
    -3
100
AcDbPolyline
 90
        3
 70
     0
 43
0.0
 10
1.208052645906718
 20
-29.58327549010619
 10
1.208052645948555
 20
-26.64359457956107
 10
1.339736190247549
 20
-26.65481653477377
  0
LWPOLYLINE
  5
42FA
330
42A6
100
AcDbEntity
  8
KANAMONO_SCREW
370
    -3
100
AcDbPolyline
 90
        3
 70
     0
 43
0.0
 10
1.208052421646016
 20
-25.86489437712135
 10
1.208052421687398
 20
-22.92521346657634
 10
1.339735965989348
 20
-22.9364354217928
  0
LWPOLYLINE
  5
42FB
330
42A6
100
AcDbEntity
  8
KANAMONO_SCREW
370
    -3
100
AcDbPolyline
 90
        3
 70
     0
 43
0.0
 10
1.208052197385313
 20
-22.1465132641365
 10
1.208052197385313
 20
-19.2068323535882
 10
1.339735741728645
 20
-19.21805430880795
  0
LINE
  5
42FC
330
42A6
100
AcDbEntity
  8
KANAMONO_SCREW
370
    -3
100
AcDbLine
 10
-2.997465126966744
 20
-19.36340647345605
 30
0.0
 11
-2.997161603100039
 21
-19.36513957642205
 31
0.0
  0
LINE
  5
42FD
330
42A6
100
AcDbEntity
  8
KANAMONO_SCREW
370
    -3
100
AcDbLine
 10
-2.25
 20
-21.32551281565679
 30
0.0
 11
-2.25
 21
-23.0817875864409
 31
0.0
  0
LINE
  5
42FE
330
42A6
100
AcDbEntity
  8
KANAMONO_SCREW
370
    -3
100
AcDbLine
 10
-2.25
 20
-25.04389404538461
 30
0.0
 11
-2.25
 21
-26.80016869942574
 31
0.0
  0
LINE
  5
42FF
330
42A6
100
AcDbEntity
  8
KANAMONO_SCREW
370
    -3
100
AcDbLine
 10
-2.25
 20
-28.76227527511219
 30
0.0
 11
-2.25
 21
-30.51854981241059
 31
0.0
  0
LINE
  5
4300
330
42A6
100
AcDbEntity
  8
KANAMONO_SCREW
370
    -3
100
AcDbLine
 10
-2.25
 20
-32.40477105926038
 30
0.0
 11
-2.25
 21
-34.16104559655901
 31
0.0
  0
LINE
  5
4301
330
42A6
100
AcDbEntity
  8
KANAMONO_SCREW
370
    -3
100
AcDbLine
 10
-1.208052249623506
 20
-22.14651336424936
 30
0.0
 11
-1.208052249623506
 21
-22.62647554806063
 31
0.0
  0
LINE
  5
4302
330
42A6
100
AcDbEntity
  8
KANAMONO_SCREW
370
    -3
100
AcDbLine
 10
-1.799999999999045
 20
-37.48695089633463
 30
0.0
 11
-1.764285714285506
 21
-37.73695089633475
 31
0.0
  0
LINE
  5
4303
330
42A6
100
AcDbEntity
  8
KANAMONO_SCREW
370
    -3
100
AcDbLine
 10
-1.799999999999045
 20
-37.48695089633463
 30
0.0
 11
-1.665439312529542
 21
-37.46965023651717
 31
0.0
  0
LINE
  5
4304
330
42A6
100
AcDbEntity
  8
KANAMONO_SCREW
370
    -3
100
AcDbLine
 10
-0.303541315345683
 20
-35.60286677908925
 30
0.0
 11
-2.742587178235908
 21
-35.60294719071249
 31
0.0
  0
LWPOLYLINE
  5
4305
330
42A6
100
AcDbEntity
  8
KANAMONO_SCREW
370
    -3
100
AcDbPolyline
 90
        4
 70
     0
 43
0.0
 10
-2.053378008476784
 20
-19.36340637648789
 42
0.4141897041352463
 10
-1.59359145704343
 20
-18.90809443507578
 10
-1.593591460230982
 20
-18.22743324655255
 42
0.279432028215579
 10
-1.843138415527619
 20
-17.81893067494252
 42
3.4148491111701
  0
LWPOLYLINE
  5
4306
330
42A6
100
AcDbEntity
  8
KANAMONO_SCREW
370
    -3
100
AcDbPolyline
 90
        4
 70
     0
 43
0.0
 10
-2.053378008476784
 20
-23.08178725221376
 42
0.4141897041352463
 10
-1.59359145704343
 20
-22.62647531080165
 10
-1.593591460230982
 20
-21.94581412227842
 42
0.279432028215579
 10
-1.843138415527619
 20
-21.53731155066839
 42
3.4148491111701
  0
LWPOLYLINE
  5
4307
330
42A6
100
AcDbEntity
  8
KANAMONO_SCREW
370
    -3
100
AcDbPolyline
 90
        4
 70
     0
 43
0.0
 10
-2.053378232737713
 20
-26.80016860245757
 42
0.4141897041352463
 10
-1.59359168130436
 20
-26.34485666104547
 10
-1.593591684491912
 20
-25.66419547252224
 42
0.279432028215579
 10
-1.843138639788548
 20
-25.25569290091221
 42
3.4148491111701
  0
LWPOLYLINE
  5
4308
330
42A6
100
AcDbEntity
  8
KANAMONO_SCREW
370
    -3
100
AcDbPolyline
 90
        4
 70
     0
 43
0.0
 10
-2.053378456998643
 20
-30.51854971544242
 42
0.4141897041352463
 10
-1.59359190556529
 20
-30.06323777403031
 10
-1.593591908752841
 20
-29.38257658550708
 42
0.279432028215579
 10
-1.843138864049478
 20
-28.97407401389705
 42
3.4148491111701
  0
LWPOLYLINE
  5
4309
330
42A6
100
AcDbEntity
  8
KANAMONO_SCREW
370
    -3
100
AcDbPolyline
 90
        4
 70
     0
 43
0.0
 10
-2.053378456998643
 20
-34.16104549959084
 42
0.4141897041352463
 10
-1.59359190556529
 20
-33.70573355817874
 10
-1.593591908752841
 20
-33.02507236965551
 42
0.279432028215579
 10
-1.843138864049478
 20
-32.61656979804548
 42
3.4148491111701
  0
LWPOLYLINE
  5
430A
330
42A6
100
AcDbEntity
  8
KANAMONO_SCREW
370
    -3
100
AcDbPolyline
 90
        3
 70
     0
 43
0.0
 10
-1.208052645906946
 20
-37.50000004791514
 10
-1.208052645906718
 20
-33.99062720900065
 10
-1.326266596907316
 20
-34.00178214530092
  0
LWPOLYLINE
  5
430B
330
42A6
100
AcDbEntity
  8
KANAMONO_SCREW
370
    -3
100
AcDbPolyline
 90
        3
 70
     0
 43
0.0
 10
-1.208052645906718
 20
-33.22577127329874
 10
-1.2080526459481
 20
-30.36198442103751
 10
-1.339752932205556
 20
-30.37321423333856
  0
LWPOLYLINE
  5
430C
330
42A6
100
AcDbEntity
  8
KANAMONO_SCREW
370
    -3
100
AcDbPolyline
 90
        3
 70
     0
 43
0.0
 10
-1.208052645906718
 20
-29.58327549010619
 10
-1.208052645948555
 20
-26.64359457956107
 10
-1.339736190247549
 20
-26.65481653477377
  0
LWPOLYLINE
  5
430D
330
42A6
100
AcDbEntity
  8
KANAMONO_SCREW
370
    -3
100
AcDbPolyline
 90
        3
 70
     0
 43
0.0
 10
-1.208052421646016
 20
-25.86489437712135
 10
-1.208052421687398
 20
-22.92521346657634
 10
-1.339735965989348
 20
-22.9364354217928
  0
LWPOLYLINE
  5
430E
330
42A6
100
AcDbEntity
  8
KANAMONO_SCREW
370
    -3
100
AcDbPolyline
 90
        3
 70
     0
 43
0.0
 10
-1.208052197385313
 20
-22.1465132641365
 10
-1.208052197385313
 20
-19.2068323535882
 10
-1.339735741728645
 20
-19.21805430880795
  0
LWPOLYLINE
  5
430F
330
42A6
100
AcDbEntity
  8
KANAMONO_SCREW
370
    -3
100
AcDbPolyline
 90
       39
 70
     0
 43
0.0
 10
-2.99746484207867
 20
-15.95029838780647
 10
-2.750985602538321
 20
-17.34633203512806
 10
-1.488365588777696
 20
-18.00361077260277
 42
-0.2592004735663025
 10
-1.208047784078189
 20
-18.42813197952682
 10
-1.208047892040667
 20
-18.90809416333786
 42
-0.2036136011950793
 10
-1.339731453867898
 20
-19.21805400744915
 42
-0.1982842753974383
 10
-1.708093068958987
 20
-19.3634060892382
 10
-2.997466857926156
 20
-19.36340579920716
 10
-2.692048429753413
 20
-21.09539435054103
 10
-1.490605261590189
 20
-21.72082642048486
 42
-0.257920399275152
 10
-1.208048620488625
 20
-22.14651309251133
 10
-1.208048728451103
 20
-22.62647527632259
 42
-0.2036139203470236
 10
-1.339732514539036
 20
-22.93643512043388
 42
-0.1982836950201352
 10
-1.708094247168219
 20
-23.08178720222293
 10
-2.99746193247256
 20
-23.08178691219337
 10
-2.692049490424551
 20
-24.81377546352576
 10
-1.490606322261555
 20
-25.43920753346958
 42
-0.2579203992749133
 10
-1.208049681159764
 20
-25.86489420549594
 10
-1.208049789122242
 20
-26.34485638930721
 42
-0.2036139203458012
 10
-1.339733575207674
 20
-26.65481623341475
 42
-0.1982836950192671
 10
-1.708095307839357
 20
-26.80016831520766
 10
-2.997462993143699
 20
-26.80016802517798
 10
-2.692050551095917
 20
-28.53215657651038
 10
-1.490607382932694
 20
-29.15758864645431
 42
-0.257920399274954
 10
-1.208050741830902
 20
-29.58327531848068
 10
-1.208050797555188
 20
-30.06323756765369
 42
-0.2036275691502115
 10
-1.339751153579982
 20
-30.37321393197556
 42
-0.1982685003745556
 10
-1.708095745619857
 20
-30.51854942819239
 10
-2.997464053815065
 20
-30.51854913816271
 10
-2.706784051501244
 20
-32.16698300811834
 10
-1.490030829832221
 20
-32.80038499183638
 42
-0.2582492780404442
 10
-1.208051508933522
 20
-33.22577100251613
 10
-1.208051669134192
 20
-33.70573328644025
 42
-0.1922719400571094
 10
-1.326265634489573
 20
-34.00178184697143
 42
-0.2110160733286848
 10
-1.708218688208035
 20
-34.1610452123133
 10
-2.997465192978324
 20
-34.16104492231091
 10
-2.742586575983295
 20
-35.60294657379677
 10
-1.647916474363455
 20
-37.49999969468035
 10
0.0000000877651019
 20
-37.5
  0
ENDBLK
  5
4310
330
42A6
100
AcDbEntity
  8
0
100
AcDbBlockEnd
  0
ENDSEC
  0
SECTION
  2
ENTITIES
  0
TEXT
  5
3DBB
330
1F
100
AcDbEntity
  8
MOJI
100
AcDbText
 10
677.3546523448196
 20
418.8621745995378
 30
0.0
 40
10.0
  1
ＦＧボードＥ
  7
MSゴシック
 11
677.3546523448196
 21
423.8621745995378
 31
0.0
100
AcDbText
 73
     2
  0
CIRCLE
  5
3DBD
102
{ACAD_REACTORS
330
3DBE
102
}
330
1F
100
AcDbEntity
  8
MOJI
100
AcDbCircle
 10
622.6587897935115
 20
375.025508097443
 30
0.0
 40
2.0
  0
HATCH
  5
3DBE
330
1F
100
AcDbEntity
  8
MOJI
100
AcDbHatch
 10
0.0
 20
0.0
 30
0.0
210
0.0
220
0.0
230
1.0
  2
SOLID
 70
     1
 71
     1
 91
        1
 92
        1
 93
        1
 72
     2
 10
622.6587897935115
 20
375.025508097443
 40
2.0
 50
0.0
 51
360.0
 73
     1
 97
        1
330
3DBD
 75
     0
 76
     1
 98
        1
 10
-232.4563529363963
 20
-88.56267876575044
  0
TEXT
  5
3DBF
330
1F
100
AcDbEntity
  8
MOJI
100
AcDbText
 10
673.7852259010696
 20
274.1885458088457
 30
0.0
 40
10.0
  1
ＡＰステイ
  7
MSゴシック
 11
673.7852259010696
 21
279.1885458088457
 31
0.0
100
AcDbText
 73
     2
  0
CIRCLE
  5
3DC1
102
{ACAD_REACTORS
330
3DC2
102
}
330
1F
100
AcDbEntity
  8
MOJI
100
AcDbCircle
 10
619.0893633497615
 20
230.3518793067508
 30
0.0
 40
2.0
  0
HATCH
  5
3DC2
330
1F
100
AcDbEntity
  8
MOJI
100
AcDbHatch
 10
0.0
 20
0.0
 30
0.0
210
0.0
220
0.0
230
1.0
  2
SOLID
 70
     1
 71
     1
 91
        1
 92
        1
 93
        1
 72
     2
 10
619.0893633497615
 20
230.3518793067508
 40
2.0
 50
0.0
 51
360.0
 73
     1
 97
        1
330
3DC1
 75
     0
 76
     1
 98
        1
 10
-236.0257793801463
 20
-233.2363075564429
  0
TEXT
  5
3DC3
330
1F
100
AcDbEntity
  8
MOJI
100
AcDbText
 10
687.991269545057
 20
262.4743972520539
 30
0.0
 40
10.0
  1
アンダーステイＬ
  7
MSゴシック
 11
687.991269545057
 21
267.4743972520539
 31
0.0
100
AcDbText
 73
     2
  0
CIRCLE
  5
3DC5
102
{ACAD_REACTORS
330
3DC6
102
}
330
1F
100
AcDbEntity
  8
MOJI
100
AcDbCircle
 10
633.2954069937488
 20
218.637730749959
 30
0.0
 40
2.0
  0
HATCH
  5
3DC6
330
1F
100
AcDbEntity
  8
MOJI
100
AcDbHatch
 10
0.0
 20
0.0
 30
0.0
210
0.0
220
0.0
230
1.0
  2
SOLID
 70
     1
 71
     1
 91
        1
 92
        1
 93
        1
 72
     2
 10
633.2954069937488
 20
218.637730749959
 40
2.0
 50
0.0
 51
360.0
 73
     1
 97
        1
330
3DC5
 75
     0
 76
     1
 98
        1
 10
-221.8197357361589
 20
-244.9504561132346
  0
LINE
  5
3DC7
330
1F
100
AcDbEntity
  8
hide-1
100
AcDbLine
 10
583.7777249304179
 20
625.637730749959
 30
0.0
 11
583.7777249304179
 21
147.4999999999999
 31
0.0
  0
LINE
  5
3DC8
330
1F
100
AcDbEntity
  8
hide-1
100
AcDbLine
 10
858.8598960775723
 20
215.637730749959
 30
0.0
 11
593.7777249304178
 21
215.637730749959
 31
0.0
  0
LINE
  5
3DC9
330
1F
100
AcDbEntity
  8
hide-1
100
AcDbLine
 10
583.7777249304179
 20
625.637730749959
 30
0.0
 11
603.7777249304179
 21
625.637730749959
 31
0.0
  0
ARC
  5
3DCA
330
1F
100
AcDbEntity
  8
BOUSUI
100
AcDbCircle
 10
601.4537325843837
 20
617.251628280065
 30
0.0
 40
10.95345096829027
100
AcDbArc
 50
130.0384580754188
 51
225.5100288973125
  0
LINE
  5
3DD1
330
1F
100
AcDbEntity
  8
hide-1
100
AcDbLine
 10
603.7777249304179
 20
625.637730749959
 30
0.0
 11
603.7777249304179
 21
747.5
 31
0.0
  0
TEXT
  5
3DD2
330
1F
100
AcDbEntity
  8
MOJI
100
AcDbText
 10
688.4735874817263
 20
601.1243972520535
 30
0.0
 40
10.0
  1
フラッシュガードＡＰ－ＦＧ
  7
MSゴシック
 11
688.4735874817263
 21
606.1243972520535
 31
0.0
100
AcDbText
 73
     2
  0
CIRCLE
  5
3DD4
102
{ACAD_REACTORS
330
3DD5
102
}
330
1F
100
AcDbEntity
  8
MOJI
100
AcDbCircle
 10
633.7777249304181
 20
557.2877307499586
 30
0.0
 40
2.0
  0
HATCH
  5
3DD5
330
1F
100
AcDbEntity
  8
MOJI
100
AcDbHatch
 10
0.0
 20
0.0
 30
0.0
210
0.0
220
0.0
230
1.0
  2
SOLID
 70
     1
 71
     1
 91
        1
 92
        1
 93
        1
 72
     2
 10
633.7777249304181
 20
557.2877307499586
 40
2.0
 50
0.0
 51
360.0
 73
     1
 97
        1
330
3DD4
 75
     0
 76
     1
 98
        1
 10
-221.3374177994897
 20
93.69954388676523
  0
TEXT
  5
3DD7
330
1F
100
AcDbEntity
  8
MOJI
100
AcDbText
 10
645.1961441674016
 20
661.0882947821599
 30
0.0
 40
10.0
  1
シーリング
  7
MSゴシック
 11
645.1961441674016
 21
666.0882947821598
 31
0.0
100
AcDbText
 73
     2
  0
CIRCLE
  5
3DD9
102
{ACAD_REACTORS
330
3DDA
102
}
330
1F
100
AcDbEntity
  8
MOJI
100
AcDbCircle
 10
590.5002816160934
 20
617.251628280065
 30
0.0
 40
2.0
  0
HATCH
  5
3DDA
330
1F
100
AcDbEntity
  8
MOJI
100
AcDbHatch
 10
0.0
 20
0.0
 30
0.0
210
0.0
220
0.0
230
1.0
  2
SOLID
 70
     1
 71
     1
 91
        1
 92
        1
 93
        1
 72
     2
 10
590.5002816160934
 20
617.251628280065
 40
2.0
 50
0.0
 51
360.0
 73
     1
 97
        1
330
3DD9
 75
     0
 76
     1
 98
        1
 10
-264.6148611138144
 20
153.6634414168713
  0
ARC
  5
3DDD
330
1F
100
AcDbEntity
  8
hide-2
100
AcDbCircle
 10
584.3334207399664
 20
545.2832528846477
 30
0.0
 40
21.75860928367773
100
AcDbArc
 50
28.41663490753166
 51
91.4634431057483
  0
LINE
  5
3DE1
330
1F
100
AcDbEntity
  8
hide-2
100
AcDbLine
 10
593.7777249304178
 20
555.637730749959
 30
0.0
 11
583.7777249304179
 21
555.637730749959
 31
0.0
  0
LINE
  5
3DE2
330
1F
100
AcDbEntity
  8
hide-2
100
AcDbLine
 10
593.7777249304178
 20
147.4999999999999
 30
0.0
 11
593.7777249304178
 21
525.9377307499589
 31
0.0
  0
TEXT
  5
3DE3
330
1F
100
AcDbEntity
  8
MOJI
100
AcDbText
 10
665.920841786357
 20
627.7521058827194
 30
0.0
 40
10.0
  1
（防水層）
  7
MSゴシック
 11
665.920841786357
 21
632.7521058827194
 31
0.0
100
AcDbText
 73
     2
  0
CIRCLE
  5
3DE5
102
{ACAD_REACTORS
330
3DE6
102
}
330
1F
100
AcDbEntity
  8
MOJI
100
AcDbCircle
 10
588.9245178971934
 20
545.2899073112337
 30
0.0
 40
2.0
  0
HATCH
  5
3DE6
330
1F
100
AcDbEntity
  8
MOJI
100
AcDbHatch
 10
0.0
 20
0.0
 30
0.0
210
0.0
220
0.0
230
1.0
  2
SOLID
 70
     1
 71
     1
 91
        1
 92
        1
 93
        1
 72
     2
 10
588.9245178971934
 20
545.2899073112337
 40
2.0
 50
0.0
 51
360.0
 73
     1
 97
        1
330
3DE5
 75
     0
 76
     1
 98
        1
 10
-266.1906248327143
 20
81.70172044804006
  0
LINE
  5
3ECB
330
1F
100
AcDbEntity
  8
0
100
AcDbLine
 10
0.0
 20
924.9999999999989
 30
0.0
 11
1380.0
 21
924.9999999999973
 31
0.0
  0
TEXT
  5
3ECC
330
1F
100
AcDbEntity
  8
WAKU
100
AcDbText
 10
1333.515228426396
 20
929.9999999999998
 30
0.0
 40
15.0
  1
ap-3
  7
MSゴシック
 72
     2
 11
1372.5
 21
929.9999999999998
 31
0.0
100
AcDbText
  0
TEXT
  5
3ECE
330
1F
100
AcDbEntity
  8
WAKU
100
AcDbText
 10
7.5
 20
929.9999999999998
 30
0.0
 40
20.0
  1
アルミ雨仕舞材／立上り乾式保護
  7
MSゴシック
100
AcDbText
  0
TEXT
  5
3ECF
330
1F
100
AcDbEntity
  8
WAKU
100
AcDbText
 10
7.5
 20
900.0000000000019
 30
0.0
 40
15.0
  1
フラッシュガードＡＰ-ＦＧ／水切金物取付タイプ
  7
MSゴシック
100
AcDbText
  0
TEXT
  5
3ED0
330
1F
100
AcDbEntity
  8
WAKU
100
AcDbText
 10
1304.276649746193
 20
900.0000000000023
 30
0.0
 40
15.0
  1
1/5(A4)
  7
MSゴシック
 72
     2
 11
1372.5
 21
900.0000000000023
 31
0.0
100
AcDbText
  0
LINE
  5
4376
330
1F
100
AcDbEntity
  8
0
100
AcDbLine
 10
239.9999999999999
 20
147.4999999999999
 30
0.0
 11
1140.0
 21
147.4999999999999
 31
0.0
  0
LINE
  5
4377
330
1F
100
AcDbEntity
  8
0
100
AcDbLine
 10
1140.0
 20
147.4999999999999
 30
0.0
 11
1140.0
 21
747.5
 31
0.0
  0
LINE
  5
4378
330
1F
100
AcDbEntity
  8
0
100
AcDbLine
 10
1140.0
 20
747.5
 30
0.0
 11
239.9999999999999
 21
747.5
 31
0.0
  0
LINE
  5
4379
330
1F
100
AcDbEntity
  8
0
100
AcDbLine
 10
239.9999999999999
 20
747.5
 30
0.0
 11
239.9999999999999
 21
147.4999999999999
 31
0.0
  0
LINE
  5
437A
330
1F
100
AcDbEntity
  8
sunpo
100
AcDbLine
 10
611.277724930419
 20
409.3751639150791
 30
0.0
 11
611.277724930419
 21
426.6864249781356
 31
0.0
  0
LINE
  5
437B
330
1F
100
AcDbEntity
  8
sunpo
100
AcDbLine
 10
626.277724930419
 20
409.3751639150791
 30
0.0
 11
626.277724930419
 21
426.6864249781356
 31
0.0
  0
LINE
  5
437C
330
1F
100
AcDbEntity
  8
sunpo
100
AcDbLine
 10
615.277724930419
 20
426.6864249781356
 30
0.0
 11
622.277724930419
 21
426.6864249781356
 31
0.0
  0
INSERT
  5
437D
330
1F
100
AcDbEntity
  8
sunpo
100
AcDbBlockReference
  2
_DOT
 10
611.277724930419
 20
426.6864249781356
 30
0.0
 41
4.0
 42
4.0
 43
4.0
 50
180.0
  0
INSERT
  5
437E
330
1F
100
AcDbEntity
  8
sunpo
100
AcDbBlockReference
  2
_DOT
 10
626.277724930419
 20
426.6864249781356
 30
0.0
 41
4.0
 42
4.0
 43
4.0
  0
MTEXT
  5
437F
330
1F
100
AcDbEntity
  8
sunpo
100
AcDbMText
 10
618.777724930419
 20
432.1864249781356
 30
0.0
 40
10.0
 41
0.0
 71
     5
 72
     1
  1
\A1;15
  7
MSゴシック
 73
     1
 44
1.0
1001
ACAD
1000
MTEXTBEGIN
1070
    73
1070
     1
1070
    44
1040
1.0
1070
    74
1070
     0
1000
MTEXTEND
  0
LINE
  5
4380
330
1F
100
AcDbEntity
  8
MOJI
100
AcDbLine
 10
675.8546523448196
 20
423.8621745995378
 30
0.0
 11
650.8546523448197
 21
423.8621745995378
 31
0.0
  0
LINE
  5
4381
330
1F
100
AcDbEntity
  8
MOJI
100
AcDbLine
 10
650.8546523448197
 20
423.8621745995378
 30
0.0
 11
622.6587897935115
 21
375.025508097443
 31
0.0
  0
LINE
  5
4382
330
1F
100
AcDbEntity
  8
MOJI
100
AcDbLine
 10
672.2852259010696
 20
279.1885458088457
 30
0.0
 11
647.2852259010697
 21
279.1885458088457
 31
0.0
  0
LINE
  5
4383
330
1F
100
AcDbEntity
  8
MOJI
100
AcDbLine
 10
647.2852259010697
 20
279.1885458088457
 30
0.0
 11
619.0893633497615
 21
230.3518793067508
 31
0.0
  0
LINE
  5
4384
330
1F
100
AcDbEntity
  8
MOJI
100
AcDbLine
 10
686.4912695450571
 20
267.4743972520539
 30
0.0
 11
661.4912695450572
 21
267.4743972520539
 31
0.0
  0
LINE
  5
4385
330
1F
100
AcDbEntity
  8
MOJI
100
AcDbLine
 10
661.4912695450572
 20
267.4743972520539
 30
0.0
 11
633.2954069937488
 21
218.637730749959
 31
0.0
  0
LINE
  5
4386
330
1F
100
AcDbEntity
  8
sunpo
100
AcDbLine
 10
578.7777249304181
 20
625.6377307499592
 30
0.0
 11
564.2556171941362
 21
625.6377307499592
 31
0.0
  0
LINE
  5
4387
330
1F
100
AcDbEntity
  8
sunpo
100
AcDbLine
 10
578.7777249304181
 20
610.6377307499592
 30
0.0
 11
564.2556171941362
 21
610.6377307499592
 31
0.0
  0
LINE
  5
4388
330
1F
100
AcDbEntity
  8
sunpo
100
AcDbLine
 10
564.2556171941362
 20
621.6377307499592
 30
0.0
 11
564.2556171941362
 21
614.6377307499592
 31
0.0
  0
MTEXT
  5
4389
330
1F
100
AcDbEntity
  8
sunpo
100
AcDbMText
 10
558.7556171941357
 20
618.137730749959
 30
0.0
 40
10.0
 41
0.0
 71
     5
 72
     1
  1
\A1;15
  7
MSゴシック
 11
0.0000000000000001
 21
1.0
 31
0.0
 73
     1
 44
1.0
1001
ACAD
1000
MTEXTBEGIN
1070
    73
1070
     1
1070
    44
1040
1.0
1070
    74
1070
     0
1000
MTEXTEND
  0
INSERT
  5
438A
330
1F
100
AcDbEntity
  8
sunpo
100
AcDbBlockReference
  2
_DOT
 10
564.2556171941362
 20
625.6377307499592
 30
0.0
 41
4.0
 42
4.0
 43
4.0
 50
90.0
  0
INSERT
  5
438B
330
1F
100
AcDbEntity
  8
sunpo
100
AcDbBlockReference
  2
_DOT
 10
564.2556171941362
 20
610.6377307499592
 30
0.0
 41
4.0
 42
4.0
 43
4.0
 50
270.0
  0
LINE
  5
438C
330
1F
100
AcDbEntity
  8
KANAMONO
100
AcDbLine
 10
606.6696357951761
 20
543.8439324977982
 30
0.0
 11
603.7777249304179
 21
564.4377307499589
 31
0.0
  0
LINE
  5
438D
330
1F
100
AcDbEntity
  8
KANAMONO
100
AcDbLine
 10
603.7777249304179
 20
564.4377307499589
 30
0.0
 11
585.2777249304178
 21
584.4377307499589
 31
0.0
  0
LINE
  5
438E
330
1F
100
AcDbEntity
  8
KANAMONO
100
AcDbLine
 10
585.2777249304178
 20
584.4377307499589
 30
0.0
 11
583.7777249304179
 21
584.4377307499589
 31
0.0
  0
LINE
  5
438F
330
1F
100
AcDbEntity
  8
KANAMONO
100
AcDbLine
 10
583.7777249304179
 20
584.4377307499589
 30
0.0
 11
583.7777249304183
 21
588.4377307499587
 31
0.0
  0
LINE
  5
4390
330
1F
100
AcDbEntity
  8
KANAMONO
100
AcDbLine
 10
583.7777249304183
 20
588.4377307499587
 30
0.0
 11
585.2777249304178
 21
588.4377307499589
 31
0.0
  0
LINE
  5
4391
330
1F
100
AcDbEntity
  8
KANAMONO
100
AcDbLine
 10
585.2777249304178
 20
588.4377307499589
 30
0.0
 11
585.2777249304178
 21
605.4377307499589
 31
0.0
  0
LINE
  5
4392
330
1F
100
AcDbEntity
  8
KANAMONO
100
AcDbLine
 10
585.2777249304178
 20
605.4377307499589
 30
0.0
 11
583.7777249304179
 21
605.4377307499589
 31
0.0
  0
LINE
  5
4393
330
1F
100
AcDbEntity
  8
KANAMONO
100
AcDbLine
 10
583.7777249304179
 20
605.4377307499589
 30
0.0
 11
583.7777249304179
 21
610.637730749959
 31
0.0
  0
LINE
  5
4394
330
1F
100
AcDbEntity
  8
KANAMONO
100
AcDbLine
 10
583.7777249304179
 20
610.637730749959
 30
0.0
 11
593.7777249304178
 21
609.4377307499589
 31
0.0
  0
LINE
  5
4395
330
1F
100
AcDbEntity
  8
KANAMONO
100
AcDbLine
 10
593.7777249304178
 20
609.4377307499589
 30
0.0
 11
593.7777249304178
 21
607.937730749959
 31
0.0
  0
LINE
  5
4396
330
1F
100
AcDbEntity
  8
KANAMONO
100
AcDbLine
 10
593.7777249304178
 20
607.937730749959
 30
0.0
 11
586.7777249304179
 21
607.937730749959
 31
0.0
  0
LINE
  5
4397
330
1F
100
AcDbEntity
  8
KANAMONO
100
AcDbLine
 10
586.7777249304179
 20
607.937730749959
 30
0.0
 11
586.7777249304183
 21
597.2377307499589
 31
0.0
  0
LINE
  5
4398
330
1F
100
AcDbEntity
  8
KANAMONO
100
AcDbLine
 10
586.7777249304183
 20
597.2377307499589
 30
0.0
 11
586.4777249304186
 21
596.9377307499591
 31
0.0
  0
LINE
  5
4399
330
1F
100
AcDbEntity
  8
KANAMONO
100
AcDbLine
 10
586.4777249304186
 20
596.9377307499591
 30
0.0
 11
586.7777249304188
 21
596.637730749959
 31
0.0
  0
LINE
  5
439A
330
1F
100
AcDbEntity
  8
KANAMONO
100
AcDbLine
 10
586.7777249304188
 20
596.637730749959
 30
0.0
 11
586.7777249304188
 21
593.5659967701794
 31
0.0
  0
ARC
  5
439B
330
1F
100
AcDbEntity
  8
KANAMONO
100
AcDbCircle
 10
588.7777249304187
 20
593.5659967701794
 30
0.0
 40
2.0
100
AcDbArc
 50
180.0
 51
255.0000000000056
  0
LINE
  5
439C
330
1F
100
AcDbEntity
  8
KANAMONO
100
AcDbLine
 10
588.2600868402139
 20
591.6341451176013
 30
0.0
 11
633.7777249304179
 21
579.437730749959
 31
0.0
  0
LINE
  5
439D
330
1F
100
AcDbEntity
  8
KANAMONO
100
AcDbLine
 10
633.7777249304179
 20
579.437730749959
 30
0.0
 11
633.7777249304183
 21
539.1377307499586
 31
0.0
  0
ARC
  5
439E
330
1F
100
AcDbEntity
  8
KANAMONO
100
AcDbCircle
 10
633.5777249304184
 20
539.1377307499584
 30
0.0
 40
0.1999999999999318
100
AcDbArc
 50
270.0000000000326
 51
0.0000000000325689
  0
LINE
  5
439F
330
1F
100
AcDbEntity
  8
KANAMONO
100
AcDbLine
 10
633.5777249304185
 20
538.9377307499585
 30
0.0
 11
632.6777249304175
 21
538.9377307499587
 31
0.0
  0
ARC
  5
43A0
330
1F
100
AcDbEntity
  8
KANAMONO
100
AcDbCircle
 10
632.6777249304176
 20
539.1377307499586
 30
0.0
 40
0.1999999999999318
100
AcDbArc
 50
179.9999999999674
 51
269.9999999999674
  0
LINE
  5
43A1
330
1F
100
AcDbEntity
  8
KANAMONO
100
AcDbLine
 10
632.4777249304177
 20
539.1377307499587
 30
0.0
 11
632.4777249304177
 21
539.4377307499589
 31
0.0
  0
LINE
  5
43A2
330
1F
100
AcDbEntity
  8
KANAMONO
100
AcDbLine
 10
632.4777249304177
 20
539.4377307499589
 30
0.0
 11
629.2777249304183
 21
539.4377307499587
 31
0.0
  0
ARC
  5
43A3
330
1F
100
AcDbEntity
  8
KANAMONO
100
AcDbCircle
 10
629.2777249304183
 20
539.9377307499587
 30
0.0
 40
0.5
100
AcDbArc
 50
180.0
 51
270.0
  0
LINE
  5
43A4
330
1F
100
AcDbEntity
  8
KANAMONO
100
AcDbLine
 10
628.7777249304183
 20
539.9377307499587
 30
0.0
 11
628.7777249304179
 21
540.4943550769844
 31
0.0
  0
ARC
  5
43A5
330
1F
100
AcDbEntity
  8
KANAMONO
100
AcDbCircle
 10
629.2777249304179
 20
540.4943550769844
 30
0.0
 40
0.5
100
AcDbArc
 50
119.9999999999391
 51
180.0
  0
LINE
  5
43A6
330
1F
100
AcDbEntity
  8
KANAMONO
100
AcDbLine
 10
629.0277249304183
 20
540.9273677788769
 30
0.0
 11
629.1006739472939
 21
540.9694849134075
 31
0.0
  0
ARC
  5
43A7
330
1F
100
AcDbEntity
  8
KANAMONO
100
AcDbCircle
 10
629.3506739472933
 20
540.5364722115153
 30
0.0
 40
0.4999999999997569
100
AcDbArc
 50
44.47751218592558
 51
119.9999999999409
  0
ARC
  5
43A8
330
1F
100
AcDbEntity
  8
KANAMONO
100
AcDbCircle
 10
630.7777249304182
 20
541.937730749959
 30
0.0
 40
1.499999999999954
100
AcDbArc
 50
224.4775121859196
 51
135.5224878140558
  0
ARC
  5
43A9
330
1F
100
AcDbEntity
  8
KANAMONO
100
AcDbCircle
 10
629.3506739472934
 20
543.3389892884032
 30
0.0
 40
0.5000000000001468
100
AcDbArc
 50
240.0000000000092
 51
315.5224878140925
  0
LINE
  5
43AA
330
1F
100
AcDbEntity
  8
KANAMONO
100
AcDbLine
 10
629.1006739472934
 20
542.9059765865108
 30
0.0
 11
629.0277249304183
 21
542.9480937210412
 31
0.0
  0
ARC
  5
43AB
330
1F
100
AcDbEntity
  8
KANAMONO
100
AcDbCircle
 10
629.2777249304184
 20
543.3811064229335
 30
0.0
 40
0.5000000000000978
100
AcDbArc
 50
180.0
 51
239.9999999999915
  0
LINE
  5
43AC
330
1F
100
AcDbEntity
  8
KANAMONO
100
AcDbLine
 10
628.7777249304183
 20
543.3811064229335
 30
0.0
 11
628.7777249304174
 21
543.9377307499585
 31
0.0
  0
ARC
  5
43AD
330
1F
100
AcDbEntity
  8
KANAMONO
100
AcDbCircle
 10
629.2777249304174
 20
543.9377307499587
 30
0.0
 40
0.5
100
AcDbArc
 50
90.0
 51
180.000000000026
  0
LINE
  5
43AE
330
1F
100
AcDbEntity
  8
KANAMONO
100
AcDbLine
 10
629.2777249304174
 20
544.4377307499587
 30
0.0
 11
632.4777249304177
 21
544.4377307499589
 31
0.0
  0
LINE
  5
43AF
330
1F
100
AcDbEntity
  8
KANAMONO
100
AcDbLine
 10
632.4777249304177
 20
544.4377307499589
 30
0.0
 11
632.4777249304177
 21
578.4402056655864
 31
0.0
  0
LINE
  5
43B0
330
1F
100
AcDbEntity
  8
KANAMONO
100
AcDbLine
 10
632.4777249304177
 20
578.4402056655864
 30
0.0
 11
595.1664533655964
 21
588.4377307499585
 31
0.0
  0
LINE
  5
43B1
330
1F
100
AcDbEntity
  8
KANAMONO
100
AcDbLine
 10
595.1664533655964
 20
588.4377307499585
 30
0.0
 11
586.7777249304179
 21
588.4377307499587
 31
0.0
  0
LINE
  5
43B2
330
1F
100
AcDbEntity
  8
KANAMONO
100
AcDbLine
 10
586.7777249304179
 20
588.4377307499587
 30
0.0
 11
586.7777249304179
 21
584.73057102494
 31
0.0
  0
LINE
  5
43B3
330
1F
100
AcDbEntity
  8
KANAMONO
100
AcDbLine
 10
586.7777249304179
 20
584.73057102494
 30
0.0
 11
605.0084595892651
 21
565.0216686910517
 31
0.0
  0
LINE
  5
43B4
330
1F
100
AcDbEntity
  8
KANAMONO
100
AcDbLine
 10
605.0084595892651
 20
565.0216686910517
 30
0.0
 11
610.6977478089486
 21
524.5072616868879
 31
0.0
  0
ARC
  5
43B5
330
1F
100
AcDbEntity
  8
KANAMONO
100
AcDbCircle
 10
610.2026059617879
 20
524.4377307499587
 30
0.0
 40
0.4999999999999077
100
AcDbArc
 50
270.000000000013
 51
7.993564577699643
  0
LINE
  5
43B6
330
1F
100
AcDbEntity
  8
KANAMONO
100
AcDbLine
 10
610.202605961788
 20
523.9377307499587
 30
0.0
 11
609.8996826977606
 21
523.9377307499587
 31
0.0
  0
ARC
  5
43B7
330
1F
100
AcDbEntity
  8
KANAMONO
100
AcDbCircle
 10
609.8996826977607
 20
524.4377307499586
 30
0.0
 40
0.4999999999998864
100
AcDbArc
 50
187.9935645776867
 51
269.999999999987
  0
LINE
  5
43B8
330
1F
100
AcDbEntity
  8
KANAMONO
100
AcDbLine
 10
609.4045408506001
 20
524.3681998130296
 30
0.0
 11
606.8682558790357
 21
542.4295244724087
 31
0.0
  0
ARC
  5
43B9
330
1F
100
AcDbEntity
  8
KANAMONO
100
AcDbCircle
 10
606.0757472510807
 20
543.0393851734026
 30
0.0
 40
1.000000000000046
100
AcDbArc
 50
322.4205685785301
 51
53.56656057687559
  0
ARC
  5
43BA
330
1F
100
AcDbEntity
  8
KANAMONO
100
AcDbCircle
 10
609.777724930419
 20
219.2377307499587
 30
0.0
 40
0.5999999999999091
100
AcDbArc
 50
269.9999999999783
 51
90.00000000006513
  0
LINE
  5
43BB
330
1F
100
AcDbEntity
  8
KANAMONO
100
AcDbLine
 10
609.7777249304187
 20
218.6377307499588
 30
0.0
 11
609.077724930418
 21
218.637730749959
 31
0.0
  0
ARC
  5
43BC
330
1F
100
AcDbEntity
  8
KANAMONO
100
AcDbCircle
 10
609.077724930418
 20
218.9377307499591
 30
0.0
 40
0.3000000000000682
100
AcDbArc
 50
180.0000000000217
 51
270.0000000000216
  0
LINE
  5
43BD
330
1F
100
AcDbEntity
  8
KANAMONO
100
AcDbLine
 10
608.7777249304179
 20
218.937730749959
 30
0.0
 11
608.7777249304187
 21
244.1377307499588
 31
0.0
  0
ARC
  5
43BE
330
1F
100
AcDbEntity
  8
KANAMONO
100
AcDbCircle
 10
609.2777249304187
 20
244.1377307499588
 30
0.0
 40
0.5
100
AcDbArc
 50
90.0
 51
180.0
  0
LINE
  5
43BF
330
1F
100
AcDbEntity
  8
KANAMONO
100
AcDbLine
 10
609.2777249304187
 20
244.6377307499588
 30
0.0
 11
609.2777249304178
 21
244.6377307499588
 31
0.0
  0
ARC
  5
43C0
330
1F
100
AcDbEntity
  8
KANAMONO
100
AcDbCircle
 10
609.2777249304178
 20
244.1377307499588
 30
0.0
 40
0.5
100
AcDbArc
 50
0.0
 51
90.0
  0
LINE
  5
43C1
330
1F
100
AcDbEntity
  8
KANAMONO
100
AcDbLine
 10
609.7777249304178
 20
244.1377307499588
 30
0.0
 11
609.7777249304187
 21
229.6377307499588
 31
0.0
  0
LINE
  5
43C2
330
1F
100
AcDbEntity
  8
KANAMONO
100
AcDbLine
 10
609.7777249304187
 20
229.6377307499588
 30
0.0
 11
613.2777249304183
 21
229.6377307499585
 31
0.0
  0
LINE
  5
43C3
330
1F
100
AcDbEntity
  8
KANAMONO
100
AcDbLine
 10
613.2777249304183
 20
229.6377307499585
 30
0.0
 11
613.2777249304187
 21
237.1377307499588
 31
0.0
  0
ARC
  5
43C4
330
1F
100
AcDbEntity
  8
KANAMONO
100
AcDbCircle
 10
613.7777249304187
 20
237.1377307499588
 30
0.0
 40
0.5
100
AcDbArc
 50
90.0
 51
180.0
  0
LINE
  5
43C5
330
1F
100
AcDbEntity
  8
KANAMONO
100
AcDbLine
 10
613.7777249304187
 20
237.6377307499588
 30
0.0
 11
613.7777249304187
 21
237.6377307499588
 31
0.0
  0
ARC
  5
43C6
330
1F
100
AcDbEntity
  8
KANAMONO
100
AcDbCircle
 10
613.7777249304187
 20
237.1377307499588
 30
0.0
 40
0.5
100
AcDbArc
 50
0.0
 51
90.0
  0
LINE
  5
43C7
330
1F
100
AcDbEntity
  8
KANAMONO
100
AcDbLine
 10
614.2777249304188
 20
237.1377307499588
 30
0.0
 11
614.2777249304188
 21
229.6377307499588
 31
0.0
  0
LINE
  5
43C8
330
1F
100
AcDbEntity
  8
KANAMONO
100
AcDbLine
 10
614.2777249304188
 20
229.6377307499588
 30
0.0
 11
627.7777249304188
 21
229.6377307499588
 31
0.0
  0
LINE
  5
43C9
330
1F
100
AcDbEntity
  8
KANAMONO
100
AcDbLine
 10
627.7777249304188
 20
229.6377307499588
 30
0.0
 11
627.7777249304188
 21
236.6377307499587
 31
0.0
  0
LINE
  5
43CA
330
1F
100
AcDbEntity
  8
KANAMONO
100
AcDbLine
 10
627.7777249304188
 20
236.6377307499587
 30
0.0
 11
623.0777249304185
 21
236.6377307499587
 31
0.0
  0
ARC
  5
43CB
330
1F
100
AcDbEntity
  8
KANAMONO
100
AcDbCircle
 10
623.0777249304184
 20
236.9377307499588
 30
0.0
 40
0.3000000000000682
100
AcDbArc
 50
180.0000000000217
 51
270.0000000000216
  0
LINE
  5
43CC
330
1F
100
AcDbEntity
  8
KANAMONO
100
AcDbLine
 10
622.7777249304183
 20
236.9377307499587
 30
0.0
 11
622.7777249304183
 21
237.3377307499588
 31
0.0
  0
ARC
  5
43CD
330
1F
100
AcDbEntity
  8
KANAMONO
100
AcDbCircle
 10
623.0777249304184
 20
237.3377307499587
 30
0.0
 40
0.3000000000000682
100
AcDbArc
 50
89.99999999997831
 51
179.9999999999783
  0
LINE
  5
43CE
330
1F
100
AcDbEntity
  8
KANAMONO
100
AcDbLine
 10
623.0777249304185
 20
237.6377307499588
 30
0.0
 11
627.7777249304188
 21
237.6377307499588
 31
0.0
  0
LINE
  5
43CF
330
1F
100
AcDbEntity
  8
KANAMONO
100
AcDbLine
 10
627.7777249304188
 20
237.6377307499588
 30
0.0
 11
627.7777249304183
 21
244.1377307499588
 31
0.0
  0
ARC
  5
43D0
330
1F
100
AcDbEntity
  8
KANAMONO
100
AcDbCircle
 10
628.2777249304183
 20
244.1377307499588
 30
0.0
 40
0.5
100
AcDbArc
 50
90.0
 51
180.0000000000032
  0
LINE
  5
43D1
330
1F
100
AcDbEntity
  8
KANAMONO
100
AcDbLine
 10
628.2777249304183
 20
244.6377307499588
 30
0.0
 11
628.2777249304188
 21
244.6377307499588
 31
0.0
  0
ARC
  5
43D2
330
1F
100
AcDbEntity
  8
KANAMONO
100
AcDbCircle
 10
628.2777249304188
 20
244.1377307499588
 30
0.0
 40
0.5
100
AcDbArc
 50
0.0
 51
90.0
  0
LINE
  5
43D3
330
1F
100
AcDbEntity
  8
KANAMONO
100
AcDbLine
 10
628.7777249304188
 20
244.1377307499588
 30
0.0
 11
628.7777249304188
 21
218.9377307499587
 31
0.0
  0
ARC
  5
43D4
330
1F
100
AcDbEntity
  8
KANAMONO
100
AcDbCircle
 10
628.4777249304187
 20
218.9377307499588
 30
0.0
 40
0.3000000000000682
100
AcDbArc
 50
269.9999999999783
 51
359.9999999999783
  0
LINE
  5
43D5
330
1F
100
AcDbEntity
  8
KANAMONO
100
AcDbLine
 10
628.4777249304186
 20
218.6377307499588
 30
0.0
 11
627.7777249304183
 21
218.6377307499588
 31
0.0
  0
ARC
  5
43D6
330
1F
100
AcDbEntity
  8
KANAMONO
100
AcDbCircle
 10
627.7777249304179
 20
219.2377307499587
 30
0.0
 40
0.5999999999999091
100
AcDbArc
 50
89.99999999995656
 51
270.0000000000434
  0
LINE
  5
43D7
330
1F
100
AcDbEntity
  8
KANAMONO
100
AcDbLine
 10
627.7777249304183
 20
219.8377307499586
 30
0.0
 11
627.7777249304183
 21
228.6377307499588
 31
0.0
  0
LINE
  5
43D8
330
1F
100
AcDbEntity
  8
KANAMONO
100
AcDbLine
 10
627.7777249304183
 20
228.6377307499588
 30
0.0
 11
609.7777249304187
 21
228.6377307499588
 31
0.0
  0
LINE
  5
43D9
330
1F
100
AcDbEntity
  8
KANAMONO
100
AcDbLine
 10
609.7777249304187
 20
228.6377307499588
 30
0.0
 11
609.7777249304183
 21
219.8377307499586
 31
0.0
  0
ARC
  5
43DA
330
1F
100
AcDbEntity
  8
KANAMONO
100
AcDbCircle
 10
614.7034938708427
 20
224.0781173683942
 30
0.0
 40
3.925838837111705
100
AcDbArc
 50
144.627847126547
 51
180.3419009726267
  0
LINE
  5
43DB
330
1F
100
AcDbEntity
  8
KANAMONO
100
AcDbLine
 10
610.7777249304178
 20
224.0546908584092
 30
0.0
 11
610.7777249304178
 21
220.6233713957986
 31
0.0
  0
ARC
  5
43DC
330
1F
100
AcDbEntity
  8
KANAMONO
100
AcDbCircle
 10
611.0939052161714
 20
220.6303776652762
 30
0.0
 40
0.3162579025275922
100
AcDbArc
 50
181.2694149653249
 51
225.5570339922295
  0
ARC
  5
43DD
330
1F
100
AcDbEntity
  8
KANAMONO
100
AcDbCircle
 10
609.7777249304178
 20
219.2377307499589
 30
0.0
 40
1.599999999999915
100
AcDbArc
 50
350.9152797118523
 51
46.82644888829542
  0
ARC
  5
43DE
330
1F
100
AcDbEntity
  8
KANAMONO
100
AcDbCircle
 10
611.6460164173307
 20
218.9310150834458
 30
0.0
 40
0.2933900356340593
100
AcDbArc
 50
169.3772316665183
 51
271.5380480197849
  0
LINE
  5
43DF
330
1F
100
AcDbEntity
  8
KANAMONO
100
AcDbLine
 10
611.6538912341882
 20
218.637730749959
 30
0.0
 11
625.9015586266476
 21
218.637730749959
 31
0.0
  0
ARC
  5
43E0
330
1F
100
AcDbEntity
  8
KANAMONO
100
AcDbCircle
 10
625.9050022183912
 20
218.9347940449184
 30
0.0
 40
0.2970832535439065
100
AcDbArc
 50
269.3358505084343
 51
9.748869805267906
  0
ARC
  5
43E1
330
1F
100
AcDbEntity
  8
KANAMONO
100
AcDbCircle
 10
627.7777249304179
 20
219.2377307499589
 30
0.0
 40
1.59999999999992
100
AcDbArc
 50
133.1735511117046
 51
189.0847202881477
  0
ARC
  5
43E2
330
1F
100
AcDbEntity
  8
KANAMONO
100
AcDbCircle
 10
626.4313788608904
 20
220.6434398328331
 30
0.0
 40
0.3469269981452663
100
AcDbArc
 50
316.4897500689697
 51
356.6838009734707
  0
LINE
  5
43E3
330
1F
100
AcDbEntity
  8
KANAMONO
100
AcDbLine
 10
626.7777249304178
 20
220.6233713957986
 30
0.0
 11
626.7777249304178
 21
224.0546908584092
 31
0.0
  0
ARC
  5
43E4
330
1F
100
AcDbEntity
  8
KANAMONO
100
AcDbCircle
 10
622.7777249304178
 20
224.0546908584091
 30
0.0
 40
4.0
100
AcDbArc
 50
0.0000000000016284
 51
35.03025190082446
  0
ARC
  5
43E5
330
1F
100
AcDbEntity
  8
KANAMONO
100
AcDbCircle
 10
626.4625458105511
 20
226.6377307499588
 30
0.0
 40
0.5000000000003221
100
AcDbArc
 50
131.4096221092861
 51
215.0302519008204
  0
LINE
  5
43E6
330
1F
100
AcDbEntity
  8
KANAMONO
100
AcDbLine
 10
626.1318268966676
 20
227.012730749959
 30
0.0
 11
626.1318268966676
 21
227.012730749959
 31
0.0
  0
ARC
  5
43E7
330
1F
100
AcDbEntity
  8
KANAMONO
100
AcDbCircle
 10
626.4625458105507
 20
226.637730749959
 30
0.0
 40
0.4999999999999914
100
AcDbArc
 50
35.03025190080124
 51
131.4096221092697
  0
ARC
  5
43E8
330
1F
100
AcDbEntity
  8
KANAMONO
100
AcDbCircle
 10
622.7777249304177
 20
224.0546908584094
 30
0.0
 40
5.000000000000101
100
AcDbArc
 50
359.9999999999974
 51
35.03025190082163
  0
LINE
  5
43E9
330
1F
100
AcDbEntity
  8
KANAMONO
100
AcDbLine
 10
627.7777249304179
 20
224.0546908584092
 30
0.0
 11
627.7777249304174
 21
220.08625888769
 31
0.0
  0
ARC
  5
43EA
330
1F
100
AcDbEntity
  8
KANAMONO
100
AcDbCircle
 10
627.4670206388284
 20
220.0938279645428
 30
0.0
 40
0.3107964731721069
100
AcDbArc
 50
290.8667289466642
 51
358.6044917596716
  0
ARC
  5
43EB
330
1F
100
AcDbEntity
  8
KANAMONO
100
AcDbCircle
 10
627.7777249304179
 20
219.2377307499589
 30
0.0
 40
0.5999999999999219
100
AcDbArc
 50
109.4712206279805
 51
270.0
  0
LINE
  5
43EC
330
1F
100
AcDbEntity
  8
KANAMONO
100
AcDbLine
 10
627.7777249304179
 20
218.637730749959
 30
0.0
 11
653.4777249304181
 21
218.637730749959
 31
0.0
  0
LINE
  5
43ED
330
1F
100
AcDbEntity
  8
KANAMONO
100
AcDbLine
 10
653.4777249304181
 20
218.637730749959
 30
0.0
 11
653.7777249304179
 21
218.3377307499588
 31
0.0
  0
LINE
  5
43EE
330
1F
100
AcDbEntity
  8
KANAMONO
100
AcDbLine
 10
653.7777249304179
 20
218.3377307499588
 30
0.0
 11
654.0777249304181
 21
218.6377307499588
 31
0.0
  0
LINE
  5
43EF
330
1F
100
AcDbEntity
  8
KANAMONO
100
AcDbLine
 10
654.0777249304181
 20
218.6377307499588
 30
0.0
 11
668.4777249304176
 21
218.637730749959
 31
0.0
  0
ARC
  5
43F0
330
1F
100
AcDbEntity
  8
KANAMONO
100
AcDbCircle
 10
668.4777249304178
 20
218.3377307499589
 30
0.0
 40
0.3000000000000682
100
AcDbArc
 50
0.0000000000217126
 51
90.00000000002172
  0
LINE
  5
43F1
330
1F
100
AcDbEntity
  8
KANAMONO
100
AcDbLine
 10
668.7777249304178
 20
218.337730749959
 30
0.0
 11
668.7777249304178
 21
215.9377307499589
 31
0.0
  0
ARC
  5
43F2
330
1F
100
AcDbEntity
  8
KANAMONO
100
AcDbCircle
 10
668.4777249304178
 20
215.9377307499591
 30
0.0
 40
0.3000000000000682
100
AcDbArc
 50
269.9999999999783
 51
359.9999999999729
  0
LINE
  5
43F3
330
1F
100
AcDbEntity
  8
KANAMONO
100
AcDbLine
 10
668.4777249304176
 20
215.637730749959
 30
0.0
 11
667.7777249304178
 21
215.6377307499588
 31
0.0
  0
ARC
  5
43F4
330
1F
100
AcDbEntity
  8
KANAMONO
100
AcDbCircle
 10
667.7777249304178
 20
215.9377307499589
 30
0.0
 40
0.3000000000000682
100
AcDbArc
 50
180.0000000000217
 51
270.0000000000216
  0
LINE
  5
43F5
330
1F
100
AcDbEntity
  8
KANAMONO
100
AcDbLine
 10
667.4777249304177
 20
215.9377307499587
 30
0.0
 11
667.4777249304177
 21
217.637730749959
 31
0.0
  0
LINE
  5
43F6
330
1F
100
AcDbEntity
  8
KANAMONO
100
AcDbLine
 10
667.4777249304177
 20
217.637730749959
 30
0.0
 11
648.7777249304179
 21
217.6377307499592
 31
0.0
  0
LINE
  5
43F7
330
1F
100
AcDbEntity
  8
KANAMONO
100
AcDbLine
 10
648.7777249304179
 20
217.6377307499592
 30
0.0
 11
648.7777249304183
 21
215.9377307499589
 31
0.0
  0
ARC
  5
43F8
330
1F
100
AcDbEntity
  8
KANAMONO
100
AcDbCircle
 10
648.4777249304181
 20
215.9377307499591
 30
0.0
 40
0.3000000000001819
100
AcDbArc
 50
270.0
 51
359.9999999999675
  0
LINE
  5
43F9
330
1F
100
AcDbEntity
  8
KANAMONO
100
AcDbLine
 10
648.4777249304181
 20
215.637730749959
 30
0.0
 11
647.7777249304178
 21
215.6377307499588
 31
0.0
  0
ARC
  5
43FA
330
1F
100
AcDbEntity
  8
KANAMONO
100
AcDbCircle
 10
647.7777249304177
 20
215.9377307499589
 30
0.0
 40
0.3000000000000682
100
AcDbArc
 50
180.0000000000217
 51
270.0000000000216
  0
LINE
  5
43FB
330
1F
100
AcDbEntity
  8
KANAMONO
100
AcDbLine
 10
647.4777249304176
 20
215.9377307499587
 30
0.0
 11
647.4777249304176
 21
217.637730749959
 31
0.0
  0
LINE
  5
43FC
330
1F
100
AcDbEntity
  8
KANAMONO
100
AcDbLine
 10
647.4777249304176
 20
217.637730749959
 30
0.0
 11
628.7777249304179
 21
217.6377307499592
 31
0.0
  0
LINE
  5
43FD
330
1F
100
AcDbEntity
  8
KANAMONO
100
AcDbLine
 10
628.7777249304179
 20
217.6377307499592
 30
0.0
 11
628.7777249304183
 21
215.9377307499589
 31
0.0
  0
ARC
  5
43FE
330
1F
100
AcDbEntity
  8
KANAMONO
100
AcDbCircle
 10
628.4777249304181
 20
215.9377307499591
 30
0.0
 40
0.3000000000001819
100
AcDbArc
 50
270.0
 51
359.9999999999675
  0
LINE
  5
43FF
330
1F
100
AcDbEntity
  8
KANAMONO
100
AcDbLine
 10
628.4777249304181
 20
215.637730749959
 30
0.0
 11
627.7777249304179
 21
215.6377307499588
 31
0.0
  0
ARC
  5
4400
330
1F
100
AcDbEntity
  8
KANAMONO
100
AcDbCircle
 10
627.7777249304177
 20
215.9377307499589
 30
0.0
 40
0.3000000000000682
100
AcDbArc
 50
180.0000000000217
 51
270.0000000000216
  0
LINE
  5
4401
330
1F
100
AcDbEntity
  8
KANAMONO
100
AcDbLine
 10
627.4777249304177
 20
215.9377307499587
 30
0.0
 11
627.4777249304177
 21
217.637730749959
 31
0.0
  0
LINE
  5
4402
330
1F
100
AcDbEntity
  8
KANAMONO
100
AcDbLine
 10
627.4777249304177
 20
217.637730749959
 30
0.0
 11
619.2359824999137
 21
217.6377307499592
 31
0.0
  0
ARC
  5
4403
330
1F
100
AcDbEntity
  8
KANAMONO
100
AcDbCircle
 10
618.7777249304178
 20
217.4377307499592
 30
0.0
 40
0.5000000000002158
100
AcDbArc
 50
23.57817847819673
 51
156.4218215218032
  0
LINE
  5
4404
330
1F
100
AcDbEntity
  8
KANAMONO
100
AcDbLine
 10
618.3194673609221
 20
217.6377307499592
 30
0.0
 11
610.0777249304176
 21
217.637730749959
 31
0.0
  0
LINE
  5
4405
330
1F
100
AcDbEntity
  8
KANAMONO
100
AcDbLine
 10
610.0777249304176
 20
217.637730749959
 30
0.0
 11
610.077724930418
 21
215.9377307499589
 31
0.0
  0
ARC
  5
4406
330
1F
100
AcDbEntity
  8
KANAMONO
100
AcDbCircle
 10
609.7777249304179
 20
215.9377307499591
 30
0.0
 40
0.3000000000000682
100
AcDbArc
 50
269.9999999999783
 51
359.9999999999783
  0
LINE
  5
4407
330
1F
100
AcDbEntity
  8
KANAMONO
100
AcDbLine
 10
609.7777249304178
 20
215.637730749959
 30
0.0
 11
609.077724930418
 21
215.6377307499588
 31
0.0
  0
ARC
  5
4408
330
1F
100
AcDbEntity
  8
KANAMONO
100
AcDbCircle
 10
609.077724930418
 20
215.9377307499589
 30
0.0
 40
0.3000000000000682
100
AcDbArc
 50
180.0000000000217
 51
270.0000000000216
  0
LINE
  5
4409
330
1F
100
AcDbEntity
  8
KANAMONO
100
AcDbLine
 10
608.7777249304179
 20
215.9377307499587
 30
0.0
 11
608.7777249304179
 21
218.337730749959
 31
0.0
  0
ARC
  5
440A
330
1F
100
AcDbEntity
  8
KANAMONO
100
AcDbCircle
 10
609.077724930418
 20
218.3377307499589
 30
0.0
 40
0.3000000000000682
100
AcDbArc
 50
89.99999999997831
 51
179.9999999999783
  0
LINE
  5
440B
330
1F
100
AcDbEntity
  8
KANAMONO
100
AcDbLine
 10
609.077724930418
 20
218.637730749959
 30
0.0
 11
609.7777249304178
 21
218.637730749959
 31
0.0
  0
ARC
  5
440C
330
1F
100
AcDbEntity
  8
KANAMONO
100
AcDbCircle
 10
609.7777249304178
 20
219.2377307499589
 30
0.0
 40
0.5999999999999091
100
AcDbArc
 50
270.0
 51
70.52877937201947
  0
ARC
  5
440D
330
1F
100
AcDbEntity
  8
KANAMONO
100
AcDbCircle
 10
610.0651016277781
 20
220.077332864497
 30
0.0
 40
0.2875152866818483
100
AcDbArc
 50
178.2209445230848
 51
252.3078347706956
  0
LINE
  5
440E
330
1F
100
AcDbEntity
  8
KANAMONO
100
AcDbLine
 10
609.7777249304178
 20
220.08625888769
 30
0.0
 11
609.7777249304178
 21
224.0546908584092
 31
0.0
  0
ARC
  5
440F
330
1F
100
AcDbEntity
  8
KANAMONO
100
AcDbCircle
 10
614.7196953524472
 20
224.0730043581161
 30
0.0
 40
4.94200435415478
100
AcDbArc
 50
144.7574276381641
 51
180.2123204610161
  0
ARC
  5
4410
330
1F
100
AcDbEntity
  8
KANAMONO
100
AcDbCircle
 10
611.092904050285
 20
226.637730749959
 30
0.0
 40
0.5000000000000659
100
AcDbArc
 50
48.59037789073025
 51
144.9697480991988
  0
ARC
  5
4411
330
1F
100
AcDbEntity
  8
KANAMONO
100
AcDbCircle
 10
611.0929040502846
 20
226.6377307499588
 30
0.0
 40
0.5000000000003448
100
AcDbArc
 50
324.9697480991796
 51
48.59037789071386
  0
LINE
  5
4412
330
1F
100
AcDbEntity
  8
BUHIN
100
AcDbLine
 10
626.2777249304187
 20
237.6377307499583
 30
0.0
 11
611.2777249304188
 21
237.6377307499583
 31
0.0
  0
LINE
  5
4413
330
1F
100
AcDbEntity
  8
BUHIN
100
AcDbLine
 10
611.2777249304188
 20
237.6377307499583
 30
0.0
 11
611.2777249304192
 21
560.9377307499578
 31
0.0
  0
LINE
  5
4414
330
1F
100
AcDbEntity
  8
BUHIN
100
AcDbLine
 10
611.2777249304192
 20
560.9377307499578
 30
0.0
 11
626.2777249304193
 21
560.9377307499578
 31
0.0
  0
LINE
  5
4415
330
1F
100
AcDbEntity
  8
BUHIN
100
AcDbLine
 10
626.2777249304193
 20
560.9377307499578
 30
0.0
 11
626.2777249304187
 21
237.6377307499583
 31
0.0
  0
LINE
  5
4416
330
1F
100
AcDbEntity
  8
BOUSUI
  6
Continuous
100
AcDbLine
 10
583.777724930418
 20
621.7181427183049
 30
0.0
 11
587.6973129620721
 21
625.637730749959
 31
0.0
  0
LINE
  5
4417
330
1F
100
AcDbEntity
  8
BOUSUI
  6
Continuous
100
AcDbLine
 10
583.7777249304179
 20
617.2987253358891
 30
0.0
 11
592.116730344488
 21
625.6377307499591
 31
0.0
  0
LINE
  5
4418
330
1F
100
AcDbEntity
  8
BOUSUI
  6
Continuous
100
AcDbLine
 10
583.7777249304179
 20
612.8793079534731
 30
0.0
 11
590.8342674756446
 21
619.9358504986998
 31
0.0
  0
LINE
  5
4419
330
1F
100
AcDbEntity
  8
BOUSUI
  6
Continuous
100
AcDbLine
 10
585.7222250901518
 20
610.4043907307909
 30
0.0
 11
590.6667980923259
 21
615.348963732965
 31
0.0
  0
LINE
  5
441A
330
1F
100
AcDbEntity
  8
BOUSUI
  6
Continuous
100
AcDbLine
 10
589.6681334673089
 20
609.930881725532
 30
0.0
 11
591.8047493555757
 21
612.0674976137989
 31
0.0
  0
LINE
  5
441B
330
1F
100
AcDbEntity
  8
BOUSUI
  6
Continuous
100
AcDbLine
 10
593.614041844466
 20
609.4573727202734
 30
0.0
 11
593.685788853757
 21
609.5291197295644
 31
0.0
  0
LINE
  5
441C
330
1F
100
AcDbEntity
  8
BOUSUI
  6
Continuous
100
AcDbLine
 10
585.2818506671574
 20
610.4572356615501
 30
0.0
 11
583.7777249304179
 21
611.9613613982899
 31
0.0
  0
LINE
  5
441D
330
1F
100
AcDbEntity
  8
BOUSUI
  6
Continuous
100
AcDbLine
 10
590.3039158744483
 20
609.8545878366754
 30
0.0
 11
583.7777249304179
 21
616.3807787807058
 31
0.0
  0
LINE
  5
441E
330
1F
100
AcDbEntity
  8
BOUSUI
  6
Continuous
100
AcDbLine
 10
591.2130793604399
 20
613.3648417330999
 30
0.0
 11
583.7777249304179
 21
620.8001961631217
 31
0.0
  0
LINE
  5
441F
330
1F
100
AcDbEntity
  8
BOUSUI
  6
Continuous
100
AcDbLine
 10
590.5641916384502
 20
618.4331468375054
 30
0.0
 11
583.7777249304179
 21
625.2196135455376
 31
0.0
  0
LINE
  5
4420
330
1F
100
AcDbEntity
  8
BOUSUI
  6
Continuous
100
AcDbLine
 10
591.5295462684127
 20
621.8872095899586
 30
0.0
 11
587.7790251084125
 21
625.637730749959
 31
0.0
  0
LINE
  5
4421
330
1F
100
AcDbEntity
  8
BOUSUI
  6
Continuous
100
AcDbLine
 10
593.2860816619345
 20
624.5500915788528
 30
0.0
 11
592.1984424908284
 21
625.637730749959
 31
0.0
  0
LINE
  5
4422
330
1F
100
AcDbEntity
  8
MOJI
100
AcDbLine
 10
686.9735874817263
 20
606.1243972520535
 30
0.0
 11
661.9735874817264
 21
606.1243972520535
 31
0.0
  0
LINE
  5
4423
330
1F
100
AcDbEntity
  8
MOJI
100
AcDbLine
 10
661.9735874817264
 20
606.1243972520535
 30
0.0
 11
633.7777249304181
 21
557.2877307499586
 31
0.0
  0
LINE
  5
4424
330
1F
100
AcDbEntity
  8
sunpo
100
AcDbLine
 10
633.7777249304183
 20
534.1377307499585
 30
0.0
 11
633.7777249304183
 21
455.7799678853878
 31
0.0
  0
LINE
  5
4425
330
1F
100
AcDbEntity
  8
sunpo
100
AcDbLine
 10
583.7777249304179
 20
487.4588493176731
 30
0.0
 11
583.7777249304179
 21
455.7799678853878
 31
0.0
  0
LINE
  5
4426
330
1F
100
AcDbEntity
  8
sunpo
100
AcDbLine
 10
629.7777249304183
 20
455.7799678853878
 30
0.0
 11
587.7777249304179
 21
455.7799678853878
 31
0.0
  0
INSERT
  5
4427
330
1F
100
AcDbEntity
  8
sunpo
100
AcDbBlockReference
  2
_DOT
 10
633.7777249304183
 20
455.7799678853878
 30
0.0
 41
4.0
 42
4.0
 43
4.0
  0
INSERT
  5
4428
330
1F
100
AcDbEntity
  8
sunpo
100
AcDbBlockReference
  2
_DOT
 10
583.7777249304179
 20
455.7799678853878
 30
0.0
 41
4.0
 42
4.0
 43
4.0
 50
180.0
  0
MTEXT
  5
4429
330
1F
100
AcDbEntity
  8
sunpo
100
AcDbMText
 10
608.7777249304181
 20
450.2799678853878
 30
0.0
 40
10.0
 41
0.0
 71
     5
 72
     1
  1
\A1;50
  7
MSゴシック
 73
     1
 44
1.0
1001
ACAD
1000
MTEXTBEGIN
1070
    73
1070
     1
1070
    44
1040
1.0
1070
    74
1070
     0
1000
MTEXTEND
  0
LINE
  5
442A
330
1F
100
AcDbEntity
  8
MOJI
100
AcDbLine
 10
643.6961441674015
 20
666.0882947821598
 30
0.0
 11
618.6961441674017
 21
666.0882947821598
 31
0.0
  0
LINE
  5
442B
330
1F
100
AcDbEntity
  8
MOJI
100
AcDbLine
 10
618.6961441674017
 20
666.0882947821598
 30
0.0
 11
590.5002816160934
 21
617.251628280065
 31
0.0
  0
LINE
  5
442C
330
1F
100
AcDbEntity
  8
sunpo
100
AcDbLine
 10
578.7777249304181
 20
625.6377307499592
 30
0.0
 11
533.3446602612146
 21
625.6377307499592
 31
0.0
  0
LINE
  5
442D
330
1F
100
AcDbEntity
  8
sunpo
100
AcDbLine
 10
578.7777249304181
 20
555.6377307499592
 30
0.0
 11
533.3446602612146
 21
555.6377307499592
 31
0.0
  0
LINE
  5
442E
330
1F
100
AcDbEntity
  8
sunpo
100
AcDbLine
 10
533.3446602612146
 20
621.6377307499592
 30
0.0
 11
533.3446602612146
 21
559.6377307499592
 31
0.0
  0
INSERT
  5
442F
330
1F
100
AcDbEntity
  8
sunpo
100
AcDbBlockReference
  2
_DOT
 10
533.3446602612146
 20
625.6377307499592
 30
0.0
 41
4.0
 42
4.0
 43
4.0
 50
90.0
  0
INSERT
  5
4430
330
1F
100
AcDbEntity
  8
sunpo
100
AcDbBlockReference
  2
_DOT
 10
533.3446602612146
 20
555.6377307499592
 30
0.0
 41
4.0
 42
4.0
 43
4.0
 50
270.0
  0
MTEXT
  5
4431
330
1F
100
AcDbEntity
  8
sunpo
100
AcDbMText
 10
527.8446602612145
 20
590.637730749959
 30
0.0
 40
10.0
 41
0.0
 71
     5
 72
     1
  1
\A1;70
  7
MSゴシック
 11
0.0000000000000001
 21
1.0
 31
0.0
 73
     1
 44
1.0
1001
ACAD
1000
MTEXTBEGIN
1070
    73
1070
     1
1070
    44
1040
1.0
1070
    74
1070
     0
1000
MTEXTEND
  0
LINE
  5
4432
330
1F
100
AcDbEntity
  8
hide-2
  6
Continuous
100
AcDbLine
 10
583.777724930418
 20
564.265716746898
 30
0.0
 11
586.4506194696946
 21
566.9386112861745
 31
0.0
  0
LINE
  5
4433
330
1F
100
AcDbEntity
  8
hide-2
  6
Continuous
100
AcDbLine
 10
583.777724930418
 20
559.8462993644821
 30
0.0
 11
590.1745886469954
 21
566.2431630810593
 31
0.0
  0
LINE
  5
4434
330
1F
100
AcDbEntity
  8
hide-2
  6
Continuous
100
AcDbLine
 10
583.9885736983112
 20
555.6377307499592
 30
0.0
 11
593.4094177380875
 21
565.0585747897355
 31
0.0
  0
LINE
  5
4435
330
1F
100
AcDbEntity
  8
hide-2
  6
Continuous
100
AcDbLine
 10
588.407991080727
 20
555.6377307499592
 30
0.0
 11
596.2553137884458
 21
563.4850534576781
 31
0.0
  0
LINE
  5
4436
330
1F
100
AcDbEntity
  8
hide-2
  6
Continuous
100
AcDbLine
 10
592.8274084631429
 20
555.6377307499591
 30
0.0
 11
598.7606879377408
 21
561.5710102245571
 31
0.0
  0
LINE
  5
4437
330
1F
100
AcDbEntity
  8
hide-2
  6
Continuous
100
AcDbLine
 10
597.2468258455587
 20
555.6377307499592
 30
0.0
 11
600.945252468935
 21
559.3361573733354
 31
0.0
  0
LINE
  5
4438
330
1F
100
AcDbEntity
  8
hide-2
  6
Continuous
100
AcDbLine
 10
601.6662432279746
 20
555.6377307499591
 30
0.0
 11
602.8073925348445
 21
556.778880056829
 31
0.0
  0
LINE
  5
4439
330
1F
100
AcDbEntity
  8
hide-2
  6
Continuous
100
AcDbLine
 10
587.0683469897576
 20
555.6377307499591
 30
0.0
 11
583.7777249304179
 21
558.9283528092988
 31
0.0
  0
LINE
  5
443A
330
1F
100
AcDbEntity
  8
hide-2
  6
Continuous
100
AcDbLine
 10
591.4877643721736
 20
555.6377307499588
 30
0.0
 11
583.7777249304179
 21
563.3477701917147
 31
0.0
  0
LINE
  5
443B
330
1F
100
AcDbEntity
  8
hide-2
  6
Continuous
100
AcDbLine
 10
595.9071817545896
 20
555.6377307499588
 30
0.0
 11
584.5037167662399
 21
567.0411957383087
 31
0.0
  0
LINE
  5
443C
330
1F
100
AcDbEntity
  8
hide-2
  6
Continuous
100
AcDbLine
 10
600.3265991370056
 20
555.6377307499588
 30
0.0
 11
589.5593691947669
 21
566.4049606921975
 31
0.0
  0
LINE
  5
443D
330
1F
100
AcDbEntity
  8
hide-2
  6
Continuous
100
AcDbLine
 10
599.9725623632728
 20
560.4111849061077
 30
0.0
 11
599.4613527614266
 21
560.9223945079539
 31
0.0
  0
LINE
  5
443E
330
1F
100
AcDbEntity
  8
hide-2
100
AcDbLine
 10
592.9777249304176
 20
554.887730749959
 30
0.0
 11
592.9777249304176
 21
554.887730749959
 31
0.0
  0
LINE
  5
443F
330
1F
100
AcDbEntity
  8
hide-2
100
AcDbLine
 10
592.9777249304176
 20
554.887730749959
 30
0.0
 11
592.9777249304176
 21
554.887730749959
 31
0.0
  0
LINE
  5
4440
330
1F
100
AcDbEntity
  8
hide-2
100
AcDbLine
 10
593.7777249304178
 20
555.637730749959
 30
0.0
 11
603.470344894504
 21
555.637730749959
 31
0.0
  0
ARC
  5
4441
330
1F
100
AcDbEntity
  8
hide-2
100
AcDbCircle
 10
603.4703448945038
 20
555.3377307499592
 30
0.0
 40
0.2999999999998408
100
AcDbArc
 50
359.9999999999783
 51
89.99999999997831
  0
LINE
  5
4442
330
1F
100
AcDbEntity
  8
hide-2
100
AcDbLine
 10
603.7703448945038
 20
555.337730749959
 30
0.0
 11
603.7703448945038
 21
554.437730749959
 31
0.0
  0
ARC
  5
4443
330
1F
100
AcDbEntity
  8
hide-2
100
AcDbCircle
 10
603.4703448945038
 20
554.4377307499588
 30
0.0
 40
0.2999999999998408
100
AcDbArc
 50
270.0000000000216
 51
0.0000000000217126
  0
LINE
  5
4444
330
1F
100
AcDbEntity
  8
hide-2
100
AcDbLine
 10
603.470344894504
 20
554.137730749959
 30
0.0
 11
595.2777249304179
 21
554.137730749959
 31
0.0
  0
LINE
  5
4445
330
1F
100
AcDbEntity
  8
hide-2
100
AcDbLine
 10
595.2777249304179
 20
554.137730749959
 30
0.0
 11
595.2777249304179
 21
540.2458348049829
 31
0.0
  0
LINE
  5
4446
330
1F
100
AcDbEntity
  8
hide-2
100
AcDbLine
 10
595.2777249304179
 20
540.2458348049829
 30
0.0
 11
594.9299065998332
 21
539.8668513290202
 31
0.0
  0
LINE
  5
4447
330
1F
100
AcDbEntity
  8
hide-2
100
AcDbLine
 10
594.9299065998332
 20
539.8668513290202
 30
0.0
 11
595.2777249304179
 21
539.5306424373959
 31
0.0
  0
LINE
  5
4448
330
1F
100
AcDbEntity
  8
hide-2
100
AcDbLine
 10
595.2777249304179
 20
539.5306424373959
 30
0.0
 11
595.2777249304179
 21
525.9377307499589
 31
0.0
  0
ARC
  5
4449
330
1F
100
AcDbEntity
  8
hide-2
100
AcDbCircle
 10
594.9777249304178
 20
525.937730749959
 30
0.0
 40
0.3000000000000682
100
AcDbArc
 50
269.9999999999783
 51
359.9999999999783
  0
LINE
  5
444A
330
1F
100
AcDbEntity
  8
hide-2
100
AcDbLine
 10
594.9777249304177
 20
525.6377307499589
 30
0.0
 11
594.0777249304176
 21
525.6377307499589
 31
0.0
  0
ARC
  5
444B
330
1F
100
AcDbEntity
  8
hide-2
100
AcDbCircle
 10
594.0777249304177
 20
525.9377307499589
 30
0.0
 40
0.2999999999998408
100
AcDbArc
 50
179.9999999999783
 51
269.9999999999783
  0
LINE
  5
444C
330
1F
100
AcDbEntity
  8
hide-2
100
AcDbLine
 10
593.7777249304178
 20
525.9377307499589
 30
0.0
 11
593.7777249304178
 21
529.137730749959
 31
0.0
  0
LINE
  5
444D
330
1F
100
AcDbEntity
  8
hide-2
100
AcDbLine
 10
593.7777249304178
 20
529.137730749959
 30
0.0
 11
592.9777249304176
 21
529.887730749959
 31
0.0
  0
LINE
  5
444E
330
1F
100
AcDbEntity
  8
hide-2
100
AcDbLine
 10
592.9777249304176
 20
529.887730749959
 30
0.0
 11
593.7777249304178
 21
530.637730749959
 31
0.0
  0
LINE
  5
444F
330
1F
100
AcDbEntity
  8
hide-2
100
AcDbLine
 10
593.7777249304178
 20
530.637730749959
 30
0.0
 11
593.7777249304178
 21
534.137730749959
 31
0.0
  0
LINE
  5
4450
330
1F
100
AcDbEntity
  8
hide-2
100
AcDbLine
 10
593.7777249304178
 20
534.137730749959
 30
0.0
 11
592.9777249304176
 21
534.887730749959
 31
0.0
  0
LINE
  5
4451
330
1F
100
AcDbEntity
  8
hide-2
100
AcDbLine
 10
592.9777249304176
 20
534.887730749959
 30
0.0
 11
593.7777249304178
 21
535.637730749959
 31
0.0
  0
LINE
  5
4452
330
1F
100
AcDbEntity
  8
hide-2
100
AcDbLine
 10
593.7777249304178
 20
535.637730749959
 30
0.0
 11
593.7777249304178
 21
539.137730749959
 31
0.0
  0
LINE
  5
4453
330
1F
100
AcDbEntity
  8
hide-2
100
AcDbLine
 10
593.7777249304178
 20
539.137730749959
 30
0.0
 11
592.9777249304176
 21
539.8877307499589
 31
0.0
  0
LINE
  5
4454
330
1F
100
AcDbEntity
  8
hide-2
100
AcDbLine
 10
592.9777249304176
 20
539.8877307499589
 30
0.0
 11
593.7777249304178
 21
540.637730749959
 31
0.0
  0
LINE
  5
4455
330
1F
100
AcDbEntity
  8
hide-2
100
AcDbLine
 10
593.7777249304178
 20
540.637730749959
 30
0.0
 11
593.7777249304178
 21
544.137730749959
 31
0.0
  0
LINE
  5
4456
330
1F
100
AcDbEntity
  8
hide-2
100
AcDbLine
 10
593.7777249304178
 20
544.137730749959
 30
0.0
 11
592.9777249304176
 21
544.887730749959
 31
0.0
  0
LINE
  5
4457
330
1F
100
AcDbEntity
  8
hide-2
100
AcDbLine
 10
592.9777249304176
 20
544.887730749959
 30
0.0
 11
593.7777249304178
 21
545.637730749959
 31
0.0
  0
LINE
  5
4458
330
1F
100
AcDbEntity
  8
hide-2
100
AcDbLine
 10
593.7777249304178
 20
545.637730749959
 30
0.0
 11
593.7777249304178
 21
549.137730749959
 31
0.0
  0
LINE
  5
4459
330
1F
100
AcDbEntity
  8
hide-2
100
AcDbLine
 10
593.7777249304178
 20
549.137730749959
 30
0.0
 11
592.9777249304176
 21
549.887730749959
 31
0.0
  0
LINE
  5
445A
330
1F
100
AcDbEntity
  8
hide-2
100
AcDbLine
 10
592.9777249304176
 20
549.887730749959
 30
0.0
 11
593.7777249304178
 21
550.6377307499589
 31
0.0
  0
LINE
  5
445B
330
1F
100
AcDbEntity
  8
hide-2
100
AcDbLine
 10
593.7777249304178
 20
550.6377307499589
 30
0.0
 11
593.7777249304178
 21
554.137730749959
 31
0.0
  0
LINE
  5
445C
330
1F
100
AcDbEntity
  8
hide-2
100
AcDbLine
 10
593.7777249304178
 20
554.137730749959
 30
0.0
 11
592.9777249304176
 21
554.887730749959
 31
0.0
  0
LINE
  5
445D
330
1F
100
AcDbEntity
  8
hide-2
100
AcDbLine
 10
592.9777249304176
 20
554.887730749959
 30
0.0
 11
593.7777249304178
 21
555.637730749959
 31
0.0
  0
LINE
  5
445E
330
1F
100
AcDbEntity
  8
MOJI
100
AcDbLine
 10
664.4208417863571
 20
632.7521058827194
 30
0.0
 11
639.4208417863572
 21
632.7521058827194
 31
0.0
  0
LINE
  5
445F
330
1F
100
AcDbEntity
  8
MOJI
100
AcDbLine
 10
639.4208417863572
 20
632.7521058827194
 30
0.0
 11
588.9245178971934
 21
545.2899073112337
 31
0.0
  0
LINE
  5
4460
330
1F
100
AcDbEntity
  8
WAKU
100
AcDbLine
 10
1380.0
 20
894.9999999999999
 30
0.0
 11
0.0
 21
894.9999999999999
 31
0.0
  0
LINE
  5
4461
330
1F
100
AcDbEntity
  8
WAKU
100
AcDbLine
 10
0.0
 20
894.9999999999999
 30
0.0
 11
0.0
 21
954.9999999999998
 31
0.0
  0
LINE
  5
4462
330
1F
100
AcDbEntity
  8
WAKU
100
AcDbLine
 10
0.0
 20
954.9999999999998
 30
0.0
 11
1380.0
 21
954.9999999999998
 31
0.0
  0
LINE
  5
4463
330
1F
100
AcDbEntity
  8
WAKU
100
AcDbLine
 10
1380.0
 20
954.9999999999998
 30
0.0
 11
1380.0
 21
894.9999999999999
 31
0.0
  0
LINE
  5
4464
330
1F
100
AcDbEntity
  8
WAKU
100
AcDbLine
 10
0.0
 20
0.0
 30
0.0
 11
1380.0
 21
0.0
 31
0.0
  0
LINE
  5
4465
330
1F
100
AcDbEntity
  8
WAKU
100
AcDbLine
 10
1380.0
 20
0.0
 30
0.0
 11
1380.0
 21
954.9999999999998
 31
0.0
  0
LINE
  5
4466
330
1F
100
AcDbEntity
  8
WAKU
100
AcDbLine
 10
1380.0
 20
954.9999999999998
 30
0.0
 11
0.0
 21
954.9999999999998
 31
0.0
  0
LINE
  5
4467
330
1F
100
AcDbEntity
  8
WAKU
100
AcDbLine
 10
0.0
 20
954.9999999999998
 30
0.0
 11
0.0
 21
0.0
 31
0.0
  0
LINE
  5
4468
330
1F
100
AcDbEntity
  8
KANAMONO_SCREW
370
    -3
100
AcDbLine
 10
651.0277249304179
 20
211.1377307499588
 30
0.0
 11
651.0277249304179
 21
206.1377307499588
 31
0.0
  0
LINE
  5
4469
330
1F
100
AcDbEntity
  8
KANAMONO_SCREW
370
    -3
100
AcDbLine
 10
656.5277249304179
 20
211.1377307499588
 30
0.0
 11
656.5277249304179
 21
206.1377307499588
 31
0.0
  0
LINE
  5
446A
330
1F
100
AcDbEntity
  8
KANAMONO_SCREW
370
    -3
100
AcDbLine
 10
656.7751960435093
 20
199.2743242765027
 30
0.0
 11
656.7751960435093
 21
206.1377307499588
 31
0.0
  0
LINE
  5
446B
330
1F
100
AcDbEntity
  8
KANAMONO_SCREW
370
    -3
100
AcDbLine
 10
650.7802550654316
 20
199.2743242765027
 30
0.0
 11
650.7802550654316
 21
206.1377307499588
 31
0.0
  0
LINE
  5
446C
330
1F
100
AcDbEntity
  8
KANAMONO_SCREW
370
    -3
100
AcDbLine
 10
656.7751960435093
 20
206.1377307499588
 30
0.0
 11
650.7802550654316
 21
206.1377307499588
 31
0.0
  0
ARC
  5
446D
330
1F
100
AcDbEntity
  8
KANAMONO_SCREW
370
    -3
100
AcDbCircle
 10
653.7777249304179
 20
204.5377307499589
 30
0.0
 40
0.6
100
AcDbArc
 50
300.3912602242412
 51
239.6087397757361
  0
LINE
  5
446E
330
1F
100
AcDbEntity
  8
KANAMONO_SCREW
370
    -3
100
AcDbLine
 10
654.0812662457636
 20
181.1377307499587
 30
0.0
 11
654.0812662457636
 21
204.0201762408698
 31
0.0
  0
LINE
  5
446F
330
1F
100
AcDbEntity
  8
KANAMONO_SCREW
370
    -3
100
AcDbLine
 10
653.4741836150719
 20
183.0348639708695
 30
0.0
 11
653.4741836150722
 21
204.0201762408701
 31
0.0
  0
LINE
  5
4470
330
1F
100
AcDbEntity
  8
KANAMONO_SCREW
370
    -3
100
AcDbLine
 10
653.4741836150722
 20
185.0078825206164
 30
0.0
 11
654.0812662457636
 21
185.0078825206164
 31
0.0
  0
LINE
  5
4471
330
1F
100
AcDbEntity
  8
KANAMONO_SCREW
370
    -3
100
AcDbLine
 10
653.4741836150722
 20
185.6149651513078
 30
0.0
 11
654.0812662457636
 21
185.6149651513078
 31
0.0
  0
LINE
  5
4472
330
1F
100
AcDbEntity
  8
KANAMONO_SCREW
370
    -3
100
AcDbLine
 10
655.327724930418
 20
211.1377307499588
 30
0.0
 11
656.7751960435093
 21
211.1377307499588
 31
0.0
  0
LINE
  5
4473
330
1F
100
AcDbEntity
  8
KANAMONO_SCREW
370
    -3
100
AcDbLine
 10
650.7802550654316
 20
211.1377307499588
 30
0.0
 11
652.2277249304179
 21
211.1377307499588
 31
0.0
  0
ARC
  5
4474
330
1F
100
AcDbEntity
  8
KANAMONO_SCREW
370
    -3
100
AcDbCircle
 10
652.2277249304179
 20
211.5627307499587
 30
0.0
 40
0.425
100
AcDbArc
 50
270.0
 51
90.0
  0
ARC
  5
4475
330
1F
100
AcDbEntity
  8
KANAMONO_SCREW
370
    -3
100
AcDbCircle
 10
655.3277249304178
 20
211.5627307499587
 30
0.0
 40
0.425
100
AcDbArc
 50
90.0
 51
270.0
  0
LINE
  5
4476
330
1F
100
AcDbEntity
  8
KANAMONO_SCREW
370
    -3
100
AcDbLine
 10
655.3277249304178
 20
211.9877307499589
 30
0.0
 11
656.7751960435093
 21
211.9877307499589
 31
0.0
  0
LINE
  5
4477
330
1F
100
AcDbEntity
  8
KANAMONO_SCREW
370
    -3
100
AcDbLine
 10
650.7802550654316
 20
211.9877307499589
 30
0.0
 11
652.2277249304179
 21
211.9877307499589
 31
0.0
  0
LINE
  5
4478
330
1F
100
AcDbEntity
  8
KANAMONO_SCREW
370
    -3
100
AcDbLine
 10
655.3277249304178
 20
212.4877307499589
 30
0.0
 11
656.7751960435093
 21
212.4877307499589
 31
0.0
  0
LINE
  5
4479
330
1F
100
AcDbEntity
  8
KANAMONO_SCREW
370
    -3
100
AcDbLine
 10
650.7802550654316
 20
212.4877307499589
 30
0.0
 11
652.2277249304179
 21
212.4877307499589
 31
0.0
  0
LINE
  5
447A
330
1F
100
AcDbEntity
  8
KANAMONO_SCREW
370
    -3
100
AcDbLine
 10
655.3277249304178
 20
212.9877307499589
 30
0.0
 11
656.7751960435093
 21
212.9877307499589
 31
0.0
  0
LINE
  5
447B
330
1F
100
AcDbEntity
  8
KANAMONO_SCREW
370
    -3
100
AcDbLine
 10
650.7802550654316
 20
212.9877307499589
 30
0.0
 11
652.2277249304179
 21
212.9877307499589
 31
0.0
  0
LINE
  5
447C
330
1F
100
AcDbEntity
  8
KANAMONO_SCREW
370
    -3
100
AcDbLine
 10
655.3277249304178
 20
213.4877307499589
 30
0.0
 11
656.7751960435093
 21
213.4877307499589
 31
0.0
  0
LINE
  5
447D
330
1F
100
AcDbEntity
  8
KANAMONO_SCREW
370
    -3
100
AcDbLine
 10
650.7802550654316
 20
213.4877307499589
 30
0.0
 11
652.2277249304179
 21
213.4877307499589
 31
0.0
  0
LINE
  5
447E
330
1F
100
AcDbEntity
  8
KANAMONO_SCREW
370
    -3
100
AcDbLine
 10
655.3277249304178
 20
213.9877307499589
 30
0.0
 11
656.7751960435093
 21
213.9877307499589
 31
0.0
  0
LINE
  5
447F
330
1F
100
AcDbEntity
  8
KANAMONO_SCREW
370
    -3
100
AcDbLine
 10
650.7802550654316
 20
213.9877307499589
 30
0.0
 11
652.2277249304179
 21
213.9877307499589
 31
0.0
  0
LINE
  5
4480
330
1F
100
AcDbEntity
  8
KANAMONO_SCREW
370
    -3
100
AcDbLine
 10
655.3277249304178
 20
214.4877307499589
 30
0.0
 11
656.7751960435093
 21
214.4877307499589
 31
0.0
  0
LINE
  5
4481
330
1F
100
AcDbEntity
  8
KANAMONO_SCREW
370
    -3
100
AcDbLine
 10
650.7802550654316
 20
214.4877307499589
 30
0.0
 11
652.2277249304179
 21
214.4877307499589
 31
0.0
  0
LINE
  5
4482
330
1F
100
AcDbEntity
  8
KANAMONO_SCREW
370
    -3
100
AcDbLine
 10
655.3277249304178
 20
214.9877307499589
 30
0.0
 11
656.7751960435093
 21
214.9877307499589
 31
0.0
  0
LINE
  5
4483
330
1F
100
AcDbEntity
  8
KANAMONO_SCREW
370
    -3
100
AcDbLine
 10
650.7802550654316
 20
214.9877307499589
 30
0.0
 11
652.2277249304179
 21
214.9877307499589
 31
0.0
  0
LINE
  5
4484
330
1F
100
AcDbEntity
  8
KANAMONO_SCREW
370
    -3
100
AcDbLine
 10
655.3277249304178
 20
215.4877307499589
 30
0.0
 11
656.7751960435093
 21
215.4877307499589
 31
0.0
  0
LINE
  5
4485
330
1F
100
AcDbEntity
  8
KANAMONO_SCREW
370
    -3
100
AcDbLine
 10
650.7802550654316
 20
215.4877307499589
 30
0.0
 11
652.2277249304179
 21
215.4877307499589
 31
0.0
  0
LINE
  5
4486
330
1F
100
AcDbEntity
  8
KANAMONO_SCREW
370
    -3
100
AcDbLine
 10
655.3277249304178
 20
215.9877307499589
 30
0.0
 11
656.7751960435093
 21
215.9877307499589
 31
0.0
  0
LINE
  5
4487
330
1F
100
AcDbEntity
  8
KANAMONO_SCREW
370
    -3
100
AcDbLine
 10
650.7802550654316
 20
215.9877307499589
 30
0.0
 11
652.2277249304179
 21
215.9877307499589
 31
0.0
  0
LINE
  5
4488
330
1F
100
AcDbEntity
  8
KANAMONO_SCREW
370
    -3
100
AcDbLine
 10
655.3277249304178
 20
216.4377307499587
 30
0.0
 11
656.7751960435093
 21
216.4377307499587
 31
0.0
  0
LINE
  5
4489
330
1F
100
AcDbEntity
  8
KANAMONO_SCREW
370
    -3
100
AcDbLine
 10
650.7802550654316
 20
216.4377307499587
 30
0.0
 11
652.2277249304179
 21
216.4377307499587
 31
0.0
  0
LINE
  5
448A
330
1F
100
AcDbEntity
  8
KANAMONO_SCREW
370
    -3
100
AcDbLine
 10
656.7751960435093
 20
211.1377307499588
 30
0.0
 11
656.7751960435093
 21
218.6377307499588
 31
0.0
  0
LINE
  5
448B
330
1F
100
AcDbEntity
  8
KANAMONO_SCREW
370
    -3
100
AcDbLine
 10
650.7802550654316
 20
211.1377307499588
 30
0.0
 11
650.7802550654316
 21
218.6377307499588
 31
0.0
  0
LINE
  5
448C
330
1F
100
AcDbEntity
  8
KANAMONO_SCREW
370
    -3
100
AcDbLine
 10
655.327724930418
 20
211.1377307499588
 30
0.0
 11
655.327724930418
 21
208.1877307499587
 31
0.0
  0
LINE
  5
448D
330
1F
100
AcDbEntity
  8
KANAMONO_SCREW
370
    -3
100
AcDbLine
 10
652.2277249304179
 20
211.1377307499588
 30
0.0
 11
652.2277249304179
 21
208.1877307499587
 31
0.0
  0
LINE
  5
448E
330
1F
100
AcDbEntity
  8
KANAMONO_SCREW
370
    -3
100
AcDbLine
 10
655.3277249304178
 20
216.5877307499588
 30
0.0
 11
655.3277249304178
 21
211.9877307499589
 31
0.0
  0
LINE
  5
448F
330
1F
100
AcDbEntity
  8
KANAMONO_SCREW
370
    -3
100
AcDbLine
 10
652.2277249304179
 20
216.5877307499588
 30
0.0
 11
652.2277249304179
 21
211.9877307499589
 31
0.0
  0
ARC
  5
4490
330
1F
100
AcDbEntity
  8
KANAMONO_SCREW
370
    -3
100
AcDbCircle
 10
653.7777249304179
 20
208.1877307499587
 30
0.0
 40
1.55
100
AcDbArc
 50
180.0
 51
0.0
  0
ARC
  5
4491
330
1F
100
AcDbEntity
  8
KANAMONO_SCREW
370
    -3
100
AcDbCircle
 10
653.7777249304179
 20
216.5877307499588
 30
0.0
 40
1.55
100
AcDbArc
 50
0.0
 51
180.0
  0
LINE
  5
4492
330
1F
100
AcDbEntity
  8
KANAMONO_SCREW
370
    -3
100
AcDbLine
 10
647.2777249304178
 20
219.6377307499588
 30
0.0
 11
649.2277249304179
 21
221.1377307499588
 31
0.0
  0
LINE
  5
4493
330
1F
100
AcDbEntity
  8
KANAMONO_SCREW
370
    -3
100
AcDbLine
 10
658.3277249304178
 20
221.1377307499588
 30
0.0
 11
660.2777249304178
 21
219.6377307499588
 31
0.0
  0
LINE
  5
4494
330
1F
100
AcDbEntity
  8
KANAMONO_SCREW
370
    -3
100
AcDbLine
 10
649.2277249304179
 20
221.1377307499588
 30
0.0
 11
658.3277249304178
 21
221.1377307499588
 31
0.0
  0
LINE
  5
4495
330
1F
100
AcDbEntity
  8
KANAMONO_SCREW
370
    -3
100
AcDbLine
 10
660.2777249304178
 20
219.6377307499588
 30
0.0
 11
660.2777249304178
 21
218.6377307499588
 31
0.0
  0
LINE
  5
4496
330
1F
100
AcDbEntity
  8
KANAMONO_SCREW
370
    -3
100
AcDbLine
 10
647.2777249304178
 20
219.6377307499588
 30
0.0
 11
660.2777249304178
 21
219.6377307499588
 31
0.0
  0
LINE
  5
4497
330
1F
100
AcDbEntity
  8
KANAMONO_SCREW
370
    -3
100
AcDbLine
 10
647.2777249304178
 20
219.6377307499588
 30
0.0
 11
647.2777249304178
 21
218.6377307499588
 31
0.0
  0
LINE
  5
4498
330
1F
100
AcDbEntity
  8
KANAMONO_SCREW
370
    -3
100
AcDbLine
 10
647.2777249304178
 20
218.6377307499588
 30
0.0
 11
660.2777249304178
 21
218.6377307499588
 31
0.0
  0
LINE
  5
4499
330
1F
100
AcDbEntity
  8
KANAMONO_SCREW
370
    -3
100
AcDbLine
 10
649.9322730714031
 20
221.200779853624
 30
0.0
 11
657.6231767894325
 21
221.200779853624
 31
0.0
  0
ARC
  5
449A
330
1F
100
AcDbEntity
  8
KANAMONO_SCREW
370
    -3
100
AcDbCircle
 10
653.7777249304179
 20
220.5507798536241
 30
0.0
 40
3.900000000000005
100
AcDbArc
 50
170.4059317731384
 51
171.3440832872695
  0
ARC
  5
449B
330
1F
100
AcDbEntity
  8
KANAMONO_SCREW
370
    -3
100
AcDbCircle
 10
653.7777249304179
 20
220.5507798536241
 30
0.0
 40
3.900000000000005
100
AcDbArc
 50
8.655916712730483
 51
9.594068226861594
  0
LINE
  5
449C
330
1F
100
AcDbEntity
  8
KANAMONO_SCREW
370
    -3
100
AcDbLine
 10
653.7777249304179
 20
172.900779853624
 30
0.0
 11
653.7777249304179
 21
180.3573843194051
 31
0.0
  0
LINE
  5
449D
330
1F
100
AcDbEntity
  8
KANAMONO_SCREW
370
    -3
100
AcDbLine
 10
655.5339632414297
 20
180.900779853624
 30
0.0
 11
652.0134392161324
 21
180.900779853624
 31
0.0
  0
LINE
  5
449E
330
1F
100
AcDbEntity
  8
KANAMONO_SCREW
370
    -3
100
AcDbLine
 10
652.0277249304179
 20
180.900779853624
 30
0.0
 11
652.0277249304179
 21
177.900779853624
 31
0.0
  0
LINE
  5
449F
330
1F
100
AcDbEntity
  8
KANAMONO_SCREW
370
    -3
100
AcDbLine
 10
655.5277249304179
 20
180.900779853624
 30
0.0
 11
655.5277249304179
 21
177.900779853624
 31
0.0
  0
LINE
  5
44A0
330
1F
100
AcDbEntity
  8
KANAMONO_SCREW
370
    -3
100
AcDbLine
 10
652.0277249304179
 20
177.900779853624
 30
0.0
 11
655.5277249304179
 21
177.900779853624
 31
0.0
  0
ELLIPSE
  5
44A1
330
1F
100
AcDbEntity
  8
KANAMONO_SCREW
370
    -3
100
AcDbEllipse
 10
652.5277249304179
 20
177.900779853624
 30
0.0
 11
0.0000000000000027
 21
1.700000000000017
 31
0.0
210
0.0
220
0.0
230
1.0
 40
0.2941176470588373
 41
0.0
 42
1.570796326794863
  0
ELLIPSE
  5
44A2
330
1F
100
AcDbEntity
  8
KANAMONO_SCREW
370
    -3
100
AcDbEllipse
 10
655.0277249304179
 20
177.900779853624
 30
0.0
 11
0.0000000000000027
 21
1.700000000000017
 31
0.0
210
0.0
220
0.0
230
1.0
 40
0.2941176470588038
 41
-1.570796326794896
 42
0.0
  0
ELLIPSE
  5
44A3
330
1F
100
AcDbEntity
  8
KANAMONO_SCREW
370
    -3
100
AcDbEllipse
 10
655.0277249304179
 20
177.900779853624
 30
0.0
 11
0.0000000000000027
 21
1.700000000000017
 31
0.0
210
0.0
220
0.0
230
1.0
 40
0.7353489374659476
 41
0.0
 42
1.570796326794895
  0
ELLIPSE
  5
44A4
330
1F
100
AcDbEntity
  8
KANAMONO_SCREW
370
    -3
100
AcDbEllipse
 10
652.5277249304179
 20
177.900779853624
 30
0.0
 11
0.0000000000000027
 21
1.700000000000017
 31
0.0
210
0.0
220
0.0
230
1.0
 40
0.7352941176470348
 41
-1.559108661948553
 42
0.0
  0
LINE
  5
44A5
330
1F
100
AcDbEntity
  8
KANAMONO_SCREW
370
    -3
100
AcDbLine
 10
655.5277249304179
 20
177.900779853624
 30
0.0
 11
653.7777249304179
 21
172.900779853624
 31
0.0
  0
LINE
  5
44A6
330
1F
100
AcDbEntity
  8
KANAMONO_SCREW
370
    -3
100
AcDbLine
 10
653.7777249304179
 20
172.900779853624
 30
0.0
 11
652.0277249304179
 21
177.900779853624
 31
0.0
  0
LINE
  5
44A7
330
1F
100
AcDbEntity
  8
KANAMONO_SCREW
370
    -3
100
AcDbLine
 10
656.7751900573846
 20
199.2743242765027
 30
0.0
 11
656.7748865335179
 21
199.2725911735367
 31
0.0
  0
LINE
  5
44A8
330
1F
100
AcDbEntity
  8
KANAMONO_SCREW
370
    -3
100
AcDbLine
 10
656.0277249304179
 20
197.312217934302
 30
0.0
 11
656.0277249304179
 21
195.5559431635179
 31
0.0
  0
LINE
  5
44A9
330
1F
100
AcDbEntity
  8
KANAMONO_SCREW
370
    -3
100
AcDbLine
 10
656.0277249304179
 20
193.5938367045741
 30
0.0
 11
656.0277249304179
 21
191.837562050533
 31
0.0
  0
LINE
  5
44AA
330
1F
100
AcDbEntity
  8
KANAMONO_SCREW
370
    -3
100
AcDbLine
 10
656.0277249304179
 20
189.8754554748466
 30
0.0
 11
656.0277249304179
 21
188.1191809375481
 31
0.0
  0
LINE
  5
44AB
330
1F
100
AcDbEntity
  8
KANAMONO_SCREW
370
    -3
100
AcDbLine
 10
656.0277249304179
 20
186.2329596906984
 30
0.0
 11
656.0277249304179
 21
184.4766851533997
 31
0.0
  0
LINE
  5
44AC
330
1F
100
AcDbEntity
  8
KANAMONO_SCREW
370
    -3
100
AcDbLine
 10
654.9857771800414
 20
196.4912173857094
 30
0.0
 11
654.9857771800414
 21
196.0112552018981
 31
0.0
  0
LINE
  5
44AD
330
1F
100
AcDbEntity
  8
KANAMONO_SCREW
370
    -3
100
AcDbLine
 10
655.5777249304169
 20
181.1507798536241
 30
0.0
 11
655.5420106447034
 21
180.900779853624
 31
0.0
  0
LINE
  5
44AE
330
1F
100
AcDbEntity
  8
KANAMONO_SCREW
370
    -3
100
AcDbLine
 10
655.5777249304169
 20
181.1507798536241
 30
0.0
 11
655.4431642429474
 21
181.1680805134416
 31
0.0
  0
LWPOLYLINE
  5
44AF
330
1F
100
AcDbEntity
  8
KANAMONO_SCREW
370
    -3
100
AcDbPolyline
 90
       39
 70
     0
 43
0.0
 10
656.775194795404
 20
202.6874316879038
 10
656.5287152418407
 20
201.2913980960252
 10
655.2660950802324
 20
200.6341196425635
 42
0.2592004735663025
 10
654.9857771800414
 20
200.209598498694
 10
654.9857771800414
 20
199.729636314883
 42
0.2036136011950793
 10
655.1174606721465
 20
199.4196764411508
 42
0.1982842753974383
 10
655.4858222545422
 20
199.2743242765027
 10
656.7751960435093
 20
199.2743242765027
 10
656.469777225744
 20
197.5423357938695
 10
655.2683339168965
 20
196.9169039941776
 42
0.257920399275152
 10
654.9857771800414
 20
196.4912173857094
 10
654.9857771800414
 20
196.0112552018981
 42
0.2036139203470236
 10
655.1174608964072
 20
195.701295328166
 42
0.1982836950201352
 10
655.485822596341
 20
195.5559431635179
 10
656.7751902816453
 20
195.5559431635179
 10
656.4697774500047
 20
193.8239546808847
 10
655.2683341411575
 20
193.1985228811928
 42
0.2579203992749133
 10
654.9857774043021
 20
192.7728362727245
 10
654.9857774043021
 20
192.2928740889133
 42
0.2036139203458012
 10
655.1174611206654
 20
191.982914215185
 42
0.1982836950192671
 10
655.4858228206017
 20
191.837562050533
 10
656.775190505906
 20
191.837562050533
 10
656.4697776742657
 20
190.1055735678998
 10
655.2683343654182
 20
189.480141768208
 42
0.257920399274954
 10
654.9857776285628
 20
189.0544551597397
 10
654.9857775763245
 20
188.5744929105667
 42
0.2036275691502115
 10
655.1174778626234
 20
188.2645165166202
 42
0.1982685003745556
 10
655.4858224219717
 20
188.1191809375481
 10
656.7751907301669
 20
188.1191809375481
 10
656.4845103570553
 20
186.4707471329779
 10
655.2677569929094
 20
185.8373454229556
 42
0.2582492780404442
 10
654.9857775763245
 20
185.4119594757041
 10
654.9857776285628
 20
184.93199719178
 42
0.1922719400571094
 10
655.1039915273252
 20
184.6359486046578
 42
0.2110160733286848
 10
655.4859445452191
 20
184.4766851533997
 10
656.7751910499894
 20
184.4766851533997
 10
656.5203121086538
 20
183.0347835592462
 10
655.425641580312
 20
181.137730684597
 10
653.7777250181832
 20
181.1377307499587
  0
LINE
  5
44B0
330
1F
100
AcDbEntity
  8
KANAMONO_SCREW
370
    -3
100
AcDbLine
 10
654.0812662457636
 20
183.0348639708695
 30
0.0
 11
656.5203121086538
 21
183.0347835592462
 31
0.0
  0
LWPOLYLINE
  5
44B1
330
1F
100
AcDbEntity
  8
KANAMONO_SCREW
370
    -3
100
AcDbPolyline
 90
        4
 70
     0
 43
0.0
 10
655.8311029388947
 20
199.2743243734708
 42
-0.4141897041352463
 10
655.3713163874613
 20
199.729636314883
 10
655.3713163906488
 20
200.4102975034062
 42
-0.279432028215579
 10
655.6208633459455
 20
200.8188000750162
 42
-3.4148491111701
  0
LWPOLYLINE
  5
44B2
330
1F
100
AcDbEntity
  8
KANAMONO_SCREW
370
    -3
100
AcDbPolyline
 90
        4
 70
     0
 43
0.0
 10
655.8311029388947
 20
195.555943497745
 42
-0.4141897041352463
 10
655.3713163874613
 20
196.0112554391571
 10
655.3713163906488
 20
196.6919166276803
 42
-0.279432028215579
 10
655.6208633459455
 20
197.1004191992903
 42
-3.4148491111701
  0
LWPOLYLINE
  5
44B3
330
1F
100
AcDbEntity
  8
KANAMONO_SCREW
370
    -3
100
AcDbPolyline
 90
        4
 70
     0
 43
0.0
 10
655.8311031631555
 20
191.8375621475012
 42
-0.4141897041352463
 10
655.3713166117222
 20
192.2928740889133
 10
655.3713166149098
 20
192.9735352774365
 42
-0.279432028215579
 10
655.6208635702064
 20
193.3820378490465
 42
-3.4148491111701
  0
LWPOLYLINE
  5
44B4
330
1F
100
AcDbEntity
  8
KANAMONO_SCREW
370
    -3
100
AcDbPolyline
 90
        4
 70
     0
 43
0.0
 10
655.8311033874165
 20
188.1191810345163
 42
-0.4141897041352463
 10
655.3713168359831
 20
188.5744929759284
 10
655.3713168391707
 20
189.2551541644517
 42
-0.279432028215579
 10
655.6208637944673
 20
189.6636567360617
 42
-3.4148491111701
  0
LWPOLYLINE
  5
44B5
330
1F
100
AcDbEntity
  8
KANAMONO_SCREW
370
    -3
100
AcDbPolyline
 90
        4
 70
     0
 43
0.0
 10
655.8311033874165
 20
184.4766852503679
 42
-0.4141897041352463
 10
655.3713168359831
 20
184.93199719178
 10
655.3713168391707
 20
185.6126583803032
 42
-0.279432028215579
 10
655.6208637944673
 20
186.0211609519133
 42
-3.4148491111701
  0
LWPOLYLINE
  5
44B6
330
1F
100
AcDbEntity
  8
KANAMONO_SCREW
370
    -3
100
AcDbPolyline
 90
        3
 70
     0
 43
0.0
 10
654.9857775763248
 20
181.1377307020436
 10
654.9857775763245
 20
184.6471035409581
 10
655.1039915273252
 20
184.6359486046578
  0
LWPOLYLINE
  5
44B7
330
1F
100
AcDbEntity
  8
KANAMONO_SCREW
370
    -3
100
AcDbPolyline
 90
        3
 70
     0
 43
0.0
 10
654.9857775763245
 20
185.41195947666
 10
654.9857775763659
 20
188.2757463289212
 10
655.1174778626234
 20
188.2645165166202
  0
LWPOLYLINE
  5
44B8
330
1F
100
AcDbEntity
  8
KANAMONO_SCREW
370
    -3
100
AcDbPolyline
 90
        3
 70
     0
 43
0.0
 10
654.9857775763245
 20
189.0544552598526
 10
654.9857775763664
 20
191.9941361703977
 10
655.1174611206654
 20
191.982914215185
  0
LWPOLYLINE
  5
44B9
330
1F
100
AcDbEntity
  8
KANAMONO_SCREW
370
    -3
100
AcDbPolyline
 90
        3
 70
     0
 43
0.0
 10
654.9857773520638
 20
192.7728363728374
 10
654.9857773521052
 20
195.7125172833824
 10
655.1174608964072
 20
195.701295328166
  0
LWPOLYLINE
  5
44BA
330
1F
100
AcDbEntity
  8
KANAMONO_SCREW
370
    -3
100
AcDbPolyline
 90
        3
 70
     0
 43
0.0
 10
654.9857771278031
 20
196.4912174858222
 10
654.9857771278031
 20
199.4308983963705
 10
655.1174606721465
 20
199.4196764411508
  0
LINE
  5
44BB
330
1F
100
AcDbEntity
  8
KANAMONO_SCREW
370
    -3
100
AcDbLine
 10
650.7802598034511
 20
199.2743242765027
 30
0.0
 11
650.7805633273179
 21
199.2725911735367
 31
0.0
  0
LINE
  5
44BC
330
1F
100
AcDbEntity
  8
KANAMONO_SCREW
370
    -3
100
AcDbLine
 10
651.5277249304179
 20
197.312217934302
 30
0.0
 11
651.5277249304179
 21
195.5559431635179
 31
0.0
  0
LINE
  5
44BD
330
1F
100
AcDbEntity
  8
KANAMONO_SCREW
370
    -3
100
AcDbLine
 10
651.5277249304179
 20
193.5938367045741
 30
0.0
 11
651.5277249304179
 21
191.837562050533
 31
0.0
  0
LINE
  5
44BE
330
1F
100
AcDbEntity
  8
KANAMONO_SCREW
370
    -3
100
AcDbLine
 10
651.5277249304179
 20
189.8754554748466
 30
0.0
 11
651.5277249304179
 21
188.1191809375481
 31
0.0
  0
LINE
  5
44BF
330
1F
100
AcDbEntity
  8
KANAMONO_SCREW
370
    -3
100
AcDbLine
 10
651.5277249304179
 20
186.2329596906984
 30
0.0
 11
651.5277249304179
 21
184.4766851533997
 31
0.0
  0
LINE
  5
44C0
330
1F
100
AcDbEntity
  8
KANAMONO_SCREW
370
    -3
100
AcDbLine
 10
652.5696726807943
 20
196.4912173857094
 30
0.0
 11
652.5696726807943
 21
196.0112552018981
 31
0.0
  0
LINE
  5
44C1
330
1F
100
AcDbEntity
  8
KANAMONO_SCREW
370
    -3
100
AcDbLine
 10
651.9777249304188
 20
181.1507798536241
 30
0.0
 11
652.0134392161324
 21
180.900779853624
 31
0.0
  0
LINE
  5
44C2
330
1F
100
AcDbEntity
  8
KANAMONO_SCREW
370
    -3
100
AcDbLine
 10
651.9777249304188
 20
181.1507798536241
 30
0.0
 11
652.1122856178883
 21
181.1680805134416
 31
0.0
  0
LINE
  5
44C3
330
1F
100
AcDbEntity
  8
KANAMONO_SCREW
370
    -3
100
AcDbLine
 10
653.4741836150722
 20
183.0348639708695
 30
0.0
 11
651.035137752182
 21
183.0347835592462
 31
0.0
  0
LWPOLYLINE
  5
44C4
330
1F
100
AcDbEntity
  8
KANAMONO_SCREW
370
    -3
100
AcDbPolyline
 90
        4
 70
     0
 43
0.0
 10
651.7243469219411
 20
199.2743243734708
 42
0.4141897041352463
 10
652.1841334733744
 20
199.729636314883
 10
652.1841334701869
 20
200.4102975034062
 42
0.279432028215579
 10
651.9345865148903
 20
200.8188000750162
 42
3.4148491111701
  0
LWPOLYLINE
  5
44C5
330
1F
100
AcDbEntity
  8
KANAMONO_SCREW
370
    -3
100
AcDbPolyline
 90
        4
 70
     0
 43
0.0
 10
651.7243469219411
 20
195.555943497745
 42
0.4141897041352463
 10
652.1841334733744
 20
196.0112554391571
 10
652.1841334701869
 20
196.6919166276803
 42
0.279432028215579
 10
651.9345865148903
 20
197.1004191992903
 42
3.4148491111701
  0
LWPOLYLINE
  5
44C6
330
1F
100
AcDbEntity
  8
KANAMONO_SCREW
370
    -3
100
AcDbPolyline
 90
        4
 70
     0
 43
0.0
 10
651.7243466976801
 20
191.8375621475012
 42
0.4141897041352463
 10
652.1841332491135
 20
192.2928740889133
 10
652.184133245926
 20
192.9735352774365
 42
0.279432028215579
 10
651.9345862906293
 20
193.3820378490465
 42
3.4148491111701
  0
LWPOLYLINE
  5
44C7
330
1F
100
AcDbEntity
  8
KANAMONO_SCREW
370
    -3
100
AcDbPolyline
 90
        4
 70
     0
 43
0.0
 10
651.7243464734193
 20
188.1191810345163
 42
0.4141897041352463
 10
652.1841330248526
 20
188.5744929759284
 10
652.184133021665
 20
189.2551541644517
 42
0.279432028215579
 10
651.9345860663683
 20
189.6636567360617
 42
3.4148491111701
  0
LWPOLYLINE
  5
44C8
330
1F
100
AcDbEntity
  8
KANAMONO_SCREW
370
    -3
100
AcDbPolyline
 90
        4
 70
     0
 43
0.0
 10
651.7243464734193
 20
184.4766852503679
 42
0.4141897041352463
 10
652.1841330248526
 20
184.93199719178
 10
652.184133021665
 20
185.6126583803032
 42
0.279432028215579
 10
651.9345860663683
 20
186.0211609519133
 42
3.4148491111701
  0
LWPOLYLINE
  5
44C9
330
1F
100
AcDbEntity
  8
KANAMONO_SCREW
370
    -3
100
AcDbPolyline
 90
        3
 70
     0
 43
0.0
 10
652.5696722845109
 20
181.1377307020436
 10
652.5696722845111
 20
184.6471035409581
 10
652.4514583335105
 20
184.6359486046578
  0
LWPOLYLINE
  5
44CA
330
1F
100
AcDbEntity
  8
KANAMONO_SCREW
370
    -3
100
AcDbPolyline
 90
        3
 70
     0
 43
0.0
 10
652.5696722845111
 20
185.41195947666
 10
652.5696722844697
 20
188.2757463289212
 10
652.4379719982123
 20
188.2645165166202
  0
LWPOLYLINE
  5
44CB
330
1F
100
AcDbEntity
  8
KANAMONO_SCREW
370
    -3
100
AcDbPolyline
 90
        3
 70
     0
 43
0.0
 10
652.5696722845111
 20
189.0544552598526
 10
652.5696722844693
 20
191.9941361703977
 10
652.4379887401703
 20
191.982914215185
  0
LWPOLYLINE
  5
44CC
330
1F
100
AcDbEntity
  8
KANAMONO_SCREW
370
    -3
100
AcDbPolyline
 90
        3
 70
     0
 43
0.0
 10
652.5696725087718
 20
192.7728363728374
 10
652.5696725087304
 20
195.7125172833824
 10
652.4379889644285
 20
195.701295328166
  0
LWPOLYLINE
  5
44CD
330
1F
100
AcDbEntity
  8
KANAMONO_SCREW
370
    -3
100
AcDbPolyline
 90
        3
 70
     0
 43
0.0
 10
652.5696727330325
 20
196.4912174858222
 10
652.5696727330325
 20
199.4308983963705
 10
652.4379891886892
 20
199.4196764411508
  0
LWPOLYLINE
  5
44CE
330
1F
100
AcDbEntity
  8
KANAMONO_SCREW
370
    -3
100
AcDbPolyline
 90
       39
 70
     0
 43
0.0
 10
650.7802600883392
 20
202.6874323621523
 10
651.0267393278795
 20
201.2913987148307
 10
652.2893593416402
 20
200.634119977356
 42
-0.2592004735663025
 10
652.5696771463397
 20
200.2095987704319
 10
652.5696770383772
 20
199.7296365866209
 42
-0.2036136011950793
 10
652.43799347655
 20
199.4196767425096
 42
-0.1982842753974383
 10
652.0696318614588
 20
199.2743246607205
 10
650.7802580724917
 20
199.2743249507516
 10
651.0856765006645
 20
197.5423363994177
 10
652.2871196688277
 20
196.9169043294739
 42
-0.257920399275152
 10
652.5696763099293
 20
196.4912176574474
 10
652.5696762019667
 20
196.0112554736362
 42
-0.2036139203470236
 10
652.4379924158788
 20
195.7012956295248
 42
-0.1982836950201352
 10
652.0696306832497
 20
195.5559435477358
 10
650.7802629979453
 20
195.5559438377654
 10
651.0856754399933
 20
193.823955286433
 10
652.2871186081563
 20
193.1985232164891
 42
-0.2579203992749133
 10
652.5696752492581
 20
192.7728365444628
 10
652.5696751412956
 20
192.2928743606515
 42
-0.2036139203458012
 10
652.4379913552102
 20
191.982914516544
 42
-0.1982836950192671
 10
652.0696296225785
 20
191.8375624347511
 10
650.7802619372742
 20
191.8375627247808
 10
651.0856743793219
 20
190.1055741734484
 10
652.2871175474851
 20
189.4801421035044
 42
-0.257920399274954
 10
652.569674188587
 20
189.0544554314781
 10
652.5696741328626
 20
188.5744931823051
 42
-0.2036275691502115
 10
652.4379737768379
 20
188.2645168179832
 42
-0.1982685003745556
 10
652.069629184798
 20
188.1191813217663
 10
650.7802608766028
 20
188.119181611796
 10
651.0709408789166
 20
186.4707477418404
 10
652.2876941005856
 20
185.8373457581224
 42
-0.2582492780404442
 10
652.5696734214843
 20
185.4119597474426
 10
652.5696732612837
 20
184.9319974635185
 42
-0.1922719400571094
 10
652.4514592959283
 20
184.6359489029873
 42
-0.2110160733286848
 10
652.0695062422098
 20
184.4766855376454
 10
650.7802597374396
 20
184.4766858276478
 10
651.0351383544346
 20
183.034784176162
 10
652.1298084560544
 20
181.1377310552784
 10
653.777725018183
 20
181.1377307499587
  0
LINE
  5
44CF
330
1F
100
AcDbEntity
  8
KANAMONO_SCREW
370
    -3
100
AcDbLine
 10
579.277724930418
 20
599.6877307499592
 30
0.0
 11
574.2777249304181
 21
599.6877307499592
 31
0.0
  0
LINE
  5
44D0
330
1F
100
AcDbEntity
  8
KANAMONO_SCREW
370
    -3
100
AcDbLine
 10
579.277724930418
 20
594.1877307499591
 30
0.0
 11
574.2777249304181
 21
594.1877307499591
 31
0.0
  0
LINE
  5
44D1
330
1F
100
AcDbEntity
  8
KANAMONO_SCREW
370
    -3
100
AcDbLine
 10
567.414318456962
 20
593.9402596368677
 30
0.0
 11
574.2777249304181
 21
593.9402596368677
 31
0.0
  0
LINE
  5
44D2
330
1F
100
AcDbEntity
  8
KANAMONO_SCREW
370
    -3
100
AcDbLine
 10
567.414318456962
 20
599.9352006149454
 30
0.0
 11
574.2777249304181
 21
599.9352006149454
 31
0.0
  0
LINE
  5
44D3
330
1F
100
AcDbEntity
  8
KANAMONO_SCREW
370
    -3
100
AcDbLine
 10
574.2777249304181
 20
593.9402596368677
 30
0.0
 11
574.2777249304181
 21
599.9352006149454
 31
0.0
  0
ARC
  5
44D4
330
1F
100
AcDbEntity
  8
KANAMONO_SCREW
370
    -3
100
AcDbCircle
 10
572.6777249304181
 20
596.9377307499591
 30
0.0
 40
0.6
100
AcDbArc
 50
210.3912602242429
 51
149.6087397757369
  0
LINE
  5
44D5
330
1F
100
AcDbEntity
  8
KANAMONO_SCREW
370
    -3
100
AcDbLine
 10
549.2777249304181
 20
596.6341894346135
 30
0.0
 11
572.1601704213291
 21
596.6341894346135
 31
0.0
  0
LINE
  5
44D6
330
1F
100
AcDbEntity
  8
KANAMONO_SCREW
370
    -3
100
AcDbLine
 10
551.1748581513288
 20
597.2412720653051
 30
0.0
 11
572.1601704213294
 21
597.2412720653048
 31
0.0
  0
LINE
  5
44D7
330
1F
100
AcDbEntity
  8
KANAMONO_SCREW
370
    -3
100
AcDbLine
 10
553.1478767010757
 20
597.2412720653048
 30
0.0
 11
553.1478767010757
 21
596.6341894346135
 31
0.0
  0
LINE
  5
44D8
330
1F
100
AcDbEntity
  8
KANAMONO_SCREW
370
    -3
100
AcDbLine
 10
553.7549593317671
 20
597.2412720653048
 30
0.0
 11
553.7549593317671
 21
596.6341894346135
 31
0.0
  0
LINE
  5
44D9
330
1F
100
AcDbEntity
  8
KANAMONO_SCREW
370
    -3
100
AcDbLine
 10
579.277724930418
 20
595.387730749959
 30
0.0
 11
579.277724930418
 21
593.9402596368677
 31
0.0
  0
LINE
  5
44DA
330
1F
100
AcDbEntity
  8
KANAMONO_SCREW
370
    -3
100
AcDbLine
 10
579.277724930418
 20
599.9352006149454
 30
0.0
 11
579.277724930418
 21
598.4877307499592
 31
0.0
  0
ARC
  5
44DB
330
1F
100
AcDbEntity
  8
KANAMONO_SCREW
370
    -3
100
AcDbCircle
 10
579.702724930418
 20
598.4877307499592
 30
0.0
 40
0.425
100
AcDbArc
 50
180.0
 51
0.0
  0
ARC
  5
44DC
330
1F
100
AcDbEntity
  8
KANAMONO_SCREW
370
    -3
100
AcDbCircle
 10
579.702724930418
 20
595.3877307499592
 30
0.0
 40
0.425
100
AcDbArc
 50
0.0
 51
180.0
  0
LINE
  5
44DD
330
1F
100
AcDbEntity
  8
KANAMONO_SCREW
370
    -3
100
AcDbLine
 10
580.1277249304182
 20
595.3877307499592
 30
0.0
 11
580.1277249304182
 21
593.9402596368677
 31
0.0
  0
LINE
  5
44DE
330
1F
100
AcDbEntity
  8
KANAMONO_SCREW
370
    -3
100
AcDbLine
 10
580.1277249304182
 20
599.9352006149454
 30
0.0
 11
580.1277249304182
 21
598.4877307499592
 31
0.0
  0
LINE
  5
44DF
330
1F
100
AcDbEntity
  8
KANAMONO_SCREW
370
    -3
100
AcDbLine
 10
580.6277249304182
 20
595.3877307499592
 30
0.0
 11
580.6277249304182
 21
593.9402596368677
 31
0.0
  0
LINE
  5
44E0
330
1F
100
AcDbEntity
  8
KANAMONO_SCREW
370
    -3
100
AcDbLine
 10
580.6277249304182
 20
599.9352006149454
 30
0.0
 11
580.6277249304182
 21
598.4877307499592
 31
0.0
  0
LINE
  5
44E1
330
1F
100
AcDbEntity
  8
KANAMONO_SCREW
370
    -3
100
AcDbLine
 10
581.1277249304182
 20
595.3877307499592
 30
0.0
 11
581.1277249304182
 21
593.9402596368677
 31
0.0
  0
LINE
  5
44E2
330
1F
100
AcDbEntity
  8
KANAMONO_SCREW
370
    -3
100
AcDbLine
 10
581.1277249304182
 20
599.9352006149454
 30
0.0
 11
581.1277249304182
 21
598.4877307499592
 31
0.0
  0
LINE
  5
44E3
330
1F
100
AcDbEntity
  8
KANAMONO_SCREW
370
    -3
100
AcDbLine
 10
581.6277249304182
 20
595.3877307499592
 30
0.0
 11
581.6277249304182
 21
593.9402596368677
 31
0.0
  0
LINE
  5
44E4
330
1F
100
AcDbEntity
  8
KANAMONO_SCREW
370
    -3
100
AcDbLine
 10
581.6277249304182
 20
599.9352006149454
 30
0.0
 11
581.6277249304182
 21
598.4877307499592
 31
0.0
  0
LINE
  5
44E5
330
1F
100
AcDbEntity
  8
KANAMONO_SCREW
370
    -3
100
AcDbLine
 10
582.1277249304182
 20
595.3877307499592
 30
0.0
 11
582.1277249304182
 21
593.9402596368677
 31
0.0
  0
LINE
  5
44E6
330
1F
100
AcDbEntity
  8
KANAMONO_SCREW
370
    -3
100
AcDbLine
 10
582.1277249304182
 20
599.9352006149454
 30
0.0
 11
582.1277249304182
 21
598.4877307499592
 31
0.0
  0
LINE
  5
44E7
330
1F
100
AcDbEntity
  8
KANAMONO_SCREW
370
    -3
100
AcDbLine
 10
582.6277249304182
 20
595.3877307499592
 30
0.0
 11
582.6277249304182
 21
593.9402596368677
 31
0.0
  0
LINE
  5
44E8
330
1F
100
AcDbEntity
  8
KANAMONO_SCREW
370
    -3
100
AcDbLine
 10
582.6277249304182
 20
599.9352006149454
 30
0.0
 11
582.6277249304182
 21
598.4877307499592
 31
0.0
  0
LINE
  5
44E9
330
1F
100
AcDbEntity
  8
KANAMONO_SCREW
370
    -3
100
AcDbLine
 10
583.1277249304182
 20
595.3877307499592
 30
0.0
 11
583.1277249304182
 21
593.9402596368677
 31
0.0
  0
LINE
  5
44EA
330
1F
100
AcDbEntity
  8
KANAMONO_SCREW
370
    -3
100
AcDbLine
 10
583.1277249304182
 20
599.9352006149454
 30
0.0
 11
583.1277249304182
 21
598.4877307499592
 31
0.0
  0
LINE
  5
44EB
330
1F
100
AcDbEntity
  8
KANAMONO_SCREW
370
    -3
100
AcDbLine
 10
583.6277249304182
 20
595.3877307499592
 30
0.0
 11
583.6277249304182
 21
593.9402596368677
 31
0.0
  0
LINE
  5
44EC
330
1F
100
AcDbEntity
  8
KANAMONO_SCREW
370
    -3
100
AcDbLine
 10
583.6277249304182
 20
599.9352006149454
 30
0.0
 11
583.6277249304182
 21
598.4877307499592
 31
0.0
  0
LINE
  5
44ED
330
1F
100
AcDbEntity
  8
KANAMONO_SCREW
370
    -3
100
AcDbLine
 10
584.1277249304182
 20
595.3877307499592
 30
0.0
 11
584.1277249304182
 21
593.9402596368677
 31
0.0
  0
LINE
  5
44EE
330
1F
100
AcDbEntity
  8
KANAMONO_SCREW
370
    -3
100
AcDbLine
 10
584.1277249304182
 20
599.9352006149454
 30
0.0
 11
584.1277249304182
 21
598.4877307499592
 31
0.0
  0
LINE
  5
44EF
330
1F
100
AcDbEntity
  8
KANAMONO_SCREW
370
    -3
100
AcDbLine
 10
584.577724930418
 20
595.3877307499592
 30
0.0
 11
584.577724930418
 21
593.9402596368677
 31
0.0
  0
LINE
  5
44F0
330
1F
100
AcDbEntity
  8
KANAMONO_SCREW
370
    -3
100
AcDbLine
 10
584.577724930418
 20
599.9352006149454
 30
0.0
 11
584.577724930418
 21
598.4877307499592
 31
0.0
  0
LINE
  5
44F1
330
1F
100
AcDbEntity
  8
KANAMONO_SCREW
370
    -3
100
AcDbLine
 10
579.277724930418
 20
593.9402596368677
 30
0.0
 11
586.7777249304181
 21
593.9402596368677
 31
0.0
  0
LINE
  5
44F2
330
1F
100
AcDbEntity
  8
KANAMONO_SCREW
370
    -3
100
AcDbLine
 10
579.277724930418
 20
599.9352006149454
 30
0.0
 11
586.7777249304181
 21
599.9352006149454
 31
0.0
  0
LINE
  5
44F3
330
1F
100
AcDbEntity
  8
KANAMONO_SCREW
370
    -3
100
AcDbLine
 10
579.277724930418
 20
595.387730749959
 30
0.0
 11
576.327724930418
 21
595.387730749959
 31
0.0
  0
LINE
  5
44F4
330
1F
100
AcDbEntity
  8
KANAMONO_SCREW
370
    -3
100
AcDbLine
 10
579.277724930418
 20
598.4877307499592
 30
0.0
 11
576.327724930418
 21
598.4877307499592
 31
0.0
  0
LINE
  5
44F5
330
1F
100
AcDbEntity
  8
KANAMONO_SCREW
370
    -3
100
AcDbLine
 10
584.7277249304181
 20
595.3877307499592
 30
0.0
 11
580.1277249304182
 21
595.3877307499592
 31
0.0
  0
LINE
  5
44F6
330
1F
100
AcDbEntity
  8
KANAMONO_SCREW
370
    -3
100
AcDbLine
 10
584.7277249304181
 20
598.4877307499592
 30
0.0
 11
580.1277249304182
 21
598.4877307499592
 31
0.0
  0
ARC
  5
44F7
330
1F
100
AcDbEntity
  8
KANAMONO_SCREW
370
    -3
100
AcDbCircle
 10
576.327724930418
 20
596.9377307499591
 30
0.0
 40
1.55
100
AcDbArc
 50
90.0
 51
270.0
  0
ARC
  5
44F8
330
1F
100
AcDbEntity
  8
KANAMONO_SCREW
370
    -3
100
AcDbCircle
 10
584.7277249304181
 20
596.9377307499591
 30
0.0
 40
1.55
100
AcDbArc
 50
270.0
 51
90.0
  0
LINE
  5
44F9
330
1F
100
AcDbEntity
  8
KANAMONO_SCREW
370
    -3
100
AcDbLine
 10
587.777724930418
 20
603.4377307499592
 30
0.0
 11
589.2777249304181
 21
601.4877307499591
 31
0.0
  0
LINE
  5
44FA
330
1F
100
AcDbEntity
  8
KANAMONO_SCREW
370
    -3
100
AcDbLine
 10
589.2777249304181
 20
592.3877307499592
 30
0.0
 11
587.777724930418
 21
590.4377307499592
 31
0.0
  0
LINE
  5
44FB
330
1F
100
AcDbEntity
  8
KANAMONO_SCREW
370
    -3
100
AcDbLine
 10
589.2777249304181
 20
601.4877307499591
 30
0.0
 11
589.2777249304181
 21
592.3877307499592
 31
0.0
  0
LINE
  5
44FC
330
1F
100
AcDbEntity
  8
KANAMONO_SCREW
370
    -3
100
AcDbLine
 10
587.777724930418
 20
590.4377307499592
 30
0.0
 11
586.7777249304181
 21
590.4377307499592
 31
0.0
  0
LINE
  5
44FD
330
1F
100
AcDbEntity
  8
KANAMONO_SCREW
370
    -3
100
AcDbLine
 10
587.777724930418
 20
603.4377307499592
 30
0.0
 11
587.777724930418
 21
590.4377307499592
 31
0.0
  0
LINE
  5
44FE
330
1F
100
AcDbEntity
  8
KANAMONO_SCREW
370
    -3
100
AcDbLine
 10
587.777724930418
 20
603.4377307499592
 30
0.0
 11
586.7777249304181
 21
603.4377307499592
 31
0.0
  0
LINE
  5
44FF
330
1F
100
AcDbEntity
  8
KANAMONO_SCREW
370
    -3
100
AcDbLine
 10
586.7777249304181
 20
603.4377307499592
 30
0.0
 11
586.7777249304181
 21
590.4377307499592
 31
0.0
  0
LINE
  5
4500
330
1F
100
AcDbEntity
  8
KANAMONO_SCREW
370
    -3
100
AcDbLine
 10
589.3407740340832
 20
600.7831826089739
 30
0.0
 11
589.3407740340832
 21
593.0922788909445
 31
0.0
  0
ARC
  5
4501
330
1F
100
AcDbEntity
  8
KANAMONO_SCREW
370
    -3
100
AcDbCircle
 10
588.6907740340834
 20
596.9377307499591
 30
0.0
 40
3.900000000000005
100
AcDbArc
 50
80.40593177313521
 51
81.34408328726953
  0
ARC
  5
4502
330
1F
100
AcDbEntity
  8
KANAMONO_SCREW
370
    -3
100
AcDbCircle
 10
588.6907740340834
 20
596.9377307499591
 30
0.0
 40
3.900000000000005
100
AcDbArc
 50
278.6559167127304
 51
279.5940682268648
  0
LINE
  5
4503
330
1F
100
AcDbEntity
  8
KANAMONO_SCREW
370
    -3
100
AcDbLine
 10
541.0407740340834
 20
596.9377307499591
 30
0.0
 11
548.4973784998644
 21
596.9377307499591
 31
0.0
  0
LINE
  5
4504
330
1F
100
AcDbEntity
  8
KANAMONO_SCREW
370
    -3
100
AcDbLine
 10
549.0407740340834
 20
595.1814924389473
 30
0.0
 11
549.0407740340834
 21
598.7020164642447
 31
0.0
  0
LINE
  5
4505
330
1F
100
AcDbEntity
  8
KANAMONO_SCREW
370
    -3
100
AcDbLine
 10
549.0407740340834
 20
598.6877307499591
 30
0.0
 11
546.0407740340833
 21
598.6877307499591
 31
0.0
  0
LINE
  5
4506
330
1F
100
AcDbEntity
  8
KANAMONO_SCREW
370
    -3
100
AcDbLine
 10
549.0407740340834
 20
595.1877307499592
 30
0.0
 11
546.0407740340833
 21
595.1877307499592
 31
0.0
  0
LINE
  5
4507
330
1F
100
AcDbEntity
  8
KANAMONO_SCREW
370
    -3
100
AcDbLine
 10
546.0407740340833
 20
598.6877307499591
 30
0.0
 11
546.0407740340833
 21
595.1877307499592
 31
0.0
  0
ELLIPSE
  5
4508
330
1F
100
AcDbEntity
  8
KANAMONO_SCREW
370
    -3
100
AcDbEllipse
 10
546.0407740340833
 20
598.1877307499591
 30
0.0
 11
1.700000000000017
 21
-0.0000000000000031
 31
0.0
210
0.0
220
0.0
230
1.0
 40
0.2941176470588373
 41
0.0
 42
1.570796326794863
  0
ELLIPSE
  5
4509
330
1F
100
AcDbEntity
  8
KANAMONO_SCREW
370
    -3
100
AcDbEllipse
 10
546.0407740340833
 20
595.6877307499592
 30
0.0
 11
1.700000000000017
 21
-0.0000000000000031
 31
0.0
210
0.0
220
0.0
230
1.0
 40
0.2941176470588038
 41
-1.570796326794896
 42
0.0
  0
ELLIPSE
  5
450A
330
1F
100
AcDbEntity
  8
KANAMONO_SCREW
370
    -3
100
AcDbEllipse
 10
546.0407740340833
 20
595.6877307499592
 30
0.0
 11
1.700000000000017
 21
-0.0000000000000031
 31
0.0
210
0.0
220
0.0
230
1.0
 40
0.7353489374659476
 41
0.0
 42
1.570796326794895
  0
ELLIPSE
  5
450B
330
1F
100
AcDbEntity
  8
KANAMONO_SCREW
370
    -3
100
AcDbEllipse
 10
546.0407740340833
 20
598.1877307499591
 30
0.0
 11
1.700000000000017
 21
-0.0000000000000031
 31
0.0
210
0.0
220
0.0
230
1.0
 40
0.7352941176470348
 41
-1.559108661948553
 42
0.0
  0
LINE
  5
450C
330
1F
100
AcDbEntity
  8
KANAMONO_SCREW
370
    -3
100
AcDbLine
 10
546.0407740340833
 20
595.1877307499592
 30
0.0
 11
541.0407740340834
 21
596.9377307499591
 31
0.0
  0
LINE
  5
450D
330
1F
100
AcDbEntity
  8
KANAMONO_SCREW
370
    -3
100
AcDbLine
 10
541.0407740340834
 20
596.9377307499591
 30
0.0
 11
546.0407740340833
 21
598.6877307499591
 31
0.0
  0
LINE
  5
450E
330
1F
100
AcDbEntity
  8
KANAMONO_SCREW
370
    -3
100
AcDbLine
 10
567.414318456962
 20
593.9402656229924
 30
0.0
 11
567.412585353996
 21
593.9405691468591
 31
0.0
  0
LINE
  5
450F
330
1F
100
AcDbEntity
  8
KANAMONO_SCREW
370
    -3
100
AcDbLine
 10
565.4522121147613
 20
594.6877307499591
 30
0.0
 11
563.6959373439772
 21
594.6877307499591
 31
0.0
  0
LINE
  5
4510
330
1F
100
AcDbEntity
  8
KANAMONO_SCREW
370
    -3
100
AcDbLine
 10
561.7338308850334
 20
594.6877307499591
 30
0.0
 11
559.9775562309924
 21
594.6877307499591
 31
0.0
  0
LINE
  5
4511
330
1F
100
AcDbEntity
  8
KANAMONO_SCREW
370
    -3
100
AcDbLine
 10
558.0154496553059
 20
594.6877307499591
 30
0.0
 11
556.2591751180075
 21
594.6877307499591
 31
0.0
  0
LINE
  5
4512
330
1F
100
AcDbEntity
  8
KANAMONO_SCREW
370
    -3
100
AcDbLine
 10
554.3729538711577
 20
594.6877307499591
 30
0.0
 11
552.6166793338591
 21
594.6877307499591
 31
0.0
  0
LINE
  5
4513
330
1F
100
AcDbEntity
  8
KANAMONO_SCREW
370
    -3
100
AcDbLine
 10
564.6312115661687
 20
595.7296785003356
 30
0.0
 11
564.1512493823575
 21
595.7296785003356
 31
0.0
  0
LINE
  5
4514
330
1F
100
AcDbEntity
  8
KANAMONO_SCREW
370
    -3
100
AcDbLine
 10
549.2907740340834
 20
595.1377307499601
 30
0.0
 11
549.0407740340834
 21
595.1734450356736
 31
0.0
  0
LINE
  5
4515
330
1F
100
AcDbEntity
  8
KANAMONO_SCREW
370
    -3
100
AcDbLine
 10
549.2907740340834
 20
595.1377307499601
 30
0.0
 11
549.3080746939009
 21
595.2722914374296
 31
0.0
  0
LWPOLYLINE
  5
4516
330
1F
100
AcDbEntity
  8
KANAMONO_SCREW
370
    -3
100
AcDbPolyline
 90
       39
 70
     0
 43
0.0
 10
570.8274258683632
 20
593.940260884973
 10
569.4313922764845
 20
594.1867404385363
 10
568.7741138230228
 20
595.4493606001447
 42
0.2592004735663025
 10
568.3495926791533
 20
595.7296785003356
 10
567.8696304953423
 20
595.7296785003356
 42
0.2036136011950793
 10
567.5596706216102
 20
595.5979950082305
 42
0.1982842753974383
 10
567.414318456962
 20
595.2296334258348
 10
567.414318456962
 20
593.9402596368677
 10
565.6823299743289
 20
594.245678454633
 10
565.056898174637
 20
595.4471217634805
 42
0.257920399275152
 10
564.6312115661687
 20
595.7296785003356
 10
564.1512493823575
 20
595.7296785003356
 42
0.2036139203470236
 10
563.8412895086253
 20
595.5979947839698
 42
0.1982836950201352
 10
563.6959373439772
 20
595.229633084036
 10
563.6959373439772
 20
593.9402653987317
 10
561.963948861344
 20
594.2456782303723
 10
561.3385170616521
 20
595.4471215392195
 42
0.2579203992749133
 10
560.9128304531838
 20
595.7296782760749
 10
560.4328682693726
 20
595.7296782760749
 42
0.2036139203458012
 10
560.1229083956443
 20
595.5979945597116
 42
0.1982836950192671
 10
559.9775562309924
 20
595.2296328597753
 10
559.9775562309924
 20
593.940265174471
 10
558.2455677483592
 20
594.2456780061113
 10
557.6201359486673
 20
595.4471213149588
 42
0.257920399274954
 10
557.194449340199
 20
595.7296780518142
 10
556.7144870910261
 20
595.7296781040525
 42
0.2036275691502115
 10
556.4045106970795
 20
595.5979778177536
 42
0.1982685003745556
 10
556.2591751180075
 20
595.2296332584053
 10
556.2591751180075
 20
593.9402649502101
 10
554.6107413134373
 20
594.2309453233217
 10
553.9773396034149
 20
595.4476986874676
 42
0.2582492780404442
 10
553.5519536561634
 20
595.7296781040525
 10
553.0719913722394
 20
595.7296780518142
 42
0.1922719400571094
 10
552.7759427851171
 20
595.6114641530518
 42
0.2110160733286848
 10
552.6166793338591
 20
595.2295111351579
 10
552.6166793338591
 20
593.9402646303876
 10
551.1747777397056
 20
594.1951435717233
 10
549.2777248650563
 20
595.2898141000651
 10
549.2777249304181
 20
596.9377306621939
  0
LINE
  5
4517
330
1F
100
AcDbEntity
  8
KANAMONO_SCREW
370
    -3
100
AcDbLine
 10
551.1748581513288
 20
596.6341894346135
 30
0.0
 11
551.1747777397056
 21
594.1951435717233
 31
0.0
  0
LWPOLYLINE
  5
4518
330
1F
100
AcDbEntity
  8
KANAMONO_SCREW
370
    -3
100
AcDbPolyline
 90
        4
 70
     0
 43
0.0
 10
567.4143185539302
 20
594.8843527414823
 42
-0.4141897041352463
 10
567.8696304953423
 20
595.3441392929157
 10
568.5502916838656
 20
595.3441392897282
 42
-0.279432028215579
 10
568.9587942554756
 20
595.0945923344315
 42
-3.4148491111701
  0
LWPOLYLINE
  5
4519
330
1F
100
AcDbEntity
  8
KANAMONO_SCREW
370
    -3
100
AcDbPolyline
 90
        4
 70
     0
 43
0.0
 10
563.6959376782043
 20
594.8843527414823
 42
-0.4141897041352463
 10
564.1512496196164
 20
595.3441392929157
 10
564.8319108081397
 20
595.3441392897282
 42
-0.279432028215579
 10
565.2404133797497
 20
595.0945923344315
 42
-3.4148491111701
  0
LWPOLYLINE
  5
451A
330
1F
100
AcDbEntity
  8
KANAMONO_SCREW
370
    -3
100
AcDbPolyline
 90
        4
 70
     0
 43
0.0
 10
559.9775563279605
 20
594.8843525172215
 42
-0.4141897041352463
 10
560.4328682693726
 20
595.3441390686548
 10
561.1135294578958
 20
595.3441390654672
 42
-0.279432028215579
 10
561.5220320295058
 20
595.0945921101706
 42
-3.4148491111701
  0
LWPOLYLINE
  5
451B
330
1F
100
AcDbEntity
  8
KANAMONO_SCREW
370
    -3
100
AcDbPolyline
 90
        4
 70
     0
 43
0.0
 10
556.2591752149756
 20
594.8843522929605
 42
-0.4141897041352463
 10
556.7144871563877
 20
595.3441388443938
 10
557.395148344911
 20
595.3441388412064
 42
-0.279432028215579
 10
557.803650916521
 20
595.0945918859097
 42
-3.4148491111701
  0
LWPOLYLINE
  5
451C
330
1F
100
AcDbEntity
  8
KANAMONO_SCREW
370
    -3
100
AcDbPolyline
 90
        4
 70
     0
 43
0.0
 10
552.6166794308273
 20
594.8843522929605
 42
-0.4141897041352463
 10
553.0719913722394
 20
595.3441388443938
 10
553.7526525607626
 20
595.3441388412064
 42
-0.279432028215579
 10
554.1611551323726
 20
595.0945918859097
 42
-3.4148491111701
  0
LWPOLYLINE
  5
451D
330
1F
100
AcDbEntity
  8
KANAMONO_SCREW
370
    -3
100
AcDbPolyline
 90
        3
 70
     0
 43
0.0
 10
549.277724882503
 20
595.7296781040522
 10
552.7870977214174
 20
595.7296781040525
 10
552.7759427851171
 20
595.6114641530518
  0
LWPOLYLINE
  5
451E
330
1F
100
AcDbEntity
  8
KANAMONO_SCREW
370
    -3
100
AcDbPolyline
 90
        3
 70
     0
 43
0.0
 10
553.5519536571193
 20
595.7296781040525
 10
556.4157405093806
 20
595.7296781040111
 10
556.4045106970795
 20
595.5979778177536
  0
LWPOLYLINE
  5
451F
330
1F
100
AcDbEntity
  8
KANAMONO_SCREW
370
    -3
100
AcDbPolyline
 90
        3
 70
     0
 43
0.0
 10
557.1944494403119
 20
595.7296781040525
 10
560.134130350857
 20
595.7296781040106
 10
560.1229083956443
 20
595.5979945597116
  0
LWPOLYLINE
  5
4520
330
1F
100
AcDbEntity
  8
KANAMONO_SCREW
370
    -3
100
AcDbPolyline
 90
        3
 70
     0
 43
0.0
 10
560.9128305532967
 20
595.7296783283132
 10
563.8525114638418
 20
595.7296783282718
 10
563.8412895086253
 20
595.5979947839698
  0
LWPOLYLINE
  5
4521
330
1F
100
AcDbEntity
  8
KANAMONO_SCREW
370
    -3
100
AcDbPolyline
 90
        3
 70
     0
 43
0.0
 10
564.6312116662816
 20
595.7296785525739
 10
567.5708925768299
 20
595.7296785525739
 10
567.5596706216102
 20
595.5979950082305
  0
LINE
  5
4522
330
1F
100
AcDbEntity
  8
KANAMONO_SCREW
370
    -3
100
AcDbLine
 10
567.414318456962
 20
599.9351958769259
 30
0.0
 11
567.412585353996
 21
599.9348923530592
 31
0.0
  0
LINE
  5
4523
330
1F
100
AcDbEntity
  8
KANAMONO_SCREW
370
    -3
100
AcDbLine
 10
565.4522121147613
 20
599.1877307499592
 30
0.0
 11
563.6959373439772
 21
599.1877307499592
 31
0.0
  0
LINE
  5
4524
330
1F
100
AcDbEntity
  8
KANAMONO_SCREW
370
    -3
100
AcDbLine
 10
561.7338308850334
 20
599.1877307499592
 30
0.0
 11
559.9775562309924
 21
599.1877307499592
 31
0.0
  0
LINE
  5
4525
330
1F
100
AcDbEntity
  8
KANAMONO_SCREW
370
    -3
100
AcDbLine
 10
558.0154496553059
 20
599.1877307499592
 30
0.0
 11
556.2591751180075
 21
599.1877307499592
 31
0.0
  0
LINE
  5
4526
330
1F
100
AcDbEntity
  8
KANAMONO_SCREW
370
    -3
100
AcDbLine
 10
554.3729538711577
 20
599.1877307499592
 30
0.0
 11
552.6166793338591
 21
599.1877307499592
 31
0.0
  0
LINE
  5
4527
330
1F
100
AcDbEntity
  8
KANAMONO_SCREW
370
    -3
100
AcDbLine
 10
564.6312115661687
 20
598.1457829995827
 30
0.0
 11
564.1512493823575
 21
598.1457829995827
 31
0.0
  0
LINE
  5
4528
330
1F
100
AcDbEntity
  8
KANAMONO_SCREW
370
    -3
100
AcDbLine
 10
549.2907740340834
 20
598.7377307499582
 30
0.0
 11
549.0407740340834
 21
598.7020164642447
 31
0.0
  0
LINE
  5
4529
330
1F
100
AcDbEntity
  8
KANAMONO_SCREW
370
    -3
100
AcDbLine
 10
549.2907740340834
 20
598.7377307499582
 30
0.0
 11
549.3080746939009
 21
598.6031700624887
 31
0.0
  0
LINE
  5
452A
330
1F
100
AcDbEntity
  8
KANAMONO_SCREW
370
    -3
100
AcDbLine
 10
551.1748581513288
 20
597.2412720653048
 30
0.0
 11
551.1747777397056
 21
599.680317928195
 31
0.0
  0
LWPOLYLINE
  5
452B
330
1F
100
AcDbEntity
  8
KANAMONO_SCREW
370
    -3
100
AcDbPolyline
 90
        4
 70
     0
 43
0.0
 10
567.4143185539302
 20
598.991108758436
 42
0.4141897041352463
 10
567.8696304953423
 20
598.5313222070026
 10
568.5502916838656
 20
598.5313222101901
 42
0.279432028215579
 10
568.9587942554756
 20
598.7808691654868
 42
3.4148491111701
  0
LWPOLYLINE
  5
452C
330
1F
100
AcDbEntity
  8
KANAMONO_SCREW
370
    -3
100
AcDbPolyline
 90
        4
 70
     0
 43
0.0
 10
563.6959376782043
 20
598.991108758436
 42
0.4141897041352463
 10
564.1512496196164
 20
598.5313222070026
 10
564.8319108081397
 20
598.5313222101901
 42
0.279432028215579
 10
565.2404133797497
 20
598.7808691654868
 42
3.4148491111701
  0
LWPOLYLINE
  5
452D
330
1F
100
AcDbEntity
  8
KANAMONO_SCREW
370
    -3
100
AcDbPolyline
 90
        4
 70
     0
 43
0.0
 10
559.9775563279605
 20
598.9911089826969
 42
0.4141897041352463
 10
560.4328682693726
 20
598.5313224312635
 10
561.1135294578958
 20
598.5313224344511
 42
0.279432028215579
 10
561.5220320295058
 20
598.7808693897477
 42
3.4148491111701
  0
LWPOLYLINE
  5
452E
330
1F
100
AcDbEntity
  8
KANAMONO_SCREW
370
    -3
100
AcDbPolyline
 90
        4
 70
     0
 43
0.0
 10
556.2591752149756
 20
598.9911092069578
 42
0.4141897041352463
 10
556.7144871563877
 20
598.5313226555245
 10
557.395148344911
 20
598.531322658712
 42
0.279432028215579
 10
557.803650916521
 20
598.7808696140087
 42
3.4148491111701
  0
LWPOLYLINE
  5
452F
330
1F
100
AcDbEntity
  8
KANAMONO_SCREW
370
    -3
100
AcDbPolyline
 90
        4
 70
     0
 43
0.0
 10
552.6166794308273
 20
598.9911092069578
 42
0.4141897041352463
 10
553.0719913722394
 20
598.5313226555245
 10
553.7526525607626
 20
598.531322658712
 42
0.279432028215579
 10
554.1611551323726
 20
598.7808696140087
 42
3.4148491111701
  0
LWPOLYLINE
  5
4530
330
1F
100
AcDbEntity
  8
KANAMONO_SCREW
370
    -3
100
AcDbPolyline
 90
        3
 70
     0
 43
0.0
 10
549.277724882503
 20
598.1457833958661
 10
552.7870977214174
 20
598.1457833958659
 10
552.7759427851171
 20
598.2639973468665
  0
LWPOLYLINE
  5
4531
330
1F
100
AcDbEntity
  8
KANAMONO_SCREW
370
    -3
100
AcDbPolyline
 90
        3
 70
     0
 43
0.0
 10
553.5519536571193
 20
598.1457833958659
 10
556.4157405093806
 20
598.1457833959073
 10
556.4045106970795
 20
598.2774836821647
  0
LWPOLYLINE
  5
4532
330
1F
100
AcDbEntity
  8
KANAMONO_SCREW
370
    -3
100
AcDbPolyline
 90
        3
 70
     0
 43
0.0
 10
557.1944494403119
 20
598.1457833958659
 10
560.134130350857
 20
598.1457833959077
 10
560.1229083956443
 20
598.2774669402068
  0
LWPOLYLINE
  5
4533
330
1F
100
AcDbEntity
  8
KANAMONO_SCREW
370
    -3
100
AcDbPolyline
 90
        3
 70
     0
 43
0.0
 10
560.9128305532967
 20
598.1457831716052
 10
563.8525114638418
 20
598.1457831716466
 10
563.8412895086253
 20
598.2774667159485
  0
LWPOLYLINE
  5
4534
330
1F
100
AcDbEntity
  8
KANAMONO_SCREW
370
    -3
100
AcDbPolyline
 90
        3
 70
     0
 43
0.0
 10
564.6312116662816
 20
598.1457829473445
 10
567.5708925768299
 20
598.1457829473445
 10
567.5596706216102
 20
598.2774664916878
  0
LWPOLYLINE
  5
4535
330
1F
100
AcDbEntity
  8
KANAMONO_SCREW
370
    -3
100
AcDbPolyline
 90
       39
 70
     0
 43
0.0
 10
570.8274265426116
 20
599.9351955920379
 10
569.43139289529
 20
599.6887163524974
 10
568.7741141578153
 20
598.4260963387368
 42
-0.2592004735663025
 10
568.3495929508913
 20
598.1457785340373
 10
567.8696307670803
 20
598.1457786419999
 42
-0.2036136011950793
 10
567.5596709229689
 20
598.277462203827
 42
-0.1982842753974383
 10
567.4143188411798
 20
598.6458238189181
 10
567.414319131211
 20
599.9351976078854
 10
565.6823305798771
 20
599.6297791797125
 10
565.0568985099332
 20
598.4283360115494
 42
-0.257920399275152
 10
564.6312118379068
 20
598.1457793704478
 10
564.1512496540955
 20
598.1457794784103
 42
-0.2036139203470236
 10
563.8412898099842
 20
598.2774632644982
 42
-0.1982836950201352
 10
563.6959377281952
 20
598.6458249971274
 10
563.6959380182247
 20
599.9351926824317
 10
561.9639494668923
 20
599.6297802403837
 10
561.3385173969485
 20
598.4283370722208
 42
-0.2579203992749133
 10
560.9128307249221
 20
598.1457804311189
 10
560.4328685411108
 20
598.1457805390814
 42
-0.2036139203458012
 10
560.1229086970033
 20
598.2774643251668
 42
-0.1982836950192671
 10
559.9775566152104
 20
598.6458260577985
 10
559.9775569052401
 20
599.9351937431029
 10
558.2455683539077
 20
599.6297813010551
 10
557.6201362839638
 20
598.4283381328919
 42
-0.257920399274954
 10
557.1944496119374
 20
598.14578149179
 10
556.7144873627644
 20
598.1457815475144
 42
-0.2036275691502115
 10
556.4045109984426
 20
598.2774819035391
 42
-0.1982685003745556
 10
556.2591755022257
 20
598.645826495579
 10
556.2591757922554
 20
599.9351948037742
 10
554.6107419222997
 20
599.6445148014604
 10
553.9773399385817
 20
598.4277615797914
 42
-0.2582492780404442
 10
553.551953927902
 20
598.1457822588927
 10
553.0719916439778
 20
598.1457824190933
 42
-0.1922719400571094
 10
552.7759430834467
 20
598.2639963844487
 42
-0.2110160733286848
 10
552.6166797181048
 20
598.6459494381672
 10
552.6166800081072
 20
599.9351959429375
 10
551.1747783566213
 20
599.6803173259425
 10
549.2777252357377
 20
598.5856472243226
 10
549.2777249304181
 20
596.937730662194
  0
ENDSEC
  0
SECTION
  2
OBJECTS
  0
DICTIONARY
  5
C
330
0
100
AcDbDictionary
281
     1
  3
ACAD_CIP_PREVIOUS_PRODUCT_INFO
350
3EB3
  3
ACAD_COLOR
350
3E95
  3
ACAD_DETAILVIEWSTYLE
350
3EAE
  3
ACAD_GROUP
350
D
  3
ACAD_LAYOUT
350
1A
  3
ACAD_MATERIAL
350
3E63
  3
ACAD_MLEADERSTYLE
350
3EAA
  3
ACAD_MLINESTYLE
350
17
  3
ACAD_PLOTSETTINGS
350
19
  3
ACAD_PLOTSTYLENAME
350
E
  3
ACAD_RENDER_ACTIVE_RAPIDRT_SETTINGS
350
432B
  3
ACAD_RENDER_ACTIVE_SETTINGS
350
457C
  3
ACAD_SCALELIST
350
3E98
  3
ACAD_SECTIONVIEWSTYLE
350
3EAC
  3
ACAD_TABLESTYLE
350
3E96
  3
ACAD_VISUALSTYLE
350
3E7C
  3
ACDB_RECOMPOSE_DATA
350
4538
  3
AcDbVariableDictionary
350
1835
  3
AEC_PROPERTY_SET_DEFS
350
3EC7
  3
DWGPROPS
350
4539
  0
DICTIONARY
  5
3F5D
330
8
100
AcDbDictionary
280
     1
281
     1
  0
DICTIONARY
  5
2D
330
2
100
AcDbDictionary
280
     1
281
     1
  3
ACAD_LAYERFILTERS
360
2E
  3
ACAD_LAYERSTATES
360
918
  0
DICTIONARY
  5
3EF7
330
10
100
AcDbDictionary
280
     1
281
     1
  3
ADSK_XREC_LAYER_RECONCILED
360
3EF8
  0
DICTIONARY
  5
3EF9
330
235F
100
AcDbDictionary
280
     1
281
     1
  3
ADSK_XREC_LAYER_RECONCILED
360
3EFA
  0
DICTIONARY
  5
3EFB
330
2361
100
AcDbDictionary
280
     1
281
     1
  3
ADSK_XREC_LAYER_RECONCILED
360
3EFC
  0
DICTIONARY
  5
3EFD
330
2363
100
AcDbDictionary
280
     1
281
     1
  3
ADSK_XREC_LAYER_RECONCILED
360
3EFE
  0
DICTIONARY
  5
3EFF
330
32AD
100
AcDbDictionary
280
     1
281
     1
  3
ADSK_XREC_LAYER_RECONCILED
360
3F00
  0
DICTIONARY
  5
3F01
330
37DE
100
AcDbDictionary
280
     1
281
     1
  3
ADSK_XREC_LAYER_RECONCILED
360
3F02
  0
DICTIONARY
  5
3F03
330
37DF
100
AcDbDictionary
280
     1
281
     1
  3
ADSK_XREC_LAYER_RECONCILED
360
3F04
  0
DICTIONARY
  5
3F05
330
37E0
100
AcDbDictionary
280
     1
281
     1
  3
ADSK_XREC_LAYER_RECONCILED
360
3F06
  0
DICTIONARY
  5
3F07
330
37E1
100
AcDbDictionary
280
     1
281
     1
  3
ADSK_XREC_LAYER_RECONCILED
360
3F08
  0
DICTIONARY
  5
3F09
330
3D82
100
AcDbDictionary
280
     1
281
     1
  3
ADSK_XREC_LAYER_RECONCILED
360
3F0A
  0
DICTIONARY
  5
3EB5
330
3EB4
100
AcDbDictionary
280
     1
281
     1
  3
ADSK_XREC_LAYER_RECONCILED
360
3F0B
  0
DICTIONARY
  5
4312
330
4311
100
AcDbDictionary
280
     1
281
     1
  0
DICTIONARY
  5
1C62
330
1F
100
AcDbDictionary
280
     1
281
     1
  3
ACAD_SORTENTS
360
1C63
  0
DICTIONARY
  5
42A7
330
42A6
100
AcDbDictionary
280
     1
281
     1
  0
XRECORD
  5
3EB3
102
{ACAD_REACTORS
330
C
102
}
330
C
100
AcDbXrecord
280
     1
300
ACD
300
2022
300

  0
DICTIONARY
  5
3E95
102
{ACAD_REACTORS
330
C
102
}
330
C
100
AcDbDictionary
281
     1
  0
DICTIONARY
  5
3EAE
102
{ACAD_REACTORS
330
C
102
}
330
C
100
AcDbDictionary
281
     1
  3
Metric50
350
3EAF
  0
DICTIONARY
  5
D
102
{ACAD_REACTORS
330
C
102
}
330
C
100
AcDbDictionary
281
     1
  0
DICTIONARY
  5
1A
102
{ACAD_REACTORS
330
C
102
}
330
C
100
AcDbDictionary
281
     1
  3
Model
350
22
  3
\U+FF9A\U+FF72\U+FF71\U+FF73\U+FF841
350
1CD1
  0
DICTIONARY
  5
3E63
102
{ACAD_REACTORS
330
C
102
}
330
C
100
AcDbDictionary
281
     1
  3
ByBlock
350
3E6C
  3
ByLayer
350
3E64
  3
Global
350
3E74
  0
DICTIONARY
  5
3EAA
102
{ACAD_REACTORS
330
C
102
}
330
C
100
AcDbDictionary
281
     1
  3
Standard
350
3EAB
  0
DICTIONARY
  5
17
102
{ACAD_REACTORS
330
C
102
}
330
C
100
AcDbDictionary
281
     1
  3
Standard
350
18
  0
DICTIONARY
  5
19
102
{ACAD_REACTORS
330
C
102
}
330
C
100
AcDbDictionary
281
     1
  0
ACDBDICTIONARYWDFLT
  5
E
102
{ACAD_REACTORS
330
C
102
}
330
C
100
AcDbDictionary
281
     1
  3
Normal
350
F
  3
細線
350
37E2
  3
通常
350
29
100
AcDbDictionaryWithDefault
340
F
  0
RAPIDRTRENDERSETTINGS
  5
432B
102
{ACAD_REACTORS
330
C
102
}
330
C
100
AcDbRenderSettings
 90
        2
  1
中
290
     1
290
     0
290
     1
290
     1
  1

  1
5 レンダリング レベルを適用
 90
        0
100
AcDbRapidRTRenderSettings
 90
        3
 70
     0
 90
        5
 90
        1
 70
     1
 70
     2
 40
3.0
 40
3.0
290
     1
  0
MENTALRAYRENDERSETTINGS
  5
457C
102
{ACAD_XDICTIONARY
360
457D
102
}
102
{ACAD_REACTORS
330
C
102
}
330
C
100
AcDbRenderSettings
 90
        2
  1
中間
290
     1
290
     1
290
     1
290
     1
  1

  1

 90
        0
100
AcDbMentalRayRenderSettings
 90
        2
 90
        0
 90
        1
 70
     2
 40
3.0
 40
3.0
 40
0.0500000007450581
 40
0.0500000007450581
 40
0.0500000007450581
 40
0.0500000007450581
 70
     0
290
     0
290
     1
 90
        5
 90
        5
 90
        5
290
     0
 90
      500
290
     0
 40
1.0
 90
    10000
 90
        5
 90
        5
 90
        5
290
     0
 90
      200
290
     0
290
     0
290
     0
 40
1.0
 40
1.0
 40
1500.0
 70
     0
 70
     0
 40
10.0
 70
     0
 70
     0
290
     0
  1

 90
       32
 70
     0
 90
     1048
290
     0
 40
1.0
  0
DICTIONARY
  5
3E98
102
{ACAD_REACTORS
330
C
102
}
330
C
100
AcDbDictionary
281
     1
  3
A0
350
3E99
  3
A1
350
3E9A
  3
A2
350
3E9B
  3
A3
350
3E9C
  3
A4
350
3E9D
  3
A5
350
3E9E
  3
A6
350
3E9F
  3
A7
350
3EA0
  3
A8
350
3EA1
  3
A9
350
3EA2
  3
B0
350
3EA3
  3
B1
350
3EA4
  3
B2
350
3EA5
  3
B3
350
3EA6
  3
B4
350
3EA7
  3
B5
350
3EA8
  3
B6
350
3EA9
  0
DICTIONARY
  5
3EAC
102
{ACAD_REACTORS
330
C
102
}
330
C
100
AcDbDictionary
281
     1
  3
Metric50
350
3EAD
  0
DICTIONARY
  5
3E96
102
{ACAD_REACTORS
330
C
102
}
330
C
100
AcDbDictionary
281
     1
  3
Standard
350
3E97
  0
DICTIONARY
  5
3E7C
102
{ACAD_REACTORS
330
C
102
}
330
C
100
AcDbDictionary
281
     1
  3
2dWireframe
350
3E82
  3
3D Hidden
350
3FA8
  3
3dWireframe
350
3FA7
  3
Basic
350
3E81
  3
Brighten
350
3E88
  3
ColorChange
350
3E8C
  3
Conceptual
350
3E85
  3
Dim
350
3E87
  3
EdgeColorOff
350
3E94
  3
Facepattern
350
3E8B
  3
Flat
350
3E7D
  3
FlatWithEdges
350
3E7E
  3
Gouraud
350
3E7F
  3
GouraudWithEdges
350
3E80
  3
Hidden
350
3E84
  3
JitterOff
350
3E92
  3
Linepattern
350
3E8A
  3
OverhangOff
350
3E93
  3
Realistic
350
3E86
  3
Shaded
350
3E91
  3
Shaded with edges
350
3E90
  3
Shades of Gray
350
3E8D
  3
Sketchy
350
3E8E
  3
Thicken
350
3E89
  3
Wireframe
350
3E83
  3
X-Ray
350
3E8F
  0
XRECORD
  5
4538
102
{ACAD_REACTORS
330
C
102
}
330
C
100
AcDbXrecord
280
     1
 90
        1
330
3E97
  0
DICTIONARY
  5
1835
102
{ACAD_REACTORS
330
C
102
}
330
C
100
AcDbDictionary
281
     1
  3
CANNOSCALE
350
3FA2
  3
CMLEADERSTYLE
350
3F9F
  3
CTABLESTYLE
350
3F9E
  3
CVIEWDETAILSTYLE
350
3FA0
  3
CVIEWSECTIONSTYLE
350
3FA1
  3
DIMASSOC
350
3FA4
  3
INDEXCTL
350
3FA3
  3
SORTENTS
350
1836
  3
XCLIPFRAME
350
4536
  0
DICTIONARY
  5
3EC7
102
{ACAD_REACTORS
330
C
102
}
330
C
100
AcDbDictionary
281
     1
  0
XRECORD
  5
4539
102
{ACAD_REACTORS
330
C
102
}
330
C
100
AcDbXrecord
280
     1
  1
DWGPROPS COOKIE
  2

  3

  4

  6

  7

  8
2020009
  9

300
=
301
=
302
=
303
=
304
=
305
=
306
=
307
=
308
=
309
=
 40
0.2342274884259259
 41
2453276.413761574
 42
2459986.61769676
  1

 90
        0
  0
DICTIONARY
  5
2E
102
{ACAD_REACTORS
330
2D
102
}
330
2D
100
AcDbDictionary
280
     1
281
     1
  0
DICTIONARY
  5
918
102
{ACAD_REACTORS
330
2D
102
}
330
2D
100
AcDbDictionary
281
     1
  0
XRECORD
  5
3EF8
102
{ACAD_REACTORS
330
3EF7
102
}
330
3EF7
100
AcDbXrecord
280
     1
290
     1
  0
XRECORD
  5
3EFA
102
{ACAD_REACTORS
330
3EF9
102
}
330
3EF9
100
AcDbXrecord
280
     1
290
     1
  0
XRECORD
  5
3EFC
102
{ACAD_REACTORS
330
3EFB
102
}
330
3EFB
100
AcDbXrecord
280
     1
290
     1
  0
XRECORD
  5
3EFE
102
{ACAD_REACTORS
330
3EFD
102
}
330
3EFD
100
AcDbXrecord
280
     1
290
     1
  0
XRECORD
  5
3F00
102
{ACAD_REACTORS
330
3EFF
102
}
330
3EFF
100
AcDbXrecord
280
     1
290
     1
  0
XRECORD
  5
3F02
102
{ACAD_REACTORS
330
3F01
102
}
330
3F01
100
AcDbXrecord
280
     1
290
     1
  0
XRECORD
  5
3F04
102
{ACAD_REACTORS
330
3F03
102
}
330
3F03
100
AcDbXrecord
280
     1
290
     1
  0
XRECORD
  5
3F06
102
{ACAD_REACTORS
330
3F05
102
}
330
3F05
100
AcDbXrecord
280
     1
290
     1
  0
XRECORD
  5
3F08
102
{ACAD_REACTORS
330
3F07
102
}
330
3F07
100
AcDbXrecord
280
     1
290
     1
  0
XRECORD
  5
3F0A
102
{ACAD_REACTORS
330
3F09
102
}
330
3F09
100
AcDbXrecord
280
     1
290
     1
  0
XRECORD
  5
3F0B
102
{ACAD_REACTORS
330
3EB5
102
}
330
3EB5
100
AcDbXrecord
280
     1
290
     1
  0
SORTENTSTABLE
  5
1C63
102
{ACAD_REACTORS
330
1C62
102
}
330
1C62
100
AcDbSortentsTable
330
1F
331
3DBB
  5
3DD1
331
3DBD
  5
3DD7
331
3DBF
  5
3DD9
331
3DC1
  5
3DE2
331
3DC3
  5
3DE3
331
3DC5
  5
3ECC
331
3DC7
  5
3ECE
331
3DC8
  5
3ECF
331
3DC9
  5
3ED0
331
3DCA
  5
4376
331
3DD1
  5
4413
331
3DD2
  5
4414
331
3DD4
  5
4417
331
3DD7
  5
441E
331
3DD9
  5
4421
331
3DDD
  5
4434
331
3DE1
  5
4455
331
3DE2
  5
4456
331
3DE3
  5
4457
331
3DE5
  5
445A
331
3ECB
  5
445F
331
3ECC
  5
4460
331
3ECE
  5
4465
331
3ECF
  5
4466
331
3ED0
  5
4467
331
4376
  5
3DBB
331
4377
  5
3DBD
331
4378
  5
3DBF
331
4379
  5
3DC1
331
437A
  5
3DC3
331
437B
  5
3DC5
331
437C
  5
3DC7
331
437D
  5
3DC8
331
437E
  5
3DC9
331
437F
  5
3DCA
331
4380
  5
3DD2
331
4381
  5
3DD4
331
4382
  5
3DDD
331
4383
  5
3DE1
331
4384
  5
3DE5
331
4385
  5
3ECB
331
4386
  5
4377
331
4387
  5
4378
331
4388
  5
4379
331
4389
  5
437A
331
438A
  5
437B
331
438B
  5
437C
331
438C
  5
437D
331
438D
  5
437E
331
438E
  5
437F
331
438F
  5
4380
331
4390
  5
4381
331
4391
  5
4382
331
4392
  5
4383
331
4393
  5
4384
331
4394
  5
4385
331
4395
  5
4386
331
4396
  5
4387
331
4397
  5
4388
331
4398
  5
4389
331
4399
  5
438A
331
439A
  5
438B
331
439B
  5
438C
331
439C
  5
438D
331
439D
  5
438E
331
439E
  5
438F
331
439F
  5
4390
331
43A0
  5
4391
331
43A1
  5
4392
331
43A2
  5
4393
331
43A3
  5
4394
331
43A4
  5
4395
331
43A5
  5
4396
331
43A6
  5
4397
331
43A7
  5
4398
331
43A8
  5
4399
331
43A9
  5
439A
331
43AA
  5
439B
331
43AB
  5
439C
331
43AC
  5
439D
331
43AD
  5
439E
331
43AE
  5
439F
331
43AF
  5
43A0
331
43B0
  5
43A1
331
43B1
  5
43A2
331
43B2
  5
43A3
331
43B3
  5
43A4
331
43B4
  5
43A5
331
43B5
  5
43A6
331
43B6
  5
43A7
331
43B7
  5
43A8
331
43B8
  5
43A9
331
43B9
  5
43AA
331
43BA
  5
43AB
331
43BB
  5
43AC
331
43BC
  5
43AD
331
43BD
  5
43AE
331
43BE
  5
43AF
331
43BF
  5
43B0
331
43C0
  5
43B1
331
43C1
  5
43B2
331
43C2
  5
43B3
331
43C3
  5
43B4
331
43C4
  5
43B5
331
43C5
  5
43B6
331
43C6
  5
43B7
331
43C7
  5
43B8
331
43C8
  5
43B9
331
43C9
  5
43BA
331
43CA
  5
43BB
331
43CB
  5
43BC
331
43CC
  5
43BD
331
43CD
  5
43BE
331
43CE
  5
43BF
331
43CF
  5
43C0
331
43D0
  5
43C1
331
43D1
  5
43C2
331
43D2
  5
43C3
331
43D3
  5
43C4
331
43D4
  5
43C5
331
43D5
  5
43C6
331
43D6
  5
43C7
331
43D7
  5
43C8
331
43D8
  5
43C9
331
43D9
  5
43CA
331
43DA
  5
43CB
331
43DB
  5
43CC
331
43DC
  5
43CD
331
43DD
  5
43CE
331
43DE
  5
43CF
331
43DF
  5
43D0
331
43E0
  5
43D1
331
43E1
  5
43D2
331
43E2
  5
43D3
331
43E3
  5
43D4
331
43E4
  5
43D5
331
43E5
  5
43D6
331
43E6
  5
43D7
331
43E7
  5
43D8
331
43E8
  5
43D9
331
43E9
  5
43DA
331
43EA
  5
43DB
331
43EB
  5
43DC
331
43EC
  5
43DD
331
43ED
  5
43DE
331
43EE
  5
43DF
331
43EF
  5
43E0
331
43F0
  5
43E1
331
43F1
  5
43E2
331
43F2
  5
43E3
331
43F3
  5
43E4
331
43F4
  5
43E5
331
43F5
  5
43E6
331
43F6
  5
43E7
331
43F7
  5
43E8
331
43F8
  5
43E9
331
43F9
  5
43EA
331
43FA
  5
43EB
331
43FB
  5
43EC
331
43FC
  5
43ED
331
43FD
  5
43EE
331
43FE
  5
43EF
331
43FF
  5
43F0
331
4400
  5
43F1
331
4401
  5
43F2
331
4402
  5
43F3
331
4403
  5
43F4
331
4404
  5
43F5
331
4405
  5
43F6
331
4406
  5
43F7
331
4407
  5
43F8
331
4408
  5
43F9
331
4409
  5
43FA
331
440A
  5
43FB
331
440B
  5
43FC
331
440C
  5
43FD
331
440D
  5
43FE
331
440E
  5
43FF
331
440F
  5
4400
331
4410
  5
4401
331
4411
  5
4402
331
4412
  5
4403
331
4413
  5
4404
331
4414
  5
4405
331
4415
  5
4406
331
4416
  5
4407
331
4417
  5
4408
331
4418
  5
4409
331
4419
  5
440A
331
441A
  5
440B
331
441B
  5
440C
331
441C
  5
440D
331
441D
  5
440E
331
441E
  5
440F
331
441F
  5
4410
331
4420
  5
4411
331
4421
  5
4412
331
4422
  5
4415
331
4423
  5
4416
331
4424
  5
4418
331
4425
  5
4419
331
4426
  5
441A
331
4427
  5
441B
331
4428
  5
441C
331
4429
  5
441D
331
442A
  5
441F
331
442B
  5
4420
331
442C
  5
4422
331
442D
  5
4423
331
442E
  5
4424
331
442F
  5
4425
331
4430
  5
4426
331
4431
  5
4427
331
4432
  5
4428
331
4433
  5
4429
331
4434
  5
442A
331
4435
  5
442B
331
4436
  5
442C
331
4437
  5
442D
331
4438
  5
442E
331
4439
  5
442F
331
443A
  5
4430
331
443B
  5
4431
331
443C
  5
4432
331
443D
  5
4433
331
443E
  5
4435
331
443F
  5
4436
331
4440
  5
4437
331
4441
  5
4438
331
4442
  5
4439
331
4443
  5
443A
331
4444
  5
443B
331
4445
  5
443C
331
4446
  5
443D
331
4447
  5
443E
331
4448
  5
443F
331
4449
  5
4440
331
444A
  5
4441
331
444B
  5
4442
331
444C
  5
4443
331
444D
  5
4444
331
444E
  5
4445
331
444F
  5
4446
331
4450
  5
4447
331
4451
  5
4448
331
4452
  5
4449
331
4453
  5
444A
331
4454
  5
444B
331
4455
  5
444C
331
4456
  5
444D
331
4457
  5
444E
331
4458
  5
444F
331
4459
  5
4450
331
445A
  5
4451
331
445B
  5
4452
331
445C
  5
4453
331
445D
  5
4454
331
445E
  5
4458
331
445F
  5
4459
331
4460
  5
445B
331
4461
  5
445C
331
4462
  5
445D
331
4463
  5
445E
331
4464
  5
4461
331
4465
  5
4462
331
4466
  5
4463
331
4467
  5
4464
  0
ACDBDETAILVIEWSTYLE
  5
3EAF
102
{ACAD_XDICTIONARY
360
4576
102
}
102
{ACAD_REACTORS
330
3EAE
102
}
330
3EAE
100
AcDbModelDocViewStyle
 70
     0
  3
Metric50
290
     0
100
AcDbDetailViewStyle
 70
     0
 71
     0
 90
        3
 71
     1
340
11
 40
5.0
340
0
 40
5.0
300

 40
0.0
280
     1
 71
     2
340
16
 90
       25
 71
     3
340
11
 40
5.0
 90
        0
 40
15.0
 90
        1
300
%<\AcVar ViewDetailId>% (%<\AcVar ViewScale \f "%sn">%)
 71
     4
340
16
 90
       25
340
16
 90
       25
280
     0
1001
ACAD
1000
AcRTDxfName
1000
ACDBDETAILVIEWSTYLE
  0
LAYOUT
  5
22
102
{ACAD_XDICTIONARY
360
453A
102
}
102
{ACAD_REACTORS
330
1A
102
}
330
1A
100
AcDbPlotSettings
  1

  2
Canon LBP3800 LIPSLX
  4
A4
  6

 40
5.873749732971191
 41
5.873747825622558
 42
5.873748779296875
 43
5.873748779296875
 44
209.9733276367187
 45
296.9259948730469
 46
0.61
 47
0.59
 48
444.9983463649091
 49
-1090.000000918417
140
2395.001653364909
141
1659.999999081583
142
1.0
143
10.0
 70
 11940
 72
     1
 73
     1
 74
     2
  7
monochrome.ctb
 75
     0
147
0.1
148
0.0
149
0.0
100
AcDbLayout
  1
Model
 70
     1
 71
     0
 10
0.0
 20
0.0
 11
12.0
 21
9.0
 12
0.0
 22
0.0
 32
0.0
 14
0.0
 24
0.0
 34
0.0
 15
0.0
 25
0.0
 35
0.0
146
0.0
 13
0.0
 23
0.0
 33
0.0
 16
1.0
 26
0.0
 36
0.0
 17
0.0
 27
1.0
 37
0.0
 76
     0
330
1F
331
3E61
  0
LAYOUT
  5
1CD1
102
{ACAD_XDICTIONARY
360
453C
102
}
102
{ACAD_REACTORS
330
1A
102
}
330
1A
100
AcDbPlotSettings
  1

  2
\\ek_srv\Canon LBP-880 LIPS4
  4

  6

 40
0.0
 41
0.0
 42
0.0
 43
0.0
 44
0.0
 45
0.0
 46
0.0
 47
0.0
 48
0.0
 49
0.0
140
0.0
141
0.0
142
1.0
143
1.0
 70
   688
 72
     0
 73
     0
 74
     5
  7
monochrome.ctb
 75
    16
147
1.0
148
0.0
149
0.0
100
AcDbLayout
  1
\U+FF9A\U+FF72\U+FF71\U+FF73\U+FF841
 70
     1
 71
     1
 10
0.0
 20
0.0
 11
12.0
 21
9.0
 12
0.0
 22
0.0
 32
0.0
 14
0.0
 24
0.0
 34
0.0
 15
0.0
 25
0.0
 35
0.0
146
0.0
 13
0.0
 23
0.0
 33
0.0
 16
1.0
 26
0.0
 36
0.0
 17
0.0
 27
1.0
 37
0.0
 76
     0
330
1CD0
  0
MATERIAL
  5
3E6C
102
{ACAD_XDICTIONARY
360
3E6D
102
}
102
{ACAD_REACTORS
330
3E63
102
}
330
3E63
100
AcDbMaterial
  1
ByBlock
 72
     0
 43
0.0008202099737533
 43
0.0
 43
0.0
 43
0.0
 43
0.0
 43
0.0008202099737533
 43
0.0
 43
0.0
 43
0.0
 43
0.0
 43
1.0
 43
0.0
 43
0.0
 43
0.0
 43
0.0
 43
1.0
 77
     0
 47
0.0008202099737533
 47
0.0
 47
0.0
 47
0.0
 47
0.0
 47
0.0008202099737533
 47
0.0
 47
0.0
 47
0.0
 47
0.0
 47
1.0
 47
0.0
 47
0.0
 47
0.0
 47
0.0
 47
1.0
171
     0
 49
0.0008202099737533
 49
0.0
 49
0.0
 49
0.0
 49
0.0
 49
0.0008202099737533
 49
0.0
 49
0.0
 49
0.0
 49
0.0
 49
1.0
 49
0.0
 49
0.0
 49
0.0
 49
0.0
 49
1.0
175
     0
142
0.0008202099737533
142
0.0
142
0.0
142
0.0
142
0.0
142
0.0008202099737533
142
0.0
142
0.0
142
0.0
142
0.0
142
1.0
142
0.0
142
0.0
142
0.0
142
0.0
142
1.0
179
     0
144
0.0008202099737533
144
0.0
144
0.0
144
0.0
144
0.0
144
0.0008202099737533
144
0.0
144
0.0
144
0.0
144
0.0
144
1.0
144
0.0
144
0.0
144
0.0
144
0.0
144
1.0
147
0.0008202099737533
147
0.0
147
0.0
147
0.0
147
0.0
147
0.0008202099737533
147
0.0
147
0.0
147
0.0
147
0.0
147
1.0
147
0.0
147
0.0
147
0.0
147
0.0
147
1.0
  0
MATERIAL
  5
3E64
102
{ACAD_XDICTIONARY
360
3E65
102
}
102
{ACAD_REACTORS
330
3E63
102
}
330
3E63
100
AcDbMaterial
  1
ByLayer
 72
     0
 43
0.0008202099737533
 43
0.0
 43
0.0
 43
0.0
 43
0.0
 43
0.0008202099737533
 43
0.0
 43
0.0
 43
0.0
 43
0.0
 43
1.0
 43
0.0
 43
0.0
 43
0.0
 43
0.0
 43
1.0
 77
     0
 47
0.0008202099737533
 47
0.0
 47
0.0
 47
0.0
 47
0.0
 47
0.0008202099737533
 47
0.0
 47
0.0
 47
0.0
 47
0.0
 47
1.0
 47
0.0
 47
0.0
 47
0.0
 47
0.0
 47
1.0
171
     0
 49
0.0008202099737533
 49
0.0
 49
0.0
 49
0.0
 49
0.0
 49
0.0008202099737533
 49
0.0
 49
0.0
 49
0.0
 49
0.0
 49
1.0
 49
0.0
 49
0.0
 49
0.0
 49
0.0
 49
1.0
175
     0
142
0.0008202099737533
142
0.0
142
0.0
142
0.0
142
0.0
142
0.0008202099737533
142
0.0
142
0.0
142
0.0
142
0.0
142
1.0
142
0.0
142
0.0
142
0.0
142
0.0
142
1.0
179
     0
144
0.0008202099737533
144
0.0
144
0.0
144
0.0
144
0.0
144
0.0008202099737533
144
0.0
144
0.0
144
0.0
144
0.0
144
1.0
144
0.0
144
0.0
144
0.0
144
0.0
144
1.0
147
0.0008202099737533
147
0.0
147
0.0
147
0.0
147
0.0
147
0.0008202099737533
147
0.0
147
0.0
147
0.0
147
0.0
147
1.0
147
0.0
147
0.0
147
0.0
147
0.0
147
1.0
  0
MATERIAL
  5
3E74
102
{ACAD_XDICTIONARY
360
3E75
102
}
102
{ACAD_REACTORS
330
3E63
102
}
330
3E63
100
AcDbMaterial
  1
Global
 72
     0
 43
0.0008202099737533
 43
0.0
 43
0.0
 43
0.0
 43
0.0
 43
0.0008202099737533
 43
0.0
 43
0.0
 43
0.0
 43
0.0
 43
1.0
 43
0.0
 43
0.0
 43
0.0
 43
0.0
 43
1.0
 77
     0
 47
0.0008202099737533
 47
0.0
 47
0.0
 47
0.0
 47
0.0
 47
0.0008202099737533
 47
0.0
 47
0.0
 47
0.0
 47
0.0
 47
1.0
 47
0.0
 47
0.0
 47
0.0
 47
0.0
 47
1.0
171
     0
 49
0.0008202099737533
 49
0.0
 49
0.0
 49
0.0
 49
0.0
 49
0.0008202099737533
 49
0.0
 49
0.0
 49
0.0
 49
0.0
 49
1.0
 49
0.0
 49
0.0
 49
0.0
 49
0.0
 49
1.0
175
     0
142
0.0008202099737533
142
0.0
142
0.0
142
0.0
142
0.0
142
0.0008202099737533
142
0.0
142
0.0
142
0.0
142
0.0
142
1.0
142
0.0
142
0.0
142
0.0
142
0.0
142
1.0
179
     0
144
0.0008202099737533
144
0.0
144
0.0
144
0.0
144
0.0
144
0.0008202099737533
144
0.0
144
0.0
144
0.0
144
0.0
144
1.0
144
0.0
144
0.0
144
0.0
144
0.0
144
1.0
147
0.0008202099737533
147
0.0
147
0.0
147
0.0
147
0.0
147
0.0008202099737533
147
0.0
147
0.0
147
0.0
147
0.0
147
1.0
147
0.0
147
0.0
147
0.0
147
0.0
147
1.0
  0
MLEADERSTYLE
  5
3EAB
102
{ACAD_XDICTIONARY
360
4572
102
}
102
{ACAD_REACTORS
330
3EAA
102
}
330
3EAA
100
AcDbMLeaderStyle
170
     2
171
     1
172
     0
 90
        2
 40
0.0
 41
0.0
173
     1
 91
-1056964608
340
14
 92
       -2
290
     1
 42
2.0
291
     1
 43
0.36
  3
Standard
 44
4.0
300

342
11
174
     1
178
     6
175
     1
176
     0
 93
-1056964608
 45
4.0
292
     0
297
     0
 46
4.0
 94
-1056964608
 47
1.0
 49
1.0
140
1.0
293
     1
141
0.0
294
     1
177
     0
142
1.0
295
     0
296
     0
143
0.125
1001
ACAD_MLEADERVER
1070
     2
  0
MLINESTYLE
  5
18
102
{ACAD_REACTORS
330
17
102
}
330
17
100
AcDbMlineStyle
  2
STANDARD
 70
     0
  3

 62
   256
 51
90.0
 52
90.0
 71
     2
 49
0.5
 62
   256
  6
BYLAYER
 49
-0.5
 62
   256
  6
BYLAYER
  0
ACDBPLACEHOLDER
  5
F
102
{ACAD_REACTORS
330
E
102
}
330
E
  0
ACDBPLACEHOLDER
  5
37E2
102
{ACAD_REACTORS
330
E
102
}
330
E
  0
ACDBPLACEHOLDER
  5
29
102
{ACAD_REACTORS
330
E
102
}
330
E
  0
DICTIONARY
  5
457D
330
457C
100
AcDbDictionary
280
     1
281
     1
  3
ADSK_XREC_MENTALRAYSETTINGSINFO
360
457E
  0
SCALE
  5
3E99
102
{ACAD_REACTORS
330
3E98
102
}
330
3E98
100
AcDbScale
 70
     0
300
1:1
140
1.0
141
1.0
290
     1
  0
SCALE
  5
3E9A
102
{ACAD_REACTORS
330
3E98
102
}
330
3E98
100
AcDbScale
 70
     0
300
1:2
140
1.0
141
2.0
290
     0
  0
SCALE
  5
3E9B
102
{ACAD_REACTORS
330
3E98
102
}
330
3E98
100
AcDbScale
 70
     0
300
1:4
140
1.0
141
4.0
290
     0
  0
SCALE
  5
3E9C
102
{ACAD_REACTORS
330
3E98
102
}
330
3E98
100
AcDbScale
 70
     0
300
1:5
140
1.0
141
5.0
290
     0
  0
SCALE
  5
3E9D
102
{ACAD_REACTORS
330
3E98
102
}
330
3E98
100
AcDbScale
 70
     0
300
1:8
140
1.0
141
8.0
290
     0
  0
SCALE
  5
3E9E
102
{ACAD_REACTORS
330
3E98
102
}
330
3E98
100
AcDbScale
 70
     0
300
1:10
140
1.0
141
10.0
290
     0
  0
SCALE
  5
3E9F
102
{ACAD_REACTORS
330
3E98
102
}
330
3E98
100
AcDbScale
 70
     0
300
1:16
140
1.0
141
16.0
290
     0
  0
SCALE
  5
3EA0
102
{ACAD_REACTORS
330
3E98
102
}
330
3E98
100
AcDbScale
 70
     0
300
1:20
140
1.0
141
20.0
290
     0
  0
SCALE
  5
3EA1
102
{ACAD_REACTORS
330
3E98
102
}
330
3E98
100
AcDbScale
 70
     0
300
1:30
140
1.0
141
30.0
290
     0
  0
SCALE
  5
3EA2
102
{ACAD_REACTORS
330
3E98
102
}
330
3E98
100
AcDbScale
 70
     0
300
1:40
140
1.0
141
40.0
290
     0
  0
SCALE
  5
3EA3
102
{ACAD_REACTORS
330
3E98
102
}
330
3E98
100
AcDbScale
 70
     0
300
1:50
140
1.0
141
50.0
290
     0
  0
SCALE
  5
3EA4
102
{ACAD_REACTORS
330
3E98
102
}
330
3E98
100
AcDbScale
 70
     0
300
1:100
140
1.0
141
100.0
290
     0
  0
SCALE
  5
3EA5
102
{ACAD_REACTORS
330
3E98
102
}
330
3E98
100
AcDbScale
 70
     0
300
2:1
140
2.0
141
1.0
290
     0
  0
SCALE
  5
3EA6
102
{ACAD_REACTORS
330
3E98
102
}
330
3E98
100
AcDbScale
 70
     0
300
4:1
140
4.0
141
1.0
290
     0
  0
SCALE
  5
3EA7
102
{ACAD_REACTORS
330
3E98
102
}
330
3E98
100
AcDbScale
 70
     0
300
8:1
140
8.0
141
1.0
290
     0
  0
SCALE
  5
3EA8
102
{ACAD_REACTORS
330
3E98
102
}
330
3E98
100
AcDbScale
 70
     0
300
10:1
140
10.0
141
1.0
290
     0
  0
SCALE
  5
3EA9
102
{ACAD_REACTORS
330
3E98
102
}
330
3E98
100
AcDbScale
 70
     0
300
100:1
140
100.0
141
1.0
290
     0
  0
ACDBSECTIONVIEWSTYLE
  5
3EAD
102
{ACAD_XDICTIONARY
360
4574
102
}
102
{ACAD_REACTORS
330
3EAC
102
}
330
3EAC
100
AcDbModelDocViewStyle
 70
     0
  3
Metric50
290
     0
100
AcDbSectionViewStyle
 70
     0
 71
     0
 90
      102
 71
     1
340
11
 40
5.0
340
0
340
0
 40
5.0
300
I, O, Q, S, X, Z
 40
10.0
 90
        0
 40
2.5
 90
        0
 71
     2
340
16
 90
       25
340
16
 90
       50
 40
5.0
 40
2.5
 40
5.0
 71
     3
340
11
 40
5.0
 90
        0
 40
15.0
 90
        1
300
%<\AcVar ViewSectionStartId>%-%<\AcVar ViewSectionEndId>% (%<\AcVar ViewScale \f "%sn">%)
 71
     4
300
ANSI31
 40
1.0
 90
        0
290
     0
290
     0
 90
        6
 40
0.0
 40
1.570796326794896
 40
0.2617993877991494
 40
1.308996938995747
 40
-0.2617993877991494
 40
1.832595714594046
1001
ACAD
1000
AcRTDxfName
1000
ACDBSECTIONVIEWSTYLE
  0
TABLESTYLE
  5
3E97
102
{ACAD_XDICTIONARY
360
3F59
102
}
102
{ACAD_REACTORS
330
3E96
102
}
330
3E96
100
AcDbTableStyle
  3
Standard
 70
     0
 71
     0
 40
1.5
 41
1.5
280
     0
281
     0
  7
Standard
140
4.5
170
     2
 62
     0
 63
     7
283
     0
274
    -2
284
     1
 64
     0
275
    -2
285
     1
 65
     0
276
    -2
286
     1
 66
     0
277
    -2
287
     1
 67
     0
278
    -2
288
     1
 68
     0
279
    -2
289
     1
 69
     0
  7
Standard
140
6.0
170
     5
 62
     0
 63
     7
283
     0
274
    -2
284
     1
 64
     0
275
    -2
285
     1
 65
     0
276
    -2
286
     1
 66
     0
277
    -2
287
     1
 67
     0
278
    -2
288
     1
 68
     0
279
    -2
289
     1
 69
     0
  7
Standard
140
4.5
170
     5
 62
     0
 63
     7
283
     0
274
    -2
284
     1
 64
     0
275
    -2
285
     1
 65
     0
276
    -2
286
     1
 66
     0
277
    -2
287
     1
 67
     0
278
    -2
288
     1
 68
     0
279
    -2
289
     1
 69
     0
  0
VISUALSTYLE
  5
3E82
102
{ACAD_XDICTIONARY
360
454B
102
}
102
{ACAD_REACTORS
330
3E7C
102
}
330
3E7C
100
AcDbVisualStyle
  2
2dWireframe
 70
     4
 71
     0
 72
     2
 73
     0
 90
        0
 40
-0.6
 41
-30.0
 62
     5
 63
     7
 74
     1
 91
        4
 64
     7
 65
   257
 75
     1
175
     1
 42
1.0
 92
        0
 66
   257
 43
1.0
 76
     1
 77
     6
 78
     2
 67
     7
 79
     5
170
     0
171
     0
290
     0
174
     0
 93
        1
 44
0.0
173
     0
291
     0
 45
0.0
1001
ACAD
1000
AcDbSavedByObjectVersion
1070
     0
  0
VISUALSTYLE
  5
3FA8
102
{ACAD_XDICTIONARY
360
457A
102
}
102
{ACAD_REACTORS
330
3E7C
102
}
330
3E7C
100
AcDbVisualStyle
  2
3D Hidden
 70
     6
 71
     1
 72
     2
 73
     2
 90
        0
 40
-0.6
 41
-30.0
 62
     5
 63
     7
 74
     2
 91
        2
 64
     7
 65
   257
 75
     2
175
     1
 42
179.0
 92
        0
 66
   257
 43
1.0
 76
     1
 77
     6
 78
     2
 67
     7
 79
     3
170
     0
171
     0
290
     0
174
     0
 93
        1
 44
0.0
173
     0
291
     0
 45
0.0
1001
ACAD
1000
AcDbSavedByObjectVersion
1070
     0
  0
VISUALSTYLE
  5
3FA7
102
{ACAD_XDICTIONARY
360
4578
102
}
102
{ACAD_REACTORS
330
3E7C
102
}
330
3E7C
100
AcDbVisualStyle
  2
3dWireframe
 70
     5
 71
     0
 72
     2
 73
     0
 90
        0
 40
-0.6
 41
-30.0
 62
     5
 63
     7
 74
     1
 91
        4
 64
     7
 65
   257
 75
     1
175
     1
 42
1.0
 92
        0
 66
   257
 43
1.0
 76
     1
 77
     6
 78
     2
 67
     7
 79
     5
170
     0
171
     0
290
     0
174
     0
 93
        1
 44
0.0
173
     0
291
     0
 45
0.0
1001
ACAD
1000
AcDbSavedByObjectVersion
1070
     0
  0
VISUALSTYLE
  5
3E81
102
{ACAD_XDICTIONARY
360
4549
102
}
102
{ACAD_REACTORS
330
3E7C
102
}
330
3E7C
100
AcDbVisualStyle
  2
Basic
 70
     7
 71
     1
 72
     0
 73
     1
 90
        0
 40
-0.6
 41
-30.0
 62
     5
 63
     7
 74
     0
 91
        4
 64
     7
 65
   257
 75
     1
175
     1
 42
1.0
 92
        8
 66
     7
 43
1.0
 76
     1
 77
     6
 78
     2
 67
     7
 79
     5
170
     0
171
     0
290
     0
174
     0
 93
        1
 44
0.0
173
     0
291
     1
 45
0.0
1001
ACAD
1000
AcDbSavedByObjectVersion
1070
     0
  0
VISUALSTYLE
  5
3E88
102
{ACAD_XDICTIONARY
360
4557
102
}
102
{ACAD_REACTORS
330
3E7C
102
}
330
3E7C
100
AcDbVisualStyle
  2
Brighten
 70
    12
 71
     2
 72
     2
 73
     0
 90
        0
 40
-0.6
 41
-30.0
 62
     5
 63
     7
 74
     1
 91
        4
 64
     7
 65
   257
 75
     1
175
     1
 42
1.0
 92
        8
 66
     7
 43
1.0
 76
     1
 77
     6
 78
     2
 67
     7
 79
     5
170
     0
171
     0
290
     0
174
     0
 93
        1
 44
50.0
173
     0
291
     1
 45
0.0
1001
ACAD
1000
AcDbSavedByObjectVersion
1070
     0
  0
VISUALSTYLE
  5
3E8C
102
{ACAD_XDICTIONARY
360
455F
102
}
102
{ACAD_REACTORS
330
3E7C
102
}
330
3E7C
100
AcDbVisualStyle
  2
ColorChange
 70
    16
 71
     2
 72
     2
 73
     3
 90
        0
 40
-0.6
 41
-30.0
 62
     5
 63
     8
 74
     1
 91
        4
 64
     7
 65
   257
 75
     1
175
     1
 42
1.0
 92
        8
 66
     8
 43
1.0
 76
     1
 77
     6
 78
     2
 67
     7
 79
     5
170
     0
171
     0
290
     0
174
     0
 93
        1
 44
0.0
173
     0
291
     1
 45
0.0
1001
ACAD
1000
AcDbSavedByObjectVersion
1070
     0
  0
VISUALSTYLE
  5
3E85
102
{ACAD_XDICTIONARY
360
4551
102
}
102
{ACAD_REACTORS
330
3E7C
102
}
330
3E7C
100
AcDbVisualStyle
  2
Conceptual
 70
     9
 71
     3
 72
     2
 73
     0
 90
        0
 40
-0.6
 41
-30.0
 62
     5
 63
     7
 74
     2
 91
        2
 64
     7
 65
   257
 75
     1
175
     1
 42
179.0
 92
        8
 66
     7
 43
1.0
 76
     1
 77
     6
 78
     2
 67
     7
 79
     3
170
     0
171
     0
290
     0
174
     0
 93
        1
 44
0.0
173
     0
291
     0
 45
0.0
1001
ACAD
1000
AcDbSavedByObjectVersion
1070
     0
  0
VISUALSTYLE
  5
3E87
102
{ACAD_XDICTIONARY
360
4555
102
}
102
{ACAD_REACTORS
330
3E7C
102
}
330
3E7C
100
AcDbVisualStyle
  2
Dim
 70
    11
 71
     2
 72
     2
 73
     0
 90
        0
 40
-0.6
 41
-30.0
 62
     5
 63
     7
 74
     1
 91
        4
 64
     7
 65
   257
 75
     1
175
     1
 42
1.0
 92
        8
 66
     7
 43
1.0
 76
     1
 77
     6
 78
     2
 67
     7
 79
     5
170
     0
171
     0
290
     0
174
     0
 93
        1
 44
-50.0
173
     0
291
     1
 45
0.0
1001
ACAD
1000
AcDbSavedByObjectVersion
1070
     0
  0
VISUALSTYLE
  5
3E94
102
{ACAD_XDICTIONARY
360
456F
102
}
102
{ACAD_REACTORS
330
3E7C
102
}
330
3E7C
100
AcDbVisualStyle
  2
EdgeColorOff
 70
    22
 71
     2
 72
     2
 73
     0
 90
        0
 40
-0.6
 41
-30.0
 62
     5
 63
     7
 74
     1
 91
        4
 64
     7
 65
   257
 75
     1
175
     1
 42
1.0
 92
        8
 66
     7
 43
1.0
 76
     1
 77
     6
 78
     2
 67
     7
 79
     5
170
     0
171
     0
290
     0
174
     0
 93
        1
 44
0.0
173
     0
291
     1
 45
0.0
1001
ACAD
1000
AcDbSavedByObjectVersion
1070
     0
  0
VISUALSTYLE
  5
3E8B
102
{ACAD_XDICTIONARY
360
455D
102
}
102
{ACAD_REACTORS
330
3E7C
102
}
330
3E7C
100
AcDbVisualStyle
  2
Facepattern
 70
    15
 71
     2
 72
     2
 73
     0
 90
        0
 40
-0.6
 41
-30.0
 62
     5
 63
     7
 74
     1
 91
        4
 64
     7
 65
   257
 75
     1
175
     1
 42
1.0
 92
        8
 66
     7
 43
1.0
 76
     1
 77
     6
 78
     2
 67
     7
 79
     5
170
     0
171
     0
290
     0
174
     0
 93
        1
 44
0.0
173
     0
291
     1
 45
0.0
1001
ACAD
1000
AcDbSavedByObjectVersion
1070
     0
  0
VISUALSTYLE
  5
3E7D
102
{ACAD_XDICTIONARY
360
4541
102
}
102
{ACAD_REACTORS
330
3E7C
102
}
330
3E7C
100
AcDbVisualStyle
  2
Flat
 70
     0
 71
     2
 72
     1
 73
     1
 90
        2
 40
-0.6
 41
30.0
 62
     5
 63
     7
 74
     0
 91
        0
 64
     7
 65
   257
 75
     1
175
     1
 42
1.0
 92
        8
 66
     7
 43
1.0
 76
     1
 77
     6
 78
     2
 67
     7
 79
     5
170
     0
171
     0
290
     0
174
     0
 93
       13
 44
0.0
173
     0
291
     1
 45
0.0
1001
ACAD
1000
AcDbSavedByObjectVersion
1070
     0
  0
VISUALSTYLE
  5
3E7E
102
{ACAD_XDICTIONARY
360
4543
102
}
102
{ACAD_REACTORS
330
3E7C
102
}
330
3E7C
100
AcDbVisualStyle
  2
FlatWithEdges
 70
     1
 71
     2
 72
     1
 73
     1
 90
        2
 40
-0.6
 41
30.0
 62
     5
 63
     7
 74
     1
 91
        0
 64
     7
 65
   257
 75
     1
175
     1
 42
1.0
 92
        0
 66
   257
 43
1.0
 76
     1
 77
     6
 78
     2
 67
     7
 79
     5
170
     0
171
     0
290
     0
174
     0
 93
       13
 44
0.0
173
     0
291
     1
 45
0.0
1001
ACAD
1000
AcDbSavedByObjectVersion
1070
     0
  0
VISUALSTYLE
  5
3E7F
102
{ACAD_XDICTIONARY
360
4545
102
}
102
{ACAD_REACTORS
330
3E7C
102
}
330
3E7C
100
AcDbVisualStyle
  2
Gouraud
 70
     2
 71
     2
 72
     2
 73
     1
 90
        2
 40
-0.6
 41
30.0
 62
     5
 63
     7
 74
     0
 91
        0
 64
     7
 65
   257
 75
     1
175
     1
 42
1.0
 92
        0
 66
     7
 43
1.0
 76
     1
 77
     6
 78
     2
 67
     7
 79
     5
170
     0
171
     0
290
     0
174
     0
 93
       13
 44
0.0
173
     0
291
     1
 45
0.0
1001
ACAD
1000
AcDbSavedByObjectVersion
1070
     0
  0
VISUALSTYLE
  5
3E80
102
{ACAD_XDICTIONARY
360
4547
102
}
102
{ACAD_REACTORS
330
3E7C
102
}
330
3E7C
100
AcDbVisualStyle
  2
GouraudWithEdges
 70
     3
 71
     2
 72
     2
 73
     1
 90
        2
 40
-0.6
 41
30.0
 62
     5
 63
     7
 74
     1
 91
        0
 64
     7
 65
   257
 75
     1
175
     1
 42
1.0
 92
        0
 66
   257
 43
1.0
 76
     1
 77
     6
 78
     2
 67
     7
 79
     5
170
     0
171
     0
290
     0
174
     0
 93
       13
 44
0.0
173
     0
291
     1
 45
0.0
1001
ACAD
1000
AcDbSavedByObjectVersion
1070
     0
  0
VISUALSTYLE
  5
3E84
102
{ACAD_XDICTIONARY
360
454F
102
}
102
{ACAD_REACTORS
330
3E7C
102
}
330
3E7C
100
AcDbVisualStyle
  2
Hidden
 70
     6
 71
     1
 72
     2
 73
     2
 90
        0
 40
-0.6
 41
-30.0
 62
     5
 63
     7
 74
     2
 91
        2
 64
     7
 65
   257
 75
     2
175
     1
 42
40.0
 92
        0
 66
   257
 43
1.0
 76
     1
 77
     6
 78
     2
 67
     7
 79
     3
170
     0
171
     0
290
     0
174
     0
 93
        1
 44
0.0
173
     0
291
     0
 45
0.0
1001
ACAD
1000
AcDbSavedByObjectVersion
1070
     0
  0
VISUALSTYLE
  5
3E92
102
{ACAD_XDICTIONARY
360
456B
102
}
102
{ACAD_REACTORS
330
3E7C
102
}
330
3E7C
100
AcDbVisualStyle
  2
JitterOff
 70
    20
 71
     2
 72
     2
 73
     0
 90
        0
 40
-0.6
 41
-30.0
 62
     5
 63
     7
 74
     1
 91
        4
 64
     7
 65
   257
 75
     1
175
     1
 42
1.0
 92
       10
 66
     7
 43
1.0
 76
     1
 77
     6
 78
     2
 67
     7
 79
     5
170
     0
171
     0
290
     0
174
     0
 93
        1
 44
0.0
173
     0
291
     1
 45
0.0
1001
ACAD
1000
AcDbSavedByObjectVersion
1070
     0
  0
VISUALSTYLE
  5
3E8A
102
{ACAD_XDICTIONARY
360
455B
102
}
102
{ACAD_REACTORS
330
3E7C
102
}
330
3E7C
100
AcDbVisualStyle
  2
Linepattern
 70
    14
 71
     2
 72
     2
 73
     0
 90
        0
 40
-0.6
 41
-30.0
 62
     5
 63
     7
 74
     1
 91
        4
 64
     7
 65
   257
 75
     7
175
     7
 42
1.0
 92
        8
 66
     7
 43
1.0
 76
     1
 77
     6
 78
     2
 67
     7
 79
     5
170
     0
171
     0
290
     0
174
     0
 93
        1
 44
0.0
173
     0
291
     1
 45
0.0
1001
ACAD
1000
AcDbSavedByObjectVersion
1070
     0
  0
VISUALSTYLE
  5
3E93
102
{ACAD_XDICTIONARY
360
456D
102
}
102
{ACAD_REACTORS
330
3E7C
102
}
330
3E7C
100
AcDbVisualStyle
  2
OverhangOff
 70
    21
 71
     2
 72
     2
 73
     0
 90
        0
 40
-0.6
 41
-30.0
 62
     5
 63
     7
 74
     1
 91
        4
 64
     7
 65
   257
 75
     1
175
     1
 42
1.0
 92
        9
 66
     7
 43
1.0
 76
     1
 77
     6
 78
     2
 67
     7
 79
     5
170
     0
171
     0
290
     0
174
     0
 93
        1
 44
0.0
173
     0
291
     1
 45
0.0
1001
ACAD
1000
AcDbSavedByObjectVersion
1070
     0
  0
VISUALSTYLE
  5
3E86
102
{ACAD_XDICTIONARY
360
4553
102
}
102
{ACAD_REACTORS
330
3E7C
102
}
330
3E7C
100
AcDbVisualStyle
  2
Realistic
 70
     8
 71
     2
 72
     2
 73
     0
 90
        2
 40
-0.6
 41
30.0
 62
     5
 63
     7
 74
     0
 91
        0
 64
     7
 65
   257
 75
     1
175
     1
 42
1.0
 92
        8
 66
   257
 43
1.0
 76
     1
 77
     6
 78
     2
 67
     7
 79
     3
170
     0
171
     0
290
     0
174
     0
 93
       13
 44
0.0
173
     0
291
     0
 45
0.0
1001
ACAD
1000
AcDbSavedByObjectVersion
1070
     0
  0
VISUALSTYLE
  5
3E91
102
{ACAD_XDICTIONARY
360
4569
102
}
102
{ACAD_REACTORS
330
3E7C
102
}
330
3E7C
100
AcDbVisualStyle
  2
Shaded
 70
    27
 71
     2
 72
     2
 73
     1
 90
        2
 40
-0.6
 41
30.0
 62
     5
 63
     7
 74
     0
 91
        4
 64
     7
 65
   257
 75
     1
175
     1
 42
1.0
 92
        8
 66
   257
 43
1.0
 76
     1
 77
     6
 78
     2
 67
     8
 79
     3
170
     0
171
     0
290
     0
174
     0
 93
        5
 44
0.0
173
     0
291
     0
 45
0.0
1001
ACAD
1000
AcDbSavedByObjectVersion
1070
     0
  0
VISUALSTYLE
  5
3E90
102
{ACAD_XDICTIONARY
360
4567
102
}
102
{ACAD_REACTORS
330
3E7C
102
}
330
3E7C
100
AcDbVisualStyle
  2
Shaded with edges
 70
    26
 71
     2
 72
     2
 73
     1
 90
        2
 40
-0.6
 41
30.0
 62
     5
 63
     7
 74
     1
 91
        2
 64
     7
 65
   257
 75
     2
175
     1
 42
1.0
 92
        8
 66
   257
 43
1.0
 76
     1
 77
     6
 78
     2
 67
     7
 79
     3
170
     0
171
     0
290
     0
174
     0
 93
        5
 44
0.0
173
     0
291
     0
 45
0.0
1001
ACAD
1000
AcDbSavedByObjectVersion
1070
     0
  0
VISUALSTYLE
  5
3E8D
102
{ACAD_XDICTIONARY
360
4561
102
}
102
{ACAD_REACTORS
330
3E7C
102
}
330
3E7C
100
AcDbVisualStyle
  2
Shades of Gray
 70
    23
 71
     2
 72
     2
 73
     3
 90
        0
 40
-0.6
 41
-30.0
 62
     5
 63
     7
 74
     2
 91
        2
 64
     7
 65
     7
 75
     1
175
     1
 42
40.0
 92
        8
 66
     7
 43
1.0
 76
     1
 77
     6
 78
     2
 67
     7
 79
     3
170
     0
171
     0
290
     0
174
     0
 93
        1
 44
0.0
173
     0
291
     0
 45
0.0
1001
ACAD
1000
AcDbSavedByObjectVersion
1070
     0
  0
VISUALSTYLE
  5
3E8E
102
{ACAD_XDICTIONARY
360
4563
102
}
102
{ACAD_REACTORS
330
3E7C
102
}
330
3E7C
100
AcDbVisualStyle
  2
Sketchy
 70
    24
 71
     1
 72
     2
 73
     2
 90
        0
 40
-0.6
 41
-30.0
 62
     5
 63
     7
 74
     2
 91
        2
 64
     7
 65
     7
 75
     1
175
     1
 42
40.0
 92
       11
 66
     7
 43
1.0
 76
     1
 77
     6
 78
     2
 67
     7
 79
     6
170
     0
171
     0
290
     0
174
     0
 93
        1
 44
0.0
173
     0
291
     0
 45
0.0
1001
ACAD
1000
AcDbSavedByObjectVersion
1070
     0
  0
VISUALSTYLE
  5
3E89
102
{ACAD_XDICTIONARY
360
4559
102
}
102
{ACAD_REACTORS
330
3E7C
102
}
330
3E7C
100
AcDbVisualStyle
  2
Thicken
 70
    13
 71
     2
 72
     2
 73
     0
 90
        0
 40
-0.6
 41
-30.0
 62
     5
 63
     7
 74
     1
 91
        4
 64
     7
 65
   257
 75
     1
175
     1
 42
1.0
 92
       12
 66
     7
 43
1.0
 76
     1
 77
     6
 78
     2
 67
     7
 79
     5
170
     0
171
     0
290
     0
174
     0
 93
        1
 44
0.0
173
     0
291
     1
 45
0.0
1001
ACAD
1000
AcDbSavedByObjectVersion
1070
     0
  0
VISUALSTYLE
  5
3E83
102
{ACAD_XDICTIONARY
360
454D
102
}
102
{ACAD_REACTORS
330
3E7C
102
}
330
3E7C
100
AcDbVisualStyle
  2
Wireframe
 70
     5
 71
     0
 72
     2
 73
     0
 90
        0
 40
-0.6
 41
-30.0
 62
     5
 63
     7
 74
     1
 91
        4
 64
     7
 65
   257
 75
     1
175
     1
 42
1.0
 92
        0
 66
   257
 43
1.0
 76
     1
 77
     6
 78
     2
 67
     7
 79
     3
170
     0
171
     0
290
     0
174
     0
 93
        1
 44
0.0
173
     0
291
     0
 45
0.0
1001
ACAD
1000
AcDbSavedByObjectVersion
1070
     0
  0
VISUALSTYLE
  5
3E8F
102
{ACAD_XDICTIONARY
360
4565
102
}
102
{ACAD_REACTORS
330
3E7C
102
}
330
3E7C
100
AcDbVisualStyle
  2
X-Ray
 70
    25
 71
     2
 72
     2
 73
     1
 90
        1
 40
0.5
 41
-30.0
 62
     5
 63
     7
 74
     1
 91
        0
 64
     7
 65
   257
 75
     1
175
     1
 42
1.0
 92
        8
 66
     7
 43
1.0
 76
     1
 77
     6
 78
     2
 67
     7
 79
     3
170
     0
171
     0
290
     0
174
     0
 93
       13
 44
0.0
173
     0
291
     0
 45
0.0
1001
ACAD
1000
AcDbSavedByObjectVersion
1070
     0
  0
DICTIONARYVAR
  5
3FA2
102
{ACAD_REACTORS
330
1835
102
}
330
1835
100
DictionaryVariables
280
     0
  1
1:1
  0
DICTIONARYVAR
  5
3F9F
102
{ACAD_REACTORS
330
1835
102
}
330
1835
100
DictionaryVariables
280
     0
  1
STANDARD
  0
DICTIONARYVAR
  5
3F9E
102
{ACAD_REACTORS
330
1835
102
}
330
1835
100
DictionaryVariables
280
     0
  1
STANDARD
  0
DICTIONARYVAR
  5
3FA0
102
{ACAD_REACTORS
330
1835
102
}
330
1835
100
DictionaryVariables
280
     0
  1
Metric50
  0
DICTIONARYVAR
  5
3FA1
102
{ACAD_REACTORS
330
1835
102
}
330
1835
100
DictionaryVariables
280
     0
  1
Metric50
  0
DICTIONARYVAR
  5
3FA4
102
{ACAD_REACTORS
330
1835
102
}
330
1835
100
DictionaryVariables
280
     0
  1
1
  0
DICTIONARYVAR
  5
3FA3
102
{ACAD_REACTORS
330
1835
102
}
330
1835
100
DictionaryVariables
280
     0
  1
0
  0
DICTIONARYVAR
  5
1836
102
{ACAD_REACTORS
330
1835
102
}
330
1835
100
DictionaryVariables
280
     0
  1
127
  0
DICTIONARYVAR
  5
4536
102
{ACAD_REACTORS
330
1835
102
}
330
1835
100
DictionaryVariables
280
     0
  1
2
  0
DICTIONARY
  5
4576
330
3EAF
100
AcDbDictionary
280
     1
281
     1
  3
ACAD_XREC_ROUNDTRIP
360
4577
  0
DICTIONARY
  5
453A
330
22
100
AcDbDictionary
280
     1
281
     1
  3
ACAD_XREC_ROUNDTRIP
360
453B
  0
DICTIONARY
  5
453C
330
1CD1
100
AcDbDictionary
280
     1
281
     1
  3
ACAD_XREC_ROUNDTRIP
360
453D
  0
DICTIONARY
  5
3E6D
330
3E6C
100
AcDbDictionary
280
     1
281
     1
  3
ACAD_XREC_ROUNDTRIP
360
453F
  3
BUMPTILE
360
3E6F
  3
DIFFUSETILE
360
3E6E
  3
OPACITYTILE
360
3E72
  3
REFLECTIONTILE
360
3E71
  3
REFRACTIONTILE
360
3E73
  3
SPECULARTILE
360
3E70
  0
DICTIONARY
  5
3E65
330
3E64
100
AcDbDictionary
280
     1
281
     1
  3
ACAD_XREC_ROUNDTRIP
360
453E
  3
BUMPTILE
360
3E67
  3
DIFFUSETILE
360
3E66
  3
OPACITYTILE
360
3E6A
  3
REFLECTIONTILE
360
3E69
  3
REFRACTIONTILE
360
3E6B
  3
SPECULARTILE
360
3E68
  0
DICTIONARY
  5
3E75
330
3E74
100
AcDbDictionary
280
     1
281
     1
  3
ACAD_XREC_ROUNDTRIP
360
4540
  3
BUMPTILE
360
3E77
  3
DIFFUSETILE
360
3E76
  3
OPACITYTILE
360
3E7A
  3
REFLECTIONTILE
360
3E79
  3
REFRACTIONTILE
360
3E7B
  3
SPECULARTILE
360
3E78
  0
DICTIONARY
  5
4572
330
3EAB
100
AcDbDictionary
280
     1
281
     1
  3
ACAD_XREC_ROUNDTRIP
360
4573
  0
XRECORD
  5
457E
102
{ACAD_REACTORS
330
457D
102
}
330
457D
100
AcDbXrecord
280
     1
 70
     2
 71
     3
 72
     0
  0
DICTIONARY
  5
4574
330
3EAD
100
AcDbDictionary
280
     1
281
     1
  3
ACAD_XREC_ROUNDTRIP
360
4575
  0
DICTIONARY
  5
3F59
330
3E97
100
AcDbDictionary
280
     1
281
     1
  3
ACAD_ROUNDTRIP_2008_TABLESTYLE_CELLSTYLEMAP
360
4537
  3
ACAD_XREC_ROUNDTRIP
360
4571
  0
DICTIONARY
  5
454B
330
3E82
100
AcDbDictionary
280
     1
281
     1
  3
ACAD_XREC_ROUNDTRIP
360
454C
  0
DICTIONARY
  5
457A
330
3FA8
100
AcDbDictionary
280
     1
281
     1
  3
ACAD_XREC_ROUNDTRIP
360
457B
  0
DICTIONARY
  5
4578
330
3FA7
100
AcDbDictionary
280
     1
281
     1
  3
ACAD_XREC_ROUNDTRIP
360
4579
  0
DICTIONARY
  5
4549
330
3E81
100
AcDbDictionary
280
     1
281
     1
  3
ACAD_XREC_ROUNDTRIP
360
454A
  0
DICTIONARY
  5
4557
330
3E88
100
AcDbDictionary
280
     1
281
     1
  3
ACAD_XREC_ROUNDTRIP
360
4558
  0
DICTIONARY
  5
455F
330
3E8C
100
AcDbDictionary
280
     1
281
     1
  3
ACAD_XREC_ROUNDTRIP
360
4560
  0
DICTIONARY
  5
4551
330
3E85
100
AcDbDictionary
280
     1
281
     1
  3
ACAD_XREC_ROUNDTRIP
360
4552
  0
DICTIONARY
  5
4555
330
3E87
100
AcDbDictionary
280
     1
281
     1
  3
ACAD_XREC_ROUNDTRIP
360
4556
  0
DICTIONARY
  5
456F
330
3E94
100
AcDbDictionary
280
     1
281
     1
  3
ACAD_XREC_ROUNDTRIP
360
4570
  0
DICTIONARY
  5
455D
330
3E8B
100
AcDbDictionary
280
     1
281
     1
  3
ACAD_XREC_ROUNDTRIP
360
455E
  0
DICTIONARY
  5
4541
330
3E7D
100
AcDbDictionary
280
     1
281
     1
  3
ACAD_XREC_ROUNDTRIP
360
4542
  0
DICTIONARY
  5
4543
330
3E7E
100
AcDbDictionary
280
     1
281
     1
  3
ACAD_XREC_ROUNDTRIP
360
4544
  0
DICTIONARY
  5
4545
330
3E7F
100
AcDbDictionary
280
     1
281
     1
  3
ACAD_XREC_ROUNDTRIP
360
4546
  0
DICTIONARY
  5
4547
330
3E80
100
AcDbDictionary
280
     1
281
     1
  3
ACAD_XREC_ROUNDTRIP
360
4548
  0
DICTIONARY
  5
454F
330
3E84
100
AcDbDictionary
280
     1
281
     1
  3
ACAD_XREC_ROUNDTRIP
360
4550
  0
DICTIONARY
  5
456B
330
3E92
100
AcDbDictionary
280
     1
281
     1
  3
ACAD_XREC_ROUNDTRIP
360
456C
  0
DICTIONARY
  5
455B
330
3E8A
100
AcDbDictionary
280
     1
281
     1
  3
ACAD_XREC_ROUNDTRIP
360
455C
  0
DICTIONARY
  5
456D
330
3E93
100
AcDbDictionary
280
     1
281
     1
  3
ACAD_XREC_ROUNDTRIP
360
456E
  0
DICTIONARY
  5
4553
330
3E86
100
AcDbDictionary
280
     1
281
     1
  3
ACAD_XREC_ROUNDTRIP
360
4554
  0
DICTIONARY
  5
4569
330
3E91
100
AcDbDictionary
280
     1
281
     1
  3
ACAD_XREC_ROUNDTRIP
360
456A
  0
DICTIONARY
  5
4567
330
3E90
100
AcDbDictionary
280
     1
281
     1
  3
ACAD_XREC_ROUNDTRIP
360
4568
  0
DICTIONARY
  5
4561
330
3E8D
100
AcDbDictionary
280
     1
281
     1
  3
ACAD_XREC_ROUNDTRIP
360
4562
  0
DICTIONARY
  5
4563
330
3E8E
100
AcDbDictionary
280
     1
281
     1
  3
ACAD_XREC_ROUNDTRIP
360
4564
  0
DICTIONARY
  5
4559
330
3E89
100
AcDbDictionary
280
     1
281
     1
  3
ACAD_XREC_ROUNDTRIP
360
455A
  0
DICTIONARY
  5
454D
330
3E83
100
AcDbDictionary
280
     1
281
     1
  3
ACAD_XREC_ROUNDTRIP
360
454E
  0
DICTIONARY
  5
4565
330
3E8F
100
AcDbDictionary
280
     1
281
     1
  3
ACAD_XREC_ROUNDTRIP
360
4566
  0
XRECORD
  5
4577
102
{ACAD_REACTORS
330
4576
102
}
330
4576
100
AcDbXrecord
280
     1
102
DISPLAYNAME
  1
Metric50
102
FLAGS
 90
        0
  0
XRECORD
  5
453B
102
{ACAD_REACTORS
330
453A
102
}
330
453A
100
AcDbXrecord
280
     1
102
SHADEPLOT
 70
     0
102
SHADEPLOTRESLEVEL
 70
     2
102
SHADEPLOTCUSTOMDPI
 70
   300
  0
XRECORD
  5
453D
102
{ACAD_REACTORS
330
453C
102
}
330
453C
100
AcDbXrecord
280
     1
102
SHADEPLOT
 70
     0
102
SHADEPLOTRESLEVEL
 70
     2
102
SHADEPLOTCUSTOMDPI
 70
   300
  0
XRECORD
  5
453F
102
{ACAD_REACTORS
330
3E6D
102
}
330
3E6D
100
AcDbXrecord
280
     1
102
MATERIAL
148
0.0
149
0.0
149
0.0
 93
        0
 94
      127
282
     0
 72
     0
 77
     0
171
     0
175
     0
179
     0
273
     0
  0
XRECORD
  5
3E6F
102
{ACAD_REACTORS
330
3E6D
102
}
330
3E6D
100
AcDbXrecord
280
     1
270
     1
271
     1
  0
XRECORD
  5
3E6E
102
{ACAD_REACTORS
330
3E6D
102
}
330
3E6D
100
AcDbXrecord
280
     1
270
     1
271
     1
  0
XRECORD
  5
3E72
102
{ACAD_REACTORS
330
3E6D
102
}
330
3E6D
100
AcDbXrecord
280
     1
270
     1
271
     1
  0
XRECORD
  5
3E71
102
{ACAD_REACTORS
330
3E6D
102
}
330
3E6D
100
AcDbXrecord
280
     1
270
     1
271
     1
  0
XRECORD
  5
3E73
102
{ACAD_REACTORS
330
3E6D
102
}
330
3E6D
100
AcDbXrecord
280
     1
270
     1
271
     1
  0
XRECORD
  5
3E70
102
{ACAD_REACTORS
330
3E6D
102
}
330
3E6D
100
AcDbXrecord
280
     1
270
     1
271
     1
  0
XRECORD
  5
453E
102
{ACAD_REACTORS
330
3E65
102
}
330
3E65
100
AcDbXrecord
280
     1
102
MATERIAL
148
0.0
149
0.0
149
0.0
 93
        0
 94
      127
282
     0
 72
     0
 77
     0
171
     0
175
     0
179
     0
273
     0
  0
XRECORD
  5
3E67
102
{ACAD_REACTORS
330
3E65
102
}
330
3E65
100
AcDbXrecord
280
     1
270
     1
271
     1
  0
XRECORD
  5
3E66
102
{ACAD_REACTORS
330
3E65
102
}
330
3E65
100
AcDbXrecord
280
     1
270
     1
271
     1
  0
XRECORD
  5
3E6A
102
{ACAD_REACTORS
330
3E65
102
}
330
3E65
100
AcDbXrecord
280
     1
270
     1
271
     1
  0
XRECORD
  5
3E69
102
{ACAD_REACTORS
330
3E65
102
}
330
3E65
100
AcDbXrecord
280
     1
270
     1
271
     1
  0
XRECORD
  5
3E6B
102
{ACAD_REACTORS
330
3E65
102
}
330
3E65
100
AcDbXrecord
280
     1
270
     1
271
     1
  0
XRECORD
  5
3E68
102
{ACAD_REACTORS
330
3E65
102
}
330
3E65
100
AcDbXrecord
280
     1
270
     1
271
     1
  0
XRECORD
  5
4540
102
{ACAD_REACTORS
330
3E75
102
}
330
3E75
100
AcDbXrecord
280
     1
102
MATERIAL
148
0.0
149
0.0
149
0.0
 93
        0
 94
      127
282
     0
 72
     0
 77
     0
171
     0
175
     0
179
     0
273
     0
  0
XRECORD
  5
3E77
102
{ACAD_REACTORS
330
3E75
102
}
330
3E75
100
AcDbXrecord
280
     1
270
     1
271
     1
  0
XRECORD
  5
3E76
102
{ACAD_REACTORS
330
3E75
102
}
330
3E75
100
AcDbXrecord
280
     1
270
     1
271
     1
  0
XRECORD
  5
3E7A
102
{ACAD_REACTORS
330
3E75
102
}
330
3E75
100
AcDbXrecord
280
     1
270
     1
271
     1
  0
XRECORD
  5
3E79
102
{ACAD_REACTORS
330
3E75
102
}
330
3E75
100
AcDbXrecord
280
     1
270
     1
271
     1
  0
XRECORD
  5
3E7B
102
{ACAD_REACTORS
330
3E75
102
}
330
3E75
100
AcDbXrecord
280
     1
270
     1
271
     1
  0
XRECORD
  5
3E78
102
{ACAD_REACTORS
330
3E75
102
}
330
3E75
100
AcDbXrecord
280
     1
270
     1
271
     1
  0
XRECORD
  5
4573
102
{ACAD_REACTORS
330
4572
102
}
330
4572
100
AcDbXrecord
280
     1
102
ACAD_ROUNDTRIP_2012_MLEADER_STYLE
298
     1
  0
XRECORD
  5
4575
102
{ACAD_REACTORS
330
4574
102
}
330
4574
100
AcDbXrecord
280
     1
102
DISPLAYNAME
  1
Metric50
102
FLAGS
 90
        0
  0
CELLSTYLEMAP
  5
4537
102
{ACAD_REACTORS
330
3F59
102
}
330
3F59
100
AcDbCellStyleMap
 90
        3
300
CELLSTYLE
  1
TABLEFORMAT_BEGIN
 90
        5
170
     1
 91
        0
 92
    32768
 62
   257
 93
        1
300
CONTENTFORMAT
  1
CONTENTFORMAT_BEGIN
 90
        0
 91
        0
 92
      512
 93
        0
300

 40
0.0
140
1.0
 94
        5
 62
     0
340
11
144
6.0
309
CONTENTFORMAT_END
171
     1
301
MARGIN
  1
CELLMARGIN_BEGIN
 40
1.5
 40
1.5
 40
1.5
 40
1.5
 40
4.5
 40
4.5
309
CELLMARGIN_END
 94
        6
 95
        1
302
GRIDFORMAT
  1
GRIDFORMAT_BEGIN
 90
        0
 91
        1
 62
     0
 92
       -2
340
0
 93
        0
 40
1.125
309
GRIDFORMAT_END
 95
        2
302
GRIDFORMAT
  1
GRIDFORMAT_BEGIN
 90
        0
 91
        1
 62
     0
 92
       -2
340
0
 93
        0
 40
1.125
309
GRIDFORMAT_END
 95
        4
302
GRIDFORMAT
  1
GRIDFORMAT_BEGIN
 90
        0
 91
        1
 62
     0
 92
       -2
340
0
 93
        0
 40
1.125
309
GRIDFORMAT_END
 95
        8
302
GRIDFORMAT
  1
GRIDFORMAT_BEGIN
 90
        0
 91
        1
 62
     0
 92
       -2
340
0
 93
        0
 40
1.125
309
GRIDFORMAT_END
 95
       16
302
GRIDFORMAT
  1
GRIDFORMAT_BEGIN
 90
        0
 91
        1
 62
     0
 92
       -2
340
0
 93
        0
 40
1.125
309
GRIDFORMAT_END
 95
       32
302
GRIDFORMAT
  1
GRIDFORMAT_BEGIN
 90
        0
 91
        1
 62
     0
 92
       -2
340
0
 93
        0
 40
1.125
309
GRIDFORMAT_END
309
TABLEFORMAT_END
  1
CELLSTYLE_BEGIN
 90
        1
 91
        1
300
_TITLE
309
CELLSTYLE_END
300
CELLSTYLE
  1
TABLEFORMAT_BEGIN
 90
        5
170
     1
 91
        0
 92
        0
 62
   257
 93
        1
300
CONTENTFORMAT
  1
CONTENTFORMAT_BEGIN
 90
        0
 91
        0
 92
      512
 93
        0
300

 40
0.0
140
1.0
 94
        5
 62
     0
340
11
144
4.5
309
CONTENTFORMAT_END
171
     1
301
MARGIN
  1
CELLMARGIN_BEGIN
 40
1.5
 40
1.5
 40
1.5
 40
1.5
 40
4.5
 40
4.5
309
CELLMARGIN_END
 94
        6
 95
        1
302
GRIDFORMAT
  1
GRIDFORMAT_BEGIN
 90
        0
 91
        1
 62
     0
 92
       -2
340
0
 93
        0
 40
1.125
309
GRIDFORMAT_END
 95
        2
302
GRIDFORMAT
  1
GRIDFORMAT_BEGIN
 90
        0
 91
        1
 62
     0
 92
       -2
340
0
 93
        0
 40
1.125
309
GRIDFORMAT_END
 95
        4
302
GRIDFORMAT
  1
GRIDFORMAT_BEGIN
 90
        0
 91
        1
 62
     0
 92
       -2
340
0
 93
        0
 40
1.125
309
GRIDFORMAT_END
 95
        8
302
GRIDFORMAT
  1
GRIDFORMAT_BEGIN
 90
        0
 91
        1
 62
     0
 92
       -2
340
0
 93
        0
 40
1.125
309
GRIDFORMAT_END
 95
       16
302
GRIDFORMAT
  1
GRIDFORMAT_BEGIN
 90
        0
 91
        1
 62
     0
 92
       -2
340
0
 93
        0
 40
1.125
309
GRIDFORMAT_END
 95
       32
302
GRIDFORMAT
  1
GRIDFORMAT_BEGIN
 90
        0
 91
        1
 62
     0
 92
       -2
340
0
 93
        0
 40
1.125
309
GRIDFORMAT_END
309
TABLEFORMAT_END
  1
CELLSTYLE_BEGIN
 90
        2
 91
        1
300
_HEADER
309
CELLSTYLE_END
300
CELLSTYLE
  1
TABLEFORMAT_BEGIN
 90
        5
170
     1
 91
        0
 92
        0
 62
   257
 93
        1
300
CONTENTFORMAT
  1
CONTENTFORMAT_BEGIN
 90
        0
 91
        0
 92
      512
 93
        0
300

 40
0.0
140
1.0
 94
        2
 62
     0
340
11
144
4.5
309
CONTENTFORMAT_END
171
     1
301
MARGIN
  1
CELLMARGIN_BEGIN
 40
1.5
 40
1.5
 40
1.5
 40
1.5
 40
4.5
 40
4.5
309
CELLMARGIN_END
 94
        6
 95
        1
302
GRIDFORMAT
  1
GRIDFORMAT_BEGIN
 90
        0
 91
        1
 62
     0
 92
       -2
340
0
 93
        0
 40
1.125
309
GRIDFORMAT_END
 95
        2
302
GRIDFORMAT
  1
GRIDFORMAT_BEGIN
 90
        0
 91
        1
 62
     0
 92
       -2
340
0
 93
        0
 40
1.125
309
GRIDFORMAT_END
 95
        4
302
GRIDFORMAT
  1
GRIDFORMAT_BEGIN
 90
        0
 91
        1
 62
     0
 92
       -2
340
0
 93
        0
 40
1.125
309
GRIDFORMAT_END
 95
        8
302
GRIDFORMAT
  1
GRIDFORMAT_BEGIN
 90
        0
 91
        1
 62
     0
 92
       -2
340
0
 93
        0
 40
1.125
309
GRIDFORMAT_END
 95
       16
302
GRIDFORMAT
  1
GRIDFORMAT_BEGIN
 90
        0
 91
        1
 62
     0
 92
       -2
340
0
 93
        0
 40
1.125
309
GRIDFORMAT_END
 95
       32
302
GRIDFORMAT
  1
GRIDFORMAT_BEGIN
 90
        0
 91
        1
 62
     0
 92
       -2
340
0
 93
        0
 40
1.125
309
GRIDFORMAT_END
309
TABLEFORMAT_END
  1
CELLSTYLE_BEGIN
 90
        3
 91
        2
300
_DATA
309
CELLSTYLE_END
  0
XRECORD
  5
4571
102
{ACAD_REACTORS
330
3F59
102
}
330
3F59
100
AcDbXrecord
280
     1
102
ACAD_ROUNDTRIP_PRE2007_TABLESTYLE
 90
      512
 91
        0
  1

 92
      512
 93
        0
  2

 94
      512
 95
        0
  3

  0
XRECORD
  5
454C
102
{ACAD_REACTORS
330
454B
102
}
330
454B
100
AcDbXrecord
280
     1
102
RTVSPost2010Prop28
280
     1
102
RTVSPost2010PropOp28
 70
     1
102
RTVSPost2010Prop29
280
     1
102
RTVSPost2010PropOp29
 70
     1
102
RTVSPost2010Prop30
280
     0
102
RTVSPost2010PropOp30
 70
     1
102
RTVSPost2010Prop31
280
     0
102
RTVSPost2010PropOp31
 70
     1
102
RTVSPost2010Prop32
280
     0
102
RTVSPost2010PropOp32
 70
     1
102
RTVSPost2010Prop33
280
     0
102
RTVSPost2010PropOp33
 70
     1
102
RTVSPost2010Prop34
280
     0
102
RTVSPost2010PropOp34
 70
     1
102
RTVSPost2010Prop35
280
     0
102
RTVSPost2010PropOp35
 70
     1
102
RTVSPost2010Prop36
280
     0
102
RTVSPost2010PropOp36
 70
     1
102
RTVSPost2010Prop37
 90
       50
102
RTVSPost2010PropOp37
 70
     1
102
RTVSPost2010Prop38
140
0.0
102
RTVSPost2010PropOp38
 70
     1
102
RTVSPost2010Prop39
140
1.0
102
RTVSPost2010PropOp39
 70
     1
102
RTVSPost2010Prop40
 90
        0
102
RTVSPost2010PropOp40
 70
     1
102
RTVSPost2010Prop41ColorIndex
 90
       18
102
RTVSPost2010Prop41ColorRGB
 90
        0
102
RTVSPost2010PropOp41
 70
     1
102
RTVSPost2010Prop42
 90
       50
102
RTVSPost2010PropOp42
 70
     1
102
RTVSPost2010Prop43
 90
        3
102
RTVSPost2010PropOp43
 70
     1
102
RTVSPost2010Prop44ColorIndex
 90
        5
102
RTVSPost2010Prop44ColorRGB
 90
      255
102
RTVSPost2010PropOp44
 70
     1
102
RTVSPost2010Prop45
280
     0
102
RTVSPost2010PropOp45
 70
     1
102
RTVSPost2010Prop46
 90
       50
102
RTVSPost2010PropOp46
 70
     1
102
RTVSPost2010Prop47
 90
       50
102
RTVSPost2010PropOp47
 70
     1
102
RTVSPost2010Prop48
 90
       50
102
RTVSPost2010PropOp48
 70
     1
102
RTVSPost2010Prop49
280
     0
102
RTVSPost2010PropOp49
 70
     1
102
RTVSPost2010Prop50
 90
       50
102
RTVSPost2010PropOp50
 70
     1
102
RTVSPost2010Prop51ColorIndex
 90
      256
102
RTVSPost2010Prop51ColorRGB
 90
-16777216
102
RTVSPost2010PropOp51
 70
     0
102
RTVSPost2010Prop52
140
1.0
102
RTVSPost2010PropOp52
 70
     0
102
RTVSPost2010Prop53
 90
        2
102
RTVSPost2010PropOp53
 70
     1
102
RTVSPost2010Prop54
  1
strokes_ogs.tif
102
RTVSPost2010PropOp54
 70
     1
102
RTVSPost2010Prop55
280
     0
102
RTVSPost2010PropOp55
 70
     1
102
RTVSPost2010Prop56
140
1.0
102
RTVSPost2010PropOp56
 70
     1
102
RTVSPost2010Prop57
140
1.0
102
RTVSPost2010PropOp57
 70
     1
102
RTVSPropertyOp0
 70
     1
102
RTVSPropertyOp1
 70
     1
102
RTVSPropertyOp2
 70
     1
102
RTVSPropertyOp3
 70
     1
102
RTVSPropertyOp4
 70
     1
102
RTVSPropertyOp5
 70
     1
102
RTVSPropertyOp6
 70
     1
102
RTVSPropertyOp7
 70
     1
102
RTVSPropertyOp8
 70
     1
102
RTVSPropertyOp9
 70
     1
102
RTVSPropertyOp10
 70
     1
102
RTVSPropertyOp11
 70
     1
102
RTVSPropertyOp12
 70
     1
102
RTVSPropertyOp13
 70
     1
102
RTVSPropertyOp14
 70
     1
102
RTVSPropertyOp15
 70
     1
102
RTVSPropertyOp16
 70
     1
102
RTVSPropertyOp17
 70
     1
102
RTVSPropertyOp18
 70
     1
102
RTVSPropertyOp19
 70
     1
102
RTVSPropertyOp20
 70
     1
102
RTVSPropertyOp21
 70
     1
102
RTVSPropertyOp22
 70
     1
102
RTVSPropertyOp23
 70
     1
102
RTVSPropertyOp24
 70
     1
102
RTVSPropertyOp25
 70
     1
102
RTVSPropertyOp26
 70
     1
102
RTVSPropertyOp27
 70
     1
102
RTVSPropertyOp28
 70
     1
102
RTVSPropertyOp29
 70
     1
102
RTVSPropertyOp30
 70
     1
102
RTVSPropertyOp31
 70
     1
102
RTVSPropertyOp32
 70
     1
102
RTVSPropertyOp33
 70
     1
102
RTVSPropertyOp34
 70
     1
102
RTVSPropertyOp35
 70
     1
102
RTVSPropertyOp36
 70
     1
102
RTVSPropertyOp37
 70
     1
102
RTVSPropertyOp38
 70
     1
102
RTVSPropertyOp39
 70
     1
102
RTVSPropertyOp40
 70
     1
102
RTVSPropertyOp41
 70
     1
102
RTVSPropertyOp42
 70
     1
102
RTVSPropertyOp43
 70
     1
102
RTVSPropertyOp44
 70
     1
102
RTVSPropertyOp45
 70
     1
102
RTVSPropertyOp46
 70
     1
102
RTVSPropertyOp47
 70
     1
102
RTVSPropertyOp48
 70
     1
102
RTVSPropertyOp49
 70
     1
102
RTVSPropertyOp50
 70
     1
102
RTVSPropertyOp51
 70
     0
102
RTVSPropertyOp52
 70
     0
102
RTVSPropertyOp53
 70
     1
102
RTVSPropertyOp54
 70
     1
102
RTVSPropertyOp55
 70
     1
102
RTVSPropertyOp56
 70
     1
102
RTVSPropertyOp57
 70
     1
102
RTVSPropertyOp58
 70
     1
102
RTVSPropertyOp59
 70
     1
102
RTVSPropertyOp60
 70
     1
102
RTVSPropertyOp61
 70
     1
102
RTVSPropertyOp62
 70
     1
  0
XRECORD
  5
457B
102
{ACAD_REACTORS
330
457A
102
}
330
457A
100
AcDbXrecord
280
     1
102
RTVSPost2010Prop28
280
     0
102
RTVSPost2010PropOp28
 70
     1
102
RTVSPost2010Prop29
280
     1
102
RTVSPost2010PropOp29
 70
     1
102
RTVSPost2010Prop30
280
     1
102
RTVSPost2010PropOp30
 70
     1
102
RTVSPost2010Prop31
280
     0
102
RTVSPost2010PropOp31
 70
     1
102
RTVSPost2010Prop32
280
     0
102
RTVSPost2010PropOp32
 70
     1
102
RTVSPost2010Prop33
280
     0
102
RTVSPost2010PropOp33
 70
     1
102
RTVSPost2010Prop34
280
     0
102
RTVSPost2010PropOp34
 70
     1
102
RTVSPost2010Prop35
280
     0
102
RTVSPost2010PropOp35
 70
     1
102
RTVSPost2010Prop36
280
     0
102
RTVSPost2010PropOp36
 70
     1
102
RTVSPost2010Prop37
 90
       50
102
RTVSPost2010PropOp37
 70
     1
102
RTVSPost2010Prop38
140
0.0
102
RTVSPost2010PropOp38
 70
     1
102
RTVSPost2010Prop39
140
1.0
102
RTVSPost2010PropOp39
 70
     1
102
RTVSPost2010Prop40
 90
        0
102
RTVSPost2010PropOp40
 70
     1
102
RTVSPost2010Prop41ColorIndex
 90
       18
102
RTVSPost2010Prop41ColorRGB
 90
        0
102
RTVSPost2010PropOp41
 70
     1
102
RTVSPost2010Prop42
 90
       50
102
RTVSPost2010PropOp42
 70
     1
102
RTVSPost2010Prop43
 90
        3
102
RTVSPost2010PropOp43
 70
     1
102
RTVSPost2010Prop44ColorIndex
 90
        5
102
RTVSPost2010Prop44ColorRGB
 90
      255
102
RTVSPost2010PropOp44
 70
     1
102
RTVSPost2010Prop45
280
     0
102
RTVSPost2010PropOp45
 70
     1
102
RTVSPost2010Prop46
 90
       50
102
RTVSPost2010PropOp46
 70
     1
102
RTVSPost2010Prop47
 90
       50
102
RTVSPost2010PropOp47
 70
     1
102
RTVSPost2010Prop48
 90
       50
102
RTVSPost2010PropOp48
 70
     1
102
RTVSPost2010Prop49
280
     0
102
RTVSPost2010PropOp49
 70
     1
102
RTVSPost2010Prop50
 90
       50
102
RTVSPost2010PropOp50
 70
     1
102
RTVSPost2010Prop51ColorIndex
 90
      256
102
RTVSPost2010Prop51ColorRGB
 90
-16777216
102
RTVSPost2010PropOp51
 70
     0
102
RTVSPost2010Prop52
140
1.0
102
RTVSPost2010PropOp52
 70
     0
102
RTVSPost2010Prop53
 90
        2
102
RTVSPost2010PropOp53
 70
     1
102
RTVSPost2010Prop54
  1
strokes_ogs.tif
102
RTVSPost2010PropOp54
 70
     1
102
RTVSPost2010Prop55
280
     0
102
RTVSPost2010PropOp55
 70
     1
102
RTVSPost2010Prop56
140
1.0
102
RTVSPost2010PropOp56
 70
     1
102
RTVSPost2010Prop57
140
1.0
102
RTVSPost2010PropOp57
 70
     1
102
RTVSPropertyOp0
 70
     1
102
RTVSPropertyOp1
 70
     1
102
RTVSPropertyOp2
 70
     1
102
RTVSPropertyOp3
 70
     1
102
RTVSPropertyOp4
 70
     1
102
RTVSPropertyOp5
 70
     1
102
RTVSPropertyOp6
 70
     1
102
RTVSPropertyOp7
 70
     1
102
RTVSPropertyOp8
 70
     1
102
RTVSPropertyOp9
 70
     1
102
RTVSPropertyOp10
 70
     1
102
RTVSPropertyOp11
 70
     1
102
RTVSPropertyOp12
 70
     1
102
RTVSPropertyOp13
 70
     1
102
RTVSPropertyOp14
 70
     1
102
RTVSPropertyOp15
 70
     1
102
RTVSPropertyOp16
 70
     1
102
RTVSPropertyOp17
 70
     1
102
RTVSPropertyOp18
 70
     1
102
RTVSPropertyOp19
 70
     1
102
RTVSPropertyOp20
 70
     1
102
RTVSPropertyOp21
 70
     1
102
RTVSPropertyOp22
 70
     1
102
RTVSPropertyOp23
 70
     1
102
RTVSPropertyOp24
 70
     1
102
RTVSPropertyOp25
 70
     1
102
RTVSPropertyOp26
 70
     1
102
RTVSPropertyOp27
 70
     1
102
RTVSPropertyOp28
 70
     1
102
RTVSPropertyOp29
 70
     1
102
RTVSPropertyOp30
 70
     1
102
RTVSPropertyOp31
 70
     1
102
RTVSPropertyOp32
 70
     1
102
RTVSPropertyOp33
 70
     1
102
RTVSPropertyOp34
 70
     1
102
RTVSPropertyOp35
 70
     1
102
RTVSPropertyOp36
 70
     1
102
RTVSPropertyOp37
 70
     1
102
RTVSPropertyOp38
 70
     1
102
RTVSPropertyOp39
 70
     1
102
RTVSPropertyOp40
 70
     1
102
RTVSPropertyOp41
 70
     1
102
RTVSPropertyOp42
 70
     1
102
RTVSPropertyOp43
 70
     1
102
RTVSPropertyOp44
 70
     1
102
RTVSPropertyOp45
 70
     1
102
RTVSPropertyOp46
 70
     1
102
RTVSPropertyOp47
 70
     1
102
RTVSPropertyOp48
 70
     1
102
RTVSPropertyOp49
 70
     1
102
RTVSPropertyOp50
 70
     1
102
RTVSPropertyOp51
 70
     0
102
RTVSPropertyOp52
 70
     0
102
RTVSPropertyOp53
 70
     1
102
RTVSPropertyOp54
 70
     1
102
RTVSPropertyOp55
 70
     1
102
RTVSPropertyOp56
 70
     1
102
RTVSPropertyOp57
 70
     1
102
RTVSPropertyOp58
 70
     1
102
RTVSPropertyOp59
 70
     1
102
RTVSPropertyOp60
 70
     1
102
RTVSPropertyOp61
 70
     1
102
RTVSPropertyOp62
 70
     1
  0
XRECORD
  5
4579
102
{ACAD_REACTORS
330
4578
102
}
330
4578
100
AcDbXrecord
280
     1
102
RTVSPost2010Prop28
280
     0
102
RTVSPost2010PropOp28
 70
     1
102
RTVSPost2010Prop29
280
     1
102
RTVSPost2010PropOp29
 70
     1
102
RTVSPost2010Prop30
280
     1
102
RTVSPost2010PropOp30
 70
     1
102
RTVSPost2010Prop31
280
     0
102
RTVSPost2010PropOp31
 70
     1
102
RTVSPost2010Prop32
280
     0
102
RTVSPost2010PropOp32
 70
     1
102
RTVSPost2010Prop33
280
     0
102
RTVSPost2010PropOp33
 70
     1
102
RTVSPost2010Prop34
280
     0
102
RTVSPost2010PropOp34
 70
     1
102
RTVSPost2010Prop35
280
     0
102
RTVSPost2010PropOp35
 70
     1
102
RTVSPost2010Prop36
280
     0
102
RTVSPost2010PropOp36
 70
     1
102
RTVSPost2010Prop37
 90
       50
102
RTVSPost2010PropOp37
 70
     1
102
RTVSPost2010Prop38
140
0.0
102
RTVSPost2010PropOp38
 70
     1
102
RTVSPost2010Prop39
140
1.0
102
RTVSPost2010PropOp39
 70
     1
102
RTVSPost2010Prop40
 90
        0
102
RTVSPost2010PropOp40
 70
     1
102
RTVSPost2010Prop41ColorIndex
 90
       18
102
RTVSPost2010Prop41ColorRGB
 90
        0
102
RTVSPost2010PropOp41
 70
     1
102
RTVSPost2010Prop42
 90
       50
102
RTVSPost2010PropOp42
 70
     1
102
RTVSPost2010Prop43
 90
        3
102
RTVSPost2010PropOp43
 70
     1
102
RTVSPost2010Prop44ColorIndex
 90
        5
102
RTVSPost2010Prop44ColorRGB
 90
      255
102
RTVSPost2010PropOp44
 70
     1
102
RTVSPost2010Prop45
280
     0
102
RTVSPost2010PropOp45
 70
     1
102
RTVSPost2010Prop46
 90
       50
102
RTVSPost2010PropOp46
 70
     1
102
RTVSPost2010Prop47
 90
       50
102
RTVSPost2010PropOp47
 70
     1
102
RTVSPost2010Prop48
 90
       50
102
RTVSPost2010PropOp48
 70
     1
102
RTVSPost2010Prop49
280
     0
102
RTVSPost2010PropOp49
 70
     1
102
RTVSPost2010Prop50
 90
       50
102
RTVSPost2010PropOp50
 70
     1
102
RTVSPost2010Prop51ColorIndex
 90
      256
102
RTVSPost2010Prop51ColorRGB
 90
-16777216
102
RTVSPost2010PropOp51
 70
     0
102
RTVSPost2010Prop52
140
1.0
102
RTVSPost2010PropOp52
 70
     0
102
RTVSPost2010Prop53
 90
        2
102
RTVSPost2010PropOp53
 70
     1
102
RTVSPost2010Prop54
  1
strokes_ogs.tif
102
RTVSPost2010PropOp54
 70
     1
102
RTVSPost2010Prop55
280
     0
102
RTVSPost2010PropOp55
 70
     1
102
RTVSPost2010Prop56
140
1.0
102
RTVSPost2010PropOp56
 70
     1
102
RTVSPost2010Prop57
140
1.0
102
RTVSPost2010PropOp57
 70
     1
102
RTVSPropertyOp0
 70
     1
102
RTVSPropertyOp1
 70
     1
102
RTVSPropertyOp2
 70
     1
102
RTVSPropertyOp3
 70
     1
102
RTVSPropertyOp4
 70
     1
102
RTVSPropertyOp5
 70
     1
102
RTVSPropertyOp6
 70
     1
102
RTVSPropertyOp7
 70
     1
102
RTVSPropertyOp8
 70
     1
102
RTVSPropertyOp9
 70
     1
102
RTVSPropertyOp10
 70
     1
102
RTVSPropertyOp11
 70
     1
102
RTVSPropertyOp12
 70
     1
102
RTVSPropertyOp13
 70
     1
102
RTVSPropertyOp14
 70
     1
102
RTVSPropertyOp15
 70
     1
102
RTVSPropertyOp16
 70
     1
102
RTVSPropertyOp17
 70
     1
102
RTVSPropertyOp18
 70
     1
102
RTVSPropertyOp19
 70
     1
102
RTVSPropertyOp20
 70
     1
102
RTVSPropertyOp21
 70
     1
102
RTVSPropertyOp22
 70
     1
102
RTVSPropertyOp23
 70
     1
102
RTVSPropertyOp24
 70
     1
102
RTVSPropertyOp25
 70
     1
102
RTVSPropertyOp26
 70
     1
102
RTVSPropertyOp27
 70
     1
102
RTVSPropertyOp28
 70
     1
102
RTVSPropertyOp29
 70
     1
102
RTVSPropertyOp30
 70
     1
102
RTVSPropertyOp31
 70
     1
102
RTVSPropertyOp32
 70
     1
102
RTVSPropertyOp33
 70
     1
102
RTVSPropertyOp34
 70
     1
102
RTVSPropertyOp35
 70
     1
102
RTVSPropertyOp36
 70
     1
102
RTVSPropertyOp37
 70
     1
102
RTVSPropertyOp38
 70
     1
102
RTVSPropertyOp39
 70
     1
102
RTVSPropertyOp40
 70
     1
102
RTVSPropertyOp41
 70
     1
102
RTVSPropertyOp42
 70
     1
102
RTVSPropertyOp43
 70
     1
102
RTVSPropertyOp44
 70
     1
102
RTVSPropertyOp45
 70
     1
102
RTVSPropertyOp46
 70
     1
102
RTVSPropertyOp47
 70
     1
102
RTVSPropertyOp48
 70
     1
102
RTVSPropertyOp49
 70
     1
102
RTVSPropertyOp50
 70
     1
102
RTVSPropertyOp51
 70
     0
102
RTVSPropertyOp52
 70
     0
102
RTVSPropertyOp53
 70
     1
102
RTVSPropertyOp54
 70
     1
102
RTVSPropertyOp55
 70
     1
102
RTVSPropertyOp56
 70
     1
102
RTVSPropertyOp57
 70
     1
102
RTVSPropertyOp58
 70
     1
102
RTVSPropertyOp59
 70
     1
102
RTVSPropertyOp60
 70
     1
102
RTVSPropertyOp61
 70
     1
102
RTVSPropertyOp62
 70
     1
  0
XRECORD
  5
454A
102
{ACAD_REACTORS
330
4549
102
}
330
4549
100
AcDbXrecord
280
     1
102
RTVSPost2010Prop28
280
     0
102
RTVSPost2010PropOp28
 70
     1
102
RTVSPost2010Prop29
280
     1
102
RTVSPost2010PropOp29
 70
     1
102
RTVSPost2010Prop30
280
     1
102
RTVSPost2010PropOp30
 70
     1
102
RTVSPost2010Prop31
280
     0
102
RTVSPost2010PropOp31
 70
     1
102
RTVSPost2010Prop32
280
     0
102
RTVSPost2010PropOp32
 70
     1
102
RTVSPost2010Prop33
280
     0
102
RTVSPost2010PropOp33
 70
     1
102
RTVSPost2010Prop34
280
     0
102
RTVSPost2010PropOp34
 70
     1
102
RTVSPost2010Prop35
280
     0
102
RTVSPost2010PropOp35
 70
     1
102
RTVSPost2010Prop36
280
     0
102
RTVSPost2010PropOp36
 70
     1
102
RTVSPost2010Prop37
 90
       50
102
RTVSPost2010PropOp37
 70
     1
102
RTVSPost2010Prop38
140
0.0
102
RTVSPost2010PropOp38
 70
     1
102
RTVSPost2010Prop39
140
1.0
102
RTVSPost2010PropOp39
 70
     1
102
RTVSPost2010Prop40
 90
        0
102
RTVSPost2010PropOp40
 70
     1
102
RTVSPost2010Prop41ColorIndex
 90
       18
102
RTVSPost2010Prop41ColorRGB
 90
        0
102
RTVSPost2010PropOp41
 70
     1
102
RTVSPost2010Prop42
 90
       50
102
RTVSPost2010PropOp42
 70
     1
102
RTVSPost2010Prop43
 90
        3
102
RTVSPost2010PropOp43
 70
     1
102
RTVSPost2010Prop44ColorIndex
 90
        5
102
RTVSPost2010Prop44ColorRGB
 90
      255
102
RTVSPost2010PropOp44
 70
     1
102
RTVSPost2010Prop45
280
     0
102
RTVSPost2010PropOp45
 70
     1
102
RTVSPost2010Prop46
 90
       50
102
RTVSPost2010PropOp46
 70
     1
102
RTVSPost2010Prop47
 90
       50
102
RTVSPost2010PropOp47
 70
     1
102
RTVSPost2010Prop48
 90
       50
102
RTVSPost2010PropOp48
 70
     1
102
RTVSPost2010Prop49
280
     0
102
RTVSPost2010PropOp49
 70
     1
102
RTVSPost2010Prop50
 90
       50
102
RTVSPost2010PropOp50
 70
     1
102
RTVSPost2010Prop51ColorIndex
 90
      256
102
RTVSPost2010Prop51ColorRGB
 90
-16777216
102
RTVSPost2010PropOp51
 70
     0
102
RTVSPost2010Prop52
140
1.0
102
RTVSPost2010PropOp52
 70
     0
102
RTVSPost2010Prop53
 90
        2
102
RTVSPost2010PropOp53
 70
     1
102
RTVSPost2010Prop54
  1
strokes_ogs.tif
102
RTVSPost2010PropOp54
 70
     1
102
RTVSPost2010Prop55
280
     0
102
RTVSPost2010PropOp55
 70
     1
102
RTVSPost2010Prop56
140
1.0
102
RTVSPost2010PropOp56
 70
     1
102
RTVSPost2010Prop57
140
1.0
102
RTVSPost2010PropOp57
 70
     1
102
RTVSPropertyOp0
 70
     1
102
RTVSPropertyOp1
 70
     1
102
RTVSPropertyOp2
 70
     1
102
RTVSPropertyOp3
 70
     1
102
RTVSPropertyOp4
 70
     1
102
RTVSPropertyOp5
 70
     1
102
RTVSPropertyOp6
 70
     1
102
RTVSPropertyOp7
 70
     1
102
RTVSPropertyOp8
 70
     1
102
RTVSPropertyOp9
 70
     1
102
RTVSPropertyOp10
 70
     1
102
RTVSPropertyOp11
 70
     1
102
RTVSPropertyOp12
 70
     1
102
RTVSPropertyOp13
 70
     1
102
RTVSPropertyOp14
 70
     1
102
RTVSPropertyOp15
 70
     1
102
RTVSPropertyOp16
 70
     1
102
RTVSPropertyOp17
 70
     1
102
RTVSPropertyOp18
 70
     1
102
RTVSPropertyOp19
 70
     1
102
RTVSPropertyOp20
 70
     1
102
RTVSPropertyOp21
 70
     1
102
RTVSPropertyOp22
 70
     1
102
RTVSPropertyOp23
 70
     1
102
RTVSPropertyOp24
 70
     1
102
RTVSPropertyOp25
 70
     1
102
RTVSPropertyOp26
 70
     1
102
RTVSPropertyOp27
 70
     1
102
RTVSPropertyOp28
 70
     1
102
RTVSPropertyOp29
 70
     1
102
RTVSPropertyOp30
 70
     1
102
RTVSPropertyOp31
 70
     1
102
RTVSPropertyOp32
 70
     1
102
RTVSPropertyOp33
 70
     1
102
RTVSPropertyOp34
 70
     1
102
RTVSPropertyOp35
 70
     1
102
RTVSPropertyOp36
 70
     1
102
RTVSPropertyOp37
 70
     1
102
RTVSPropertyOp38
 70
     1
102
RTVSPropertyOp39
 70
     1
102
RTVSPropertyOp40
 70
     1
102
RTVSPropertyOp41
 70
     1
102
RTVSPropertyOp42
 70
     1
102
RTVSPropertyOp43
 70
     1
102
RTVSPropertyOp44
 70
     1
102
RTVSPropertyOp45
 70
     1
102
RTVSPropertyOp46
 70
     1
102
RTVSPropertyOp47
 70
     1
102
RTVSPropertyOp48
 70
     1
102
RTVSPropertyOp49
 70
     1
102
RTVSPropertyOp50
 70
     1
102
RTVSPropertyOp51
 70
     0
102
RTVSPropertyOp52
 70
     0
102
RTVSPropertyOp53
 70
     1
102
RTVSPropertyOp54
 70
     1
102
RTVSPropertyOp55
 70
     1
102
RTVSPropertyOp56
 70
     1
102
RTVSPropertyOp57
 70
     1
102
RTVSPropertyOp58
 70
     1
102
RTVSPropertyOp59
 70
     1
102
RTVSPropertyOp60
 70
     1
102
RTVSPropertyOp61
 70
     1
102
RTVSPropertyOp62
 70
     1
  0
XRECORD
  5
4558
102
{ACAD_REACTORS
330
4557
102
}
330
4557
100
AcDbXrecord
280
     1
102
RTVSPost2010Prop28
280
     0
102
RTVSPost2010PropOp28
 70
     1
102
RTVSPost2010Prop29
280
     1
102
RTVSPost2010PropOp29
 70
     1
102
RTVSPost2010Prop30
280
     1
102
RTVSPost2010PropOp30
 70
     1
102
RTVSPost2010Prop31
280
     0
102
RTVSPost2010PropOp31
 70
     1
102
RTVSPost2010Prop32
280
     0
102
RTVSPost2010PropOp32
 70
     1
102
RTVSPost2010Prop33
280
     0
102
RTVSPost2010PropOp33
 70
     1
102
RTVSPost2010Prop34
280
     0
102
RTVSPost2010PropOp34
 70
     1
102
RTVSPost2010Prop35
280
     0
102
RTVSPost2010PropOp35
 70
     1
102
RTVSPost2010Prop36
280
     0
102
RTVSPost2010PropOp36
 70
     1
102
RTVSPost2010Prop37
 90
       50
102
RTVSPost2010PropOp37
 70
     1
102
RTVSPost2010Prop38
140
0.0
102
RTVSPost2010PropOp38
 70
     1
102
RTVSPost2010Prop39
140
1.0
102
RTVSPost2010PropOp39
 70
     1
102
RTVSPost2010Prop40
 90
        0
102
RTVSPost2010PropOp40
 70
     1
102
RTVSPost2010Prop41ColorIndex
 90
       18
102
RTVSPost2010Prop41ColorRGB
 90
        0
102
RTVSPost2010PropOp41
 70
     1
102
RTVSPost2010Prop42
 90
       50
102
RTVSPost2010PropOp42
 70
     1
102
RTVSPost2010Prop43
 90
        3
102
RTVSPost2010PropOp43
 70
     1
102
RTVSPost2010Prop44ColorIndex
 90
        5
102
RTVSPost2010Prop44ColorRGB
 90
      255
102
RTVSPost2010PropOp44
 70
     1
102
RTVSPost2010Prop45
280
     0
102
RTVSPost2010PropOp45
 70
     1
102
RTVSPost2010Prop46
 90
       50
102
RTVSPost2010PropOp46
 70
     1
102
RTVSPost2010Prop47
 90
       50
102
RTVSPost2010PropOp47
 70
     1
102
RTVSPost2010Prop48
 90
       50
102
RTVSPost2010PropOp48
 70
     1
102
RTVSPost2010Prop49
280
     0
102
RTVSPost2010PropOp49
 70
     1
102
RTVSPost2010Prop50
 90
       50
102
RTVSPost2010PropOp50
 70
     1
102
RTVSPost2010Prop51ColorIndex
 90
      256
102
RTVSPost2010Prop51ColorRGB
 90
-16777216
102
RTVSPost2010PropOp51
 70
     0
102
RTVSPost2010Prop52
140
1.0
102
RTVSPost2010PropOp52
 70
     0
102
RTVSPost2010Prop53
 90
        2
102
RTVSPost2010PropOp53
 70
     1
102
RTVSPost2010Prop54
  1
strokes_ogs.tif
102
RTVSPost2010PropOp54
 70
     1
102
RTVSPost2010Prop55
280
     0
102
RTVSPost2010PropOp55
 70
     1
102
RTVSPost2010Prop56
140
1.0
102
RTVSPost2010PropOp56
 70
     1
102
RTVSPost2010Prop57
140
1.0
102
RTVSPost2010PropOp57
 70
     1
102
RTVSPropertyOp0
 70
     1
102
RTVSPropertyOp1
 70
     1
102
RTVSPropertyOp2
 70
     1
102
RTVSPropertyOp3
 70
     1
102
RTVSPropertyOp4
 70
     1
102
RTVSPropertyOp5
 70
     1
102
RTVSPropertyOp6
 70
     1
102
RTVSPropertyOp7
 70
     1
102
RTVSPropertyOp8
 70
     1
102
RTVSPropertyOp9
 70
     1
102
RTVSPropertyOp10
 70
     1
102
RTVSPropertyOp11
 70
     1
102
RTVSPropertyOp12
 70
     1
102
RTVSPropertyOp13
 70
     1
102
RTVSPropertyOp14
 70
     1
102
RTVSPropertyOp15
 70
     1
102
RTVSPropertyOp16
 70
     1
102
RTVSPropertyOp17
 70
     1
102
RTVSPropertyOp18
 70
     1
102
RTVSPropertyOp19
 70
     1
102
RTVSPropertyOp20
 70
     1
102
RTVSPropertyOp21
 70
     1
102
RTVSPropertyOp22
 70
     1
102
RTVSPropertyOp23
 70
     1
102
RTVSPropertyOp24
 70
     1
102
RTVSPropertyOp25
 70
     1
102
RTVSPropertyOp26
 70
     1
102
RTVSPropertyOp27
 70
     1
102
RTVSPropertyOp28
 70
     1
102
RTVSPropertyOp29
 70
     1
102
RTVSPropertyOp30
 70
     1
102
RTVSPropertyOp31
 70
     1
102
RTVSPropertyOp32
 70
     1
102
RTVSPropertyOp33
 70
     1
102
RTVSPropertyOp34
 70
     1
102
RTVSPropertyOp35
 70
     1
102
RTVSPropertyOp36
 70
     1
102
RTVSPropertyOp37
 70
     1
102
RTVSPropertyOp38
 70
     1
102
RTVSPropertyOp39
 70
     1
102
RTVSPropertyOp40
 70
     1
102
RTVSPropertyOp41
 70
     1
102
RTVSPropertyOp42
 70
     1
102
RTVSPropertyOp43
 70
     1
102
RTVSPropertyOp44
 70
     1
102
RTVSPropertyOp45
 70
     1
102
RTVSPropertyOp46
 70
     1
102
RTVSPropertyOp47
 70
     1
102
RTVSPropertyOp48
 70
     1
102
RTVSPropertyOp49
 70
     1
102
RTVSPropertyOp50
 70
     1
102
RTVSPropertyOp51
 70
     0
102
RTVSPropertyOp52
 70
     0
102
RTVSPropertyOp53
 70
     1
102
RTVSPropertyOp54
 70
     1
102
RTVSPropertyOp55
 70
     1
102
RTVSPropertyOp56
 70
     1
102
RTVSPropertyOp57
 70
     1
102
RTVSPropertyOp58
 70
     1
102
RTVSPropertyOp59
 70
     1
102
RTVSPropertyOp60
 70
     1
102
RTVSPropertyOp61
 70
     1
102
RTVSPropertyOp62
 70
     1
  0
XRECORD
  5
4560
102
{ACAD_REACTORS
330
455F
102
}
330
455F
100
AcDbXrecord
280
     1
102
RTVSPost2010Prop28
280
     0
102
RTVSPost2010PropOp28
 70
     1
102
RTVSPost2010Prop29
280
     1
102
RTVSPost2010PropOp29
 70
     1
102
RTVSPost2010Prop30
280
     1
102
RTVSPost2010PropOp30
 70
     1
102
RTVSPost2010Prop31
280
     0
102
RTVSPost2010PropOp31
 70
     1
102
RTVSPost2010Prop32
280
     0
102
RTVSPost2010PropOp32
 70
     1
102
RTVSPost2010Prop33
280
     0
102
RTVSPost2010PropOp33
 70
     1
102
RTVSPost2010Prop34
280
     0
102
RTVSPost2010PropOp34
 70
     1
102
RTVSPost2010Prop35
280
     0
102
RTVSPost2010PropOp35
 70
     1
102
RTVSPost2010Prop36
280
     0
102
RTVSPost2010PropOp36
 70
     1
102
RTVSPost2010Prop37
 90
       50
102
RTVSPost2010PropOp37
 70
     1
102
RTVSPost2010Prop38
140
0.0
102
RTVSPost2010PropOp38
 70
     1
102
RTVSPost2010Prop39
140
1.0
102
RTVSPost2010PropOp39
 70
     1
102
RTVSPost2010Prop40
 90
        0
102
RTVSPost2010PropOp40
 70
     1
102
RTVSPost2010Prop41ColorIndex
 90
       18
102
RTVSPost2010Prop41ColorRGB
 90
        0
102
RTVSPost2010PropOp41
 70
     1
102
RTVSPost2010Prop42
 90
       50
102
RTVSPost2010PropOp42
 70
     1
102
RTVSPost2010Prop43
 90
        3
102
RTVSPost2010PropOp43
 70
     1
102
RTVSPost2010Prop44ColorIndex
 90
        5
102
RTVSPost2010Prop44ColorRGB
 90
      255
102
RTVSPost2010PropOp44
 70
     1
102
RTVSPost2010Prop45
280
     0
102
RTVSPost2010PropOp45
 70
     1
102
RTVSPost2010Prop46
 90
       50
102
RTVSPost2010PropOp46
 70
     1
102
RTVSPost2010Prop47
 90
       50
102
RTVSPost2010PropOp47
 70
     1
102
RTVSPost2010Prop48
 90
       50
102
RTVSPost2010PropOp48
 70
     1
102
RTVSPost2010Prop49
280
     0
102
RTVSPost2010PropOp49
 70
     1
102
RTVSPost2010Prop50
 90
       50
102
RTVSPost2010PropOp50
 70
     1
102
RTVSPost2010Prop51ColorIndex
 90
      256
102
RTVSPost2010Prop51ColorRGB
 90
-16777216
102
RTVSPost2010PropOp51
 70
     0
102
RTVSPost2010Prop52
140
1.0
102
RTVSPost2010PropOp52
 70
     0
102
RTVSPost2010Prop53
 90
        2
102
RTVSPost2010PropOp53
 70
     1
102
RTVSPost2010Prop54
  1
strokes_ogs.tif
102
RTVSPost2010PropOp54
 70
     1
102
RTVSPost2010Prop55
280
     0
102
RTVSPost2010PropOp55
 70
     1
102
RTVSPost2010Prop56
140
1.0
102
RTVSPost2010PropOp56
 70
     1
102
RTVSPost2010Prop57
140
1.0
102
RTVSPost2010PropOp57
 70
     1
102
RTVSPropertyOp0
 70
     1
102
RTVSPropertyOp1
 70
     1
102
RTVSPropertyOp2
 70
     1
102
RTVSPropertyOp3
 70
     1
102
RTVSPropertyOp4
 70
     1
102
RTVSPropertyOp5
 70
     1
102
RTVSPropertyOp6
 70
     1
102
RTVSPropertyOp7
 70
     1
102
RTVSPropertyOp8
 70
     1
102
RTVSPropertyOp9
 70
     1
102
RTVSPropertyOp10
 70
     1
102
RTVSPropertyOp11
 70
     1
102
RTVSPropertyOp12
 70
     1
102
RTVSPropertyOp13
 70
     1
102
RTVSPropertyOp14
 70
     1
102
RTVSPropertyOp15
 70
     1
102
RTVSPropertyOp16
 70
     1
102
RTVSPropertyOp17
 70
     1
102
RTVSPropertyOp18
 70
     1
102
RTVSPropertyOp19
 70
     1
102
RTVSPropertyOp20
 70
     1
102
RTVSPropertyOp21
 70
     1
102
RTVSPropertyOp22
 70
     1
102
RTVSPropertyOp23
 70
     1
102
RTVSPropertyOp24
 70
     1
102
RTVSPropertyOp25
 70
     1
102
RTVSPropertyOp26
 70
     1
102
RTVSPropertyOp27
 70
     1
102
RTVSPropertyOp28
 70
     1
102
RTVSPropertyOp29
 70
     1
102
RTVSPropertyOp30
 70
     1
102
RTVSPropertyOp31
 70
     1
102
RTVSPropertyOp32
 70
     1
102
RTVSPropertyOp33
 70
     1
102
RTVSPropertyOp34
 70
     1
102
RTVSPropertyOp35
 70
     1
102
RTVSPropertyOp36
 70
     1
102
RTVSPropertyOp37
 70
     1
102
RTVSPropertyOp38
 70
     1
102
RTVSPropertyOp39
 70
     1
102
RTVSPropertyOp40
 70
     1
102
RTVSPropertyOp41
 70
     1
102
RTVSPropertyOp42
 70
     1
102
RTVSPropertyOp43
 70
     1
102
RTVSPropertyOp44
 70
     1
102
RTVSPropertyOp45
 70
     1
102
RTVSPropertyOp46
 70
     1
102
RTVSPropertyOp47
 70
     1
102
RTVSPropertyOp48
 70
     1
102
RTVSPropertyOp49
 70
     1
102
RTVSPropertyOp50
 70
     1
102
RTVSPropertyOp51
 70
     0
102
RTVSPropertyOp52
 70
     0
102
RTVSPropertyOp53
 70
     1
102
RTVSPropertyOp54
 70
     1
102
RTVSPropertyOp55
 70
     1
102
RTVSPropertyOp56
 70
     1
102
RTVSPropertyOp57
 70
     1
102
RTVSPropertyOp58
 70
     1
102
RTVSPropertyOp59
 70
     1
102
RTVSPropertyOp60
 70
     1
102
RTVSPropertyOp61
 70
     1
102
RTVSPropertyOp62
 70
     1
  0
XRECORD
  5
4552
102
{ACAD_REACTORS
330
4551
102
}
330
4551
100
AcDbXrecord
280
     1
102
RTVSPost2010Prop28
280
     0
102
RTVSPost2010PropOp28
 70
     1
102
RTVSPost2010Prop29
280
     1
102
RTVSPost2010PropOp29
 70
     1
102
RTVSPost2010Prop30
280
     1
102
RTVSPost2010PropOp30
 70
     1
102
RTVSPost2010Prop31
280
     0
102
RTVSPost2010PropOp31
 70
     1
102
RTVSPost2010Prop32
280
     0
102
RTVSPost2010PropOp32
 70
     1
102
RTVSPost2010Prop33
280
     0
102
RTVSPost2010PropOp33
 70
     1
102
RTVSPost2010Prop34
280
     0
102
RTVSPost2010PropOp34
 70
     1
102
RTVSPost2010Prop35
280
     0
102
RTVSPost2010PropOp35
 70
     1
102
RTVSPost2010Prop36
280
     0
102
RTVSPost2010PropOp36
 70
     1
102
RTVSPost2010Prop37
 90
       50
102
RTVSPost2010PropOp37
 70
     1
102
RTVSPost2010Prop38
140
0.0
102
RTVSPost2010PropOp38
 70
     1
102
RTVSPost2010Prop39
140
1.0
102
RTVSPost2010PropOp39
 70
     1
102
RTVSPost2010Prop40
 90
        0
102
RTVSPost2010PropOp40
 70
     1
102
RTVSPost2010Prop41ColorIndex
 90
       18
102
RTVSPost2010Prop41ColorRGB
 90
        0
102
RTVSPost2010PropOp41
 70
     1
102
RTVSPost2010Prop42
 90
       50
102
RTVSPost2010PropOp42
 70
     1
102
RTVSPost2010Prop43
 90
        3
102
RTVSPost2010PropOp43
 70
     1
102
RTVSPost2010Prop44ColorIndex
 90
        5
102
RTVSPost2010Prop44ColorRGB
 90
      255
102
RTVSPost2010PropOp44
 70
     1
102
RTVSPost2010Prop45
280
     0
102
RTVSPost2010PropOp45
 70
     1
102
RTVSPost2010Prop46
 90
       50
102
RTVSPost2010PropOp46
 70
     1
102
RTVSPost2010Prop47
 90
       50
102
RTVSPost2010PropOp47
 70
     1
102
RTVSPost2010Prop48
 90
       50
102
RTVSPost2010PropOp48
 70
     1
102
RTVSPost2010Prop49
280
     0
102
RTVSPost2010PropOp49
 70
     1
102
RTVSPost2010Prop50
 90
       50
102
RTVSPost2010PropOp50
 70
     1
102
RTVSPost2010Prop51ColorIndex
 90
      256
102
RTVSPost2010Prop51ColorRGB
 90
-16777216
102
RTVSPost2010PropOp51
 70
     0
102
RTVSPost2010Prop52
140
1.0
102
RTVSPost2010PropOp52
 70
     0
102
RTVSPost2010Prop53
 90
        2
102
RTVSPost2010PropOp53
 70
     1
102
RTVSPost2010Prop54
  1
strokes_ogs.tif
102
RTVSPost2010PropOp54
 70
     1
102
RTVSPost2010Prop55
280
     0
102
RTVSPost2010PropOp55
 70
     1
102
RTVSPost2010Prop56
140
1.0
102
RTVSPost2010PropOp56
 70
     1
102
RTVSPost2010Prop57
140
1.0
102
RTVSPost2010PropOp57
 70
     1
102
RTVSPropertyOp0
 70
     1
102
RTVSPropertyOp1
 70
     1
102
RTVSPropertyOp2
 70
     1
102
RTVSPropertyOp3
 70
     1
102
RTVSPropertyOp4
 70
     1
102
RTVSPropertyOp5
 70
     1
102
RTVSPropertyOp6
 70
     1
102
RTVSPropertyOp7
 70
     1
102
RTVSPropertyOp8
 70
     1
102
RTVSPropertyOp9
 70
     1
102
RTVSPropertyOp10
 70
     1
102
RTVSPropertyOp11
 70
     1
102
RTVSPropertyOp12
 70
     1
102
RTVSPropertyOp13
 70
     1
102
RTVSPropertyOp14
 70
     1
102
RTVSPropertyOp15
 70
     1
102
RTVSPropertyOp16
 70
     1
102
RTVSPropertyOp17
 70
     1
102
RTVSPropertyOp18
 70
     1
102
RTVSPropertyOp19
 70
     1
102
RTVSPropertyOp20
 70
     1
102
RTVSPropertyOp21
 70
     1
102
RTVSPropertyOp22
 70
     1
102
RTVSPropertyOp23
 70
     1
102
RTVSPropertyOp24
 70
     1
102
RTVSPropertyOp25
 70
     1
102
RTVSPropertyOp26
 70
     1
102
RTVSPropertyOp27
 70
     1
102
RTVSPropertyOp28
 70
     1
102
RTVSPropertyOp29
 70
     1
102
RTVSPropertyOp30
 70
     1
102
RTVSPropertyOp31
 70
     1
102
RTVSPropertyOp32
 70
     1
102
RTVSPropertyOp33
 70
     1
102
RTVSPropertyOp34
 70
     1
102
RTVSPropertyOp35
 70
     1
102
RTVSPropertyOp36
 70
     1
102
RTVSPropertyOp37
 70
     1
102
RTVSPropertyOp38
 70
     1
102
RTVSPropertyOp39
 70
     1
102
RTVSPropertyOp40
 70
     1
102
RTVSPropertyOp41
 70
     1
102
RTVSPropertyOp42
 70
     1
102
RTVSPropertyOp43
 70
     1
102
RTVSPropertyOp44
 70
     1
102
RTVSPropertyOp45
 70
     1
102
RTVSPropertyOp46
 70
     1
102
RTVSPropertyOp47
 70
     1
102
RTVSPropertyOp48
 70
     1
102
RTVSPropertyOp49
 70
     1
102
RTVSPropertyOp50
 70
     1
102
RTVSPropertyOp51
 70
     0
102
RTVSPropertyOp52
 70
     0
102
RTVSPropertyOp53
 70
     1
102
RTVSPropertyOp54
 70
     1
102
RTVSPropertyOp55
 70
     1
102
RTVSPropertyOp56
 70
     1
102
RTVSPropertyOp57
 70
     1
102
RTVSPropertyOp58
 70
     1
102
RTVSPropertyOp59
 70
     1
102
RTVSPropertyOp60
 70
     1
102
RTVSPropertyOp61
 70
     1
102
RTVSPropertyOp62
 70
     1
  0
XRECORD
  5
4556
102
{ACAD_REACTORS
330
4555
102
}
330
4555
100
AcDbXrecord
280
     1
102
RTVSPost2010Prop28
280
     0
102
RTVSPost2010PropOp28
 70
     1
102
RTVSPost2010Prop29
280
     1
102
RTVSPost2010PropOp29
 70
     1
102
RTVSPost2010Prop30
280
     1
102
RTVSPost2010PropOp30
 70
     1
102
RTVSPost2010Prop31
280
     0
102
RTVSPost2010PropOp31
 70
     1
102
RTVSPost2010Prop32
280
     0
102
RTVSPost2010PropOp32
 70
     1
102
RTVSPost2010Prop33
280
     0
102
RTVSPost2010PropOp33
 70
     1
102
RTVSPost2010Prop34
280
     0
102
RTVSPost2010PropOp34
 70
     1
102
RTVSPost2010Prop35
280
     0
102
RTVSPost2010PropOp35
 70
     1
102
RTVSPost2010Prop36
280
     0
102
RTVSPost2010PropOp36
 70
     1
102
RTVSPost2010Prop37
 90
       50
102
RTVSPost2010PropOp37
 70
     1
102
RTVSPost2010Prop38
140
0.0
102
RTVSPost2010PropOp38
 70
     1
102
RTVSPost2010Prop39
140
1.0
102
RTVSPost2010PropOp39
 70
     1
102
RTVSPost2010Prop40
 90
        0
102
RTVSPost2010PropOp40
 70
     1
102
RTVSPost2010Prop41ColorIndex
 90
       18
102
RTVSPost2010Prop41ColorRGB
 90
        0
102
RTVSPost2010PropOp41
 70
     1
102
RTVSPost2010Prop42
 90
       50
102
RTVSPost2010PropOp42
 70
     1
102
RTVSPost2010Prop43
 90
        3
102
RTVSPost2010PropOp43
 70
     1
102
RTVSPost2010Prop44ColorIndex
 90
        5
102
RTVSPost2010Prop44ColorRGB
 90
      255
102
RTVSPost2010PropOp44
 70
     1
102
RTVSPost2010Prop45
280
     0
102
RTVSPost2010PropOp45
 70
     1
102
RTVSPost2010Prop46
 90
       50
102
RTVSPost2010PropOp46
 70
     1
102
RTVSPost2010Prop47
 90
       50
102
RTVSPost2010PropOp47
 70
     1
102
RTVSPost2010Prop48
 90
       50
102
RTVSPost2010PropOp48
 70
     1
102
RTVSPost2010Prop49
280
     0
102
RTVSPost2010PropOp49
 70
     1
102
RTVSPost2010Prop50
 90
       50
102
RTVSPost2010PropOp50
 70
     1
102
RTVSPost2010Prop51ColorIndex
 90
      256
102
RTVSPost2010Prop51ColorRGB
 90
-16777216
102
RTVSPost2010PropOp51
 70
     0
102
RTVSPost2010Prop52
140
1.0
102
RTVSPost2010PropOp52
 70
     0
102
RTVSPost2010Prop53
 90
        2
102
RTVSPost2010PropOp53
 70
     1
102
RTVSPost2010Prop54
  1
strokes_ogs.tif
102
RTVSPost2010PropOp54
 70
     1
102
RTVSPost2010Prop55
280
     0
102
RTVSPost2010PropOp55
 70
     1
102
RTVSPost2010Prop56
140
1.0
102
RTVSPost2010PropOp56
 70
     1
102
RTVSPost2010Prop57
140
1.0
102
RTVSPost2010PropOp57
 70
     1
102
RTVSPropertyOp0
 70
     1
102
RTVSPropertyOp1
 70
     1
102
RTVSPropertyOp2
 70
     1
102
RTVSPropertyOp3
 70
     1
102
RTVSPropertyOp4
 70
     1
102
RTVSPropertyOp5
 70
     1
102
RTVSPropertyOp6
 70
     1
102
RTVSPropertyOp7
 70
     1
102
RTVSPropertyOp8
 70
     1
102
RTVSPropertyOp9
 70
     1
102
RTVSPropertyOp10
 70
     1
102
RTVSPropertyOp11
 70
     1
102
RTVSPropertyOp12
 70
     1
102
RTVSPropertyOp13
 70
     1
102
RTVSPropertyOp14
 70
     1
102
RTVSPropertyOp15
 70
     1
102
RTVSPropertyOp16
 70
     1
102
RTVSPropertyOp17
 70
     1
102
RTVSPropertyOp18
 70
     1
102
RTVSPropertyOp19
 70
     1
102
RTVSPropertyOp20
 70
     1
102
RTVSPropertyOp21
 70
     1
102
RTVSPropertyOp22
 70
     1
102
RTVSPropertyOp23
 70
     1
102
RTVSPropertyOp24
 70
     1
102
RTVSPropertyOp25
 70
     1
102
RTVSPropertyOp26
 70
     1
102
RTVSPropertyOp27
 70
     1
102
RTVSPropertyOp28
 70
     1
102
RTVSPropertyOp29
 70
     1
102
RTVSPropertyOp30
 70
     1
102
RTVSPropertyOp31
 70
     1
102
RTVSPropertyOp32
 70
     1
102
RTVSPropertyOp33
 70
     1
102
RTVSPropertyOp34
 70
     1
102
RTVSPropertyOp35
 70
     1
102
RTVSPropertyOp36
 70
     1
102
RTVSPropertyOp37
 70
     1
102
RTVSPropertyOp38
 70
     1
102
RTVSPropertyOp39
 70
     1
102
RTVSPropertyOp40
 70
     1
102
RTVSPropertyOp41
 70
     1
102
RTVSPropertyOp42
 70
     1
102
RTVSPropertyOp43
 70
     1
102
RTVSPropertyOp44
 70
     1
102
RTVSPropertyOp45
 70
     1
102
RTVSPropertyOp46
 70
     1
102
RTVSPropertyOp47
 70
     1
102
RTVSPropertyOp48
 70
     1
102
RTVSPropertyOp49
 70
     1
102
RTVSPropertyOp50
 70
     1
102
RTVSPropertyOp51
 70
     0
102
RTVSPropertyOp52
 70
     0
102
RTVSPropertyOp53
 70
     1
102
RTVSPropertyOp54
 70
     1
102
RTVSPropertyOp55
 70
     1
102
RTVSPropertyOp56
 70
     1
102
RTVSPropertyOp57
 70
     1
102
RTVSPropertyOp58
 70
     1
102
RTVSPropertyOp59
 70
     1
102
RTVSPropertyOp60
 70
     1
102
RTVSPropertyOp61
 70
     1
102
RTVSPropertyOp62
 70
     1
  0
XRECORD
  5
4570
102
{ACAD_REACTORS
330
456F
102
}
330
456F
100
AcDbXrecord
280
     1
102
RTVSPost2010Prop28
280
     0
102
RTVSPost2010PropOp28
 70
     0
102
RTVSPost2010Prop29
280
     1
102
RTVSPost2010PropOp29
 70
     0
102
RTVSPost2010Prop30
280
     1
102
RTVSPost2010PropOp30
 70
     0
102
RTVSPost2010Prop31
280
     0
102
RTVSPost2010PropOp31
 70
     0
102
RTVSPost2010Prop32
280
     0
102
RTVSPost2010PropOp32
 70
     0
102
RTVSPost2010Prop33
280
     0
102
RTVSPost2010PropOp33
 70
     0
102
RTVSPost2010Prop34
280
     0
102
RTVSPost2010PropOp34
 70
     0
102
RTVSPost2010Prop35
280
     0
102
RTVSPost2010PropOp35
 70
     0
102
RTVSPost2010Prop36
280
     0
102
RTVSPost2010PropOp36
 70
     0
102
RTVSPost2010Prop37
 90
       50
102
RTVSPost2010PropOp37
 70
     0
102
RTVSPost2010Prop38
140
0.0
102
RTVSPost2010PropOp38
 70
     0
102
RTVSPost2010Prop39
140
1.0
102
RTVSPost2010PropOp39
 70
     0
102
RTVSPost2010Prop40
 90
        0
102
RTVSPost2010PropOp40
 70
     0
102
RTVSPost2010Prop41ColorIndex
 90
       18
102
RTVSPost2010Prop41ColorRGB
 90
        0
102
RTVSPost2010PropOp41
 70
     0
102
RTVSPost2010Prop42
 90
       50
102
RTVSPost2010PropOp42
 70
     0
102
RTVSPost2010Prop43
 90
        3
102
RTVSPost2010PropOp43
 70
     0
102
RTVSPost2010Prop44ColorIndex
 90
        5
102
RTVSPost2010Prop44ColorRGB
 90
      255
102
RTVSPost2010PropOp44
 70
     0
102
RTVSPost2010Prop45
280
     0
102
RTVSPost2010PropOp45
 70
     0
102
RTVSPost2010Prop46
 90
       50
102
RTVSPost2010PropOp46
 70
     0
102
RTVSPost2010Prop47
 90
       50
102
RTVSPost2010PropOp47
 70
     0
102
RTVSPost2010Prop48
 90
       50
102
RTVSPost2010PropOp48
 70
     0
102
RTVSPost2010Prop49
280
     0
102
RTVSPost2010PropOp49
 70
     0
102
RTVSPost2010Prop50
 90
       50
102
RTVSPost2010PropOp50
 70
     0
102
RTVSPost2010Prop51ColorIndex
 90
      256
102
RTVSPost2010Prop51ColorRGB
 90
-16777216
102
RTVSPost2010PropOp51
 70
     0
102
RTVSPost2010Prop52
140
1.0
102
RTVSPost2010PropOp52
 70
     0
102
RTVSPost2010Prop53
 90
        2
102
RTVSPost2010PropOp53
 70
     0
102
RTVSPost2010Prop54
  1
strokes_ogs.tif
102
RTVSPost2010PropOp54
 70
     0
102
RTVSPost2010Prop55
280
     0
102
RTVSPost2010PropOp55
 70
     0
102
RTVSPost2010Prop56
140
1.0
102
RTVSPost2010PropOp56
 70
     0
102
RTVSPost2010Prop57
140
1.0
102
RTVSPost2010PropOp57
 70
     0
102
RTVSPropertyOp0
 70
     0
102
RTVSPropertyOp1
 70
     0
102
RTVSPropertyOp2
 70
     0
102
RTVSPropertyOp3
 70
     0
102
RTVSPropertyOp4
 70
     0
102
RTVSPropertyOp5
 70
     0
102
RTVSPropertyOp6
 70
     0
102
RTVSPropertyOp7
 70
     0
102
RTVSPropertyOp8
 70
     0
102
RTVSPropertyOp9
 70
     0
102
RTVSPropertyOp10
 70
     0
102
RTVSPropertyOp11
 70
     0
102
RTVSPropertyOp12
 70
     0
102
RTVSPropertyOp13
 70
     0
102
RTVSPropertyOp14
 70
     2
102
RTVSPropertyOp15
 70
     0
102
RTVSPropertyOp16
 70
     0
102
RTVSPropertyOp17
 70
     0
102
RTVSPropertyOp18
 70
     0
102
RTVSPropertyOp19
 70
     0
102
RTVSPropertyOp20
 70
     0
102
RTVSPropertyOp21
 70
     0
102
RTVSPropertyOp22
 70
     0
102
RTVSPropertyOp23
 70
     0
102
RTVSPropertyOp24
 70
     0
102
RTVSPropertyOp25
 70
     0
102
RTVSPropertyOp26
 70
     0
102
RTVSPropertyOp27
 70
     0
102
RTVSPropertyOp28
 70
     0
102
RTVSPropertyOp29
 70
     0
102
RTVSPropertyOp30
 70
     0
102
RTVSPropertyOp31
 70
     0
102
RTVSPropertyOp32
 70
     0
102
RTVSPropertyOp33
 70
     0
102
RTVSPropertyOp34
 70
     0
102
RTVSPropertyOp35
 70
     0
102
RTVSPropertyOp36
 70
     0
102
RTVSPropertyOp37
 70
     0
102
RTVSPropertyOp38
 70
     0
102
RTVSPropertyOp39
 70
     0
102
RTVSPropertyOp40
 70
     0
102
RTVSPropertyOp41
 70
     0
102
RTVSPropertyOp42
 70
     0
102
RTVSPropertyOp43
 70
     0
102
RTVSPropertyOp44
 70
     0
102
RTVSPropertyOp45
 70
     0
102
RTVSPropertyOp46
 70
     0
102
RTVSPropertyOp47
 70
     0
102
RTVSPropertyOp48
 70
     0
102
RTVSPropertyOp49
 70
     0
102
RTVSPropertyOp50
 70
     0
102
RTVSPropertyOp51
 70
     0
102
RTVSPropertyOp52
 70
     0
102
RTVSPropertyOp53
 70
     0
102
RTVSPropertyOp54
 70
     0
102
RTVSPropertyOp55
 70
     0
102
RTVSPropertyOp56
 70
     0
102
RTVSPropertyOp57
 70
     0
102
RTVSPropertyOp58
 70
     0
102
RTVSPropertyOp59
 70
     0
102
RTVSPropertyOp60
 70
     0
102
RTVSPropertyOp61
 70
     0
102
RTVSPropertyOp62
 70
     0
  0
XRECORD
  5
455E
102
{ACAD_REACTORS
330
455D
102
}
330
455D
100
AcDbXrecord
280
     1
102
RTVSPost2010Prop28
280
     0
102
RTVSPost2010PropOp28
 70
     1
102
RTVSPost2010Prop29
280
     1
102
RTVSPost2010PropOp29
 70
     1
102
RTVSPost2010Prop30
280
     1
102
RTVSPost2010PropOp30
 70
     1
102
RTVSPost2010Prop31
280
     0
102
RTVSPost2010PropOp31
 70
     1
102
RTVSPost2010Prop32
280
     0
102
RTVSPost2010PropOp32
 70
     1
102
RTVSPost2010Prop33
280
     0
102
RTVSPost2010PropOp33
 70
     1
102
RTVSPost2010Prop34
280
     0
102
RTVSPost2010PropOp34
 70
     1
102
RTVSPost2010Prop35
280
     0
102
RTVSPost2010PropOp35
 70
     1
102
RTVSPost2010Prop36
280
     0
102
RTVSPost2010PropOp36
 70
     1
102
RTVSPost2010Prop37
 90
       50
102
RTVSPost2010PropOp37
 70
     1
102
RTVSPost2010Prop38
140
0.0
102
RTVSPost2010PropOp38
 70
     1
102
RTVSPost2010Prop39
140
1.0
102
RTVSPost2010PropOp39
 70
     1
102
RTVSPost2010Prop40
 90
        0
102
RTVSPost2010PropOp40
 70
     1
102
RTVSPost2010Prop41ColorIndex
 90
       18
102
RTVSPost2010Prop41ColorRGB
 90
        0
102
RTVSPost2010PropOp41
 70
     1
102
RTVSPost2010Prop42
 90
       50
102
RTVSPost2010PropOp42
 70
     1
102
RTVSPost2010Prop43
 90
        3
102
RTVSPost2010PropOp43
 70
     1
102
RTVSPost2010Prop44ColorIndex
 90
        5
102
RTVSPost2010Prop44ColorRGB
 90
      255
102
RTVSPost2010PropOp44
 70
     1
102
RTVSPost2010Prop45
280
     0
102
RTVSPost2010PropOp45
 70
     1
102
RTVSPost2010Prop46
 90
       50
102
RTVSPost2010PropOp46
 70
     1
102
RTVSPost2010Prop47
 90
       50
102
RTVSPost2010PropOp47
 70
     1
102
RTVSPost2010Prop48
 90
       50
102
RTVSPost2010PropOp48
 70
     1
102
RTVSPost2010Prop49
280
     0
102
RTVSPost2010PropOp49
 70
     1
102
RTVSPost2010Prop50
 90
       50
102
RTVSPost2010PropOp50
 70
     1
102
RTVSPost2010Prop51ColorIndex
 90
      256
102
RTVSPost2010Prop51ColorRGB
 90
-16777216
102
RTVSPost2010PropOp51
 70
     0
102
RTVSPost2010Prop52
140
1.0
102
RTVSPost2010PropOp52
 70
     0
102
RTVSPost2010Prop53
 90
        2
102
RTVSPost2010PropOp53
 70
     1
102
RTVSPost2010Prop54
  1
strokes_ogs.tif
102
RTVSPost2010PropOp54
 70
     1
102
RTVSPost2010Prop55
280
     0
102
RTVSPost2010PropOp55
 70
     1
102
RTVSPost2010Prop56
140
1.0
102
RTVSPost2010PropOp56
 70
     1
102
RTVSPost2010Prop57
140
1.0
102
RTVSPost2010PropOp57
 70
     1
102
RTVSPropertyOp0
 70
     1
102
RTVSPropertyOp1
 70
     1
102
RTVSPropertyOp2
 70
     1
102
RTVSPropertyOp3
 70
     1
102
RTVSPropertyOp4
 70
     1
102
RTVSPropertyOp5
 70
     1
102
RTVSPropertyOp6
 70
     1
102
RTVSPropertyOp7
 70
     1
102
RTVSPropertyOp8
 70
     1
102
RTVSPropertyOp9
 70
     1
102
RTVSPropertyOp10
 70
     1
102
RTVSPropertyOp11
 70
     1
102
RTVSPropertyOp12
 70
     1
102
RTVSPropertyOp13
 70
     1
102
RTVSPropertyOp14
 70
     1
102
RTVSPropertyOp15
 70
     1
102
RTVSPropertyOp16
 70
     1
102
RTVSPropertyOp17
 70
     1
102
RTVSPropertyOp18
 70
     1
102
RTVSPropertyOp19
 70
     1
102
RTVSPropertyOp20
 70
     1
102
RTVSPropertyOp21
 70
     1
102
RTVSPropertyOp22
 70
     1
102
RTVSPropertyOp23
 70
     1
102
RTVSPropertyOp24
 70
     1
102
RTVSPropertyOp25
 70
     1
102
RTVSPropertyOp26
 70
     1
102
RTVSPropertyOp27
 70
     1
102
RTVSPropertyOp28
 70
     1
102
RTVSPropertyOp29
 70
     1
102
RTVSPropertyOp30
 70
     1
102
RTVSPropertyOp31
 70
     1
102
RTVSPropertyOp32
 70
     1
102
RTVSPropertyOp33
 70
     1
102
RTVSPropertyOp34
 70
     1
102
RTVSPropertyOp35
 70
     1
102
RTVSPropertyOp36
 70
     1
102
RTVSPropertyOp37
 70
     1
102
RTVSPropertyOp38
 70
     1
102
RTVSPropertyOp39
 70
     1
102
RTVSPropertyOp40
 70
     1
102
RTVSPropertyOp41
 70
     1
102
RTVSPropertyOp42
 70
     1
102
RTVSPropertyOp43
 70
     1
102
RTVSPropertyOp44
 70
     1
102
RTVSPropertyOp45
 70
     1
102
RTVSPropertyOp46
 70
     1
102
RTVSPropertyOp47
 70
     1
102
RTVSPropertyOp48
 70
     1
102
RTVSPropertyOp49
 70
     1
102
RTVSPropertyOp50
 70
     1
102
RTVSPropertyOp51
 70
     0
102
RTVSPropertyOp52
 70
     0
102
RTVSPropertyOp53
 70
     1
102
RTVSPropertyOp54
 70
     1
102
RTVSPropertyOp55
 70
     1
102
RTVSPropertyOp56
 70
     1
102
RTVSPropertyOp57
 70
     1
102
RTVSPropertyOp58
 70
     1
102
RTVSPropertyOp59
 70
     1
102
RTVSPropertyOp60
 70
     1
102
RTVSPropertyOp61
 70
     1
102
RTVSPropertyOp62
 70
     1
  0
XRECORD
  5
4542
102
{ACAD_REACTORS
330
4541
102
}
330
4541
100
AcDbXrecord
280
     1
102
RTVSPost2010Prop28
280
     0
102
RTVSPost2010PropOp28
 70
     1
102
RTVSPost2010Prop29
280
     1
102
RTVSPost2010PropOp29
 70
     1
102
RTVSPost2010Prop30
280
     1
102
RTVSPost2010PropOp30
 70
     1
102
RTVSPost2010Prop31
280
     0
102
RTVSPost2010PropOp31
 70
     1
102
RTVSPost2010Prop32
280
     0
102
RTVSPost2010PropOp32
 70
     1
102
RTVSPost2010Prop33
280
     0
102
RTVSPost2010PropOp33
 70
     1
102
RTVSPost2010Prop34
280
     0
102
RTVSPost2010PropOp34
 70
     1
102
RTVSPost2010Prop35
280
     0
102
RTVSPost2010PropOp35
 70
     1
102
RTVSPost2010Prop36
280
     0
102
RTVSPost2010PropOp36
 70
     1
102
RTVSPost2010Prop37
 90
       50
102
RTVSPost2010PropOp37
 70
     1
102
RTVSPost2010Prop38
140
0.0
102
RTVSPost2010PropOp38
 70
     1
102
RTVSPost2010Prop39
140
1.0
102
RTVSPost2010PropOp39
 70
     1
102
RTVSPost2010Prop40
 90
        0
102
RTVSPost2010PropOp40
 70
     1
102
RTVSPost2010Prop41ColorIndex
 90
       18
102
RTVSPost2010Prop41ColorRGB
 90
        0
102
RTVSPost2010PropOp41
 70
     1
102
RTVSPost2010Prop42
 90
       50
102
RTVSPost2010PropOp42
 70
     1
102
RTVSPost2010Prop43
 90
        3
102
RTVSPost2010PropOp43
 70
     1
102
RTVSPost2010Prop44ColorIndex
 90
        5
102
RTVSPost2010Prop44ColorRGB
 90
      255
102
RTVSPost2010PropOp44
 70
     1
102
RTVSPost2010Prop45
280
     0
102
RTVSPost2010PropOp45
 70
     1
102
RTVSPost2010Prop46
 90
       50
102
RTVSPost2010PropOp46
 70
     1
102
RTVSPost2010Prop47
 90
       50
102
RTVSPost2010PropOp47
 70
     1
102
RTVSPost2010Prop48
 90
       50
102
RTVSPost2010PropOp48
 70
     1
102
RTVSPost2010Prop49
280
     0
102
RTVSPost2010PropOp49
 70
     1
102
RTVSPost2010Prop50
 90
       50
102
RTVSPost2010PropOp50
 70
     1
102
RTVSPost2010Prop51ColorIndex
 90
      256
102
RTVSPost2010Prop51ColorRGB
 90
-16777216
102
RTVSPost2010PropOp51
 70
     0
102
RTVSPost2010Prop52
140
1.0
102
RTVSPost2010PropOp52
 70
     0
102
RTVSPost2010Prop53
 90
        2
102
RTVSPost2010PropOp53
 70
     1
102
RTVSPost2010Prop54
  1
strokes_ogs.tif
102
RTVSPost2010PropOp54
 70
     1
102
RTVSPost2010Prop55
280
     0
102
RTVSPost2010PropOp55
 70
     1
102
RTVSPost2010Prop56
140
1.0
102
RTVSPost2010PropOp56
 70
     1
102
RTVSPost2010Prop57
140
1.0
102
RTVSPost2010PropOp57
 70
     1
102
RTVSPropertyOp0
 70
     1
102
RTVSPropertyOp1
 70
     1
102
RTVSPropertyOp2
 70
     1
102
RTVSPropertyOp3
 70
     1
102
RTVSPropertyOp4
 70
     1
102
RTVSPropertyOp5
 70
     1
102
RTVSPropertyOp6
 70
     1
102
RTVSPropertyOp7
 70
     1
102
RTVSPropertyOp8
 70
     1
102
RTVSPropertyOp9
 70
     1
102
RTVSPropertyOp10
 70
     1
102
RTVSPropertyOp11
 70
     1
102
RTVSPropertyOp12
 70
     1
102
RTVSPropertyOp13
 70
     1
102
RTVSPropertyOp14
 70
     1
102
RTVSPropertyOp15
 70
     1
102
RTVSPropertyOp16
 70
     1
102
RTVSPropertyOp17
 70
     1
102
RTVSPropertyOp18
 70
     1
102
RTVSPropertyOp19
 70
     1
102
RTVSPropertyOp20
 70
     1
102
RTVSPropertyOp21
 70
     1
102
RTVSPropertyOp22
 70
     1
102
RTVSPropertyOp23
 70
     1
102
RTVSPropertyOp24
 70
     1
102
RTVSPropertyOp25
 70
     1
102
RTVSPropertyOp26
 70
     1
102
RTVSPropertyOp27
 70
     1
102
RTVSPropertyOp28
 70
     1
102
RTVSPropertyOp29
 70
     1
102
RTVSPropertyOp30
 70
     1
102
RTVSPropertyOp31
 70
     1
102
RTVSPropertyOp32
 70
     1
102
RTVSPropertyOp33
 70
     1
102
RTVSPropertyOp34
 70
     1
102
RTVSPropertyOp35
 70
     1
102
RTVSPropertyOp36
 70
     1
102
RTVSPropertyOp37
 70
     1
102
RTVSPropertyOp38
 70
     1
102
RTVSPropertyOp39
 70
     1
102
RTVSPropertyOp40
 70
     1
102
RTVSPropertyOp41
 70
     1
102
RTVSPropertyOp42
 70
     1
102
RTVSPropertyOp43
 70
     1
102
RTVSPropertyOp44
 70
     1
102
RTVSPropertyOp45
 70
     1
102
RTVSPropertyOp46
 70
     1
102
RTVSPropertyOp47
 70
     1
102
RTVSPropertyOp48
 70
     1
102
RTVSPropertyOp49
 70
     1
102
RTVSPropertyOp50
 70
     1
102
RTVSPropertyOp51
 70
     0
102
RTVSPropertyOp52
 70
     0
102
RTVSPropertyOp53
 70
     1
102
RTVSPropertyOp54
 70
     1
102
RTVSPropertyOp55
 70
     1
102
RTVSPropertyOp56
 70
     1
102
RTVSPropertyOp57
 70
     1
102
RTVSPropertyOp58
 70
     1
102
RTVSPropertyOp59
 70
     1
102
RTVSPropertyOp60
 70
     1
102
RTVSPropertyOp61
 70
     1
102
RTVSPropertyOp62
 70
     1
  0
XRECORD
  5
4544
102
{ACAD_REACTORS
330
4543
102
}
330
4543
100
AcDbXrecord
280
     1
102
RTVSPost2010Prop28
280
     0
102
RTVSPost2010PropOp28
 70
     1
102
RTVSPost2010Prop29
280
     1
102
RTVSPost2010PropOp29
 70
     1
102
RTVSPost2010Prop30
280
     1
102
RTVSPost2010PropOp30
 70
     1
102
RTVSPost2010Prop31
280
     0
102
RTVSPost2010PropOp31
 70
     1
102
RTVSPost2010Prop32
280
     0
102
RTVSPost2010PropOp32
 70
     1
102
RTVSPost2010Prop33
280
     0
102
RTVSPost2010PropOp33
 70
     1
102
RTVSPost2010Prop34
280
     0
102
RTVSPost2010PropOp34
 70
     1
102
RTVSPost2010Prop35
280
     0
102
RTVSPost2010PropOp35
 70
     1
102
RTVSPost2010Prop36
280
     0
102
RTVSPost2010PropOp36
 70
     1
102
RTVSPost2010Prop37
 90
       50
102
RTVSPost2010PropOp37
 70
     1
102
RTVSPost2010Prop38
140
0.0
102
RTVSPost2010PropOp38
 70
     1
102
RTVSPost2010Prop39
140
1.0
102
RTVSPost2010PropOp39
 70
     1
102
RTVSPost2010Prop40
 90
        0
102
RTVSPost2010PropOp40
 70
     1
102
RTVSPost2010Prop41ColorIndex
 90
       18
102
RTVSPost2010Prop41ColorRGB
 90
        0
102
RTVSPost2010PropOp41
 70
     1
102
RTVSPost2010Prop42
 90
       50
102
RTVSPost2010PropOp42
 70
     1
102
RTVSPost2010Prop43
 90
        3
102
RTVSPost2010PropOp43
 70
     1
102
RTVSPost2010Prop44ColorIndex
 90
        5
102
RTVSPost2010Prop44ColorRGB
 90
      255
102
RTVSPost2010PropOp44
 70
     1
102
RTVSPost2010Prop45
280
     0
102
RTVSPost2010PropOp45
 70
     1
102
RTVSPost2010Prop46
 90
       50
102
RTVSPost2010PropOp46
 70
     1
102
RTVSPost2010Prop47
 90
       50
102
RTVSPost2010PropOp47
 70
     1
102
RTVSPost2010Prop48
 90
       50
102
RTVSPost2010PropOp48
 70
     1
102
RTVSPost2010Prop49
280
     0
102
RTVSPost2010PropOp49
 70
     1
102
RTVSPost2010Prop50
 90
       50
102
RTVSPost2010PropOp50
 70
     1
102
RTVSPost2010Prop51ColorIndex
 90
      256
102
RTVSPost2010Prop51ColorRGB
 90
-16777216
102
RTVSPost2010PropOp51
 70
     0
102
RTVSPost2010Prop52
140
1.0
102
RTVSPost2010PropOp52
 70
     0
102
RTVSPost2010Prop53
 90
        2
102
RTVSPost2010PropOp53
 70
     1
102
RTVSPost2010Prop54
  1
strokes_ogs.tif
102
RTVSPost2010PropOp54
 70
     1
102
RTVSPost2010Prop55
280
     0
102
RTVSPost2010PropOp55
 70
     1
102
RTVSPost2010Prop56
140
1.0
102
RTVSPost2010PropOp56
 70
     1
102
RTVSPost2010Prop57
140
1.0
102
RTVSPost2010PropOp57
 70
     1
102
RTVSPropertyOp0
 70
     1
102
RTVSPropertyOp1
 70
     1
102
RTVSPropertyOp2
 70
     1
102
RTVSPropertyOp3
 70
     1
102
RTVSPropertyOp4
 70
     1
102
RTVSPropertyOp5
 70
     1
102
RTVSPropertyOp6
 70
     1
102
RTVSPropertyOp7
 70
     1
102
RTVSPropertyOp8
 70
     1
102
RTVSPropertyOp9
 70
     1
102
RTVSPropertyOp10
 70
     1
102
RTVSPropertyOp11
 70
     1
102
RTVSPropertyOp12
 70
     1
102
RTVSPropertyOp13
 70
     1
102
RTVSPropertyOp14
 70
     1
102
RTVSPropertyOp15
 70
     1
102
RTVSPropertyOp16
 70
     1
102
RTVSPropertyOp17
 70
     1
102
RTVSPropertyOp18
 70
     1
102
RTVSPropertyOp19
 70
     1
102
RTVSPropertyOp20
 70
     1
102
RTVSPropertyOp21
 70
     1
102
RTVSPropertyOp22
 70
     1
102
RTVSPropertyOp23
 70
     1
102
RTVSPropertyOp24
 70
     1
102
RTVSPropertyOp25
 70
     1
102
RTVSPropertyOp26
 70
     1
102
RTVSPropertyOp27
 70
     1
102
RTVSPropertyOp28
 70
     1
102
RTVSPropertyOp29
 70
     1
102
RTVSPropertyOp30
 70
     1
102
RTVSPropertyOp31
 70
     1
102
RTVSPropertyOp32
 70
     1
102
RTVSPropertyOp33
 70
     1
102
RTVSPropertyOp34
 70
     1
102
RTVSPropertyOp35
 70
     1
102
RTVSPropertyOp36
 70
     1
102
RTVSPropertyOp37
 70
     1
102
RTVSPropertyOp38
 70
     1
102
RTVSPropertyOp39
 70
     1
102
RTVSPropertyOp40
 70
     1
102
RTVSPropertyOp41
 70
     1
102
RTVSPropertyOp42
 70
     1
102
RTVSPropertyOp43
 70
     1
102
RTVSPropertyOp44
 70
     1
102
RTVSPropertyOp45
 70
     1
102
RTVSPropertyOp46
 70
     1
102
RTVSPropertyOp47
 70
     1
102
RTVSPropertyOp48
 70
     1
102
RTVSPropertyOp49
 70
     1
102
RTVSPropertyOp50
 70
     1
102
RTVSPropertyOp51
 70
     0
102
RTVSPropertyOp52
 70
     0
102
RTVSPropertyOp53
 70
     1
102
RTVSPropertyOp54
 70
     1
102
RTVSPropertyOp55
 70
     1
102
RTVSPropertyOp56
 70
     1
102
RTVSPropertyOp57
 70
     1
102
RTVSPropertyOp58
 70
     1
102
RTVSPropertyOp59
 70
     1
102
RTVSPropertyOp60
 70
     1
102
RTVSPropertyOp61
 70
     1
102
RTVSPropertyOp62
 70
     1
  0
XRECORD
  5
4546
102
{ACAD_REACTORS
330
4545
102
}
330
4545
100
AcDbXrecord
280
     1
102
RTVSPost2010Prop28
280
     0
102
RTVSPost2010PropOp28
 70
     1
102
RTVSPost2010Prop29
280
     1
102
RTVSPost2010PropOp29
 70
     1
102
RTVSPost2010Prop30
280
     1
102
RTVSPost2010PropOp30
 70
     1
102
RTVSPost2010Prop31
280
     0
102
RTVSPost2010PropOp31
 70
     1
102
RTVSPost2010Prop32
280
     0
102
RTVSPost2010PropOp32
 70
     1
102
RTVSPost2010Prop33
280
     0
102
RTVSPost2010PropOp33
 70
     1
102
RTVSPost2010Prop34
280
     0
102
RTVSPost2010PropOp34
 70
     1
102
RTVSPost2010Prop35
280
     0
102
RTVSPost2010PropOp35
 70
     1
102
RTVSPost2010Prop36
280
     0
102
RTVSPost2010PropOp36
 70
     1
102
RTVSPost2010Prop37
 90
       50
102
RTVSPost2010PropOp37
 70
     1
102
RTVSPost2010Prop38
140
0.0
102
RTVSPost2010PropOp38
 70
     1
102
RTVSPost2010Prop39
140
1.0
102
RTVSPost2010PropOp39
 70
     1
102
RTVSPost2010Prop40
 90
        0
102
RTVSPost2010PropOp40
 70
     1
102
RTVSPost2010Prop41ColorIndex
 90
       18
102
RTVSPost2010Prop41ColorRGB
 90
        0
102
RTVSPost2010PropOp41
 70
     1
102
RTVSPost2010Prop42
 90
       50
102
RTVSPost2010PropOp42
 70
     1
102
RTVSPost2010Prop43
 90
        3
102
RTVSPost2010PropOp43
 70
     1
102
RTVSPost2010Prop44ColorIndex
 90
        5
102
RTVSPost2010Prop44ColorRGB
 90
      255
102
RTVSPost2010PropOp44
 70
     1
102
RTVSPost2010Prop45
280
     0
102
RTVSPost2010PropOp45
 70
     1
102
RTVSPost2010Prop46
 90
       50
102
RTVSPost2010PropOp46
 70
     1
102
RTVSPost2010Prop47
 90
       50
102
RTVSPost2010PropOp47
 70
     1
102
RTVSPost2010Prop48
 90
       50
102
RTVSPost2010PropOp48
 70
     1
102
RTVSPost2010Prop49
280
     0
102
RTVSPost2010PropOp49
 70
     1
102
RTVSPost2010Prop50
 90
       50
102
RTVSPost2010PropOp50
 70
     1
102
RTVSPost2010Prop51ColorIndex
 90
      256
102
RTVSPost2010Prop51ColorRGB
 90
-16777216
102
RTVSPost2010PropOp51
 70
     0
102
RTVSPost2010Prop52
140
1.0
102
RTVSPost2010PropOp52
 70
     0
102
RTVSPost2010Prop53
 90
        2
102
RTVSPost2010PropOp53
 70
     1
102
RTVSPost2010Prop54
  1
strokes_ogs.tif
102
RTVSPost2010PropOp54
 70
     1
102
RTVSPost2010Prop55
280
     0
102
RTVSPost2010PropOp55
 70
     1
102
RTVSPost2010Prop56
140
1.0
102
RTVSPost2010PropOp56
 70
     1
102
RTVSPost2010Prop57
140
1.0
102
RTVSPost2010PropOp57
 70
     1
102
RTVSPropertyOp0
 70
     1
102
RTVSPropertyOp1
 70
     1
102
RTVSPropertyOp2
 70
     1
102
RTVSPropertyOp3
 70
     1
102
RTVSPropertyOp4
 70
     1
102
RTVSPropertyOp5
 70
     1
102
RTVSPropertyOp6
 70
     1
102
RTVSPropertyOp7
 70
     1
102
RTVSPropertyOp8
 70
     1
102
RTVSPropertyOp9
 70
     1
102
RTVSPropertyOp10
 70
     1
102
RTVSPropertyOp11
 70
     1
102
RTVSPropertyOp12
 70
     1
102
RTVSPropertyOp13
 70
     1
102
RTVSPropertyOp14
 70
     1
102
RTVSPropertyOp15
 70
     1
102
RTVSPropertyOp16
 70
     1
102
RTVSPropertyOp17
 70
     1
102
RTVSPropertyOp18
 70
     1
102
RTVSPropertyOp19
 70
     1
102
RTVSPropertyOp20
 70
     1
102
RTVSPropertyOp21
 70
     1
102
RTVSPropertyOp22
 70
     1
102
RTVSPropertyOp23
 70
     1
102
RTVSPropertyOp24
 70
     1
102
RTVSPropertyOp25
 70
     1
102
RTVSPropertyOp26
 70
     1
102
RTVSPropertyOp27
 70
     1
102
RTVSPropertyOp28
 70
     1
102
RTVSPropertyOp29
 70
     1
102
RTVSPropertyOp30
 70
     1
102
RTVSPropertyOp31
 70
     1
102
RTVSPropertyOp32
 70
     1
102
RTVSPropertyOp33
 70
     1
102
RTVSPropertyOp34
 70
     1
102
RTVSPropertyOp35
 70
     1
102
RTVSPropertyOp36
 70
     1
102
RTVSPropertyOp37
 70
     1
102
RTVSPropertyOp38
 70
     1
102
RTVSPropertyOp39
 70
     1
102
RTVSPropertyOp40
 70
     1
102
RTVSPropertyOp41
 70
     1
102
RTVSPropertyOp42
 70
     1
102
RTVSPropertyOp43
 70
     1
102
RTVSPropertyOp44
 70
     1
102
RTVSPropertyOp45
 70
     1
102
RTVSPropertyOp46
 70
     1
102
RTVSPropertyOp47
 70
     1
102
RTVSPropertyOp48
 70
     1
102
RTVSPropertyOp49
 70
     1
102
RTVSPropertyOp50
 70
     1
102
RTVSPropertyOp51
 70
     0
102
RTVSPropertyOp52
 70
     0
102
RTVSPropertyOp53
 70
     1
102
RTVSPropertyOp54
 70
     1
102
RTVSPropertyOp55
 70
     1
102
RTVSPropertyOp56
 70
     1
102
RTVSPropertyOp57
 70
     1
102
RTVSPropertyOp58
 70
     1
102
RTVSPropertyOp59
 70
     1
102
RTVSPropertyOp60
 70
     1
102
RTVSPropertyOp61
 70
     1
102
RTVSPropertyOp62
 70
     1
  0
XRECORD
  5
4548
102
{ACAD_REACTORS
330
4547
102
}
330
4547
100
AcDbXrecord
280
     1
102
RTVSPost2010Prop28
280
     0
102
RTVSPost2010PropOp28
 70
     1
102
RTVSPost2010Prop29
280
     1
102
RTVSPost2010PropOp29
 70
     1
102
RTVSPost2010Prop30
280
     1
102
RTVSPost2010PropOp30
 70
     1
102
RTVSPost2010Prop31
280
     0
102
RTVSPost2010PropOp31
 70
     1
102
RTVSPost2010Prop32
280
     0
102
RTVSPost2010PropOp32
 70
     1
102
RTVSPost2010Prop33
280
     0
102
RTVSPost2010PropOp33
 70
     1
102
RTVSPost2010Prop34
280
     0
102
RTVSPost2010PropOp34
 70
     1
102
RTVSPost2010Prop35
280
     0
102
RTVSPost2010PropOp35
 70
     1
102
RTVSPost2010Prop36
280
     0
102
RTVSPost2010PropOp36
 70
     1
102
RTVSPost2010Prop37
 90
       50
102
RTVSPost2010PropOp37
 70
     1
102
RTVSPost2010Prop38
140
0.0
102
RTVSPost2010PropOp38
 70
     1
102
RTVSPost2010Prop39
140
1.0
102
RTVSPost2010PropOp39
 70
     1
102
RTVSPost2010Prop40
 90
        0
102
RTVSPost2010PropOp40
 70
     1
102
RTVSPost2010Prop41ColorIndex
 90
       18
102
RTVSPost2010Prop41ColorRGB
 90
        0
102
RTVSPost2010PropOp41
 70
     1
102
RTVSPost2010Prop42
 90
       50
102
RTVSPost2010PropOp42
 70
     1
102
RTVSPost2010Prop43
 90
        3
102
RTVSPost2010PropOp43
 70
     1
102
RTVSPost2010Prop44ColorIndex
 90
        5
102
RTVSPost2010Prop44ColorRGB
 90
      255
102
RTVSPost2010PropOp44
 70
     1
102
RTVSPost2010Prop45
280
     0
102
RTVSPost2010PropOp45
 70
     1
102
RTVSPost2010Prop46
 90
       50
102
RTVSPost2010PropOp46
 70
     1
102
RTVSPost2010Prop47
 90
       50
102
RTVSPost2010PropOp47
 70
     1
102
RTVSPost2010Prop48
 90
       50
102
RTVSPost2010PropOp48
 70
     1
102
RTVSPost2010Prop49
280
     0
102
RTVSPost2010PropOp49
 70
     1
102
RTVSPost2010Prop50
 90
       50
102
RTVSPost2010PropOp50
 70
     1
102
RTVSPost2010Prop51ColorIndex
 90
      256
102
RTVSPost2010Prop51ColorRGB
 90
-16777216
102
RTVSPost2010PropOp51
 70
     0
102
RTVSPost2010Prop52
140
1.0
102
RTVSPost2010PropOp52
 70
     0
102
RTVSPost2010Prop53
 90
        2
102
RTVSPost2010PropOp53
 70
     1
102
RTVSPost2010Prop54
  1
strokes_ogs.tif
102
RTVSPost2010PropOp54
 70
     1
102
RTVSPost2010Prop55
280
     0
102
RTVSPost2010PropOp55
 70
     1
102
RTVSPost2010Prop56
140
1.0
102
RTVSPost2010PropOp56
 70
     1
102
RTVSPost2010Prop57
140
1.0
102
RTVSPost2010PropOp57
 70
     1
102
RTVSPropertyOp0
 70
     1
102
RTVSPropertyOp1
 70
     1
102
RTVSPropertyOp2
 70
     1
102
RTVSPropertyOp3
 70
     1
102
RTVSPropertyOp4
 70
     1
102
RTVSPropertyOp5
 70
     1
102
RTVSPropertyOp6
 70
     1
102
RTVSPropertyOp7
 70
     1
102
RTVSPropertyOp8
 70
     1
102
RTVSPropertyOp9
 70
     1
102
RTVSPropertyOp10
 70
     1
102
RTVSPropertyOp11
 70
     1
102
RTVSPropertyOp12
 70
     1
102
RTVSPropertyOp13
 70
     1
102
RTVSPropertyOp14
 70
     1
102
RTVSPropertyOp15
 70
     1
102
RTVSPropertyOp16
 70
     1
102
RTVSPropertyOp17
 70
     1
102
RTVSPropertyOp18
 70
     1
102
RTVSPropertyOp19
 70
     1
102
RTVSPropertyOp20
 70
     1
102
RTVSPropertyOp21
 70
     1
102
RTVSPropertyOp22
 70
     1
102
RTVSPropertyOp23
 70
     1
102
RTVSPropertyOp24
 70
     1
102
RTVSPropertyOp25
 70
     1
102
RTVSPropertyOp26
 70
     1
102
RTVSPropertyOp27
 70
     1
102
RTVSPropertyOp28
 70
     1
102
RTVSPropertyOp29
 70
     1
102
RTVSPropertyOp30
 70
     1
102
RTVSPropertyOp31
 70
     1
102
RTVSPropertyOp32
 70
     1
102
RTVSPropertyOp33
 70
     1
102
RTVSPropertyOp34
 70
     1
102
RTVSPropertyOp35
 70
     1
102
RTVSPropertyOp36
 70
     1
102
RTVSPropertyOp37
 70
     1
102
RTVSPropertyOp38
 70
     1
102
RTVSPropertyOp39
 70
     1
102
RTVSPropertyOp40
 70
     1
102
RTVSPropertyOp41
 70
     1
102
RTVSPropertyOp42
 70
     1
102
RTVSPropertyOp43
 70
     1
102
RTVSPropertyOp44
 70
     1
102
RTVSPropertyOp45
 70
     1
102
RTVSPropertyOp46
 70
     1
102
RTVSPropertyOp47
 70
     1
102
RTVSPropertyOp48
 70
     1
102
RTVSPropertyOp49
 70
     1
102
RTVSPropertyOp50
 70
     1
102
RTVSPropertyOp51
 70
     0
102
RTVSPropertyOp52
 70
     0
102
RTVSPropertyOp53
 70
     1
102
RTVSPropertyOp54
 70
     1
102
RTVSPropertyOp55
 70
     1
102
RTVSPropertyOp56
 70
     1
102
RTVSPropertyOp57
 70
     1
102
RTVSPropertyOp58
 70
     1
102
RTVSPropertyOp59
 70
     1
102
RTVSPropertyOp60
 70
     1
102
RTVSPropertyOp61
 70
     1
102
RTVSPropertyOp62
 70
     1
  0
XRECORD
  5
4550
102
{ACAD_REACTORS
330
454F
102
}
330
454F
100
AcDbXrecord
280
     1
102
RTVSPost2010Prop28
280
     0
102
RTVSPost2010PropOp28
 70
     1
102
RTVSPost2010Prop29
280
     1
102
RTVSPost2010PropOp29
 70
     1
102
RTVSPost2010Prop30
280
     1
102
RTVSPost2010PropOp30
 70
     1
102
RTVSPost2010Prop31
280
     0
102
RTVSPost2010PropOp31
 70
     1
102
RTVSPost2010Prop32
280
     0
102
RTVSPost2010PropOp32
 70
     1
102
RTVSPost2010Prop33
280
     0
102
RTVSPost2010PropOp33
 70
     1
102
RTVSPost2010Prop34
280
     0
102
RTVSPost2010PropOp34
 70
     1
102
RTVSPost2010Prop35
280
     0
102
RTVSPost2010PropOp35
 70
     1
102
RTVSPost2010Prop36
280
     0
102
RTVSPost2010PropOp36
 70
     1
102
RTVSPost2010Prop37
 90
       50
102
RTVSPost2010PropOp37
 70
     1
102
RTVSPost2010Prop38
140
0.0
102
RTVSPost2010PropOp38
 70
     1
102
RTVSPost2010Prop39
140
1.0
102
RTVSPost2010PropOp39
 70
     1
102
RTVSPost2010Prop40
 90
        0
102
RTVSPost2010PropOp40
 70
     1
102
RTVSPost2010Prop41ColorIndex
 90
       18
102
RTVSPost2010Prop41ColorRGB
 90
        0
102
RTVSPost2010PropOp41
 70
     1
102
RTVSPost2010Prop42
 90
       50
102
RTVSPost2010PropOp42
 70
     1
102
RTVSPost2010Prop43
 90
        3
102
RTVSPost2010PropOp43
 70
     1
102
RTVSPost2010Prop44ColorIndex
 90
        5
102
RTVSPost2010Prop44ColorRGB
 90
      255
102
RTVSPost2010PropOp44
 70
     1
102
RTVSPost2010Prop45
280
     0
102
RTVSPost2010PropOp45
 70
     1
102
RTVSPost2010Prop46
 90
       50
102
RTVSPost2010PropOp46
 70
     1
102
RTVSPost2010Prop47
 90
       50
102
RTVSPost2010PropOp47
 70
     1
102
RTVSPost2010Prop48
 90
       50
102
RTVSPost2010PropOp48
 70
     1
102
RTVSPost2010Prop49
280
     0
102
RTVSPost2010PropOp49
 70
     1
102
RTVSPost2010Prop50
 90
       50
102
RTVSPost2010PropOp50
 70
     1
102
RTVSPost2010Prop51ColorIndex
 90
      256
102
RTVSPost2010Prop51ColorRGB
 90
-16777216
102
RTVSPost2010PropOp51
 70
     0
102
RTVSPost2010Prop52
140
1.0
102
RTVSPost2010PropOp52
 70
     0
102
RTVSPost2010Prop53
 90
        2
102
RTVSPost2010PropOp53
 70
     1
102
RTVSPost2010Prop54
  1
strokes_ogs.tif
102
RTVSPost2010PropOp54
 70
     1
102
RTVSPost2010Prop55
280
     0
102
RTVSPost2010PropOp55
 70
     1
102
RTVSPost2010Prop56
140
1.0
102
RTVSPost2010PropOp56
 70
     1
102
RTVSPost2010Prop57
140
1.0
102
RTVSPost2010PropOp57
 70
     1
102
RTVSPropertyOp0
 70
     1
102
RTVSPropertyOp1
 70
     1
102
RTVSPropertyOp2
 70
     1
102
RTVSPropertyOp3
 70
     1
102
RTVSPropertyOp4
 70
     1
102
RTVSPropertyOp5
 70
     1
102
RTVSPropertyOp6
 70
     1
102
RTVSPropertyOp7
 70
     1
102
RTVSPropertyOp8
 70
     1
102
RTVSPropertyOp9
 70
     1
102
RTVSPropertyOp10
 70
     1
102
RTVSPropertyOp11
 70
     1
102
RTVSPropertyOp12
 70
     1
102
RTVSPropertyOp13
 70
     1
102
RTVSPropertyOp14
 70
     1
102
RTVSPropertyOp15
 70
     1
102
RTVSPropertyOp16
 70
     1
102
RTVSPropertyOp17
 70
     1
102
RTVSPropertyOp18
 70
     1
102
RTVSPropertyOp19
 70
     1
102
RTVSPropertyOp20
 70
     1
102
RTVSPropertyOp21
 70
     1
102
RTVSPropertyOp22
 70
     1
102
RTVSPropertyOp23
 70
     1
102
RTVSPropertyOp24
 70
     1
102
RTVSPropertyOp25
 70
     1
102
RTVSPropertyOp26
 70
     1
102
RTVSPropertyOp27
 70
     1
102
RTVSPropertyOp28
 70
     1
102
RTVSPropertyOp29
 70
     1
102
RTVSPropertyOp30
 70
     1
102
RTVSPropertyOp31
 70
     1
102
RTVSPropertyOp32
 70
     1
102
RTVSPropertyOp33
 70
     1
102
RTVSPropertyOp34
 70
     1
102
RTVSPropertyOp35
 70
     1
102
RTVSPropertyOp36
 70
     1
102
RTVSPropertyOp37
 70
     1
102
RTVSPropertyOp38
 70
     1
102
RTVSPropertyOp39
 70
     1
102
RTVSPropertyOp40
 70
     1
102
RTVSPropertyOp41
 70
     1
102
RTVSPropertyOp42
 70
     1
102
RTVSPropertyOp43
 70
     1
102
RTVSPropertyOp44
 70
     1
102
RTVSPropertyOp45
 70
     1
102
RTVSPropertyOp46
 70
     1
102
RTVSPropertyOp47
 70
     1
102
RTVSPropertyOp48
 70
     1
102
RTVSPropertyOp49
 70
     1
102
RTVSPropertyOp50
 70
     1
102
RTVSPropertyOp51
 70
     0
102
RTVSPropertyOp52
 70
     0
102
RTVSPropertyOp53
 70
     1
102
RTVSPropertyOp54
 70
     1
102
RTVSPropertyOp55
 70
     1
102
RTVSPropertyOp56
 70
     1
102
RTVSPropertyOp57
 70
     1
102
RTVSPropertyOp58
 70
     1
102
RTVSPropertyOp59
 70
     1
102
RTVSPropertyOp60
 70
     1
102
RTVSPropertyOp61
 70
     1
102
RTVSPropertyOp62
 70
     1
  0
XRECORD
  5
456C
102
{ACAD_REACTORS
330
456B
102
}
330
456B
100
AcDbXrecord
280
     1
102
RTVSPost2010Prop28
280
     0
102
RTVSPost2010PropOp28
 70
     0
102
RTVSPost2010Prop29
280
     1
102
RTVSPost2010PropOp29
 70
     0
102
RTVSPost2010Prop30
280
     1
102
RTVSPost2010PropOp30
 70
     0
102
RTVSPost2010Prop31
280
     0
102
RTVSPost2010PropOp31
 70
     0
102
RTVSPost2010Prop32
280
     0
102
RTVSPost2010PropOp32
 70
     0
102
RTVSPost2010Prop33
280
     0
102
RTVSPost2010PropOp33
 70
     0
102
RTVSPost2010Prop34
280
     0
102
RTVSPost2010PropOp34
 70
     0
102
RTVSPost2010Prop35
280
     0
102
RTVSPost2010PropOp35
 70
     0
102
RTVSPost2010Prop36
280
     0
102
RTVSPost2010PropOp36
 70
     0
102
RTVSPost2010Prop37
 90
       50
102
RTVSPost2010PropOp37
 70
     0
102
RTVSPost2010Prop38
140
0.0
102
RTVSPost2010PropOp38
 70
     0
102
RTVSPost2010Prop39
140
1.0
102
RTVSPost2010PropOp39
 70
     0
102
RTVSPost2010Prop40
 90
        0
102
RTVSPost2010PropOp40
 70
     0
102
RTVSPost2010Prop41ColorIndex
 90
       18
102
RTVSPost2010Prop41ColorRGB
 90
        0
102
RTVSPost2010PropOp41
 70
     0
102
RTVSPost2010Prop42
 90
       50
102
RTVSPost2010PropOp42
 70
     0
102
RTVSPost2010Prop43
 90
        3
102
RTVSPost2010PropOp43
 70
     0
102
RTVSPost2010Prop44ColorIndex
 90
        5
102
RTVSPost2010Prop44ColorRGB
 90
      255
102
RTVSPost2010PropOp44
 70
     0
102
RTVSPost2010Prop45
280
     0
102
RTVSPost2010PropOp45
 70
     0
102
RTVSPost2010Prop46
 90
       50
102
RTVSPost2010PropOp46
 70
     0
102
RTVSPost2010Prop47
 90
       50
102
RTVSPost2010PropOp47
 70
     0
102
RTVSPost2010Prop48
 90
       50
102
RTVSPost2010PropOp48
 70
     0
102
RTVSPost2010Prop49
280
     0
102
RTVSPost2010PropOp49
 70
     0
102
RTVSPost2010Prop50
 90
       50
102
RTVSPost2010PropOp50
 70
     0
102
RTVSPost2010Prop51ColorIndex
 90
      256
102
RTVSPost2010Prop51ColorRGB
 90
-16777216
102
RTVSPost2010PropOp51
 70
     0
102
RTVSPost2010Prop52
140
1.0
102
RTVSPost2010PropOp52
 70
     0
102
RTVSPost2010Prop53
 90
        2
102
RTVSPost2010PropOp53
 70
     0
102
RTVSPost2010Prop54
  1
strokes_ogs.tif
102
RTVSPost2010PropOp54
 70
     0
102
RTVSPost2010Prop55
280
     0
102
RTVSPost2010PropOp55
 70
     0
102
RTVSPost2010Prop56
140
1.0
102
RTVSPost2010PropOp56
 70
     0
102
RTVSPost2010Prop57
140
1.0
102
RTVSPost2010PropOp57
 70
     0
102
RTVSPropertyOp0
 70
     0
102
RTVSPropertyOp1
 70
     0
102
RTVSPropertyOp2
 70
     0
102
RTVSPropertyOp3
 70
     0
102
RTVSPropertyOp4
 70
     0
102
RTVSPropertyOp5
 70
     0
102
RTVSPropertyOp6
 70
     0
102
RTVSPropertyOp7
 70
     0
102
RTVSPropertyOp8
 70
     0
102
RTVSPropertyOp9
 70
     0
102
RTVSPropertyOp10
 70
     0
102
RTVSPropertyOp11
 70
     0
102
RTVSPropertyOp12
 70
     0
102
RTVSPropertyOp13
 70
     0
102
RTVSPropertyOp14
 70
     2
102
RTVSPropertyOp15
 70
     0
102
RTVSPropertyOp16
 70
     0
102
RTVSPropertyOp17
 70
     0
102
RTVSPropertyOp18
 70
     0
102
RTVSPropertyOp19
 70
     0
102
RTVSPropertyOp20
 70
     0
102
RTVSPropertyOp21
 70
     0
102
RTVSPropertyOp22
 70
     0
102
RTVSPropertyOp23
 70
     0
102
RTVSPropertyOp24
 70
     0
102
RTVSPropertyOp25
 70
     0
102
RTVSPropertyOp26
 70
     0
102
RTVSPropertyOp27
 70
     0
102
RTVSPropertyOp28
 70
     0
102
RTVSPropertyOp29
 70
     0
102
RTVSPropertyOp30
 70
     0
102
RTVSPropertyOp31
 70
     0
102
RTVSPropertyOp32
 70
     0
102
RTVSPropertyOp33
 70
     0
102
RTVSPropertyOp34
 70
     0
102
RTVSPropertyOp35
 70
     0
102
RTVSPropertyOp36
 70
     0
102
RTVSPropertyOp37
 70
     0
102
RTVSPropertyOp38
 70
     0
102
RTVSPropertyOp39
 70
     0
102
RTVSPropertyOp40
 70
     0
102
RTVSPropertyOp41
 70
     0
102
RTVSPropertyOp42
 70
     0
102
RTVSPropertyOp43
 70
     0
102
RTVSPropertyOp44
 70
     0
102
RTVSPropertyOp45
 70
     0
102
RTVSPropertyOp46
 70
     0
102
RTVSPropertyOp47
 70
     0
102
RTVSPropertyOp48
 70
     0
102
RTVSPropertyOp49
 70
     0
102
RTVSPropertyOp50
 70
     0
102
RTVSPropertyOp51
 70
     0
102
RTVSPropertyOp52
 70
     0
102
RTVSPropertyOp53
 70
     0
102
RTVSPropertyOp54
 70
     0
102
RTVSPropertyOp55
 70
     0
102
RTVSPropertyOp56
 70
     0
102
RTVSPropertyOp57
 70
     0
102
RTVSPropertyOp58
 70
     0
102
RTVSPropertyOp59
 70
     0
102
RTVSPropertyOp60
 70
     0
102
RTVSPropertyOp61
 70
     0
102
RTVSPropertyOp62
 70
     0
  0
XRECORD
  5
455C
102
{ACAD_REACTORS
330
455B
102
}
330
455B
100
AcDbXrecord
280
     1
102
RTVSPost2010Prop28
280
     0
102
RTVSPost2010PropOp28
 70
     1
102
RTVSPost2010Prop29
280
     1
102
RTVSPost2010PropOp29
 70
     1
102
RTVSPost2010Prop30
280
     1
102
RTVSPost2010PropOp30
 70
     1
102
RTVSPost2010Prop31
280
     0
102
RTVSPost2010PropOp31
 70
     1
102
RTVSPost2010Prop32
280
     0
102
RTVSPost2010PropOp32
 70
     1
102
RTVSPost2010Prop33
280
     0
102
RTVSPost2010PropOp33
 70
     1
102
RTVSPost2010Prop34
280
     0
102
RTVSPost2010PropOp34
 70
     1
102
RTVSPost2010Prop35
280
     0
102
RTVSPost2010PropOp35
 70
     1
102
RTVSPost2010Prop36
280
     0
102
RTVSPost2010PropOp36
 70
     1
102
RTVSPost2010Prop37
 90
       50
102
RTVSPost2010PropOp37
 70
     1
102
RTVSPost2010Prop38
140
0.0
102
RTVSPost2010PropOp38
 70
     1
102
RTVSPost2010Prop39
140
1.0
102
RTVSPost2010PropOp39
 70
     1
102
RTVSPost2010Prop40
 90
        0
102
RTVSPost2010PropOp40
 70
     1
102
RTVSPost2010Prop41ColorIndex
 90
       18
102
RTVSPost2010Prop41ColorRGB
 90
        0
102
RTVSPost2010PropOp41
 70
     1
102
RTVSPost2010Prop42
 90
       50
102
RTVSPost2010PropOp42
 70
     1
102
RTVSPost2010Prop43
 90
        3
102
RTVSPost2010PropOp43
 70
     1
102
RTVSPost2010Prop44ColorIndex
 90
        5
102
RTVSPost2010Prop44ColorRGB
 90
      255
102
RTVSPost2010PropOp44
 70
     1
102
RTVSPost2010Prop45
280
     0
102
RTVSPost2010PropOp45
 70
     1
102
RTVSPost2010Prop46
 90
       50
102
RTVSPost2010PropOp46
 70
     1
102
RTVSPost2010Prop47
 90
       50
102
RTVSPost2010PropOp47
 70
     1
102
RTVSPost2010Prop48
 90
       50
102
RTVSPost2010PropOp48
 70
     1
102
RTVSPost2010Prop49
280
     0
102
RTVSPost2010PropOp49
 70
     1
102
RTVSPost2010Prop50
 90
       50
102
RTVSPost2010PropOp50
 70
     1
102
RTVSPost2010Prop51ColorIndex
 90
      256
102
RTVSPost2010Prop51ColorRGB
 90
-16777216
102
RTVSPost2010PropOp51
 70
     0
102
RTVSPost2010Prop52
140
1.0
102
RTVSPost2010PropOp52
 70
     0
102
RTVSPost2010Prop53
 90
        2
102
RTVSPost2010PropOp53
 70
     1
102
RTVSPost2010Prop54
  1
strokes_ogs.tif
102
RTVSPost2010PropOp54
 70
     1
102
RTVSPost2010Prop55
280
     0
102
RTVSPost2010PropOp55
 70
     1
102
RTVSPost2010Prop56
140
1.0
102
RTVSPost2010PropOp56
 70
     1
102
RTVSPost2010Prop57
140
1.0
102
RTVSPost2010PropOp57
 70
     1
102
RTVSPropertyOp0
 70
     1
102
RTVSPropertyOp1
 70
     1
102
RTVSPropertyOp2
 70
     1
102
RTVSPropertyOp3
 70
     1
102
RTVSPropertyOp4
 70
     1
102
RTVSPropertyOp5
 70
     1
102
RTVSPropertyOp6
 70
     1
102
RTVSPropertyOp7
 70
     1
102
RTVSPropertyOp8
 70
     1
102
RTVSPropertyOp9
 70
     1
102
RTVSPropertyOp10
 70
     1
102
RTVSPropertyOp11
 70
     1
102
RTVSPropertyOp12
 70
     1
102
RTVSPropertyOp13
 70
     1
102
RTVSPropertyOp14
 70
     1
102
RTVSPropertyOp15
 70
     1
102
RTVSPropertyOp16
 70
     1
102
RTVSPropertyOp17
 70
     1
102
RTVSPropertyOp18
 70
     1
102
RTVSPropertyOp19
 70
     1
102
RTVSPropertyOp20
 70
     1
102
RTVSPropertyOp21
 70
     1
102
RTVSPropertyOp22
 70
     1
102
RTVSPropertyOp23
 70
     1
102
RTVSPropertyOp24
 70
     1
102
RTVSPropertyOp25
 70
     1
102
RTVSPropertyOp26
 70
     1
102
RTVSPropertyOp27
 70
     1
102
RTVSPropertyOp28
 70
     1
102
RTVSPropertyOp29
 70
     1
102
RTVSPropertyOp30
 70
     1
102
RTVSPropertyOp31
 70
     1
102
RTVSPropertyOp32
 70
     1
102
RTVSPropertyOp33
 70
     1
102
RTVSPropertyOp34
 70
     1
102
RTVSPropertyOp35
 70
     1
102
RTVSPropertyOp36
 70
     1
102
RTVSPropertyOp37
 70
     1
102
RTVSPropertyOp38
 70
     1
102
RTVSPropertyOp39
 70
     1
102
RTVSPropertyOp40
 70
     1
102
RTVSPropertyOp41
 70
     1
102
RTVSPropertyOp42
 70
     1
102
RTVSPropertyOp43
 70
     1
102
RTVSPropertyOp44
 70
     1
102
RTVSPropertyOp45
 70
     1
102
RTVSPropertyOp46
 70
     1
102
RTVSPropertyOp47
 70
     1
102
RTVSPropertyOp48
 70
     1
102
RTVSPropertyOp49
 70
     1
102
RTVSPropertyOp50
 70
     1
102
RTVSPropertyOp51
 70
     0
102
RTVSPropertyOp52
 70
     0
102
RTVSPropertyOp53
 70
     1
102
RTVSPropertyOp54
 70
     1
102
RTVSPropertyOp55
 70
     1
102
RTVSPropertyOp56
 70
     1
102
RTVSPropertyOp57
 70
     1
102
RTVSPropertyOp58
 70
     1
102
RTVSPropertyOp59
 70
     1
102
RTVSPropertyOp60
 70
     1
102
RTVSPropertyOp61
 70
     1
102
RTVSPropertyOp62
 70
     1
  0
XRECORD
  5
456E
102
{ACAD_REACTORS
330
456D
102
}
330
456D
100
AcDbXrecord
280
     1
102
RTVSPost2010Prop28
280
     0
102
RTVSPost2010PropOp28
 70
     0
102
RTVSPost2010Prop29
280
     1
102
RTVSPost2010PropOp29
 70
     0
102
RTVSPost2010Prop30
280
     1
102
RTVSPost2010PropOp30
 70
     0
102
RTVSPost2010Prop31
280
     0
102
RTVSPost2010PropOp31
 70
     0
102
RTVSPost2010Prop32
280
     0
102
RTVSPost2010PropOp32
 70
     0
102
RTVSPost2010Prop33
280
     0
102
RTVSPost2010PropOp33
 70
     0
102
RTVSPost2010Prop34
280
     0
102
RTVSPost2010PropOp34
 70
     0
102
RTVSPost2010Prop35
280
     0
102
RTVSPost2010PropOp35
 70
     0
102
RTVSPost2010Prop36
280
     0
102
RTVSPost2010PropOp36
 70
     0
102
RTVSPost2010Prop37
 90
       50
102
RTVSPost2010PropOp37
 70
     0
102
RTVSPost2010Prop38
140
0.0
102
RTVSPost2010PropOp38
 70
     0
102
RTVSPost2010Prop39
140
1.0
102
RTVSPost2010PropOp39
 70
     0
102
RTVSPost2010Prop40
 90
        0
102
RTVSPost2010PropOp40
 70
     0
102
RTVSPost2010Prop41ColorIndex
 90
       18
102
RTVSPost2010Prop41ColorRGB
 90
        0
102
RTVSPost2010PropOp41
 70
     0
102
RTVSPost2010Prop42
 90
       50
102
RTVSPost2010PropOp42
 70
     0
102
RTVSPost2010Prop43
 90
        3
102
RTVSPost2010PropOp43
 70
     0
102
RTVSPost2010Prop44ColorIndex
 90
        5
102
RTVSPost2010Prop44ColorRGB
 90
      255
102
RTVSPost2010PropOp44
 70
     0
102
RTVSPost2010Prop45
280
     0
102
RTVSPost2010PropOp45
 70
     0
102
RTVSPost2010Prop46
 90
       50
102
RTVSPost2010PropOp46
 70
     0
102
RTVSPost2010Prop47
 90
       50
102
RTVSPost2010PropOp47
 70
     0
102
RTVSPost2010Prop48
 90
       50
102
RTVSPost2010PropOp48
 70
     0
102
RTVSPost2010Prop49
280
     0
102
RTVSPost2010PropOp49
 70
     0
102
RTVSPost2010Prop50
 90
       50
102
RTVSPost2010PropOp50
 70
     0
102
RTVSPost2010Prop51ColorIndex
 90
      256
102
RTVSPost2010Prop51ColorRGB
 90
-16777216
102
RTVSPost2010PropOp51
 70
     0
102
RTVSPost2010Prop52
140
1.0
102
RTVSPost2010PropOp52
 70
     0
102
RTVSPost2010Prop53
 90
        2
102
RTVSPost2010PropOp53
 70
     0
102
RTVSPost2010Prop54
  1
strokes_ogs.tif
102
RTVSPost2010PropOp54
 70
     0
102
RTVSPost2010Prop55
280
     0
102
RTVSPost2010PropOp55
 70
     0
102
RTVSPost2010Prop56
140
1.0
102
RTVSPost2010PropOp56
 70
     0
102
RTVSPost2010Prop57
140
1.0
102
RTVSPost2010PropOp57
 70
     0
102
RTVSPropertyOp0
 70
     0
102
RTVSPropertyOp1
 70
     0
102
RTVSPropertyOp2
 70
     0
102
RTVSPropertyOp3
 70
     0
102
RTVSPropertyOp4
 70
     0
102
RTVSPropertyOp5
 70
     0
102
RTVSPropertyOp6
 70
     0
102
RTVSPropertyOp7
 70
     0
102
RTVSPropertyOp8
 70
     0
102
RTVSPropertyOp9
 70
     0
102
RTVSPropertyOp10
 70
     0
102
RTVSPropertyOp11
 70
     0
102
RTVSPropertyOp12
 70
     0
102
RTVSPropertyOp13
 70
     0
102
RTVSPropertyOp14
 70
     2
102
RTVSPropertyOp15
 70
     0
102
RTVSPropertyOp16
 70
     0
102
RTVSPropertyOp17
 70
     0
102
RTVSPropertyOp18
 70
     0
102
RTVSPropertyOp19
 70
     0
102
RTVSPropertyOp20
 70
     0
102
RTVSPropertyOp21
 70
     0
102
RTVSPropertyOp22
 70
     0
102
RTVSPropertyOp23
 70
     0
102
RTVSPropertyOp24
 70
     0
102
RTVSPropertyOp25
 70
     0
102
RTVSPropertyOp26
 70
     0
102
RTVSPropertyOp27
 70
     0
102
RTVSPropertyOp28
 70
     0
102
RTVSPropertyOp29
 70
     0
102
RTVSPropertyOp30
 70
     0
102
RTVSPropertyOp31
 70
     0
102
RTVSPropertyOp32
 70
     0
102
RTVSPropertyOp33
 70
     0
102
RTVSPropertyOp34
 70
     0
102
RTVSPropertyOp35
 70
     0
102
RTVSPropertyOp36
 70
     0
102
RTVSPropertyOp37
 70
     0
102
RTVSPropertyOp38
 70
     0
102
RTVSPropertyOp39
 70
     0
102
RTVSPropertyOp40
 70
     0
102
RTVSPropertyOp41
 70
     0
102
RTVSPropertyOp42
 70
     0
102
RTVSPropertyOp43
 70
     0
102
RTVSPropertyOp44
 70
     0
102
RTVSPropertyOp45
 70
     0
102
RTVSPropertyOp46
 70
     0
102
RTVSPropertyOp47
 70
     0
102
RTVSPropertyOp48
 70
     0
102
RTVSPropertyOp49
 70
     0
102
RTVSPropertyOp50
 70
     0
102
RTVSPropertyOp51
 70
     0
102
RTVSPropertyOp52
 70
     0
102
RTVSPropertyOp53
 70
     0
102
RTVSPropertyOp54
 70
     0
102
RTVSPropertyOp55
 70
     0
102
RTVSPropertyOp56
 70
     0
102
RTVSPropertyOp57
 70
     0
102
RTVSPropertyOp58
 70
     0
102
RTVSPropertyOp59
 70
     0
102
RTVSPropertyOp60
 70
     0
102
RTVSPropertyOp61
 70
     0
102
RTVSPropertyOp62
 70
     0
  0
XRECORD
  5
4554
102
{ACAD_REACTORS
330
4553
102
}
330
4553
100
AcDbXrecord
280
     1
102
RTVSPost2010Prop28
280
     0
102
RTVSPost2010PropOp28
 70
     1
102
RTVSPost2010Prop29
280
     1
102
RTVSPost2010PropOp29
 70
     1
102
RTVSPost2010Prop30
280
     1
102
RTVSPost2010PropOp30
 70
     1
102
RTVSPost2010Prop31
280
     0
102
RTVSPost2010PropOp31
 70
     1
102
RTVSPost2010Prop32
280
     0
102
RTVSPost2010PropOp32
 70
     1
102
RTVSPost2010Prop33
280
     0
102
RTVSPost2010PropOp33
 70
     1
102
RTVSPost2010Prop34
280
     0
102
RTVSPost2010PropOp34
 70
     1
102
RTVSPost2010Prop35
280
     0
102
RTVSPost2010PropOp35
 70
     1
102
RTVSPost2010Prop36
280
     0
102
RTVSPost2010PropOp36
 70
     1
102
RTVSPost2010Prop37
 90
       50
102
RTVSPost2010PropOp37
 70
     1
102
RTVSPost2010Prop38
140
0.0
102
RTVSPost2010PropOp38
 70
     1
102
RTVSPost2010Prop39
140
1.0
102
RTVSPost2010PropOp39
 70
     1
102
RTVSPost2010Prop40
 90
        0
102
RTVSPost2010PropOp40
 70
     1
102
RTVSPost2010Prop41ColorIndex
 90
       18
102
RTVSPost2010Prop41ColorRGB
 90
        0
102
RTVSPost2010PropOp41
 70
     1
102
RTVSPost2010Prop42
 90
       50
102
RTVSPost2010PropOp42
 70
     1
102
RTVSPost2010Prop43
 90
        3
102
RTVSPost2010PropOp43
 70
     1
102
RTVSPost2010Prop44ColorIndex
 90
        5
102
RTVSPost2010Prop44ColorRGB
 90
      255
102
RTVSPost2010PropOp44
 70
     1
102
RTVSPost2010Prop45
280
     0
102
RTVSPost2010PropOp45
 70
     1
102
RTVSPost2010Prop46
 90
       50
102
RTVSPost2010PropOp46
 70
     1
102
RTVSPost2010Prop47
 90
       50
102
RTVSPost2010PropOp47
 70
     1
102
RTVSPost2010Prop48
 90
       50
102
RTVSPost2010PropOp48
 70
     1
102
RTVSPost2010Prop49
280
     0
102
RTVSPost2010PropOp49
 70
     1
102
RTVSPost2010Prop50
 90
       50
102
RTVSPost2010PropOp50
 70
     1
102
RTVSPost2010Prop51ColorIndex
 90
      256
102
RTVSPost2010Prop51ColorRGB
 90
-16777216
102
RTVSPost2010PropOp51
 70
     0
102
RTVSPost2010Prop52
140
1.0
102
RTVSPost2010PropOp52
 70
     0
102
RTVSPost2010Prop53
 90
        2
102
RTVSPost2010PropOp53
 70
     1
102
RTVSPost2010Prop54
  1
strokes_ogs.tif
102
RTVSPost2010PropOp54
 70
     1
102
RTVSPost2010Prop55
280
     0
102
RTVSPost2010PropOp55
 70
     1
102
RTVSPost2010Prop56
140
1.0
102
RTVSPost2010PropOp56
 70
     1
102
RTVSPost2010Prop57
140
1.0
102
RTVSPost2010PropOp57
 70
     1
102
RTVSPropertyOp0
 70
     1
102
RTVSPropertyOp1
 70
     1
102
RTVSPropertyOp2
 70
     1
102
RTVSPropertyOp3
 70
     1
102
RTVSPropertyOp4
 70
     1
102
RTVSPropertyOp5
 70
     1
102
RTVSPropertyOp6
 70
     1
102
RTVSPropertyOp7
 70
     1
102
RTVSPropertyOp8
 70
     1
102
RTVSPropertyOp9
 70
     1
102
RTVSPropertyOp10
 70
     1
102
RTVSPropertyOp11
 70
     1
102
RTVSPropertyOp12
 70
     1
102
RTVSPropertyOp13
 70
     1
102
RTVSPropertyOp14
 70
     1
102
RTVSPropertyOp15
 70
     1
102
RTVSPropertyOp16
 70
     1
102
RTVSPropertyOp17
 70
     1
102
RTVSPropertyOp18
 70
     1
102
RTVSPropertyOp19
 70
     1
102
RTVSPropertyOp20
 70
     1
102
RTVSPropertyOp21
 70
     1
102
RTVSPropertyOp22
 70
     1
102
RTVSPropertyOp23
 70
     1
102
RTVSPropertyOp24
 70
     1
102
RTVSPropertyOp25
 70
     1
102
RTVSPropertyOp26
 70
     1
102
RTVSPropertyOp27
 70
     1
102
RTVSPropertyOp28
 70
     1
102
RTVSPropertyOp29
 70
     1
102
RTVSPropertyOp30
 70
     1
102
RTVSPropertyOp31
 70
     1
102
RTVSPropertyOp32
 70
     1
102
RTVSPropertyOp33
 70
     1
102
RTVSPropertyOp34
 70
     1
102
RTVSPropertyOp35
 70
     1
102
RTVSPropertyOp36
 70
     1
102
RTVSPropertyOp37
 70
     1
102
RTVSPropertyOp38
 70
     1
102
RTVSPropertyOp39
 70
     1
102
RTVSPropertyOp40
 70
     1
102
RTVSPropertyOp41
 70
     1
102
RTVSPropertyOp42
 70
     1
102
RTVSPropertyOp43
 70
     1
102
RTVSPropertyOp44
 70
     1
102
RTVSPropertyOp45
 70
     1
102
RTVSPropertyOp46
 70
     1
102
RTVSPropertyOp47
 70
     1
102
RTVSPropertyOp48
 70
     1
102
RTVSPropertyOp49
 70
     1
102
RTVSPropertyOp50
 70
     1
102
RTVSPropertyOp51
 70
     0
102
RTVSPropertyOp52
 70
     0
102
RTVSPropertyOp53
 70
     1
102
RTVSPropertyOp54
 70
     1
102
RTVSPropertyOp55
 70
     1
102
RTVSPropertyOp56
 70
     1
102
RTVSPropertyOp57
 70
     1
102
RTVSPropertyOp58
 70
     1
102
RTVSPropertyOp59
 70
     1
102
RTVSPropertyOp60
 70
     1
102
RTVSPropertyOp61
 70
     1
102
RTVSPropertyOp62
 70
     1
  0
XRECORD
  5
456A
102
{ACAD_REACTORS
330
4569
102
}
330
4569
100
AcDbXrecord
280
     1
102
RTVSPost2010Prop28
280
     0
102
RTVSPost2010PropOp28
 70
     1
102
RTVSPost2010Prop29
280
     1
102
RTVSPost2010PropOp29
 70
     1
102
RTVSPost2010Prop30
280
     1
102
RTVSPost2010PropOp30
 70
     1
102
RTVSPost2010Prop31
280
     0
102
RTVSPost2010PropOp31
 70
     1
102
RTVSPost2010Prop32
280
     0
102
RTVSPost2010PropOp32
 70
     1
102
RTVSPost2010Prop33
280
     0
102
RTVSPost2010PropOp33
 70
     1
102
RTVSPost2010Prop34
280
     0
102
RTVSPost2010PropOp34
 70
     1
102
RTVSPost2010Prop35
280
     0
102
RTVSPost2010PropOp35
 70
     1
102
RTVSPost2010Prop36
280
     0
102
RTVSPost2010PropOp36
 70
     1
102
RTVSPost2010Prop37
 90
       50
102
RTVSPost2010PropOp37
 70
     1
102
RTVSPost2010Prop38
140
0.0
102
RTVSPost2010PropOp38
 70
     1
102
RTVSPost2010Prop39
140
1.0
102
RTVSPost2010PropOp39
 70
     1
102
RTVSPost2010Prop40
 90
        0
102
RTVSPost2010PropOp40
 70
     1
102
RTVSPost2010Prop41ColorIndex
 90
       18
102
RTVSPost2010Prop41ColorRGB
 90
        0
102
RTVSPost2010PropOp41
 70
     1
102
RTVSPost2010Prop42
 90
       50
102
RTVSPost2010PropOp42
 70
     1
102
RTVSPost2010Prop43
 90
        3
102
RTVSPost2010PropOp43
 70
     1
102
RTVSPost2010Prop44ColorIndex
 90
        5
102
RTVSPost2010Prop44ColorRGB
 90
      255
102
RTVSPost2010PropOp44
 70
     1
102
RTVSPost2010Prop45
280
     0
102
RTVSPost2010PropOp45
 70
     1
102
RTVSPost2010Prop46
 90
       50
102
RTVSPost2010PropOp46
 70
     1
102
RTVSPost2010Prop47
 90
       50
102
RTVSPost2010PropOp47
 70
     1
102
RTVSPost2010Prop48
 90
       50
102
RTVSPost2010PropOp48
 70
     1
102
RTVSPost2010Prop49
280
     0
102
RTVSPost2010PropOp49
 70
     1
102
RTVSPost2010Prop50
 90
       50
102
RTVSPost2010PropOp50
 70
     1
102
RTVSPost2010Prop51ColorIndex
 90
      256
102
RTVSPost2010Prop51ColorRGB
 90
-16777216
102
RTVSPost2010PropOp51
 70
     0
102
RTVSPost2010Prop52
140
1.0
102
RTVSPost2010PropOp52
 70
     0
102
RTVSPost2010Prop53
 90
        2
102
RTVSPost2010PropOp53
 70
     1
102
RTVSPost2010Prop54
  1
strokes_ogs.tif
102
RTVSPost2010PropOp54
 70
     1
102
RTVSPost2010Prop55
280
     0
102
RTVSPost2010PropOp55
 70
     1
102
RTVSPost2010Prop56
140
1.0
102
RTVSPost2010PropOp56
 70
     1
102
RTVSPost2010Prop57
140
1.0
102
RTVSPost2010PropOp57
 70
     1
102
RTVSPropertyOp0
 70
     1
102
RTVSPropertyOp1
 70
     1
102
RTVSPropertyOp2
 70
     1
102
RTVSPropertyOp3
 70
     1
102
RTVSPropertyOp4
 70
     1
102
RTVSPropertyOp5
 70
     1
102
RTVSPropertyOp6
 70
     1
102
RTVSPropertyOp7
 70
     1
102
RTVSPropertyOp8
 70
     1
102
RTVSPropertyOp9
 70
     1
102
RTVSPropertyOp10
 70
     1
102
RTVSPropertyOp11
 70
     1
102
RTVSPropertyOp12
 70
     1
102
RTVSPropertyOp13
 70
     1
102
RTVSPropertyOp14
 70
     1
102
RTVSPropertyOp15
 70
     1
102
RTVSPropertyOp16
 70
     1
102
RTVSPropertyOp17
 70
     1
102
RTVSPropertyOp18
 70
     1
102
RTVSPropertyOp19
 70
     1
102
RTVSPropertyOp20
 70
     1
102
RTVSPropertyOp21
 70
     1
102
RTVSPropertyOp22
 70
     1
102
RTVSPropertyOp23
 70
     1
102
RTVSPropertyOp24
 70
     1
102
RTVSPropertyOp25
 70
     1
102
RTVSPropertyOp26
 70
     1
102
RTVSPropertyOp27
 70
     1
102
RTVSPropertyOp28
 70
     1
102
RTVSPropertyOp29
 70
     1
102
RTVSPropertyOp30
 70
     1
102
RTVSPropertyOp31
 70
     1
102
RTVSPropertyOp32
 70
     1
102
RTVSPropertyOp33
 70
     1
102
RTVSPropertyOp34
 70
     1
102
RTVSPropertyOp35
 70
     1
102
RTVSPropertyOp36
 70
     1
102
RTVSPropertyOp37
 70
     1
102
RTVSPropertyOp38
 70
     1
102
RTVSPropertyOp39
 70
     1
102
RTVSPropertyOp40
 70
     1
102
RTVSPropertyOp41
 70
     1
102
RTVSPropertyOp42
 70
     1
102
RTVSPropertyOp43
 70
     1
102
RTVSPropertyOp44
 70
     1
102
RTVSPropertyOp45
 70
     1
102
RTVSPropertyOp46
 70
     1
102
RTVSPropertyOp47
 70
     1
102
RTVSPropertyOp48
 70
     1
102
RTVSPropertyOp49
 70
     1
102
RTVSPropertyOp50
 70
     1
102
RTVSPropertyOp51
 70
     0
102
RTVSPropertyOp52
 70
     0
102
RTVSPropertyOp53
 70
     1
102
RTVSPropertyOp54
 70
     1
102
RTVSPropertyOp55
 70
     1
102
RTVSPropertyOp56
 70
     1
102
RTVSPropertyOp57
 70
     1
102
RTVSPropertyOp58
 70
     1
102
RTVSPropertyOp59
 70
     1
102
RTVSPropertyOp60
 70
     1
102
RTVSPropertyOp61
 70
     1
102
RTVSPropertyOp62
 70
     1
  0
XRECORD
  5
4568
102
{ACAD_REACTORS
330
4567
102
}
330
4567
100
AcDbXrecord
280
     1
102
RTVSPost2010Prop28
280
     0
102
RTVSPost2010PropOp28
 70
     1
102
RTVSPost2010Prop29
280
     1
102
RTVSPost2010PropOp29
 70
     1
102
RTVSPost2010Prop30
280
     1
102
RTVSPost2010PropOp30
 70
     1
102
RTVSPost2010Prop31
280
     0
102
RTVSPost2010PropOp31
 70
     1
102
RTVSPost2010Prop32
280
     0
102
RTVSPost2010PropOp32
 70
     1
102
RTVSPost2010Prop33
280
     0
102
RTVSPost2010PropOp33
 70
     1
102
RTVSPost2010Prop34
280
     0
102
RTVSPost2010PropOp34
 70
     1
102
RTVSPost2010Prop35
280
     0
102
RTVSPost2010PropOp35
 70
     1
102
RTVSPost2010Prop36
280
     0
102
RTVSPost2010PropOp36
 70
     1
102
RTVSPost2010Prop37
 90
       50
102
RTVSPost2010PropOp37
 70
     1
102
RTVSPost2010Prop38
140
0.0
102
RTVSPost2010PropOp38
 70
     1
102
RTVSPost2010Prop39
140
1.0
102
RTVSPost2010PropOp39
 70
     1
102
RTVSPost2010Prop40
 90
        0
102
RTVSPost2010PropOp40
 70
     1
102
RTVSPost2010Prop41ColorIndex
 90
       18
102
RTVSPost2010Prop41ColorRGB
 90
        0
102
RTVSPost2010PropOp41
 70
     1
102
RTVSPost2010Prop42
 90
       50
102
RTVSPost2010PropOp42
 70
     1
102
RTVSPost2010Prop43
 90
        3
102
RTVSPost2010PropOp43
 70
     1
102
RTVSPost2010Prop44ColorIndex
 90
        5
102
RTVSPost2010Prop44ColorRGB
 90
      255
102
RTVSPost2010PropOp44
 70
     1
102
RTVSPost2010Prop45
280
     0
102
RTVSPost2010PropOp45
 70
     1
102
RTVSPost2010Prop46
 90
       50
102
RTVSPost2010PropOp46
 70
     1
102
RTVSPost2010Prop47
 90
       50
102
RTVSPost2010PropOp47
 70
     1
102
RTVSPost2010Prop48
 90
       50
102
RTVSPost2010PropOp48
 70
     1
102
RTVSPost2010Prop49
280
     0
102
RTVSPost2010PropOp49
 70
     1
102
RTVSPost2010Prop50
 90
       50
102
RTVSPost2010PropOp50
 70
     1
102
RTVSPost2010Prop51ColorIndex
 90
      256
102
RTVSPost2010Prop51ColorRGB
 90
-16777216
102
RTVSPost2010PropOp51
 70
     0
102
RTVSPost2010Prop52
140
1.0
102
RTVSPost2010PropOp52
 70
     0
102
RTVSPost2010Prop53
 90
        2
102
RTVSPost2010PropOp53
 70
     1
102
RTVSPost2010Prop54
  1
strokes_ogs.tif
102
RTVSPost2010PropOp54
 70
     1
102
RTVSPost2010Prop55
280
     0
102
RTVSPost2010PropOp55
 70
     1
102
RTVSPost2010Prop56
140
1.0
102
RTVSPost2010PropOp56
 70
     1
102
RTVSPost2010Prop57
140
1.0
102
RTVSPost2010PropOp57
 70
     1
102
RTVSPropertyOp0
 70
     1
102
RTVSPropertyOp1
 70
     1
102
RTVSPropertyOp2
 70
     1
102
RTVSPropertyOp3
 70
     1
102
RTVSPropertyOp4
 70
     1
102
RTVSPropertyOp5
 70
     1
102
RTVSPropertyOp6
 70
     1
102
RTVSPropertyOp7
 70
     1
102
RTVSPropertyOp8
 70
     1
102
RTVSPropertyOp9
 70
     1
102
RTVSPropertyOp10
 70
     1
102
RTVSPropertyOp11
 70
     1
102
RTVSPropertyOp12
 70
     1
102
RTVSPropertyOp13
 70
     1
102
RTVSPropertyOp14
 70
     1
102
RTVSPropertyOp15
 70
     1
102
RTVSPropertyOp16
 70
     1
102
RTVSPropertyOp17
 70
     1
102
RTVSPropertyOp18
 70
     1
102
RTVSPropertyOp19
 70
     1
102
RTVSPropertyOp20
 70
     1
102
RTVSPropertyOp21
 70
     1
102
RTVSPropertyOp22
 70
     1
102
RTVSPropertyOp23
 70
     1
102
RTVSPropertyOp24
 70
     1
102
RTVSPropertyOp25
 70
     1
102
RTVSPropertyOp26
 70
     1
102
RTVSPropertyOp27
 70
     1
102
RTVSPropertyOp28
 70
     1
102
RTVSPropertyOp29
 70
     1
102
RTVSPropertyOp30
 70
     1
102
RTVSPropertyOp31
 70
     1
102
RTVSPropertyOp32
 70
     1
102
RTVSPropertyOp33
 70
     1
102
RTVSPropertyOp34
 70
     1
102
RTVSPropertyOp35
 70
     1
102
RTVSPropertyOp36
 70
     1
102
RTVSPropertyOp37
 70
     1
102
RTVSPropertyOp38
 70
     1
102
RTVSPropertyOp39
 70
     1
102
RTVSPropertyOp40
 70
     1
102
RTVSPropertyOp41
 70
     1
102
RTVSPropertyOp42
 70
     1
102
RTVSPropertyOp43
 70
     1
102
RTVSPropertyOp44
 70
     1
102
RTVSPropertyOp45
 70
     1
102
RTVSPropertyOp46
 70
     1
102
RTVSPropertyOp47
 70
     1
102
RTVSPropertyOp48
 70
     1
102
RTVSPropertyOp49
 70
     1
102
RTVSPropertyOp50
 70
     1
102
RTVSPropertyOp51
 70
     0
102
RTVSPropertyOp52
 70
     0
102
RTVSPropertyOp53
 70
     1
102
RTVSPropertyOp54
 70
     1
102
RTVSPropertyOp55
 70
     1
102
RTVSPropertyOp56
 70
     1
102
RTVSPropertyOp57
 70
     1
102
RTVSPropertyOp58
 70
     1
102
RTVSPropertyOp59
 70
     1
102
RTVSPropertyOp60
 70
     1
102
RTVSPropertyOp61
 70
     1
102
RTVSPropertyOp62
 70
     1
  0
XRECORD
  5
4562
102
{ACAD_REACTORS
330
4561
102
}
330
4561
100
AcDbXrecord
280
     1
102
RTVSPost2010Prop28
280
     0
102
RTVSPost2010PropOp28
 70
     1
102
RTVSPost2010Prop29
280
     1
102
RTVSPost2010PropOp29
 70
     1
102
RTVSPost2010Prop30
280
     1
102
RTVSPost2010PropOp30
 70
     1
102
RTVSPost2010Prop31
280
     0
102
RTVSPost2010PropOp31
 70
     1
102
RTVSPost2010Prop32
280
     0
102
RTVSPost2010PropOp32
 70
     1
102
RTVSPost2010Prop33
280
     0
102
RTVSPost2010PropOp33
 70
     1
102
RTVSPost2010Prop34
280
     0
102
RTVSPost2010PropOp34
 70
     1
102
RTVSPost2010Prop35
280
     0
102
RTVSPost2010PropOp35
 70
     1
102
RTVSPost2010Prop36
280
     0
102
RTVSPost2010PropOp36
 70
     1
102
RTVSPost2010Prop37
 90
       50
102
RTVSPost2010PropOp37
 70
     1
102
RTVSPost2010Prop38
140
0.0
102
RTVSPost2010PropOp38
 70
     1
102
RTVSPost2010Prop39
140
1.0
102
RTVSPost2010PropOp39
 70
     1
102
RTVSPost2010Prop40
 90
        0
102
RTVSPost2010PropOp40
 70
     1
102
RTVSPost2010Prop41ColorIndex
 90
       18
102
RTVSPost2010Prop41ColorRGB
 90
        0
102
RTVSPost2010PropOp41
 70
     1
102
RTVSPost2010Prop42
 90
       50
102
RTVSPost2010PropOp42
 70
     1
102
RTVSPost2010Prop43
 90
        3
102
RTVSPost2010PropOp43
 70
     1
102
RTVSPost2010Prop44ColorIndex
 90
        5
102
RTVSPost2010Prop44ColorRGB
 90
      255
102
RTVSPost2010PropOp44
 70
     1
102
RTVSPost2010Prop45
280
     0
102
RTVSPost2010PropOp45
 70
     1
102
RTVSPost2010Prop46
 90
       50
102
RTVSPost2010PropOp46
 70
     1
102
RTVSPost2010Prop47
 90
       50
102
RTVSPost2010PropOp47
 70
     1
102
RTVSPost2010Prop48
 90
       50
102
RTVSPost2010PropOp48
 70
     1
102
RTVSPost2010Prop49
280
     0
102
RTVSPost2010PropOp49
 70
     1
102
RTVSPost2010Prop50
 90
       50
102
RTVSPost2010PropOp50
 70
     1
102
RTVSPost2010Prop51ColorIndex
 90
      256
102
RTVSPost2010Prop51ColorRGB
 90
-16777216
102
RTVSPost2010PropOp51
 70
     0
102
RTVSPost2010Prop52
140
1.0
102
RTVSPost2010PropOp52
 70
     0
102
RTVSPost2010Prop53
 90
        2
102
RTVSPost2010PropOp53
 70
     1
102
RTVSPost2010Prop54
  1
strokes_ogs.tif
102
RTVSPost2010PropOp54
 70
     1
102
RTVSPost2010Prop55
280
     0
102
RTVSPost2010PropOp55
 70
     1
102
RTVSPost2010Prop56
140
1.0
102
RTVSPost2010PropOp56
 70
     1
102
RTVSPost2010Prop57
140
1.0
102
RTVSPost2010PropOp57
 70
     1
102
RTVSPropertyOp0
 70
     1
102
RTVSPropertyOp1
 70
     1
102
RTVSPropertyOp2
 70
     1
102
RTVSPropertyOp3
 70
     1
102
RTVSPropertyOp4
 70
     1
102
RTVSPropertyOp5
 70
     1
102
RTVSPropertyOp6
 70
     1
102
RTVSPropertyOp7
 70
     1
102
RTVSPropertyOp8
 70
     1
102
RTVSPropertyOp9
 70
     1
102
RTVSPropertyOp10
 70
     1
102
RTVSPropertyOp11
 70
     1
102
RTVSPropertyOp12
 70
     1
102
RTVSPropertyOp13
 70
     1
102
RTVSPropertyOp14
 70
     1
102
RTVSPropertyOp15
 70
     1
102
RTVSPropertyOp16
 70
     1
102
RTVSPropertyOp17
 70
     1
102
RTVSPropertyOp18
 70
     1
102
RTVSPropertyOp19
 70
     1
102
RTVSPropertyOp20
 70
     1
102
RTVSPropertyOp21
 70
     1
102
RTVSPropertyOp22
 70
     1
102
RTVSPropertyOp23
 70
     1
102
RTVSPropertyOp24
 70
     1
102
RTVSPropertyOp25
 70
     1
102
RTVSPropertyOp26
 70
     1
102
RTVSPropertyOp27
 70
     1
102
RTVSPropertyOp28
 70
     1
102
RTVSPropertyOp29
 70
     1
102
RTVSPropertyOp30
 70
     1
102
RTVSPropertyOp31
 70
     1
102
RTVSPropertyOp32
 70
     1
102
RTVSPropertyOp33
 70
     1
102
RTVSPropertyOp34
 70
     1
102
RTVSPropertyOp35
 70
     1
102
RTVSPropertyOp36
 70
     1
102
RTVSPropertyOp37
 70
     1
102
RTVSPropertyOp38
 70
     1
102
RTVSPropertyOp39
 70
     1
102
RTVSPropertyOp40
 70
     1
102
RTVSPropertyOp41
 70
     1
102
RTVSPropertyOp42
 70
     1
102
RTVSPropertyOp43
 70
     1
102
RTVSPropertyOp44
 70
     1
102
RTVSPropertyOp45
 70
     1
102
RTVSPropertyOp46
 70
     1
102
RTVSPropertyOp47
 70
     1
102
RTVSPropertyOp48
 70
     1
102
RTVSPropertyOp49
 70
     1
102
RTVSPropertyOp50
 70
     1
102
RTVSPropertyOp51
 70
     0
102
RTVSPropertyOp52
 70
     0
102
RTVSPropertyOp53
 70
     1
102
RTVSPropertyOp54
 70
     1
102
RTVSPropertyOp55
 70
     1
102
RTVSPropertyOp56
 70
     1
102
RTVSPropertyOp57
 70
     1
102
RTVSPropertyOp58
 70
     1
102
RTVSPropertyOp59
 70
     1
102
RTVSPropertyOp60
 70
     1
102
RTVSPropertyOp61
 70
     1
102
RTVSPropertyOp62
 70
     1
  0
XRECORD
  5
4564
102
{ACAD_REACTORS
330
4563
102
}
330
4563
100
AcDbXrecord
280
     1
102
RTVSPost2010Prop28
280
     0
102
RTVSPost2010PropOp28
 70
     1
102
RTVSPost2010Prop29
280
     1
102
RTVSPost2010PropOp29
 70
     1
102
RTVSPost2010Prop30
280
     1
102
RTVSPost2010PropOp30
 70
     1
102
RTVSPost2010Prop31
280
     0
102
RTVSPost2010PropOp31
 70
     1
102
RTVSPost2010Prop32
280
     0
102
RTVSPost2010PropOp32
 70
     1
102
RTVSPost2010Prop33
280
     0
102
RTVSPost2010PropOp33
 70
     1
102
RTVSPost2010Prop34
280
     0
102
RTVSPost2010PropOp34
 70
     1
102
RTVSPost2010Prop35
280
     0
102
RTVSPost2010PropOp35
 70
     1
102
RTVSPost2010Prop36
280
     0
102
RTVSPost2010PropOp36
 70
     1
102
RTVSPost2010Prop37
 90
       50
102
RTVSPost2010PropOp37
 70
     1
102
RTVSPost2010Prop38
140
0.0
102
RTVSPost2010PropOp38
 70
     1
102
RTVSPost2010Prop39
140
1.0
102
RTVSPost2010PropOp39
 70
     1
102
RTVSPost2010Prop40
 90
        0
102
RTVSPost2010PropOp40
 70
     1
102
RTVSPost2010Prop41ColorIndex
 90
       18
102
RTVSPost2010Prop41ColorRGB
 90
        0
102
RTVSPost2010PropOp41
 70
     1
102
RTVSPost2010Prop42
 90
       50
102
RTVSPost2010PropOp42
 70
     1
102
RTVSPost2010Prop43
 90
        3
102
RTVSPost2010PropOp43
 70
     1
102
RTVSPost2010Prop44ColorIndex
 90
        5
102
RTVSPost2010Prop44ColorRGB
 90
      255
102
RTVSPost2010PropOp44
 70
     1
102
RTVSPost2010Prop45
280
     0
102
RTVSPost2010PropOp45
 70
     1
102
RTVSPost2010Prop46
 90
       50
102
RTVSPost2010PropOp46
 70
     1
102
RTVSPost2010Prop47
 90
       50
102
RTVSPost2010PropOp47
 70
     1
102
RTVSPost2010Prop48
 90
       50
102
RTVSPost2010PropOp48
 70
     1
102
RTVSPost2010Prop49
280
     0
102
RTVSPost2010PropOp49
 70
     1
102
RTVSPost2010Prop50
 90
       50
102
RTVSPost2010PropOp50
 70
     1
102
RTVSPost2010Prop51ColorIndex
 90
      256
102
RTVSPost2010Prop51ColorRGB
 90
-16777216
102
RTVSPost2010PropOp51
 70
     0
102
RTVSPost2010Prop52
140
1.0
102
RTVSPost2010PropOp52
 70
     0
102
RTVSPost2010Prop53
 90
        2
102
RTVSPost2010PropOp53
 70
     1
102
RTVSPost2010Prop54
  1
strokes_ogs.tif
102
RTVSPost2010PropOp54
 70
     1
102
RTVSPost2010Prop55
280
     0
102
RTVSPost2010PropOp55
 70
     1
102
RTVSPost2010Prop56
140
1.0
102
RTVSPost2010PropOp56
 70
     1
102
RTVSPost2010Prop57
140
1.0
102
RTVSPost2010PropOp57
 70
     1
102
RTVSPropertyOp0
 70
     1
102
RTVSPropertyOp1
 70
     1
102
RTVSPropertyOp2
 70
     1
102
RTVSPropertyOp3
 70
     1
102
RTVSPropertyOp4
 70
     1
102
RTVSPropertyOp5
 70
     1
102
RTVSPropertyOp6
 70
     1
102
RTVSPropertyOp7
 70
     1
102
RTVSPropertyOp8
 70
     1
102
RTVSPropertyOp9
 70
     1
102
RTVSPropertyOp10
 70
     1
102
RTVSPropertyOp11
 70
     1
102
RTVSPropertyOp12
 70
     1
102
RTVSPropertyOp13
 70
     1
102
RTVSPropertyOp14
 70
     1
102
RTVSPropertyOp15
 70
     1
102
RTVSPropertyOp16
 70
     1
102
RTVSPropertyOp17
 70
     1
102
RTVSPropertyOp18
 70
     1
102
RTVSPropertyOp19
 70
     1
102
RTVSPropertyOp20
 70
     1
102
RTVSPropertyOp21
 70
     1
102
RTVSPropertyOp22
 70
     1
102
RTVSPropertyOp23
 70
     1
102
RTVSPropertyOp24
 70
     1
102
RTVSPropertyOp25
 70
     1
102
RTVSPropertyOp26
 70
     1
102
RTVSPropertyOp27
 70
     1
102
RTVSPropertyOp28
 70
     1
102
RTVSPropertyOp29
 70
     1
102
RTVSPropertyOp30
 70
     1
102
RTVSPropertyOp31
 70
     1
102
RTVSPropertyOp32
 70
     1
102
RTVSPropertyOp33
 70
     1
102
RTVSPropertyOp34
 70
     1
102
RTVSPropertyOp35
 70
     1
102
RTVSPropertyOp36
 70
     1
102
RTVSPropertyOp37
 70
     1
102
RTVSPropertyOp38
 70
     1
102
RTVSPropertyOp39
 70
     1
102
RTVSPropertyOp40
 70
     1
102
RTVSPropertyOp41
 70
     1
102
RTVSPropertyOp42
 70
     1
102
RTVSPropertyOp43
 70
     1
102
RTVSPropertyOp44
 70
     1
102
RTVSPropertyOp45
 70
     1
102
RTVSPropertyOp46
 70
     1
102
RTVSPropertyOp47
 70
     1
102
RTVSPropertyOp48
 70
     1
102
RTVSPropertyOp49
 70
     1
102
RTVSPropertyOp50
 70
     1
102
RTVSPropertyOp51
 70
     0
102
RTVSPropertyOp52
 70
     0
102
RTVSPropertyOp53
 70
     1
102
RTVSPropertyOp54
 70
     1
102
RTVSPropertyOp55
 70
     1
102
RTVSPropertyOp56
 70
     1
102
RTVSPropertyOp57
 70
     1
102
RTVSPropertyOp58
 70
     1
102
RTVSPropertyOp59
 70
     1
102
RTVSPropertyOp60
 70
     1
102
RTVSPropertyOp61
 70
     1
102
RTVSPropertyOp62
 70
     1
  0
XRECORD
  5
455A
102
{ACAD_REACTORS
330
4559
102
}
330
4559
100
AcDbXrecord
280
     1
102
RTVSPost2010Prop28
280
     0
102
RTVSPost2010PropOp28
 70
     1
102
RTVSPost2010Prop29
280
     1
102
RTVSPost2010PropOp29
 70
     1
102
RTVSPost2010Prop30
280
     1
102
RTVSPost2010PropOp30
 70
     1
102
RTVSPost2010Prop31
280
     0
102
RTVSPost2010PropOp31
 70
     1
102
RTVSPost2010Prop32
280
     0
102
RTVSPost2010PropOp32
 70
     1
102
RTVSPost2010Prop33
280
     0
102
RTVSPost2010PropOp33
 70
     1
102
RTVSPost2010Prop34
280
     0
102
RTVSPost2010PropOp34
 70
     1
102
RTVSPost2010Prop35
280
     0
102
RTVSPost2010PropOp35
 70
     1
102
RTVSPost2010Prop36
280
     0
102
RTVSPost2010PropOp36
 70
     1
102
RTVSPost2010Prop37
 90
       50
102
RTVSPost2010PropOp37
 70
     1
102
RTVSPost2010Prop38
140
0.0
102
RTVSPost2010PropOp38
 70
     1
102
RTVSPost2010Prop39
140
1.0
102
RTVSPost2010PropOp39
 70
     1
102
RTVSPost2010Prop40
 90
        0
102
RTVSPost2010PropOp40
 70
     1
102
RTVSPost2010Prop41ColorIndex
 90
       18
102
RTVSPost2010Prop41ColorRGB
 90
        0
102
RTVSPost2010PropOp41
 70
     1
102
RTVSPost2010Prop42
 90
       50
102
RTVSPost2010PropOp42
 70
     1
102
RTVSPost2010Prop43
 90
        3
102
RTVSPost2010PropOp43
 70
     1
102
RTVSPost2010Prop44ColorIndex
 90
        5
102
RTVSPost2010Prop44ColorRGB
 90
      255
102
RTVSPost2010PropOp44
 70
     1
102
RTVSPost2010Prop45
280
     0
102
RTVSPost2010PropOp45
 70
     1
102
RTVSPost2010Prop46
 90
       50
102
RTVSPost2010PropOp46
 70
     1
102
RTVSPost2010Prop47
 90
       50
102
RTVSPost2010PropOp47
 70
     1
102
RTVSPost2010Prop48
 90
       50
102
RTVSPost2010PropOp48
 70
     1
102
RTVSPost2010Prop49
280
     0
102
RTVSPost2010PropOp49
 70
     1
102
RTVSPost2010Prop50
 90
       50
102
RTVSPost2010PropOp50
 70
     1
102
RTVSPost2010Prop51ColorIndex
 90
      256
102
RTVSPost2010Prop51ColorRGB
 90
-16777216
102
RTVSPost2010PropOp51
 70
     0
102
RTVSPost2010Prop52
140
1.0
102
RTVSPost2010PropOp52
 70
     0
102
RTVSPost2010Prop53
 90
        2
102
RTVSPost2010PropOp53
 70
     1
102
RTVSPost2010Prop54
  1
strokes_ogs.tif
102
RTVSPost2010PropOp54
 70
     1
102
RTVSPost2010Prop55
280
     0
102
RTVSPost2010PropOp55
 70
     1
102
RTVSPost2010Prop56
140
1.0
102
RTVSPost2010PropOp56
 70
     1
102
RTVSPost2010Prop57
140
1.0
102
RTVSPost2010PropOp57
 70
     1
102
RTVSPropertyOp0
 70
     1
102
RTVSPropertyOp1
 70
     1
102
RTVSPropertyOp2
 70
     1
102
RTVSPropertyOp3
 70
     1
102
RTVSPropertyOp4
 70
     1
102
RTVSPropertyOp5
 70
     1
102
RTVSPropertyOp6
 70
     1
102
RTVSPropertyOp7
 70
     1
102
RTVSPropertyOp8
 70
     1
102
RTVSPropertyOp9
 70
     1
102
RTVSPropertyOp10
 70
     1
102
RTVSPropertyOp11
 70
     1
102
RTVSPropertyOp12
 70
     1
102
RTVSPropertyOp13
 70
     1
102
RTVSPropertyOp14
 70
     1
102
RTVSPropertyOp15
 70
     1
102
RTVSPropertyOp16
 70
     1
102
RTVSPropertyOp17
 70
     1
102
RTVSPropertyOp18
 70
     1
102
RTVSPropertyOp19
 70
     1
102
RTVSPropertyOp20
 70
     1
102
RTVSPropertyOp21
 70
     1
102
RTVSPropertyOp22
 70
     1
102
RTVSPropertyOp23
 70
     1
102
RTVSPropertyOp24
 70
     1
102
RTVSPropertyOp25
 70
     1
102
RTVSPropertyOp26
 70
     1
102
RTVSPropertyOp27
 70
     1
102
RTVSPropertyOp28
 70
     1
102
RTVSPropertyOp29
 70
     1
102
RTVSPropertyOp30
 70
     1
102
RTVSPropertyOp31
 70
     1
102
RTVSPropertyOp32
 70
     1
102
RTVSPropertyOp33
 70
     1
102
RTVSPropertyOp34
 70
     1
102
RTVSPropertyOp35
 70
     1
102
RTVSPropertyOp36
 70
     1
102
RTVSPropertyOp37
 70
     1
102
RTVSPropertyOp38
 70
     1
102
RTVSPropertyOp39
 70
     1
102
RTVSPropertyOp40
 70
     1
102
RTVSPropertyOp41
 70
     1
102
RTVSPropertyOp42
 70
     1
102
RTVSPropertyOp43
 70
     1
102
RTVSPropertyOp44
 70
     1
102
RTVSPropertyOp45
 70
     1
102
RTVSPropertyOp46
 70
     1
102
RTVSPropertyOp47
 70
     1
102
RTVSPropertyOp48
 70
     1
102
RTVSPropertyOp49
 70
     1
102
RTVSPropertyOp50
 70
     1
102
RTVSPropertyOp51
 70
     0
102
RTVSPropertyOp52
 70
     0
102
RTVSPropertyOp53
 70
     1
102
RTVSPropertyOp54
 70
     1
102
RTVSPropertyOp55
 70
     1
102
RTVSPropertyOp56
 70
     1
102
RTVSPropertyOp57
 70
     1
102
RTVSPropertyOp58
 70
     1
102
RTVSPropertyOp59
 70
     1
102
RTVSPropertyOp60
 70
     1
102
RTVSPropertyOp61
 70
     1
102
RTVSPropertyOp62
 70
     1
  0
XRECORD
  5
454E
102
{ACAD_REACTORS
330
454D
102
}
330
454D
100
AcDbXrecord
280
     1
102
RTVSPost2010Prop28
280
     0
102
RTVSPost2010PropOp28
 70
     1
102
RTVSPost2010Prop29
280
     1
102
RTVSPost2010PropOp29
 70
     1
102
RTVSPost2010Prop30
280
     1
102
RTVSPost2010PropOp30
 70
     1
102
RTVSPost2010Prop31
280
     0
102
RTVSPost2010PropOp31
 70
     1
102
RTVSPost2010Prop32
280
     0
102
RTVSPost2010PropOp32
 70
     1
102
RTVSPost2010Prop33
280
     0
102
RTVSPost2010PropOp33
 70
     1
102
RTVSPost2010Prop34
280
     0
102
RTVSPost2010PropOp34
 70
     1
102
RTVSPost2010Prop35
280
     0
102
RTVSPost2010PropOp35
 70
     1
102
RTVSPost2010Prop36
280
     0
102
RTVSPost2010PropOp36
 70
     1
102
RTVSPost2010Prop37
 90
       50
102
RTVSPost2010PropOp37
 70
     1
102
RTVSPost2010Prop38
140
0.0
102
RTVSPost2010PropOp38
 70
     1
102
RTVSPost2010Prop39
140
1.0
102
RTVSPost2010PropOp39
 70
     1
102
RTVSPost2010Prop40
 90
        0
102
RTVSPost2010PropOp40
 70
     1
102
RTVSPost2010Prop41ColorIndex
 90
       18
102
RTVSPost2010Prop41ColorRGB
 90
        0
102
RTVSPost2010PropOp41
 70
     1
102
RTVSPost2010Prop42
 90
       50
102
RTVSPost2010PropOp42
 70
     1
102
RTVSPost2010Prop43
 90
        3
102
RTVSPost2010PropOp43
 70
     1
102
RTVSPost2010Prop44ColorIndex
 90
        5
102
RTVSPost2010Prop44ColorRGB
 90
      255
102
RTVSPost2010PropOp44
 70
     1
102
RTVSPost2010Prop45
280
     0
102
RTVSPost2010PropOp45
 70
     1
102
RTVSPost2010Prop46
 90
       50
102
RTVSPost2010PropOp46
 70
     1
102
RTVSPost2010Prop47
 90
       50
102
RTVSPost2010PropOp47
 70
     1
102
RTVSPost2010Prop48
 90
       50
102
RTVSPost2010PropOp48
 70
     1
102
RTVSPost2010Prop49
280
     0
102
RTVSPost2010PropOp49
 70
     1
102
RTVSPost2010Prop50
 90
       50
102
RTVSPost2010PropOp50
 70
     1
102
RTVSPost2010Prop51ColorIndex
 90
      256
102
RTVSPost2010Prop51ColorRGB
 90
-16777216
102
RTVSPost2010PropOp51
 70
     0
102
RTVSPost2010Prop52
140
1.0
102
RTVSPost2010PropOp52
 70
     0
102
RTVSPost2010Prop53
 90
        2
102
RTVSPost2010PropOp53
 70
     1
102
RTVSPost2010Prop54
  1
strokes_ogs.tif
102
RTVSPost2010PropOp54
 70
     1
102
RTVSPost2010Prop55
280
     0
102
RTVSPost2010PropOp55
 70
     1
102
RTVSPost2010Prop56
140
1.0
102
RTVSPost2010PropOp56
 70
     1
102
RTVSPost2010Prop57
140
1.0
102
RTVSPost2010PropOp57
 70
     1
102
RTVSPropertyOp0
 70
     1
102
RTVSPropertyOp1
 70
     1
102
RTVSPropertyOp2
 70
     1
102
RTVSPropertyOp3
 70
     1
102
RTVSPropertyOp4
 70
     1
102
RTVSPropertyOp5
 70
     1
102
RTVSPropertyOp6
 70
     1
102
RTVSPropertyOp7
 70
     1
102
RTVSPropertyOp8
 70
     1
102
RTVSPropertyOp9
 70
     1
102
RTVSPropertyOp10
 70
     1
102
RTVSPropertyOp11
 70
     1
102
RTVSPropertyOp12
 70
     1
102
RTVSPropertyOp13
 70
     1
102
RTVSPropertyOp14
 70
     1
102
RTVSPropertyOp15
 70
     1
102
RTVSPropertyOp16
 70
     1
102
RTVSPropertyOp17
 70
     1
102
RTVSPropertyOp18
 70
     1
102
RTVSPropertyOp19
 70
     1
102
RTVSPropertyOp20
 70
     1
102
RTVSPropertyOp21
 70
     1
102
RTVSPropertyOp22
 70
     1
102
RTVSPropertyOp23
 70
     1
102
RTVSPropertyOp24
 70
     1
102
RTVSPropertyOp25
 70
     1
102
RTVSPropertyOp26
 70
     1
102
RTVSPropertyOp27
 70
     1
102
RTVSPropertyOp28
 70
     1
102
RTVSPropertyOp29
 70
     1
102
RTVSPropertyOp30
 70
     1
102
RTVSPropertyOp31
 70
     1
102
RTVSPropertyOp32
 70
     1
102
RTVSPropertyOp33
 70
     1
102
RTVSPropertyOp34
 70
     1
102
RTVSPropertyOp35
 70
     1
102
RTVSPropertyOp36
 70
     1
102
RTVSPropertyOp37
 70
     1
102
RTVSPropertyOp38
 70
     1
102
RTVSPropertyOp39
 70
     1
102
RTVSPropertyOp40
 70
     1
102
RTVSPropertyOp41
 70
     1
102
RTVSPropertyOp42
 70
     1
102
RTVSPropertyOp43
 70
     1
102
RTVSPropertyOp44
 70
     1
102
RTVSPropertyOp45
 70
     1
102
RTVSPropertyOp46
 70
     1
102
RTVSPropertyOp47
 70
     1
102
RTVSPropertyOp48
 70
     1
102
RTVSPropertyOp49
 70
     1
102
RTVSPropertyOp50
 70
     1
102
RTVSPropertyOp51
 70
     0
102
RTVSPropertyOp52
 70
     0
102
RTVSPropertyOp53
 70
     1
102
RTVSPropertyOp54
 70
     1
102
RTVSPropertyOp55
 70
     1
102
RTVSPropertyOp56
 70
     1
102
RTVSPropertyOp57
 70
     1
102
RTVSPropertyOp58
 70
     1
102
RTVSPropertyOp59
 70
     1
102
RTVSPropertyOp60
 70
     1
102
RTVSPropertyOp61
 70
     1
102
RTVSPropertyOp62
 70
     1
  0
XRECORD
  5
4566
102
{ACAD_REACTORS
330
4565
102
}
330
4565
100
AcDbXrecord
280
     1
102
RTVSPost2010Prop28
280
     0
102
RTVSPost2010PropOp28
 70
     1
102
RTVSPost2010Prop29
280
     1
102
RTVSPost2010PropOp29
 70
     1
102
RTVSPost2010Prop30
280
     1
102
RTVSPost2010PropOp30
 70
     1
102
RTVSPost2010Prop31
280
     0
102
RTVSPost2010PropOp31
 70
     1
102
RTVSPost2010Prop32
280
     0
102
RTVSPost2010PropOp32
 70
     1
102
RTVSPost2010Prop33
280
     0
102
RTVSPost2010PropOp33
 70
     1
102
RTVSPost2010Prop34
280
     0
102
RTVSPost2010PropOp34
 70
     1
102
RTVSPost2010Prop35
280
     0
102
RTVSPost2010PropOp35
 70
     1
102
RTVSPost2010Prop36
280
     0
102
RTVSPost2010PropOp36
 70
     1
102
RTVSPost2010Prop37
 90
       50
102
RTVSPost2010PropOp37
 70
     1
102
RTVSPost2010Prop38
140
0.0
102
RTVSPost2010PropOp38
 70
     1
102
RTVSPost2010Prop39
140
1.0
102
RTVSPost2010PropOp39
 70
     1
102
RTVSPost2010Prop40
 90
        0
102
RTVSPost2010PropOp40
 70
     1
102
RTVSPost2010Prop41ColorIndex
 90
       18
102
RTVSPost2010Prop41ColorRGB
 90
        0
102
RTVSPost2010PropOp41
 70
     1
102
RTVSPost2010Prop42
 90
       50
102
RTVSPost2010PropOp42
 70
     1
102
RTVSPost2010Prop43
 90
        3
102
RTVSPost2010PropOp43
 70
     1
102
RTVSPost2010Prop44ColorIndex
 90
        5
102
RTVSPost2010Prop44ColorRGB
 90
      255
102
RTVSPost2010PropOp44
 70
     1
102
RTVSPost2010Prop45
280
     0
102
RTVSPost2010PropOp45
 70
     1
102
RTVSPost2010Prop46
 90
       50
102
RTVSPost2010PropOp46
 70
     1
102
RTVSPost2010Prop47
 90
       50
102
RTVSPost2010PropOp47
 70
     1
102
RTVSPost2010Prop48
 90
       50
102
RTVSPost2010PropOp48
 70
     1
102
RTVSPost2010Prop49
280
     0
102
RTVSPost2010PropOp49
 70
     1
102
RTVSPost2010Prop50
 90
       50
102
RTVSPost2010PropOp50
 70
     1
102
RTVSPost2010Prop51ColorIndex
 90
      256
102
RTVSPost2010Prop51ColorRGB
 90
-16777216
102
RTVSPost2010PropOp51
 70
     0
102
RTVSPost2010Prop52
140
1.0
102
RTVSPost2010PropOp52
 70
     0
102
RTVSPost2010Prop53
 90
        2
102
RTVSPost2010PropOp53
 70
     1
102
RTVSPost2010Prop54
  1
strokes_ogs.tif
102
RTVSPost2010PropOp54
 70
     1
102
RTVSPost2010Prop55
280
     0
102
RTVSPost2010PropOp55
 70
     1
102
RTVSPost2010Prop56
140
1.0
102
RTVSPost2010PropOp56
 70
     1
102
RTVSPost2010Prop57
140
1.0
102
RTVSPost2010PropOp57
 70
     1
102
RTVSPropertyOp0
 70
     1
102
RTVSPropertyOp1
 70
     1
102
RTVSPropertyOp2
 70
     1
102
RTVSPropertyOp3
 70
     1
102
RTVSPropertyOp4
 70
     1
102
RTVSPropertyOp5
 70
     1
102
RTVSPropertyOp6
 70
     1
102
RTVSPropertyOp7
 70
     1
102
RTVSPropertyOp8
 70
     1
102
RTVSPropertyOp9
 70
     1
102
RTVSPropertyOp10
 70
     1
102
RTVSPropertyOp11
 70
     1
102
RTVSPropertyOp12
 70
     1
102
RTVSPropertyOp13
 70
     1
102
RTVSPropertyOp14
 70
     1
102
RTVSPropertyOp15
 70
     1
102
RTVSPropertyOp16
 70
     1
102
RTVSPropertyOp17
 70
     1
102
RTVSPropertyOp18
 70
     1
102
RTVSPropertyOp19
 70
     1
102
RTVSPropertyOp20
 70
     1
102
RTVSPropertyOp21
 70
     1
102
RTVSPropertyOp22
 70
     1
102
RTVSPropertyOp23
 70
     1
102
RTVSPropertyOp24
 70
     1
102
RTVSPropertyOp25
 70
     1
102
RTVSPropertyOp26
 70
     1
102
RTVSPropertyOp27
 70
     1
102
RTVSPropertyOp28
 70
     1
102
RTVSPropertyOp29
 70
     1
102
RTVSPropertyOp30
 70
     1
102
RTVSPropertyOp31
 70
     1
102
RTVSPropertyOp32
 70
     1
102
RTVSPropertyOp33
 70
     1
102
RTVSPropertyOp34
 70
     1
102
RTVSPropertyOp35
 70
     1
102
RTVSPropertyOp36
 70
     1
102
RTVSPropertyOp37
 70
     1
102
RTVSPropertyOp38
 70
     1
102
RTVSPropertyOp39
 70
     1
102
RTVSPropertyOp40
 70
     1
102
RTVSPropertyOp41
 70
     1
102
RTVSPropertyOp42
 70
     1
102
RTVSPropertyOp43
 70
     1
102
RTVSPropertyOp44
 70
     1
102
RTVSPropertyOp45
 70
     1
102
RTVSPropertyOp46
 70
     1
102
RTVSPropertyOp47
 70
     1
102
RTVSPropertyOp48
 70
     1
102
RTVSPropertyOp49
 70
     1
102
RTVSPropertyOp50
 70
     1
102
RTVSPropertyOp51
 70
     0
102
RTVSPropertyOp52
 70
     0
102
RTVSPropertyOp53
 70
     1
102
RTVSPropertyOp54
 70
     1
102
RTVSPropertyOp55
 70
     1
102
RTVSPropertyOp56
 70
     1
102
RTVSPropertyOp57
 70
     1
102
RTVSPropertyOp58
 70
     1
102
RTVSPropertyOp59
 70
     1
102
RTVSPropertyOp60
 70
     1
102
RTVSPropertyOp61
 70
     1
102
RTVSPropertyOp62
 70
     1
  0
ENDSEC
  0
EOF
