  0
SECTION
  2
HEADER
  9
$ACADVER
  1
AC1015
  9
$ACADMAINTVER
 70
    20
  9
$DWGCODEPAGE
  3
ANSI_932
  9
$INSBASE
 10
0.0
 20
0.0
 30
0.0
  9
$EXTMIN
 10
-0.0366125253976861
 20
-0.014352608273839
 30
-0.0000000000112498
  9
$EXTMAX
 10
800.0488368285108
 20
550.0382878620794
 30
0.0000000000002956
  9
$LIMMIN
 10
0.0
 20
0.0
  9
$LIMMAX
 10
800.0
 20
550.0
  9
$ORTHOMODE
 70
     0
  9
$REGENMODE
 70
     1
  9
$FILLMODE
 70
     1
  9
$QTEXTMODE
 70
     0
  9
$MIRRTEXT
 70
     1
  9
$LTSCALE
 40
0.2
  9
$ATTMODE
 70
     1
  9
$TEXTSIZE
 40
6.0
  9
$TRACEWID
 40
1.0
  9
$TEXTSTYLE
  7
MSゴシック
  9
$CLAYER
  8
BOUSUI
  9
$CELTYPE
  6
ByLayer
  9
$CECOLOR
 62
   256
  9
$CELTSCALE
 40
1.0
  9
$DISPSILH
 70
     0
  9
$DIMSCALE
 40
2.0
  9
$DIMASZ
 40
1.0
  9
$DIMEXO
 40
0.5
  9
$DIMDLI
 40
0.0
  9
$DIMRND
 40
0.0
  9
$DIMDLE
 40
0.0
  9
$DIMEXE
 40
0.0
  9
$DIMTP
 40
0.0
  9
$DIMTM
 40
0.0
  9
$DIMTXT
 40
2.0
  9
$DIMCEN
 40
2.5
  9
$DIMTSZ
 40
0.0
  9
$DIMTOL
 70
     0
  9
$DIMLIM
 70
     0
  9
$DIMTIH
 70
     0
  9
$DIMTOH
 70
     0
  9
$DIMSE1
 70
     0
  9
$DIMSE2
 70
     0
  9
$DIMTAD
 70
     2
  9
$DIMZIN
 70
     8
  9
$DIMBLK
  1
Open30
  9
$DIMASO
 70
     1
  9
$DIMSHO
 70
     1
  9
$DIMPOST
  1

  9
$DIMAPOST
  1

  9
$DIMALT
 70
     0
  9
$DIMALTD
 70
     4
  9
$DIMALTF
 40
0.0394
  9
$DIMLFAC
 40
1.0
  9
$DIMTOFL
 70
     1
  9
$DIMTVP
 40
0.0
  9
$DIMTIX
 70
     0
  9
$DIMSOXD
 70
     0
  9
$DIMSAH
 70
     0
  9
$DIMBLK1
  1

  9
$DIMBLK2
  1

  9
$DIMSTYLE
  2
f2
  9
$DIMCLRD
 70
     0
  9
$DIMCLRE
 70
     0
  9
$DIMCLRT
 70
     0
  9
$DIMTFAC
 40
1.0
  9
$DIMGAP
 40
0.1
  9
$DIMJUST
 70
     0
  9
$DIMSD1
 70
     0
  9
$DIMSD2
 70
     0
  9
$DIMTOLJ
 70
     1
  9
$DIMTZIN
 70
     0
  9
$DIMALTZ
 70
     0
  9
$DIMALTTZ
 70
     0
  9
$DIMUPT
 70
     0
  9
$DIMDEC
 70
     8
  9
$DIMTDEC
 70
     8
  9
$DIMALTU
 70
     8
  9
$DIMALTTD
 70
     4
  9
$DIMTXSTY
  7
MSゴシック
  9
$DIMAUNIT
 70
     0
  9
$DIMADEC
 70
     0
  9
$DIMALTRND
 40
0.0
  9
$DIMAZIN
 70
     0
  9
$DIMDSEP
 70
    46
  9
$DIMATFIT
 70
     3
  9
$DIMFRAC
 70
     0
  9
$DIMLDRBLK
  1
Open30
  9
$DIMLUNIT
 70
     2
  9
$DIMLWD
 70
    -2
  9
$DIMLWE
 70
    -2
  9
$DIMTMOVE
 70
     1
  9
$LUNITS
 70
     2
  9
$LUPREC
 70
     8
  9
$SKETCHINC
 40
1.0
  9
$FILLETRAD
 40
0.0
  9
$AUNITS
 70
     0
  9
$AUPREC
 70
     0
  9
$MENU
  1
.
  9
$ELEVATION
 40
0.0
  9
$PELEVATION
 40
0.0
  9
$THICKNESS
 40
0.0
  9
$LIMCHECK
 70
     0
  9
$CHAMFERA
 40
10.0
  9
$CHAMFERB
 40
10.0
  9
$CHAMFERC
 40
20.0
  9
$CHAMFERD
 40
0.0
  9
$SKPOLY
 70
     0
  9
$TDCREATE
 40
2454042.641631945
  9
$TDUCREATE
 40
2454042.266637535
  9
$TDUPDATE
 40
2459975.533159722
  9
$TDUUPDATE
 40
2459975.158159722
  9
$TDINDWG
 40
1.0825342245
  9
$TDUSRTIMER
 40
1.0825342245
  9
$USRTIMER
 70
     1
  9
$ANGBASE
 50
0.0
  9
$ANGDIR
 70
     0
  9
$PDMODE
 70
    35
  9
$PDSIZE
 40
5.0
  9
$PLINEWID
 40
0.0
  9
$SPLFRAME
 70
     0
  9
$SPLINETYPE
 70
     6
  9
$SPLINESEGS
 70
     8
  9
$HANDSEED
  5
12A91
  9
$SURFTAB1
 70
     6
  9
$SURFTAB2
 70
     6
  9
$SURFTYPE
 70
     6
  9
$SURFU
 70
     6
  9
$SURFV
 70
     6
  9
$UCSBASE
  2

  9
$UCSNAME
  2

  9
$UCSORG
 10
0.0
 20
0.0
 30
0.0
  9
$UCSXDIR
 10
1.0
 20
0.0
 30
0.0
  9
$UCSYDIR
 10
0.0
 20
1.0
 30
0.0
  9
$UCSORTHOREF
  2

  9
$UCSORTHOVIEW
 70
     0
  9
$UCSORGTOP
 10
0.0
 20
0.0
 30
0.0
  9
$UCSORGBOTTOM
 10
0.0
 20
0.0
 30
0.0
  9
$UCSORGLEFT
 10
0.0
 20
0.0
 30
0.0
  9
$UCSORGRIGHT
 10
0.0
 20
0.0
 30
0.0
  9
$UCSORGFRONT
 10
0.0
 20
0.0
 30
0.0
  9
$UCSORGBACK
 10
0.0
 20
0.0
 30
0.0
  9
$PUCSBASE
  2

  9
$PUCSNAME
  2

  9
$PUCSORG
 10
0.0
 20
0.0
 30
0.0
  9
$PUCSXDIR
 10
1.0
 20
0.0
 30
0.0
  9
$PUCSYDIR
 10
0.0
 20
1.0
 30
0.0
  9
$PUCSORTHOREF
  2

  9
$PUCSORTHOVIEW
 70
     0
  9
$PUCSORGTOP
 10
0.0
 20
0.0
 30
0.0
  9
$PUCSORGBOTTOM
 10
0.0
 20
0.0
 30
0.0
  9
$PUCSORGLEFT
 10
0.0
 20
0.0
 30
0.0
  9
$PUCSORGRIGHT
 10
0.0
 20
0.0
 30
0.0
  9
$PUCSORGFRONT
 10
0.0
 20
0.0
 30
0.0
  9
$PUCSORGBACK
 10
0.0
 20
0.0
 30
0.0
  9
$USERI1
 70
     0
  9
$USERI2
 70
     0
  9
$USERI3
 70
     0
  9
$USERI4
 70
     0
  9
$USERI5
 70
     0
  9
$USERR1
 40
0.0
  9
$USERR2
 40
0.0
  9
$USERR3
 40
0.0
  9
$USERR4
 40
0.0
  9
$USERR5
 40
0.0
  9
$WORLDVIEW
 70
     1
  9
$SHADEDGE
 70
     3
  9
$SHADEDIF
 70
    70
  9
$TILEMODE
 70
     1
  9
$MAXACTVP
 70
    64
  9
$PINSBASE
 10
0.0
 20
0.0
 30
0.0
  9
$PLIMCHECK
 70
     0
  9
$PEXTMIN
 10
0.0
 20
0.0
 30
0.0
  9
$PEXTMAX
 10
0.0
 20
0.0
 30
0.0
  9
$PLIMMIN
 10
0.0
 20
0.0
  9
$PLIMMAX
 10
12.0
 20
9.0
  9
$UNITMODE
 70
     0
  9
$VISRETAIN
 70
     1
  9
$PLINEGEN
 70
     0
  9
$PSLTSCALE
 70
     0
  9
$TREEDEPTH
 70
  3020
  9
$CMLSTYLE
  2
Standard
  9
$CMLJUST
 70
     0
  9
$CMLSCALE
 40
20.0
  9
$PROXYGRAPHICS
 70
     1
  9
$MEASUREMENT
 70
     1
  9
$CELWEIGHT
370
    -1
  9
$ENDCAPS
280
     0
  9
$JOINSTYLE
280
     0
  9
$LWDISPLAY
290
     0
  9
$INSUNITS
 70
     4
  9
$HYPERLINKBASE
  1

  9
$STYLESHEET
  1
monochrome.ctb
  9
$XEDIT
290
     1
  9
$CEPSNTYPE
380
     0
  9
$PSTYLEMODE
290
     1
  9
$FINGERPRINTGUID
  2
{FDEAD578-A652-11D2-9A35-0060089B3A3F}
  9
$VERSIONGUID
  2
{6F6A1872-1508-4945-A139-512031A81D0D}
  9
$EXTNAMES
290
     1
  9
$PSVPSCALE
 40
0.0
  9
$OLESTARTUP
290
     0
  0
ENDSEC
  0
SECTION
  2
CLASSES
  0
CLASS
  1
ACDBDICTIONARYWDFLT
  2
AcDbDictionaryWithDefault
  3
ObjectDBX Classes
 90
        0
280
     0
281
     0
  0
CLASS
  1
ACDBPLACEHOLDER
  2
AcDbPlaceHolder
  3
ObjectDBX Classes
 90
        0
280
     0
281
     0
  0
CLASS
  1
LAYOUT
  2
AcDbLayout
  3
ObjectDBX Classes
 90
        0
280
     0
281
     0
  0
CLASS
  1
DICTIONARYVAR
  2
AcDbDictionaryVar
  3
ObjectDBX Classes
 90
        0
280
     0
281
     0
  0
CLASS
  1
MATERIAL
  2
AcDbMaterial
  3
ObjectDBX Classes
 90
     1153
280
     0
281
     0
  0
CLASS
  1
VISUALSTYLE
  2
AcDbVisualStyle
  3
ObjectDBX Classes
 90
     4095
280
     0
281
     0
  0
CLASS
  1
TABLESTYLE
  2
AcDbTableStyle
  3
ObjectDBX Classes
 90
     4095
280
     0
281
     0
  0
CLASS
  1
SCALE
  2
AcDbScale
  3
ObjectDBX Classes
 90
     1153
280
     0
281
     0
  0
CLASS
  1
MLEADERSTYLE
  2
AcDbMLeaderStyle
  3
ACDB_MLEADERSTYLE_CLASS
 90
     4095
280
     0
281
     0
  0
CLASS
  1
CELLSTYLEMAP
  2
AcDbCellStyleMap
  3
ObjectDBX Classes
 90
     1152
280
     0
281
     0
  0
CLASS
  1
AEC_REFEDIT_STATUS_TRACKER
  2
AecDbRefEditStatusTracker
  3
AecArchBase80|Product Desc: Autodesk Architectural Desktop 2007 |Company: Autodesk,Inc. |WEB Address: www.autodesk.com
 90
    32897
280
     0
281
     0
  0
CLASS
  1
NPOCOLLECTION
  2
AcDbImpNonPersistentObjectsCollection
  3
ObjectDBX Classes
 90
    33921
280
     0
281
     0
  0
CLASS
  1
SORTENTSTABLE
  2
AcDbSortentsTable
  3
ObjectDBX Classes
 90
        0
280
     0
281
     0
  0
CLASS
  1
ACDBSECTIONVIEWSTYLE
  2
AcDbSectionViewStyle
  3
ObjectDBX Classes
 90
     1025
280
     0
281
     0
  0
CLASS
  1
ACDBDETAILVIEWSTYLE
  2
AcDbDetailViewStyle
  3
ObjectDBX Classes
 90
     1025
280
     0
281
     0
  0
ENDSEC
  0
SECTION
  2
TABLES
  0
TABLE
  2
VPORT
  5
8
102
{ACAD_XDICTIONARY
360
1392
102
}
330
0
100
AcDbSymbolTable
 70
     1
  0
VPORT
  5
131A
330
8
100
AcDbSymbolTableRecord
100
AcDbViewportTableRecord
  2
*Active
 70
     0
 10
0.0
 20
0.0
 11
1.0
 21
1.0
 12
400.0061121515565
 22
275.0119676269028
 13
0.0
 23
0.0
 14
10.0
 24
10.0
 15
10.0
 25
10.0
 16
0.0
 26
0.0
 36
1.0
 17
0.0
 27
0.0
 37
0.0
 40
559.119442236348
 41
2.24793388429752
 42
50.0
 43
0.0
 44
0.0
 50
0.0
 51
0.0
 71
     0
 72
   100
 73
     1
 74
     3
 75
     0
 76
     0
 77
     0
 78
     0
281
     0
 65
     1
110
0.0
120
0.0
130
0.0
111
1.0
121
0.0
131
0.0
112
0.0
122
1.0
132
0.0
 79
     0
146
0.0
1001
ACAD_NAV_VCDISPLAY
1070
     3
  0
ENDTAB
  0
TABLE
  2
LTYPE
  5
5
330
0
100
AcDbSymbolTable
 70
     4
  0
LTYPE
  5
14
330
5
100
AcDbSymbolTableRecord
100
AcDbLinetypeTableRecord
  2
ByBlock
 70
     0
  3

 72
    65
 73
     0
 40
0.0
  0
LTYPE
  5
15
330
5
100
AcDbSymbolTableRecord
100
AcDbLinetypeTableRecord
  2
ByLayer
 70
     0
  3

 72
    65
 73
     0
 40
0.0
  0
LTYPE
  5
16
330
5
100
AcDbSymbolTableRecord
100
AcDbLinetypeTableRecord
  2
Continuous
 70
     0
  3
Solid line
 72
    65
 73
     0
 40
0.0
  0
LTYPE
  5
19C
330
5
100
AcDbSymbolTableRecord
100
AcDbLinetypeTableRecord
  2
DASHED2
 70
     0
  3
Dashed (.5x) _ _ _ _ _ _ _ _ _ _ _ _ _ _ _ _ _
 72
    65
 73
     2
 40
9.524999999999998
 49
6.349999999999999
 74
     0
 49
-3.174999999999999
 74
     0
  0
LTYPE
  5
6A2
330
5
100
AcDbSymbolTableRecord
100
AcDbLinetypeTableRecord
  2
DASHED
 70
     0
  3
Dashed __ __ __ __ __ __ __ __ __ __ __ __ __ _
 72
    65
 73
     2
 40
19.05
 49
12.7
 74
     0
 49
-6.349999999999999
 74
     0
  0
LTYPE
  5
1240D
330
5
100
AcDbSymbolTableRecord
100
AcDbLinetypeTableRecord
  2
CENTERX2
 70
     0
  3
Center (2x) ________  __  ________  __  _____
 72
    65
 73
     4
 40
101.6
 49
63.5
 74
     0
 49
-12.7
 74
     0
 49
12.7
 74
     0
 49
-12.7
 74
     0
  0
ENDTAB
  0
TABLE
  2
LAYER
  5
2
102
{ACAD_XDICTIONARY
360
69
102
}
330
0
100
AcDbSymbolTable
 70
    13
  0
LAYER
  5
10
102
{ACAD_XDICTIONARY
360
1364
102
}
330
2
100
AcDbSymbolTableRecord
100
AcDbLayerTableRecord
  2
0
 70
     0
 62
     7
  6
Continuous
290
     0
370
    -3
390
F
  0
LAYER
  5
66
102
{ACAD_XDICTIONARY
360
1366
102
}
330
2
100
AcDbSymbolTableRecord
100
AcDbLayerTableRecord
  2
WAKU
 70
     0
 62
     7
  6
Continuous
370
    -3
390
68
  0
LAYER
  5
19E
330
2
100
AcDbSymbolTableRecord
100
AcDbLayerTableRecord
  2
DEFPOINTS
 70
     0
 62
     7
  6
Continuous
290
     0
370
    -3
390
68
  0
LAYER
  5
1A0
102
{ACAD_XDICTIONARY
360
136A
102
}
330
2
100
AcDbSymbolTableRecord
100
AcDbLayerTableRecord
  2
BOUSUI
 70
     0
 62
     1
  6
Continuous
370
    -3
390
68
  0
LAYER
  5
1A1
102
{ACAD_XDICTIONARY
360
136C
102
}
330
2
100
AcDbSymbolTableRecord
100
AcDbLayerTableRecord
  2
MOJI
 70
     0
 62
     7
  6
Continuous
370
    -3
390
68
  0
LAYER
  5
1A2
102
{ACAD_XDICTIONARY
360
136E
102
}
330
2
100
AcDbSymbolTableRecord
100
AcDbLayerTableRecord
  2
HATCH
 70
     0
 62
     9
  6
Continuous
370
     5
390
68
  0
LAYER
  5
1A4
102
{ACAD_XDICTIONARY
360
1372
102
}
330
2
100
AcDbSymbolTableRecord
100
AcDbLayerTableRecord
  2
sunpo
 70
     0
 62
     7
  6
Continuous
370
    -3
390
68
  0
LAYER
  5
1A5
102
{ACAD_XDICTIONARY
360
1374
102
}
330
2
100
AcDbSymbolTableRecord
100
AcDbLayerTableRecord
  2
KANAMONO_SCREW
 70
     0
 62
     4
  6
Continuous
370
    -3
390
68
  0
LAYER
  5
1A6
102
{ACAD_XDICTIONARY
360
1376
102
}
330
2
100
AcDbSymbolTableRecord
100
AcDbLayerTableRecord
  2
KANAMONO
 70
     0
 62
     4
  6
Continuous
370
    -3
390
68
  0
LAYER
  5
3AE2
330
2
100
AcDbSymbolTableRecord
100
AcDbLayerTableRecord
  2
KANAMONO2
 70
     0
 62
     4
  6
DASHED
370
    -3
390
F
1001
AcAecLayerStandard
1000

1000

  0
LAYER
  5
54CC
102
{ACAD_XDICTIONARY
360
54CD
102
}
330
2
100
AcDbSymbolTableRecord
100
AcDbLayerTableRecord
  2
KUTAI
 70
     0
 62
     3
  6
Continuous
370
    -3
390
68
  0
LAYER
  5
99AA
330
2
100
AcDbSymbolTableRecord
100
AcDbLayerTableRecord
  2
pv
 70
     0
 62
     4
  6
Continuous
370
    -3
390
F
1001
AcAecLayerStandard
1000

1000

  0
LAYER
  5
1240E
102
{ACAD_XDICTIONARY
360
1240F
102
}
330
2
100
AcDbSymbolTableRecord
100
AcDbLayerTableRecord
  2
kijun
 70
     0
 62
     1
  6
CENTERX2
370
     5
390
F
  0
ENDTAB
  0
TABLE
  2
STYLE
  5
3
330
0
100
AcDbSymbolTable
 70
     3
  0
STYLE
  5
11
330
3
100
AcDbSymbolTableRecord
100
AcDbTextStyleTableRecord
  2
Standard
 70
     0
 40
0.0
 41
1.0
 50
0.0
 71
     0
 42
2.5
  3

  4

1001
ACAD
1000
MS Gothic
1071
    32817
  0
STYLE
  5
2DDD
330
3
100
AcDbSymbolTableRecord
100
AcDbTextStyleTableRecord
  2
MSゴシック
 70
     0
 40
0.0
 41
1.0
 50
0.0
 71
     0
 42
6.0
  3

  4

1001
ACAD
1000
MS Gothic
1071
    32817
  0
STYLE
  5
1147F
330
3
100
AcDbSymbolTableRecord
100
AcDbTextStyleTableRecord
  2
ＭＳ ゴシック
 70
     0
 40
0.0
 41
1.0
 50
0.0
 71
     0
 42
0.0
  3
txt.shx
  4
ＭＳ ゴシック
1001
ACAD
1000
ＭＳ ゴシック
1071
        0
  0
ENDTAB
  0
TABLE
  2
VIEW
  5
6
330
0
100
AcDbSymbolTable
 70
     0
  0
ENDTAB
  0
TABLE
  2
UCS
  5
7
330
0
100
AcDbSymbolTable
 70
     0
  0
ENDTAB
  0
TABLE
  2
APPID
  5
9
330
0
100
AcDbSymbolTable
 70
    11
  0
APPID
  5
12
330
9
100
AcDbSymbolTableRecord
100
AcDbRegAppTableRecord
  2
ACAD
 70
     0
  0
APPID
  5
138D
330
9
100
AcDbSymbolTableRecord
100
AcDbRegAppTableRecord
  2
ACAD_PSEXT
 70
     0
  0
APPID
  5
13C2
330
9
100
AcDbSymbolTableRecord
100
AcDbRegAppTableRecord
  2
ACAD_MLEADERVER
 70
     0
  0
APPID
  5
16AC
330
9
100
AcDbSymbolTableRecord
100
AcDbRegAppTableRecord
  2
ACAD_DSTYLE_DIMJAG
 70
     0
  0
APPID
  5
16AD
330
9
100
AcDbSymbolTableRecord
100
AcDbRegAppTableRecord
  2
ACAD_DSTYLE_DIMTALN
 70
     0
  0
APPID
  5
16AE
330
9
100
AcDbSymbolTableRecord
100
AcDbRegAppTableRecord
  2
ACAD_EXEMPT_FROM_CAD_STANDARDS
 70
     0
  0
APPID
  5
1732
330
9
100
AcDbSymbolTableRecord
100
AcDbRegAppTableRecord
  2
AcAecLayerStandard
 70
     0
  0
APPID
  5
1733
330
9
100
AcDbSymbolTableRecord
100
AcDbRegAppTableRecord
  2
ACAD_DSTYLE_DIMBREAK
 70
     0
  0
APPID
  5
3AD4
330
9
100
AcDbSymbolTableRecord
100
AcDbRegAppTableRecord
  2
ACAD_NAV_VCDISPLAY
 70
     0
  0
APPID
  5
3F2D
330
9
100
AcDbSymbolTableRecord
100
AcDbRegAppTableRecord
  2
ACAD_DSTYLE_DIMRADIAL_EXTENSION
 70
     0
  0
APPID
  5
126E4
330
9
100
AcDbSymbolTableRecord
100
AcDbRegAppTableRecord
  2
Acad_TC
 70
     0
  0
ENDTAB
  0
TABLE
  2
DIMSTYLE
  5
A
330
0
100
AcDbSymbolTable
 70
     1
100
AcDbDimStyleTable
 71
     1
340
373C
  0
DIMSTYLE
105
373C
330
A
100
AcDbSymbolTableRecord
100
AcDbDimStyleTableRecord
  2
f2
 70
     0
 40
2.0
 41
1.0
 42
0.5
 43
0.0
 44
0.0
 73
     0
 74
     0
 77
     2
 78
     8
140
2.0
141
2.5
143
0.0394
147
0.1
171
     4
172
     1
271
     8
272
     8
273
     8
274
     4
279
     1
340
2DDD
341
3E92
342
3E92
1001
ACAD_DSTYLE_DIMBREAK
1070
   391
1040
3.75
1001
ACAD_DSTYLE_DIMJAG
1070
   388
1040
1.5
1001
ACAD_DSTYLE_DIMTALN
1070
   392
1070
     0
  0
ENDTAB
  0
TABLE
  2
BLOCK_RECORD
  5
1
330
0
100
AcDbSymbolTable
 70
    12
  0
BLOCK_RECORD
  5
1F
102
{ACAD_XDICTIONARY
360
2066
102
}
330
1
100
AcDbSymbolTableRecord
100
AcDbBlockTableRecord
  2
*Model_Space
340
22
  0
BLOCK_RECORD
  5
50
330
1
100
AcDbSymbolTableRecord
100
AcDbBlockTableRecord
  2
*Paper_Space
340
51
  0
BLOCK_RECORD
  5
3E92
330
1
100
AcDbSymbolTableRecord
100
AcDbBlockTableRecord
  2
_Open30
340
0
102
{BLKREFS
331
12A1D
331
12A1E
331
12A23
331
12A24
331
12A2A
331
12A2B
331
12A2F
331
12A30
331
12A35
331
12A36
331
128AB
331
128AC
331
128B4
331
128B5
331
128BE
331
128BF
331
128C6
331
128C7
331
128CF
331
128D0
102
}
  0
BLOCK_RECORD
  5
12408
330
1
100
AcDbSymbolTableRecord
100
AcDbBlockTableRecord
  2
_Dot
340
0
  0
BLOCK_RECORD
  5
12601
330
1
100
AcDbSymbolTableRecord
100
AcDbBlockTableRecord
  2
*D7
340
0
  0
BLOCK_RECORD
  5
1260D
330
1
100
AcDbSymbolTableRecord
100
AcDbBlockTableRecord
  2
*D8
340
0
  0
BLOCK_RECORD
  5
12619
330
1
100
AcDbSymbolTableRecord
100
AcDbBlockTableRecord
  2
*D9
340
0
  0
BLOCK_RECORD
  5
12625
330
1
100
AcDbSymbolTableRecord
100
AcDbBlockTableRecord
  2
*D10
340
0
  0
BLOCK_RECORD
  5
12631
330
1
100
AcDbSymbolTableRecord
100
AcDbBlockTableRecord
  2
*D11
340
0
  0
ENDTAB
  0
ENDSEC
  0
SECTION
  2
BLOCKS
  0
BLOCK
  5
20
330
1F
100
AcDbEntity
  8
0
100
AcDbBlockBegin
  2
*Model_Space
 70
     0
 10
0.0
 20
0.0
 30
0.0
  3
*Model_Space
  1

  0
ENDBLK
  5
21
330
1F
100
AcDbEntity
  8
0
100
AcDbBlockEnd
  0
BLOCK
  5
52
330
50
100
AcDbEntity
 67
     1
  8
0
100
AcDbBlockBegin
  2
*Paper_Space
 70
     0
 10
0.0
 20
0.0
 30
0.0
  3
*Paper_Space
  1

  0
ENDBLK
  5
53
330
50
100
AcDbEntity
 67
     1
  8
0
100
AcDbBlockEnd
  0
BLOCK
  5
3E96
330
3E92
100
AcDbEntity
  8
0
100
AcDbBlockBegin
  2
_Open30
 70
     0
 10
0.0
 20
0.0
 30
0.0
  3
_Open30
  1

  0
LINE
  5
3E93
330
3E92
100
AcDbEntity
  8
0
  6
ByBlock
 62
     0
370
    -2
100
AcDbLine
 10
-1.0
 20
0.26794919
 30
0.0
 11
0.0
 21
0.0
 31
0.0
  0
LINE
  5
3E94
330
3E92
100
AcDbEntity
  8
0
  6
ByBlock
 62
     0
370
    -2
100
AcDbLine
 10
0.0
 20
0.0
 30
0.0
 11
-1.0
 21
-0.26794919
 31
0.0
  0
LINE
  5
3E95
330
3E92
100
AcDbEntity
  8
0
  6
ByBlock
 62
     0
370
    -2
100
AcDbLine
 10
0.0
 20
0.0
 30
0.0
 11
-1.0
 21
0.0
 31
0.0
  0
ENDBLK
  5
3E97
330
3E92
100
AcDbEntity
  8
0
100
AcDbBlockEnd
  0
BLOCK
  5
12409
330
12408
100
AcDbEntity
  8
0
100
AcDbBlockBegin
  2
_Dot
 70
     0
 10
0.0
 20
0.0
 30
0.0
  3
_Dot
  1

  0
LWPOLYLINE
  5
1240A
330
12408
100
AcDbEntity
  8
0
  6
ByBlock
 62
     0
100
AcDbPolyline
 90
        2
 70
     1
 43
0.5
 10
-0.25
 20
0.0
 42
1.0
 10
0.25
 20
0.0
 42
1.0
  0
LINE
  5
1240B
330
12408
100
AcDbEntity
  8
0
  6
ByBlock
 62
     0
370
    -2
100
AcDbLine
 10
-0.5
 20
0.0
 30
0.0
 11
-1.0
 21
0.0
 31
0.0
  0
ENDBLK
  5
1240C
330
12408
100
AcDbEntity
  8
0
100
AcDbBlockEnd
  0
BLOCK
  5
12602
330
12601
100
AcDbEntity
  8
0
100
AcDbBlockBegin
  2
*D7
 70
     1
 10
0.0
 20
0.0
 30
0.0
  3
*D7
  1

  0
LINE
  5
128A8
330
12601
100
AcDbEntity
  8
sunpo
 62
     0
370
    -2
100
AcDbLine
 10
511.7017521047159
 20
476.0
 30
0.0
 11
511.7017521047159
 21
492.3908112396543
 31
0.0
  0
LINE
  5
128A9
330
12601
100
AcDbEntity
  8
sunpo
 62
     0
370
    -2
100
AcDbLine
 10
711.7017521047158
 20
476.0
 30
0.0
 11
711.7017521047158
 21
492.3908112396543
 31
0.0
  0
LINE
  5
128AA
330
12601
100
AcDbEntity
  8
sunpo
 62
     0
370
    -2
100
AcDbLine
 10
513.701752104716
 20
492.3908112396543
 30
0.0
 11
709.7017521047157
 21
492.3908112396543
 31
0.0
  0
INSERT
  5
128AB
330
12601
100
AcDbEntity
  8
sunpo
 62
     0
370
    -2
100
AcDbBlockReference
  2
_Open30
 10
511.7017521047159
 20
492.3908112396543
 30
0.0
 41
2.0
 42
2.0
 43
2.0
 50
180.0
  0
INSERT
  5
128AC
330
12601
100
AcDbEntity
  8
sunpo
 62
     0
370
    -2
100
AcDbBlockReference
  2
_Open30
 10
711.7017521047158
 20
492.3908112396543
 30
0.0
 41
2.0
 42
2.0
 43
2.0
  0
MTEXT
  5
128AD
330
12601
100
AcDbEntity
  8
sunpo
 62
     0
100
AcDbMText
 10
611.7017521047158
 20
494.5908112396543
 30
0.0
 40
4.0
 41
0.0
 71
     5
 72
     1
  1
\A1;200
  7
MSゴシック
 73
     1
 44
1.0
1001
ACAD
1000
MTEXTBEGIN
1070
    73
1070
     1
1070
    44
1040
1.0
1070
    74
1070
     0
1000
MTEXTEND
  0
POINT
  5
128AE
330
12601
100
AcDbEntity
  8
DEFPOINTS
 62
     0
100
AcDbPoint
 10
511.7017521047159
 20
475.0
 30
0.0
  0
POINT
  5
128AF
330
12601
100
AcDbEntity
  8
DEFPOINTS
 62
     0
100
AcDbPoint
 10
711.7017521047158
 20
475.0
 30
0.0
  0
POINT
  5
128B0
330
12601
100
AcDbEntity
  8
DEFPOINTS
 62
     0
100
AcDbPoint
 10
711.7017521047158
 20
492.3908112396543
 30
0.0
  0
ENDBLK
  5
12603
330
12601
100
AcDbEntity
  8
0
100
AcDbBlockEnd
  0
BLOCK
  5
1260E
330
1260D
100
AcDbEntity
  8
0
100
AcDbBlockBegin
  2
*D8
 70
     1
 10
0.0
 20
0.0
 30
0.0
  3
*D8
  1

  0
LINE
  5
128B1
330
1260D
100
AcDbEntity
  8
sunpo
 62
     0
370
    -2
100
AcDbLine
 10
510.7017521047161
 20
475.0000000000002
 30
0.0
 11
494.3109408650626
 21
475.0000000000002
 31
0.0
  0
LINE
  5
128B2
330
1260D
100
AcDbEntity
  8
sunpo
 62
     0
370
    -2
100
AcDbLine
 10
510.701752104716
 20
275.0000000000001
 30
0.0
 11
494.3109408650627
 21
275.0000000000001
 31
0.0
  0
LINE
  5
128B3
330
1260D
100
AcDbEntity
  8
sunpo
 62
     0
370
    -2
100
AcDbLine
 10
494.3109408650626
 20
473.0000000000002
 30
0.0
 11
494.3109408650627
 21
277.0000000000001
 31
0.0
  0
INSERT
  5
128B4
330
1260D
100
AcDbEntity
  8
sunpo
 62
     0
370
    -2
100
AcDbBlockReference
  2
_Open30
 10
494.3109408650626
 20
475.0000000000002
 30
0.0
 41
2.0
 42
2.0
 43
2.0
 50
90.0
  0
INSERT
  5
128B5
330
1260D
100
AcDbEntity
  8
sunpo
 62
     0
370
    -2
100
AcDbBlockReference
  2
_Open30
 10
494.3109408650627
 20
275.0000000000001
 30
0.0
 41
2.0
 42
2.0
 43
2.0
 50
270.0
  0
MTEXT
  5
128B6
330
1260D
100
AcDbEntity
  8
sunpo
 62
     0
100
AcDbMText
 10
492.1109408650627
 20
375.0
 30
0.0
 40
4.0
 41
0.0
 71
     5
 72
     1
  1
\A1;200
  7
MSゴシック
 11
0.0000000000000001
 21
1.0
 31
0.0
 73
     1
 44
1.0
1001
ACAD
1000
MTEXTBEGIN
1070
    73
1070
     1
1070
    44
1040
1.0
1070
    74
1070
     0
1000
MTEXTEND
  0
POINT
  5
128B7
330
1260D
100
AcDbEntity
  8
DEFPOINTS
 62
     0
100
AcDbPoint
 10
511.7017521047162
 20
475.0000000000002
 30
0.0
  0
POINT
  5
128B8
330
1260D
100
AcDbEntity
  8
DEFPOINTS
 62
     0
100
AcDbPoint
 10
511.7017521047159
 20
275.0000000000001
 30
0.0
  0
POINT
  5
128B9
330
1260D
100
AcDbEntity
  8
DEFPOINTS
 62
     0
100
AcDbPoint
 10
494.3109408650627
 20
275.0000000000001
 30
0.0
  0
ENDBLK
  5
1260F
330
1260D
100
AcDbEntity
  8
0
100
AcDbBlockEnd
  0
BLOCK
  5
1261A
330
12619
100
AcDbEntity
  8
0
100
AcDbBlockBegin
  2
*D9
 70
     1
 10
0.0
 20
0.0
 30
0.0
  3
*D9
  1

  0
LINE
  5
128BA
330
12619
100
AcDbEntity
  8
sunpo
 62
     0
370
    -2
100
AcDbLine
 10
270.679284090386
 20
287.0999999999987
 30
0.0
 11
232.9966683817271
 21
287.0999999999987
 31
0.0
  0
LINE
  5
128BB
330
12619
100
AcDbEntity
  8
sunpo
 62
     0
370
    -2
100
AcDbLine
 10
265.6792840903841
 20
261.5000000000001
 30
0.0
 11
232.9966683817271
 21
261.5000000000001
 31
0.0
  0
LINE
  5
128BC
330
12619
100
AcDbEntity
  8
sunpo
 62
     0
370
    -2
100
AcDbLine
 10
232.9966683817271
 20
285.0999999999987
 30
0.0
 11
232.9966683817271
 21
263.5000000000001
 31
0.0
  0
MTEXT
  5
128BD
330
12619
100
AcDbEntity
  8
sunpo
 62
     0
100
AcDbMText
 10
230.4413384324875
 20
283.0089351733887
 30
0.0
 40
4.0
 41
0.0
 71
     5
 72
     1
  1
\A1;0～60(調整範囲)
  7
MSゴシック
 11
0.0000000000000001
 21
1.0
 31
0.0
 73
     1
 44
1.0
1001
ACAD
1000
MTEXTBEGIN
1070
    73
1070
     1
1070
    44
1040
1.0
1070
    74
1070
     0
1000
MTEXTEND
  0
INSERT
  5
128BE
330
12619
100
AcDbEntity
  8
sunpo
 62
     0
370
    -2
100
AcDbBlockReference
  2
_Open30
 10
232.9966683817271
 20
287.0999999999987
 30
0.0
 41
2.0
 42
2.0
 43
2.0
 50
90.0
  0
INSERT
  5
128BF
330
12619
100
AcDbEntity
  8
sunpo
 62
     0
370
    -2
100
AcDbBlockReference
  2
_Open30
 10
232.9966683817271
 20
261.5000000000001
 30
0.0
 41
2.0
 42
2.0
 43
2.0
 50
270.0
  0
POINT
  5
128C0
330
12619
100
AcDbEntity
  8
DEFPOINTS
 62
     0
100
AcDbPoint
 10
271.679284090386
 20
287.0999999999987
 30
0.0
  0
POINT
  5
128C1
330
12619
100
AcDbEntity
  8
DEFPOINTS
 62
     0
100
AcDbPoint
 10
266.6792840903842
 20
261.5000000000001
 30
0.0
  0
POINT
  5
128C2
330
12619
100
AcDbEntity
  8
DEFPOINTS
 62
     0
100
AcDbPoint
 10
232.9966683817271
 20
261.5000000000001
 30
0.0
  0
ENDBLK
  5
1261B
330
12619
100
AcDbEntity
  8
0
100
AcDbBlockEnd
  0
BLOCK
  5
12626
330
12625
100
AcDbEntity
  8
0
100
AcDbBlockBegin
  2
*D10
 70
     1
 10
0.0
 20
0.0
 30
0.0
  3
*D10
  1

  0
LINE
  5
128C3
330
12625
100
AcDbEntity
  8
sunpo
 62
     0
370
    -2
100
AcDbLine
 10
243.6009675860843
 20
111.5
 30
0.0
 11
227.2101563464325
 21
111.5
 31
0.0
  0
LINE
  5
128C4
330
12625
100
AcDbEntity
  8
sunpo
 62
     0
370
    -2
100
AcDbLine
 10
265.6792840903841
 20
261.5000000000001
 30
0.0
 11
227.2101563464324
 21
261.5000000000001
 31
0.0
  0
LINE
  5
128C5
330
12625
100
AcDbEntity
  8
sunpo
 62
     0
370
    -2
100
AcDbLine
 10
227.2101563464325
 20
113.5
 30
0.0
 11
227.2101563464324
 21
259.5000000000001
 31
0.0
  0
INSERT
  5
128C6
330
12625
100
AcDbEntity
  8
sunpo
 62
     0
370
    -2
100
AcDbBlockReference
  2
_Open30
 10
227.2101563464325
 20
111.5
 30
0.0
 41
2.0
 42
2.0
 43
2.0
 50
270.0
  0
INSERT
  5
128C7
330
12625
100
AcDbEntity
  8
sunpo
 62
     0
370
    -2
100
AcDbBlockReference
  2
_Open30
 10
227.2101563464324
 20
261.5000000000001
 30
0.0
 41
2.0
 42
2.0
 43
2.0
 50
90.0
  0
MTEXT
  5
128C8
330
12625
100
AcDbEntity
  8
sunpo
 62
     0
100
AcDbMText
 10
225.0101563464324
 20
186.5
 30
0.0
 40
4.0
 41
0.0
 71
     5
 72
     1
  1
\A1;150
  7
MSゴシック
 11
0.0000000000000001
 21
1.0
 31
0.0
 73
     1
 44
1.0
1001
ACAD
1000
MTEXTBEGIN
1070
    73
1070
     1
1070
    44
1040
1.0
1070
    74
1070
     0
1000
MTEXTEND
  0
POINT
  5
128C9
330
12625
100
AcDbEntity
  8
DEFPOINTS
 62
     0
100
AcDbPoint
 10
244.6009675860842
 20
111.5
 30
0.0
  0
POINT
  5
128CA
330
12625
100
AcDbEntity
  8
DEFPOINTS
 62
     0
100
AcDbPoint
 10
266.6792840903842
 20
261.5000000000001
 30
0.0
  0
POINT
  5
128CB
330
12625
100
AcDbEntity
  8
DEFPOINTS
 62
     0
100
AcDbPoint
 10
227.2101563464324
 20
261.5000000000001
 30
0.0
  0
ENDBLK
  5
12627
330
12625
100
AcDbEntity
  8
0
100
AcDbBlockEnd
  0
BLOCK
  5
12632
330
12631
100
AcDbEntity
  8
0
100
AcDbBlockBegin
  2
*D11
 70
     1
 10
0.0
 20
0.0
 30
0.0
  3
*D11
  1

  0
LINE
  5
128CC
330
12631
100
AcDbEntity
  8
sunpo
 62
     0
370
    -2
100
AcDbLine
 10
265.6792840903841
 20
261.5000000000001
 30
0.0
 11
227.2101563464325
 21
261.5000000000001
 31
0.0
  0
LINE
  5
128CD
330
12631
100
AcDbEntity
  8
sunpo
 62
     0
370
    -2
100
AcDbLine
 10
286.679284090386
 20
347.5000000000001
 30
0.0
 11
227.2101563464324
 21
347.5000000000001
 31
0.0
  0
LINE
  5
128CE
330
12631
100
AcDbEntity
  8
sunpo
 62
     0
370
    -2
100
AcDbLine
 10
227.2101563464325
 20
263.5000000000001
 30
0.0
 11
227.2101563464324
 21
345.5000000000001
 31
0.0
  0
INSERT
  5
128CF
330
12631
100
AcDbEntity
  8
sunpo
 62
     0
370
    -2
100
AcDbBlockReference
  2
_Open30
 10
227.2101563464325
 20
261.5000000000001
 30
0.0
 41
2.0
 42
2.0
 43
2.0
 50
270.0
  0
INSERT
  5
128D0
330
12631
100
AcDbEntity
  8
sunpo
 62
     0
370
    -2
100
AcDbBlockReference
  2
_Open30
 10
227.2101563464324
 20
347.5000000000001
 30
0.0
 41
2.0
 42
2.0
 43
2.0
 50
90.0
  0
MTEXT
  5
128D1
330
12631
100
AcDbEntity
  8
sunpo
 62
     0
100
AcDbMText
 10
225.0101563464325
 20
304.5
 30
0.0
 40
4.0
 41
0.0
 71
     5
 72
     1
  1
\A1;86
  7
MSゴシック
 11
0.0000000000000001
 21
1.0
 31
0.0
 73
     1
 44
1.0
1001
ACAD
1000
MTEXTBEGIN
1070
    73
1070
     1
1070
    44
1040
1.0
1070
    74
1070
     0
1000
MTEXTEND
  0
POINT
  5
128D2
330
12631
100
AcDbEntity
  8
DEFPOINTS
 62
     0
100
AcDbPoint
 10
266.6792840903842
 20
261.5000000000001
 30
0.0
  0
POINT
  5
128D3
330
12631
100
AcDbEntity
  8
DEFPOINTS
 62
     0
100
AcDbPoint
 10
287.679284090386
 20
347.5000000000001
 30
0.0
  0
POINT
  5
128D4
330
12631
100
AcDbEntity
  8
DEFPOINTS
 62
     0
100
AcDbPoint
 10
227.2101563464324
 20
347.5000000000001
 30
0.0
  0
ENDBLK
  5
12633
330
12631
100
AcDbEntity
  8
0
100
AcDbBlockEnd
  0
ENDSEC
  0
SECTION
  2
ENTITIES
  0
LINE
  5
1241F
330
1F
100
AcDbEntity
  8
0
100
AcDbLine
 10
0.0
 20
537.9999999999995
 30
0.0
 11
800.0
 21
537.9999999999986
 31
0.0
  0
TEXT
  5
12420
330
1F
100
AcDbEntity
  8
WAKU
100
AcDbText
 10
3.0
 20
540.0
 30
0.0
 40
8.0
  1
ＰＶ－ＦＩＸ ソーラーベースＶＴ
  7
MSゴシック
100
AcDbText
  0
TEXT
  5
12421
330
1F
100
AcDbEntity
  8
WAKU
100
AcDbText
 10
3.0
 20
528.0000000000007
 30
0.0
 40
6.0
  1
部材図
  7
MSゴシック
100
AcDbText
  0
TEXT
  5
12422
330
1F
100
AcDbEntity
  8
WAKU
100
AcDbText
 10
773.6091370558376
 20
539.9999999999986
 30
0.0
 40
6.0
  1
PV-1-3
  7
MSゴシック
 72
     2
 11
797.0
 21
539.9999999999986
 31
0.0
100
AcDbText
  0
TEXT
  5
12423
330
1F
100
AcDbEntity
  8
WAKU
100
AcDbText
 10
769.7106598984771
 20
527.9999999999995
 30
0.0
 40
6.0
  1
1/2(A3)
  7
MSゴシック
 72
     2
 11
797.0
 21
527.9999999999995
 31
0.0
100
AcDbText
  0
LINE
  5
12424
330
1F
100
AcDbEntity
  8
WAKU
100
AcDbLine
 10
423.4035042094322
 20
224.0
 30
0.0
 11
799.9999999999993
 21
224.0
 31
0.0
  0
LINE
  5
12425
330
1F
100
AcDbEntity
  8
WAKU
100
AcDbLine
 10
423.4035042094322
 20
224.0
 30
0.0
 11
423.4035042094322
 21
526.0
 31
0.0
  0
LINE
  5
12426
330
1F
100
AcDbEntity
  8
0
100
AcDbLine
 10
583.3585681807719
 20
0.0
 30
0.0
 11
583.3585681807719
 21
224.0
 31
0.0
  0
TEXT
  5
12427
330
1F
100
AcDbEntity
  8
MOJI
  6
Continuous
100
AcDbText
 10
637.9292840903856
 20
139.8125
 30
0.0
 40
5.0
  1
２．７ｋｇ／個
  7
MSゴシック
 11
637.9292840903856
 21
142.3125
 31
0.0
100
AcDbText
 73
     2
  0
LINE
  5
12428
330
1F
100
AcDbEntity
  8
MOJI
  6
Continuous
100
AcDbLine
 10
617.9292840903856
 20
171.6875
 30
0.0
 11
765.4292840903856
 21
171.6875
 31
0.0
  0
LINE
  5
12429
330
1F
100
AcDbEntity
  8
MOJI
  6
Continuous
100
AcDbLine
 10
617.9292840903856
 20
136.0625
 30
0.0
 11
765.4292840903856
 21
136.0624999999963
 31
0.0
  0
TEXT
  5
1242A
330
1F
100
AcDbEntity
  8
MOJI
  6
Continuous
100
AcDbText
 10
620.1818221614516
 20
157.4520939086294
 30
0.0
 40
5.0
  1
高さ
  7
MSゴシック
 72
     4
 11
626.6792840903856
 21
159.8125
 31
0.0
100
AcDbText
  0
LINE
  5
1242B
330
1F
100
AcDbEntity
  8
MOJI
  6
Continuous
100
AcDbLine
 10
617.9292840903856
 20
52.31249999999636
 30
0.0
 11
617.9292840903856
 21
171.6875
 31
0.0
  0
TEXT
  5
1242C
330
1F
100
AcDbEntity
  8
MOJI
  6
Continuous
100
AcDbText
 10
637.9292840903856
 20
127.3125
 30
0.0
 40
5.0
  1
一般構造用圧延鋼材 ＳＳ４００
  7
MSゴシック
 11
637.9292840903856
 21
129.8125
 31
0.0
100
AcDbText
 73
     2
  0
LINE
  5
1242D
330
1F
100
AcDbEntity
  8
MOJI
  6
Continuous
100
AcDbLine
 10
635.4292840903856
 20
52.31249999999636
 30
0.0
 11
635.4292840903856
 21
171.6875
 31
0.0
  0
LINE
  5
1242E
330
1F
100
AcDbEntity
  8
MOJI
  6
Continuous
100
AcDbLine
 10
765.4292840903856
 20
52.31249999999636
 30
0.0
 11
765.4292840903856
 21
171.6875
 31
0.0
  0
TEXT
  5
1242F
330
1F
100
AcDbEntity
  8
MOJI
  6
Continuous
100
AcDbText
 10
620.1818221614516
 20
139.6269035532995
 30
0.0
 40
5.0
  1
重量
  7
MSゴシック
 72
     4
 11
626.6792840903856
 21
142.0
 31
0.0
100
AcDbText
  0
TEXT
  5
12430
330
1F
100
AcDbEntity
  8
MOJI
  6
Continuous
100
AcDbText
 10
620.1818221614516
 20
115.6532360406091
 30
0.0
 40
5.0
  1
材質
  7
MSゴシック
 72
     4
 11
626.6792840903856
 21
117.9375
 31
0.0
100
AcDbText
  0
TEXT
  5
12431
330
1F
100
AcDbEntity
  8
MOJI
  6
Continuous
100
AcDbText
 10
637.9292840903856
 20
163.5625
 30
0.0
 40
5.0
  1
架台設置高さ：１５０～２１０ｍｍ
  7
MSゴシック
 11
637.9292840903856
 21
166.0625
 31
0.0
100
AcDbText
 73
     2
  0
TEXT
  5
12432
330
1F
100
AcDbEntity
  8
MOJI
  6
Continuous
100
AcDbText
 10
637.9292840903856
 20
114.8125
 30
0.0
 40
5.0
  1
表面処理：塩化ビニル被膜処理
  7
MSゴシック
 11
637.9292840903856
 21
117.3125
 31
0.0
100
AcDbText
 73
     2
  0
LINE
  5
12433
330
1F
100
AcDbEntity
  8
MOJI
  6
Continuous
100
AcDbLine
 10
617.9292840903856
 20
147.9375
 30
0.0
 11
765.4292840903856
 21
147.9374999999963
 31
0.0
  0
TEXT
  5
12434
330
1F
100
AcDbEntity
  8
MOJI
  6
Continuous
100
AcDbText
 10
637.9292840903856
 20
151.6875
 30
0.0
 40
5.0
  1
高さ調節範囲:６０ｍｍ
  7
MSゴシック
 11
637.9292840903856
 21
154.1875
 31
0.0
100
AcDbText
 73
     2
  0
LINE
  5
12435
330
1F
100
AcDbEntity
  8
MOJI
  6
Continuous
100
AcDbLine
 10
617.9292840903856
 20
99.81250000000001
 30
0.0
 11
765.4292840903856
 21
99.81249999999636
 31
0.0
  0
TEXT
  5
12436
330
1F
100
AcDbEntity
  8
MOJI
  6
Continuous
100
AcDbText
 10
637.9292840903856
 20
102.9375
 30
0.0
 40
5.0
  1
※ボルト部：溶融亜鉛メッキＨＤＺ３５
  7
MSゴシック
 11
637.9292840903856
 21
105.4375
 31
0.0
100
AcDbText
 73
     2
  0
TEXT
  5
12437
330
1F
100
AcDbEntity
  8
MOJI
  6
Continuous
100
AcDbText
 10
637.9292840903856
 20
91.06250000000001
 30
0.0
 40
5.0
  1
２個入り／箱
  7
MSゴシック
 11
637.9292840903856
 21
93.56250000000001
 31
0.0
100
AcDbText
 73
     2
  0
TEXT
  5
12438
330
1F
100
AcDbEntity
  8
MOJI
  6
Continuous
100
AcDbText
 10
620.1818221614516
 20
73.7020939086258
 30
0.0
 40
5.0
  1
荷姿
  7
MSゴシック
 72
     4
 11
626.6792840903856
 21
76.06249999999636
 31
0.0
100
AcDbText
  0
TEXT
  5
12439
330
1F
100
AcDbEntity
  8
MOJI
  6
Continuous
100
AcDbText
 10
637.9292840903856
 20
79.1875
 30
0.0
 40
5.0
  1
付属品 (１個あたり)
  7
MSゴシック
 11
637.9292840903856
 21
81.68750000000001
 31
0.0
100
AcDbText
 73
     2
  0
TEXT
  5
1243A
330
1F
100
AcDbEntity
  8
MOJI
  6
Continuous
100
AcDbText
 10
637.9292840903856
 20
67.3125
 30
0.0
 40
5.0
  1
　・高さ調整ワッシャーｔ２，３Ｘ１３枚
  7
MSゴシック
 11
637.9292840903856
 21
69.8125
 31
0.0
100
AcDbText
 73
     2
  0
LINE
  5
1243B
330
1F
100
AcDbEntity
  8
MOJI
  6
Continuous
100
AcDbLine
 10
617.9292840903856
 20
52.3125
 30
0.0
 11
765.4292840903856
 21
52.3125
 31
0.0
  0
TEXT
  5
1243C
330
1F
100
AcDbEntity
  8
MOJI
  6
Continuous
100
AcDbText
 10
637.9292840903856
 20
55.4375
 30
0.0
 40
5.0
  1
　・Ｍ１２ ＵナットＸ１個
  7
MSゴシック
 11
637.9292840903856
 21
57.9375
 31
0.0
100
AcDbText
 73
     2
  0
LINE
  5
1243F
330
1F
100
AcDbEntity
  8
KUTAI
100
AcDbLine
 10
0.0
 20
80.0
 30
0.0
 11
200.6792840903877
 21
80.0
 31
0.0
  0
LINE
  5
12440
330
1F
100
AcDbEntity
  8
KUTAI
100
AcDbLine
 10
212.6792840903877
 20
80.0
 30
0.0
 11
370.679284090384
 21
80.0
 31
0.0
  0
LINE
  5
12441
330
1F
100
AcDbEntity
  8
KUTAI
100
AcDbLine
 10
382.679284090384
 20
80.0
 30
0.0
 11
583.3585681807719
 21
80.0
 31
0.0
  0
LINE
  5
12442
330
1F
100
AcDbEntity
  8
BOUSUI
100
AcDbLine
 10
0.0
 20
110.0
 30
0.0
 11
198.1792840903877
 21
110.0
 31
0.0
  0
LINE
  5
12443
330
1F
100
AcDbEntity
  8
KUTAI
100
AcDbLine
 10
215.1792840903877
 20
110.0
 30
0.0
 11
368.179284090384
 21
110.0
 31
0.0
  0
LINE
  5
12444
330
1F
100
AcDbEntity
  8
BOUSUI
100
AcDbLine
 10
385.179284090384
 20
110.0
 30
0.0
 11
583.3585681807719
 21
110.0
 31
0.0
  0
LINE
  5
12445
330
1F
100
AcDbEntity
  8
BOUSUI
100
AcDbLine
 10
0.0
 20
111.5
 30
0.0
 11
201.5894638115119
 21
111.5
 31
0.0
  0
LINE
  5
12446
330
1F
100
AcDbEntity
  8
KUTAI
100
AcDbLine
 10
211.7691043692635
 20
111.5
 30
0.0
 11
371.179284090384
 21
111.5
 31
0.0
  0
LINE
  5
12447
330
1F
100
AcDbEntity
  8
BOUSUI
100
AcDbLine
 10
382.1792840903841
 20
111.5
 30
0.0
 11
583.3585681807721
 21
111.5
 31
0.0
  0
LINE
  5
12448
330
1F
100
AcDbEntity
  8
KANAMONO2
100
AcDbLine
 10
296.6792840903859
 20
257.5
 30
0.0
 11
296.6792840903859
 21
261.5
 31
0.0
  0
LINE
  5
12449
330
1F
100
AcDbEntity
  8
pv
100
AcDbLine
 10
296.6792840903859
 20
279.8999999999978
 30
0.0
 11
296.6792840903859
 21
346.5
 31
0.0
  0
LINE
  5
1244A
330
1F
100
AcDbEntity
  8
KANAMONO2
100
AcDbLine
 10
286.6792840903859
 20
257.5
 30
0.0
 11
286.6792840903859
 21
261.5
 31
0.0
  0
LINE
  5
1244B
330
1F
100
AcDbEntity
  8
pv
100
AcDbLine
 10
286.6792840903859
 20
279.8999999999978
 30
0.0
 11
286.6792840903859
 21
346.5
 31
0.0
  0
LINE
  5
1244C
330
1F
100
AcDbEntity
  8
KANAMONO2
100
AcDbLine
 10
285.6792840903858
 20
252.5
 30
0.0
 11
285.6792840903858
 21
261.5
 31
0.0
  0
LINE
  5
1244D
330
1F
100
AcDbEntity
  8
pv
100
AcDbLine
 10
285.6792840903858
 20
279.8999999999978
 30
0.0
 11
285.6792840903858
 21
345.5
 31
0.0
  0
LINE
  5
1244E
330
1F
100
AcDbEntity
  8
KANAMONO2
100
AcDbLine
 10
297.6792840903859
 20
252.5
 30
0.0
 11
297.6792840903859
 21
261.5
 31
0.0
  0
LINE
  5
1244F
330
1F
100
AcDbEntity
  8
pv
100
AcDbLine
 10
297.6792840903859
 20
279.8999999999978
 30
0.0
 11
297.6792840903859
 21
345.5
 31
0.0
  0
LINE
  5
12450
330
1F
100
AcDbEntity
  8
pv
100
AcDbLine
 10
285.6792840903858
 20
345.5
 30
0.0
 11
287.6792840903858
 21
347.5
 31
0.0
  0
LINE
  5
12451
330
1F
100
AcDbEntity
  8
pv
100
AcDbLine
 10
285.6792840903858
 20
345.5
 30
0.0
 11
297.6792840903859
 21
345.5
 31
0.0
  0
LINE
  5
12452
330
1F
100
AcDbEntity
  8
pv
100
AcDbLine
 10
297.6792840903859
 20
345.5
 30
0.0
 11
295.6792840903858
 21
347.5
 31
0.0
  0
LINE
  5
12453
330
1F
100
AcDbEntity
  8
pv
100
AcDbLine
 10
287.6792840903858
 20
347.5
 30
0.0
 11
295.6792840903858
 21
347.5
 31
0.0
  0
ARC
  5
12454
330
1F
100
AcDbEntity
  8
pv
100
AcDbCircle
 10
283.4520427544326
 20
249.6447383565974
 30
0.0
 40
4.856063222003236
100
AcDbArc
 50
235.6157525320405
 51
304.3842474679594
  0
LINE
  5
12455
330
1F
100
AcDbEntity
  8
pv
100
AcDbLine
 10
282.6792840903859
 20
244.5
 30
0.0
 11
300.6792840903859
 21
244.5
 31
0.0
  0
LINE
  5
12456
330
1F
100
AcDbEntity
  8
KANAMONO2
100
AcDbLine
 10
286.6792840903859
 20
257.5
 30
0.0
 11
285.6792840903858
 21
255.7679491924282
 31
0.0
  0
LINE
  5
12457
330
1F
100
AcDbEntity
  8
KANAMONO2
100
AcDbLine
 10
285.6792840903858
 20
257.5
 30
0.0
 11
297.6792840903859
 21
257.5
 31
0.0
  0
LINE
  5
12458
330
1F
100
AcDbEntity
  8
pv
100
AcDbLine
 10
280.7096289757815
 20
252.5
 30
0.0
 11
302.6489392049866
 21
252.5
 31
0.0
  0
ARC
  5
12459
330
1F
100
AcDbEntity
  8
pv
100
AcDbCircle
 10
291.6792840903859
 20
262.9401693585569
 30
0.0
 40
18.15149422396357
100
AcDbArc
 50
252.41204622605
 51
287.58795377395
  0
ARC
  5
1245A
330
1F
100
AcDbEntity
  8
pv
100
AcDbCircle
 10
299.9065254263355
 20
249.6447383565974
 30
0.0
 40
4.856063222003553
100
AcDbArc
 50
235.6157525320405
 51
304.3842474679594
  0
LINE
  5
1245B
330
1F
100
AcDbEntity
  8
pv
100
AcDbLine
 10
300.6792840903859
 20
244.5
 30
0.0
 11
302.6489392049866
 21
245.637180910624
 31
0.0
  0
LINE
  5
1245C
330
1F
100
AcDbEntity
  8
pv
100
AcDbLine
 10
297.1641116476881
 20
245.637180910624
 30
0.0
 11
297.1641116476881
 21
252.5
 31
0.0
  0
LINE
  5
1245D
330
1F
100
AcDbEntity
  8
pv
100
AcDbLine
 10
286.1944565330837
 20
245.637180910624
 30
0.0
 11
286.1944565330837
 21
252.5
 31
0.0
  0
LINE
  5
1245E
330
1F
100
AcDbEntity
  8
pv
100
AcDbLine
 10
302.6489392049866
 20
245.637180910624
 30
0.0
 11
302.6489392049866
 21
252.5
 31
0.0
  0
LINE
  5
1245F
330
1F
100
AcDbEntity
  8
KANAMONO2
100
AcDbLine
 10
296.6792840903859
 20
257.5
 30
0.0
 11
297.6792840903859
 21
255.7679491924282
 31
0.0
  0
LINE
  5
12460
330
1F
100
AcDbEntity
  8
pv
100
AcDbLine
 10
282.6792840903859
 20
244.5
 30
0.0
 11
280.7096289757815
 21
245.637180910624
 31
0.0
  0
LINE
  5
12461
330
1F
100
AcDbEntity
  8
pv
100
AcDbLine
 10
280.7096289757815
 20
245.637180910624
 30
0.0
 11
280.7096289757815
 21
252.5
 31
0.0
  0
LINE
  5
12468
330
1F
100
AcDbEntity
  8
pv
100
AcDbLine
 10
266.679284090384
 20
252.5
 30
0.0
 11
266.679284090384
 21
117.5
 31
0.0
  0
LINE
  5
12469
330
1F
100
AcDbEntity
  8
pv
100
AcDbLine
 10
272.679284090384
 20
252.5
 30
0.0
 11
272.679284090384
 21
117.5
 31
0.0
  0
LINE
  5
1246A
330
1F
100
AcDbEntity
  8
KANAMONO
100
AcDbLine
 10
316.679284090384
 20
252.5
 30
0.0
 11
316.679284090384
 21
117.5
 31
0.0
  0
LINE
  5
1246B
330
1F
100
AcDbEntity
  8
pv
100
AcDbLine
 10
280.7096289757815
 20
249.5
 30
0.0
 11
302.6489392049866
 21
249.5
 31
0.0
  0
LINE
  5
1246C
330
1F
100
AcDbEntity
  8
pv
100
AcDbLine
 10
365.6792840903841
 20
117.5
 30
0.0
 11
371.179284090384
 21
112.0
 31
0.0
  0
LINE
  5
1246D
330
1F
100
AcDbEntity
  8
pv
100
AcDbLine
 10
387.679284090384
 20
117.5
 30
0.0
 11
382.1792840903841
 21
112.0
 31
0.0
  0
LINE
  5
1246E
330
1F
100
AcDbEntity
  8
pv
100
AcDbLine
 10
371.179284090384
 20
112.0
 30
0.0
 11
371.179284090384
 21
111.5
 31
0.0
  0
LINE
  5
1246F
330
1F
100
AcDbEntity
  8
pv
100
AcDbLine
 10
382.1792840903841
 20
112.0
 30
0.0
 11
382.1792840903841
 21
111.5
 31
0.0
  0
LINE
  5
12475
330
1F
100
AcDbEntity
  8
KANAMONO_SCREW
100
AcDbLine
 10
282.6792840903859
 20
330.0999999999999
 30
0.0
 11
283.1792840903858
 21
331.5999999999999
 31
0.0
  0
LINE
  5
12476
330
1F
100
AcDbEntity
  8
KANAMONO_SCREW
100
AcDbLine
 10
283.1792840903858
 20
331.5999999999999
 30
0.0
 11
300.1792840903859
 21
331.5999999999999
 31
0.0
  0
LINE
  5
12477
330
1F
100
AcDbEntity
  8
KANAMONO_SCREW
100
AcDbLine
 10
300.6792840903859
 20
330.0999999999999
 30
0.0
 11
300.1792840903859
 21
331.5999999999999
 31
0.0
  0
LINE
  5
12478
330
1F
100
AcDbEntity
  8
pv
100
AcDbLine
 10
368.179284090384
 20
80.0
 30
0.0
 11
368.179284090384
 21
108.0
 31
0.0
  0
LINE
  5
12479
330
1F
100
AcDbEntity
  8
pv
100
AcDbLine
 10
370.679284090384
 20
80.0
 30
0.0
 11
370.679284090384
 21
108.0
 31
0.0
  0
LINE
  5
1247A
330
1F
100
AcDbEntity
  8
pv
100
AcDbLine
 10
385.179284090384
 20
80.0
 30
0.0
 11
382.679284090384
 21
80.0
 31
0.0
  0
LINE
  5
1247B
330
1F
100
AcDbEntity
  8
pv
100
AcDbLine
 10
370.679284090384
 20
80.0
 30
0.0
 11
368.179284090384
 21
80.0
 31
0.0
  0
LINE
  5
1247C
330
1F
100
AcDbEntity
  8
pv
100
AcDbLine
 10
385.179284090384
 20
108.0
 30
0.0
 11
382.679284090384
 21
108.0
 31
0.0
  0
LINE
  5
1247D
330
1F
100
AcDbEntity
  8
pv
100
AcDbLine
 10
370.679284090384
 20
108.0
 30
0.0
 11
368.179284090384
 21
108.0
 31
0.0
  0
LINE
  5
1247E
330
1F
100
AcDbEntity
  8
pv
100
AcDbLine
 10
385.179284090384
 20
80.0
 30
0.0
 11
385.179284090384
 21
108.0
 31
0.0
  0
LINE
  5
1247F
330
1F
100
AcDbEntity
  8
pv
100
AcDbLine
 10
382.679284090384
 20
80.0
 30
0.0
 11
382.679284090384
 21
108.0
 31
0.0
  0
LINE
  5
12480
330
1F
100
AcDbEntity
  8
KANAMONO_SCREW
100
AcDbLine
 10
371.3863908715707
 20
111.7928932188133
 30
0.0
 11
367.6792840903841
 21
115.5
 31
0.0
  0
LINE
  5
12481
330
1F
100
AcDbEntity
  8
KANAMONO_SCREW
100
AcDbLine
 10
381.9721773091974
 20
111.7928932188133
 30
0.0
 11
385.679284090384
 21
115.5
 31
0.0
  0
LINE
  5
12482
330
1F
100
AcDbEntity
  8
KANAMONO_SCREW
100
AcDbLine
 10
367.6792840903841
 20
116.0999999999999
 30
0.0
 11
385.679284090384
 21
116.0999999999999
 31
0.0
  0
LINE
  5
12483
330
1F
100
AcDbEntity
  8
KANAMONO_SCREW
100
AcDbLine
 10
367.6792840903841
 20
115.5
 30
0.0
 11
385.679284090384
 21
115.5
 31
0.0
  0
LINE
  5
12484
330
1F
100
AcDbEntity
  8
KANAMONO_SCREW
100
AcDbLine
 10
367.6792840903841
 20
116.0999999999999
 30
0.0
 11
367.6792840903841
 21
115.5
 31
0.0
  0
LINE
  5
12485
330
1F
100
AcDbEntity
  8
KANAMONO_SCREW
100
AcDbLine
 10
385.679284090384
 20
116.0999999999999
 30
0.0
 11
385.679284090384
 21
115.5
 31
0.0
  0
LINE
  5
12486
330
1F
100
AcDbEntity
  8
KANAMONO_SCREW
 62
     7
100
AcDbLine
 10
381.2151804419691
 20
86.0999999999999
 30
0.0
 11
381.679284090384
 21
85.63589635158496
 31
0.0
  0
LINE
  5
12487
330
1F
100
AcDbEntity
  8
KANAMONO_SCREW
 62
     7
100
AcDbLine
 10
379.8009668795962
 20
86.0999999999999
 30
0.0
 11
381.679284090384
 21
84.22168278921208
 31
0.0
  0
LINE
  5
12488
330
1F
100
AcDbEntity
  8
KANAMONO_SCREW
 62
     7
100
AcDbLine
 10
378.3867533172229
 20
86.10000000000013
 30
0.0
 11
380.3867533172229
 21
84.10000000000014
 31
0.0
  0
LINE
  5
12489
330
1F
100
AcDbEntity
  8
KANAMONO_SCREW
 62
     7
100
AcDbLine
 10
376.9725397548496
 20
86.10000000000013
 30
0.0
 11
378.9725397548496
 21
84.10000000000014
 31
0.0
  0
LINE
  5
1248A
330
1F
100
AcDbEntity
  8
KANAMONO_SCREW
 62
     7
100
AcDbLine
 10
375.5583261924767
 20
86.0999999999999
 30
0.0
 11
376.679284090384
 21
84.97904210209275
 31
0.0
  0
LINE
  5
1248B
330
1F
100
AcDbEntity
  8
KANAMONO_SCREW
 62
     7
100
AcDbLine
 10
376.679284090384
 20
84.97904210209275
 30
0.0
 11
377.5583261924767
 21
84.09999999999991
 31
0.0
  0
LINE
  5
1248C
330
1F
100
AcDbEntity
  8
KANAMONO_SCREW
 62
     7
100
AcDbLine
 10
374.1441126301038
 20
86.0999999999999
 30
0.0
 11
376.1441126301038
 21
84.09999999999991
 31
0.0
  0
LINE
  5
1248D
330
1F
100
AcDbEntity
  8
KANAMONO_SCREW
 62
     7
100
AcDbLine
 10
372.7298990677305
 20
86.0999999999999
 30
0.0
 11
374.7298990677304
 21
84.09999999999991
 31
0.0
  0
LINE
  5
1248E
330
1F
100
AcDbEntity
  8
KANAMONO_SCREW
 62
     7
100
AcDbLine
 10
371.6792840903841
 20
85.73640141497344
 30
0.0
 11
373.3156855053576
 21
84.09999999999991
 31
0.0
  0
LINE
  5
1248F
330
1F
100
AcDbEntity
  8
KANAMONO_SCREW
 62
     7
100
AcDbLine
 10
371.6792840903841
 20
84.32218785260033
 30
0.0
 11
371.9014719429842
 21
84.09999999999991
 31
0.0
  0
LINE
  5
12490
330
1F
100
AcDbEntity
  8
KANAMONO_SCREW
 62
     7
100
AcDbLine
 10
371.6792840903841
 20
85.36768888718711
 30
0.0
 11
372.4115952031971
 21
86.0999999999999
 31
0.0
  0
LINE
  5
12491
330
1F
100
AcDbEntity
  8
KANAMONO_SCREW
 62
     7
100
AcDbLine
 10
371.82580876557
 20
84.09999999999991
 30
0.0
 11
373.82580876557
 21
86.0999999999999
 31
0.0
  0
LINE
  5
12492
330
1F
100
AcDbEntity
  8
KANAMONO_SCREW
 62
     7
100
AcDbLine
 10
373.2400223279433
 20
84.09999999999991
 30
0.0
 11
375.2400223279433
 21
86.0999999999999
 31
0.0
  0
LINE
  5
12493
330
1F
100
AcDbEntity
  8
KANAMONO_SCREW
 62
     7
100
AcDbLine
 10
374.6542358903162
 20
84.09999999999991
 30
0.0
 11
376.6542358903162
 21
86.0999999999999
 31
0.0
  0
LINE
  5
12494
330
1F
100
AcDbEntity
  8
KANAMONO_SCREW
 62
     7
100
AcDbLine
 10
376.0684494526895
 20
84.09999999999991
 30
0.0
 11
376.679284090384
 21
84.71083463769446
 31
0.0
  0
LINE
  5
12495
330
1F
100
AcDbEntity
  8
KANAMONO_SCREW
 62
     7
100
AcDbLine
 10
376.679284090384
 20
84.71083463769446
 30
0.0
 11
378.0684494526895
 21
86.0999999999999
 31
0.0
  0
LINE
  5
12496
330
1F
100
AcDbEntity
  8
KANAMONO_SCREW
 62
     7
100
AcDbLine
 10
377.4826630150624
 20
84.09999999999991
 30
0.0
 11
379.4826630150624
 21
86.0999999999999
 31
0.0
  0
LINE
  5
12497
330
1F
100
AcDbEntity
  8
KANAMONO_SCREW
 62
     7
100
AcDbLine
 10
378.8968765774357
 20
84.09999999999991
 30
0.0
 11
380.8968765774357
 21
86.0999999999999
 31
0.0
  0
LINE
  5
12498
330
1F
100
AcDbEntity
  8
KANAMONO_SCREW
 62
     7
100
AcDbLine
 10
380.3110901398086
 20
84.09999999999991
 30
0.0
 11
381.679284090384
 21
85.46819395057537
 31
0.0
  0
ARC
  5
12499
330
1F
100
AcDbEntity
  8
KANAMONO_SCREW
100
AcDbCircle
 10
370.679284090384
 20
111.0857864376269
 30
0.0
 40
1.0
100
AcDbArc
 50
0.0
 51
45.00000000000834
  0
ARC
  5
1249A
330
1F
100
AcDbEntity
  8
KANAMONO_SCREW
100
AcDbCircle
 10
382.679284090384
 20
111.0857864376269
 30
0.0
 40
1.0
100
AcDbArc
 50
134.9999999999916
 51
180.0
  0
LINE
  5
1249B
330
1F
100
AcDbEntity
  8
KANAMONO_SCREW
100
AcDbLine
 10
376.1792840903841
 20
62.09999999999991
 30
0.0
 11
377.179284090384
 21
62.09999999999991
 31
0.0
  0
ARC
  5
1249C
330
1F
100
AcDbEntity
  8
KANAMONO_SCREW
100
AcDbCircle
 10
363.1792840903841
 20
48.281534085977
 30
0.0
 40
16.0
100
AcDbArc
 50
329.246480191895
 51
352.4734093284515
  0
LINE
  5
1249D
330
1F
100
AcDbEntity
  8
KANAMONO_SCREW
100
AcDbLine
 10
376.679284090384
 20
40.0999999999999
 30
0.0
 11
376.929284090384
 21
40.0999999999999
 31
0.0
  0
ARC
  5
1249E
330
1F
100
AcDbEntity
  8
KANAMONO_SCREW
100
AcDbCircle
 10
390.1792840903841
 20
48.281534085977
 30
0.0
 40
16.0
100
AcDbArc
 50
187.5265906715485
 51
210.7535198081051
  0
LINE
  5
1249F
330
1F
100
AcDbEntity
  8
KANAMONO_SCREW
100
AcDbLine
 10
376.679284090384
 20
40.0999999999999
 30
0.0
 11
376.429284090384
 21
40.0999999999999
 31
0.0
  0
LINE
  5
124A0
330
1F
100
AcDbEntity
  8
KANAMONO_SCREW
100
AcDbLine
 10
377.179284090384
 20
62.09999999999991
 30
0.0
 11
378.1882402019578
 21
46.13184395226198
 31
0.0
1001
ACAD
1000
ASC_BOUNDS
1002
{
1070
    19
1002
}
  0
LINE
  5
124A1
330
1F
100
AcDbEntity
  8
KANAMONO_SCREW
100
AcDbLine
 10
376.1792840903841
 20
62.09999999999991
 30
0.0
 11
375.1703279788103
 21
46.13184395226198
 31
0.0
1001
ACAD
1000
ASC_BOUNDS
1002
{
1070
    19
1002
}
  0
LINE
  5
124A2
330
1F
100
AcDbEntity
  8
KANAMONO_SCREW
100
AcDbLine
 10
382.679284090384
 20
46.41561285864191
 30
0.0
 11
381.679284090384
 21
62.24202578638915
 31
0.0
  0
LINE
  5
124A3
330
1F
100
AcDbEntity
  8
KANAMONO_SCREW
100
AcDbLine
 10
370.679284090384
 20
46.41561285864191
 30
0.0
 11
371.6792840903841
 21
62.24202578638915
 31
0.0
1001
ACAD
1000
ASC_BOUNDS
1002
{
1070
    19
1002
}
  0
LINE
  5
124A4
330
1F
100
AcDbEntity
  8
KANAMONO_SCREW
100
AcDbLine
 10
375.1703279788103
 20
46.13184395226198
 30
0.0
 11
370.679284090384
 21
46.41561285864191
 31
0.0
1001
ACAD
1000
ASC_BOUNDS
1002
{
1070
    19
1002
}
  0
LINE
  5
124A5
330
1F
100
AcDbEntity
  8
KANAMONO_SCREW
100
AcDbLine
 10
382.679284090384
 20
46.41561285864191
 30
0.0
 11
378.1882402019578
 21
46.13184395226198
 31
0.0
  0
LINE
  5
124A6
330
1F
100
AcDbEntity
  8
KANAMONO_SCREW
100
AcDbLine
 10
381.679284090384
 20
62.24202578638915
 30
0.0
 11
381.679284090384
 21
111.0857864376269
 31
0.0
  0
LINE
  5
124A7
330
1F
100
AcDbEntity
  8
KANAMONO_SCREW
100
AcDbLine
 10
371.6792840903841
 20
62.24202578638915
 30
0.0
 11
371.6792840903841
 21
111.0857864376269
 31
0.0
1001
ACAD
1000
ASC_BOUNDS
1002
{
1070
    19
1002
}
  0
LINE
  5
124A8
330
1F
100
AcDbEntity
  8
KANAMONO_SCREW
 62
     7
100
AcDbLine
 10
380.2675081644943
 20
66.10000000000013
 30
0.0
 11
381.679284090384
 21
64.68822407411062
 31
0.0
  0
LINE
  5
124A9
330
1F
100
AcDbEntity
  8
KANAMONO_SCREW
 62
     7
100
AcDbLine
 10
378.8532946021214
 20
66.09999999999991
 30
0.0
 11
381.679284090384
 21
63.27401051173751
 31
0.0
  0
LINE
  5
124AA
330
1F
100
AcDbEntity
  8
KANAMONO_SCREW
 62
     7
100
AcDbLine
 10
377.4390810397485
 20
66.10000000000013
 30
0.0
 11
380.5721529193697
 21
62.96692812037872
 31
0.0
  0
LINE
  5
124AB
330
1F
100
AcDbEntity
  8
KANAMONO_SCREW
 62
     7
100
AcDbLine
 10
376.0248674773752
 20
66.10000000000013
 30
0.0
 11
376.679284090384
 21
65.44558338699153
 31
0.0
  0
LINE
  5
124AC
330
1F
100
AcDbEntity
  8
KANAMONO_SCREW
 62
     7
100
AcDbLine
 10
376.679284090384
 20
65.44558338699153
 30
0.0
 11
379.1579393569964
 21
62.96692812037872
 31
0.0
  0
LINE
  5
124AD
330
1F
100
AcDbEntity
  8
KANAMONO_SCREW
 62
     7
100
AcDbLine
 10
374.6106539150019
 20
66.10000000000013
 30
0.0
 11
376.679284090384
 21
64.0313698246182
 31
0.0
  0
LINE
  5
124AE
330
1F
100
AcDbEntity
  8
KANAMONO_SCREW
 62
     7
100
AcDbLine
 10
376.679284090384
 20
64.0313698246182
 30
0.0
 11
377.7437257946235
 21
62.96692812037872
 31
0.0
  0
LINE
  5
124AF
330
1F
100
AcDbEntity
  8
KANAMONO_SCREW
 62
     7
100
AcDbLine
 10
373.196440352629
 20
66.10000000000013
 30
0.0
 11
377.195420749561
 21
62.10101960306815
 31
0.0
  0
LINE
  5
124B0
330
1F
100
AcDbEntity
  8
KANAMONO_SCREW
 62
     7
100
AcDbLine
 10
377.7771141031731
 20
61.58939734791875
 30
0.0
 11
381.9530150154628
 21
57.90984713499892
 31
0.0
  0
LINE
  5
124B1
330
1F
100
AcDbEntity
  8
KANAMONO_SCREW
 62
     7
100
AcDbLine
 10
371.7822267902561
 20
66.09999999999991
 30
0.0
 11
374.9152986698773
 21
62.96692812037872
 31
0.0
  0
LINE
  5
124B2
330
1F
100
AcDbEntity
  8
KANAMONO_SCREW
 62
     7
100
AcDbLine
 10
377.2673821842077
 20
60.70572318899531
 30
0.0
 11
382.0421949790143
 21
56.49844820694898
 31
0.0
  0
LINE
  5
124B3
330
1F
100
AcDbEntity
  8
KANAMONO_SCREW
 62
     7
100
AcDbLine
 10
371.6792840903841
 20
64.7887291374991
 30
0.0
 11
373.5010851075044
 21
62.96692812037872
 31
0.0
  0
LINE
  5
124B4
330
1F
100
AcDbEntity
  8
KANAMONO_SCREW
 62
     7
100
AcDbLine
 10
377.3565621477596
 20
59.29432426094535
 30
0.0
 11
382.1313749425658
 21
55.08704927889903
 31
0.0
  0
LINE
  5
124B5
330
1F
100
AcDbEntity
  8
KANAMONO_SCREW
 62
     7
100
AcDbLine
 10
377.4457421113111
 20
57.88292533289518
 30
0.0
 11
382.2205549061177
 21
53.67565035084886
 31
0.0
  0
LINE
  5
124B6
330
1F
100
AcDbEntity
  8
KANAMONO_SCREW
 62
     7
100
AcDbLine
 10
371.6792840903841
 20
62.24451554429197
 30
0.0
 11
375.8867058628784
 21
57.46953615782877
 31
0.0
  0
LINE
  5
124B7
330
1F
100
AcDbEntity
  8
KANAMONO_SCREW
 62
     7
100
AcDbLine
 10
377.5349220748626
 20
56.47152640484501
 30
0.0
 11
382.3097348696692
 21
52.26425142279868
 31
0.0
  0
LINE
  5
124B8
330
1F
100
AcDbEntity
  8
KANAMONO_SCREW
 62
     7
100
AcDbLine
 10
371.5902509172806
 20
60.83295002458498
 30
0.0
 11
375.797525899327
 21
56.0581372297786
 31
0.0
  0
LINE
  5
124B9
330
1F
100
AcDbEntity
  8
KANAMONO_SCREW
 62
     7
100
AcDbLine
 10
377.6241020384146
 20
55.06012747679505
 30
0.0
 11
382.3989148332207
 21
50.85285249474873
 31
0.0
  0
LINE
  5
124BA
330
1F
100
AcDbEntity
  8
KANAMONO_SCREW
 62
     7
100
AcDbLine
 10
371.5010709537287
 20
59.42155109653504
 30
0.0
 11
375.708345935775
 21
54.64673830172841
 31
0.0
  0
LINE
  5
124BB
330
1F
100
AcDbEntity
  8
KANAMONO_SCREW
 62
     7
100
AcDbLine
 10
377.713282001966
 20
53.64872854874488
 30
0.0
 11
382.4880947967727
 21
49.44145356669878
 31
0.0
  0
LINE
  5
124BC
330
1F
100
AcDbEntity
  8
KANAMONO_SCREW
 62
     7
100
AcDbLine
 10
371.4118909901772
 20
58.01015216848487
 30
0.0
 11
375.6191659722235
 21
53.23533937367847
 31
0.0
  0
LINE
  5
124BD
330
1F
100
AcDbEntity
  8
KANAMONO_SCREW
 62
     7
100
AcDbLine
 10
377.802461965518
 20
52.23732962069471
 30
0.0
 11
382.5772747603242
 21
48.03005463864838
 31
0.0
  0
LINE
  5
124BE
330
1F
100
AcDbEntity
  8
KANAMONO_SCREW
 62
     7
100
AcDbLine
 10
371.3227110266257
 20
56.59875324043468
 30
0.0
 11
375.5299860086716
 21
51.82394044562852
 31
0.0
  0
LINE
  5
124BF
330
1F
100
AcDbEntity
  8
KANAMONO_SCREW
 62
     7
100
AcDbLine
 10
377.8916419290695
 20
50.82593069264476
 30
0.0
 11
382.6664547238761
 21
46.61865571059843
 31
0.0
  0
LINE
  5
124C0
330
1F
100
AcDbEntity
  8
KANAMONO_SCREW
 62
     7
100
AcDbLine
 10
371.2335310630738
 20
55.18735431238474
 30
0.0
 11
375.4408060451201
 21
50.41254151757835
 31
0.0
  0
LINE
  5
124C1
330
1F
100
AcDbEntity
  8
KANAMONO_SCREW
 62
     7
100
AcDbLine
 10
377.9808218926214
 20
49.41453176459481
 30
0.0
 11
381.4709280142902
 21
46.33926226159838
 31
0.0
  0
LINE
  5
124C2
330
1F
100
AcDbEntity
  8
KANAMONO_SCREW
 62
     7
100
AcDbLine
 10
371.1443510995223
 20
53.77595538433479
 30
0.0
 11
375.3516260815682
 21
49.00114258952817
 31
0.0
  0
LINE
  5
124C3
330
1F
100
AcDbEntity
  8
KANAMONO_SCREW
 62
     7
100
AcDbLine
 10
378.0700018561729
 20
48.00313283654441
 30
0.0
 11
380.0595290862402
 21
46.25008229804643
 31
0.0
  0
LINE
  5
124C4
330
1F
100
AcDbEntity
  8
KANAMONO_SCREW
 62
     7
100
AcDbLine
 10
371.0551711359703
 20
52.36455645628462
 30
0.0
 11
375.2624461180167
 21
47.58974366147822
 31
0.0
  0
LINE
  5
124C5
330
1F
100
AcDbEntity
  8
KANAMONO_SCREW
 62
     7
100
AcDbLine
 10
378.1591818197244
 20
46.59173390849446
 30
0.0
 11
378.6481301581903
 21
46.16090233449495
 31
0.0
  0
LINE
  5
124C6
330
1F
100
AcDbEntity
  8
KANAMONO_SCREW
 62
     7
100
AcDbLine
 10
370.9659911724188
 20
50.95315752823444
 30
0.0
 11
375.1732661544652
 21
46.17834473342805
 31
0.0
  0
LINE
  5
124C7
330
1F
100
AcDbEntity
  8
KANAMONO_SCREW
 62
     7
100
AcDbLine
 10
370.8768112088669
 20
49.54175860018449
 30
0.0
 11
373.8054298319262
 21
46.21808574015881
 31
0.0
  0
LINE
  5
124C8
330
1F
100
AcDbEntity
  8
KANAMONO_SCREW
 62
     7
100
AcDbLine
 10
370.7876312453154
 20
48.13035967213432
 30
0.0
 11
372.3940309038762
 21
46.30726570371052
 31
0.0
  0
LINE
  5
124C9
330
1F
100
AcDbEntity
  8
KANAMONO_SCREW
 62
     7
100
AcDbLine
 10
370.6984512817639
 20
46.71896074408414
 30
0.0
 11
370.9826319758263
 21
46.39644566726201
 31
0.0
  0
LINE
  5
124CA
330
1F
100
AcDbEntity
  8
KANAMONO_SCREW
 62
     7
100
AcDbLine
 10
371.6792840903841
 20
65.38776779037789
 30
0.0
 11
372.3915163000061
 21
66.09999999999991
 31
0.0
  0
LINE
  5
124CB
330
1F
100
AcDbEntity
  8
KANAMONO_SCREW
 62
     7
100
AcDbLine
 10
371.6792840903841
 20
63.97355422800479
 30
0.0
 11
373.8057298623794
 21
66.09999999999991
 31
0.0
  0
LINE
  5
124CC
330
1F
100
AcDbEntity
  8
KANAMONO_SCREW
 62
     7
100
AcDbLine
 10
371.6792840903841
 20
62.55934066563168
 30
0.0
 11
375.2199434247523
 21
66.10000000000013
 31
0.0
  0
LINE
  5
124CD
330
1F
100
AcDbEntity
  8
KANAMONO_SCREW
 62
     7
100
AcDbLine
 10
371.5388461855969
 20
60.01939751452233
 30
0.0
 11
373.4719036980719
 21
61.72269036821035
 31
0.0
  0
LINE
  5
124CE
330
1F
100
AcDbEntity
  8
KANAMONO_SCREW
 62
     7
100
AcDbLine
 10
376.679284090384
 20
64.73091354088547
 30
0.0
 11
378.0483705494985
 21
66.10000000000013
 31
0.0
  0
LINE
  5
124CF
330
1F
100
AcDbEntity
  8
KANAMONO_SCREW
 62
     7
100
AcDbLine
 10
371.4496662220454
 20
58.60799858647215
 30
0.0
 11
374.8833026261218
 21
61.63351040465864
 31
0.0
  0
LINE
  5
124D0
330
1F
100
AcDbEntity
  8
KANAMONO_SCREW
 62
     7
100
AcDbLine
 10
376.679284090384
 20
63.31669997851236
 30
0.0
 11
379.4625841118718
 21
66.10000000000013
 31
0.0
  0
LINE
  5
124D1
330
1F
100
AcDbEntity
  8
KANAMONO_SCREW
 62
     7
100
AcDbLine
 10
371.3604862584939
 20
57.1965996584222
 30
0.0
 11
376.1352990533
 21
61.40387464046852
 31
0.0
  0
LINE
  5
124D2
330
1F
100
AcDbEntity
  8
KANAMONO_SCREW
 62
     7
100
AcDbLine
 10
376.8767976742447
 20
62.10000000000014
 30
0.0
 11
380.8767976742447
 21
66.10000000000013
 31
0.0
  0
LINE
  5
124D3
330
1F
100
AcDbEntity
  8
KANAMONO_SCREW
 62
     7
100
AcDbLine
 10
371.2713062949419
 20
55.78520073037203
 30
0.0
 11
376.0461190897486
 21
59.99247571241835
 31
0.0
  0
LINE
  5
124D4
330
1F
100
AcDbEntity
  8
KANAMONO_SCREW
 62
     7
100
AcDbLine
 10
377.2493893340461
 20
60.99048546540188
 30
0.0
 11
377.7771141031731
 21
61.58939734791875
 31
0.0
  0
LINE
  5
124D5
330
1F
100
AcDbEntity
  8
KANAMONO_SCREW
 62
     7
100
AcDbLine
 10
371.1821263313904
 20
54.37380180232185
 30
0.0
 11
375.9569391261966
 21
58.58107678436818
 31
0.0
  0
LINE
  5
124D6
330
1F
100
AcDbEntity
  8
KANAMONO_SCREW
 62
     7
100
AcDbLine
 10
377.3385692975976
 20
59.57908653735194
 30
0.0
 11
379.188513031223
 21
61.67857731147046
 31
0.0
  0
LINE
  5
124D7
330
1F
100
AcDbEntity
  8
KANAMONO_SCREW
 62
     7
100
AcDbLine
 10
371.0929463678385
 20
52.9624028742719
 30
0.0
 11
375.8677591626451
 21
57.16967785631823
 31
0.0
  0
LINE
  5
124D8
330
1F
100
AcDbEntity
  8
KANAMONO_SCREW
 62
     7
100
AcDbLine
 10
377.4277492611495
 20
58.16768760930177
 30
0.0
 11
379.9388024770237
 21
61.017467829221
 31
0.0
  0
LINE
  5
124D9
330
1F
100
AcDbEntity
  8
KANAMONO_SCREW
 62
     7
100
AcDbLine
 10
371.003766404287
 20
51.55100394622195
 30
0.0
 11
375.7785791990932
 21
55.75827892826805
 31
0.0
  0
LINE
  5
124DA
330
1F
100
AcDbEntity
  8
KANAMONO_SCREW
 62
     7
100
AcDbLine
 10
377.516929224701
 20
56.75628868125158
 30
0.0
 11
381.7242042067473
 21
61.53110147605821
 31
0.0
  0
LINE
  5
124DB
330
1F
100
AcDbEntity
  8
KANAMONO_SCREW
 62
     7
100
AcDbLine
 10
370.9145864407351
 20
50.13960501817155
 30
0.0
 11
375.6893992355417
 21
54.34688000021788
 31
0.0
  0
LINE
  5
124DC
330
1F
100
AcDbEntity
  8
KANAMONO_SCREW
 62
     7
100
AcDbLine
 10
377.6061091882529
 20
55.34488975320164
 30
0.0
 11
381.8133841702988
 21
60.11970254800804
 31
0.0
  0
LINE
  5
124DD
330
1F
100
AcDbEntity
  8
KANAMONO_SCREW
 62
     7
100
AcDbLine
 10
370.8254064771836
 20
48.7282060901216
 30
0.0
 11
375.6002192719902
 21
52.93548107216793
 31
0.0
  0
LINE
  5
124DE
330
1F
100
AcDbEntity
  8
KANAMONO_SCREW
 62
     7
100
AcDbLine
 10
377.6952891518044
 20
53.93349082515169
 30
0.0
 11
381.9025641338508
 21
58.70830361995786
 31
0.0
  0
LINE
  5
124DF
330
1F
100
AcDbEntity
  8
KANAMONO_SCREW
 62
     7
100
AcDbLine
 10
370.7362265136321
 20
47.31680716207165
 30
0.0
 11
375.5110393084383
 21
51.52408214411798
 31
0.0
  0
LINE
  5
124E0
330
1F
100
AcDbEntity
  8
KANAMONO_SCREW
 62
     7
100
AcDbLine
 10
377.7844691153564
 20
52.52209189710152
 30
0.0
 11
381.9917440974023
 21
57.29690469190791
 31
0.0
  0
LINE
  5
124E1
330
1F
100
AcDbEntity
  8
KANAMONO_SCREW
 62
     7
100
AcDbLine
 10
371.1894887150042
 20
46.38337531833826
 30
0.0
 11
375.4218593448868
 21
50.11268321606781
 31
0.0
  0
LINE
  5
124E2
330
1F
100
AcDbEntity
  8
KANAMONO_SCREW
 62
     7
100
AcDbLine
 10
377.8736490789079
 20
51.11069296905134
 30
0.0
 11
382.0809240609538
 21
55.88550576385774
 31
0.0
  0
LINE
  5
124E3
330
1F
100
AcDbEntity
  8
KANAMONO_SCREW
 62
     7
100
AcDbLine
 10
372.6008876430547
 20
46.29419535478655
 30
0.0
 11
375.3326793813353
 21
48.70128428801763
 31
0.0
  0
LINE
  5
124E4
330
1F
100
AcDbEntity
  8
KANAMONO_SCREW
 62
     7
100
AcDbLine
 10
377.9628290424593
 20
49.69929404100139
 30
0.0
 11
382.1701040245057
 21
54.47410683580756
 31
0.0
  0
LINE
  5
124E5
330
1F
100
AcDbEntity
  8
KANAMONO_SCREW
 62
     7
100
AcDbLine
 10
374.0122865711046
 20
46.20501539123506
 30
0.0
 11
375.2434994177834
 21
47.28988535996768
 31
0.0
  0
LINE
  5
124E6
330
1F
100
AcDbEntity
  8
KANAMONO_SCREW
 62
     7
100
AcDbLine
 10
378.0520090060113
 20
48.28789511295122
 30
0.0
 11
382.2592839880576
 21
53.06270790775761
 31
0.0
  0
LINE
  5
124E7
330
1F
100
AcDbEntity
  8
KANAMONO_SCREW
 62
     7
100
AcDbLine
 10
378.1411889695628
 20
46.87649618490104
 30
0.0
 11
382.3484639516091
 21
51.65130897970766
 31
0.0
  0
LINE
  5
124E8
330
1F
100
AcDbEntity
  8
KANAMONO_SCREW
 62
     7
100
AcDbLine
 10
378.8549868973682
 20
46.17397268341892
 30
0.0
 11
382.4376439151606
 21
50.23991005165726
 31
0.0
  0
LINE
  5
124E9
330
1F
100
AcDbEntity
  8
KANAMONO_SCREW
 62
     7
100
AcDbLine
 10
380.2663858254186
 20
46.26315264697041
 30
0.0
 11
382.5268238787126
 21
48.82851112360731
 31
0.0
  0
LINE
  5
124EA
330
1F
100
AcDbEntity
  8
KANAMONO_SCREW
 62
     7
100
AcDbLine
 10
381.6777847534686
 20
46.3523326105219
 30
0.0
 11
382.616003842264
 21
47.41711219555736
 31
0.0
  0
LINE
  5
124EB
330
1F
100
AcDbEntity
  8
KANAMONO_SCREW
 62
     7
100
AcDbLine
 10
380.599911959273
 20
61.76775727502195
 30
0.0
 11
381.7746550883594
 21
60.73264499109928
 31
0.0
  0
LINE
  5
124EC
330
1F
100
AcDbEntity
  8
KANAMONO_SCREW
 62
     7
100
AcDbLine
 10
380.5721529193697
 20
62.96692812037872
 30
0.0
 11
381.679284090384
 21
64.07405929139304
 31
0.0
  0
LINE
  5
124ED
330
1F
100
AcDbEntity
  8
KANAMONO_SCREW
 62
     7
100
AcDbLine
 10
379.188513031223
 20
61.67857731147023
 30
0.0
 11
381.8638350519109
 21
59.32124606304933
 31
0.0
  0
LINE
  5
124EE
330
1F
100
AcDbEntity
  8
KANAMONO_SCREW
 62
     7
100
AcDbLine
 10
378.3743690700185
 20
62.18335783340058
 30
0.0
 11
381.679284090384
 21
65.48827285376614
 31
0.0
  0
LINE
  5
124EF
330
1F
100
AcDbEntity
  8
KANAMONO_SCREW
 62
     7
100
AcDbLine
 10
373.501085107504
 20
62.96692812037872
 30
0.0
 11
376.6341569871256
 21
66.10000000000013
 31
0.0
  0
LINE
  5
124F0
330
1F
100
AcDbEntity
  8
KANAMONO_SCREW
 62
     7
100
AcDbLine
 10
373.4719036980719
 20
61.72269036821035
 30
0.0
 11
375.9758858264299
 21
58.88093508587871
 31
0.0
  0
LINE
  5
124F1
330
1F
100
AcDbEntity
  8
KANAMONO_SCREW
 62
     7
100
AcDbLine
 10
374.9152986698773
 20
62.96692812037872
 30
0.0
 11
376.679284090384
 21
64.73091354088547
 31
0.0
  0
LINE
  5
124F2
330
1F
100
AcDbEntity
  8
KANAMONO_SCREW
 62
     7
100
AcDbLine
 10
374.8833026261223
 20
61.6335104046584
 30
0.0
 11
376.0650657899819
 21
60.2923340139289
 31
0.0
  0
LINE
  5
124F3
330
1F
100
AcDbEntity
  8
KANAMONO_SCREW
 62
     7
100
AcDbLine
 10
376.3295122322502
 20
62.96692812037872
 30
0.0
 11
376.679284090384
 21
63.31669997851236
 31
0.0
  0
LINE
  5
124F4
330
1F
100
AcDbEntity
  8
KANAMONO_SCREW
 62
     7
100
AcDbLine
 10
377.195420749561
 20
62.10101960306815
 30
0.0
 11
377.7771141031731
 21
61.58939734791875
 31
0.0
  0
LINE
  5
124F5
330
1F
100
AcDbEntity
  8
KANAMONO_SCREW
 62
     7
100
AcDbLine
 10
378.4508325758102
 20
62.25982133919206
 30
0.0
 11
377.7771141031731
 21
61.58939734791875
 31
0.0
  0
LINE
  5
124F6
330
1F
100
AcDbEntity
  8
KANAMONO_SCREW
 62
     7
100
AcDbLine
 10
379.1579393569969
 20
62.96692812037872
 30
0.0
 11
380.599911959273
 21
61.76775727502195
 31
0.0
  0
LINE
  5
124F7
330
1F
100
AcDbEntity
  8
KANAMONO_SCREW
 62
     7
100
AcDbLine
 10
380.5721529193697
 20
62.96692812037872
 30
0.0
 11
379.188513031223
 21
61.67857731147023
 31
0.0
  0
LINE
  5
124F8
330
1F
100
AcDbEntity
  8
KANAMONO_SCREW
 62
     7
100
AcDbLine
 10
381.679284090384
 20
62.65984572901993
 30
0.0
 11
381.3527501508092
 21
62.38996924348066
 31
0.0
  0
LINE
  5
124F9
330
1F
100
AcDbEntity
  8
KANAMONO_SCREW
 62
     7
100
AcDbLine
 10
380.5721529193697
 20
62.96692812037872
 30
0.0
 11
381.6854751248079
 21
62.14404391914922
 31
0.0
  0
LINE
  5
124FA
330
1F
100
AcDbEntity
  8
KANAMONO_SCREW
 62
     7
100
AcDbLine
 10
377.7437257946235
 20
62.96692812037872
 30
0.0
 11
379.188513031223
 21
61.67857731147023
 31
0.0
  0
LINE
  5
124FB
330
1F
100
AcDbEntity
  8
KANAMONO_SCREW
 62
     7
100
AcDbLine
 10
381.3527501508092
 20
62.38996924348066
 30
0.0
 11
379.9388024770237
 21
61.017467829221
 31
0.0
  0
LINE
  5
124FC
330
1F
100
AcDbEntity
  8
KANAMONO_SCREW
 62
     7
100
AcDbLine
 10
376.3295122322502
 20
62.96692812037872
 30
0.0
 11
374.8833026261218
 21
61.63351040465864
 31
0.0
  0
LINE
  5
124FD
330
1F
100
AcDbEntity
  8
KANAMONO_SCREW
 62
     7
100
AcDbLine
 10
374.9152986698773
 20
62.96692812037872
 30
0.0
 11
376.1542457535334
 21
61.70373294197907
 31
0.0
  0
LINE
  5
124FE
330
1F
100
AcDbEntity
  8
KANAMONO_SCREW
 62
     7
100
AcDbLine
 10
373.5010851075044
 20
62.96692812037872
 30
0.0
 11
374.8833026261218
 21
61.63351040465864
 31
0.0
  0
LINE
  5
124FF
330
1F
100
AcDbEntity
  8
KANAMONO_SCREW
 62
     7
100
AcDbLine
 10
374.9152986698773
 20
62.96692812037872
 30
0.0
 11
373.4719036980719
 21
61.72269036821035
 31
0.0
  0
LINE
  5
12500
330
1F
100
AcDbEntity
  8
KANAMONO_SCREW
 62
     7
100
AcDbLine
 10
371.6792840903841
 20
63.37451557512577
 30
0.0
 11
373.4719036980705
 21
61.72269036820921
 31
0.0
  0
LINE
  5
12501
330
1F
100
AcDbEntity
  8
KANAMONO_SCREW
 62
     7
100
AcDbLine
 10
373.5010851075044
 20
62.96692812037872
 30
0.0
 11
371.6280261491488
 21
61.4307964425725
 31
0.0
  0
LINE
  5
12502
330
1F
100
AcDbEntity
  8
KANAMONO2
100
AcDbLine
 10
365.6792840903841
 20
117.5
 30
0.0
 11
387.679284090384
 21
117.5
 31
0.0
  0
LINE
  5
12503
330
1F
100
AcDbEntity
  8
KANAMONO2
100
AcDbLine
 10
371.179284090384
 20
111.5
 30
0.0
 11
382.1792840903841
 21
111.5
 31
0.0
  0
LINE
  5
12504
330
1F
100
AcDbEntity
  8
pv
100
AcDbLine
 10
368.179284090384
 20
108.0
 30
0.0
 11
368.179284090384
 21
111.5
 31
0.0
  0
LINE
  5
12505
330
1F
100
AcDbEntity
  8
pv
100
AcDbLine
 10
385.179284090384
 20
108.0
 30
0.0
 11
385.179284090384
 21
111.5
 31
0.0
  0
LINE
  5
12506
330
1F
100
AcDbEntity
  8
KANAMONO2
100
AcDbLine
 10
370.679284090384
 20
80.0
 30
0.0
 11
382.679284090384
 21
80.0
 31
0.0
  0
LINE
  5
12507
330
1F
100
AcDbEntity
  8
pv
100
AcDbLine
 10
217.6792840903877
 20
117.5
 30
0.0
 11
212.1792840903877
 21
112.0
 31
0.0
  0
LINE
  5
12508
330
1F
100
AcDbEntity
  8
pv
100
AcDbLine
 10
195.6792840903877
 20
117.5
 30
0.0
 11
201.1792840903877
 21
112.0
 31
0.0
  0
LINE
  5
12509
330
1F
100
AcDbEntity
  8
pv
100
AcDbLine
 10
212.1792840903877
 20
112.0
 30
0.0
 11
212.1792840903877
 21
111.5
 31
0.0
  0
LINE
  5
1250A
330
1F
100
AcDbEntity
  8
pv
100
AcDbLine
 10
201.1792840903877
 20
112.0
 30
0.0
 11
201.1792840903877
 21
111.5
 31
0.0
  0
LINE
  5
1250B
330
1F
100
AcDbEntity
  8
pv
100
AcDbLine
 10
215.1792840903877
 20
80.0
 30
0.0
 11
215.1792840903877
 21
108.0
 31
0.0
  0
LINE
  5
1250C
330
1F
100
AcDbEntity
  8
pv
100
AcDbLine
 10
212.6792840903877
 20
80.0
 30
0.0
 11
212.6792840903877
 21
108.0
 31
0.0
  0
LINE
  5
1250D
330
1F
100
AcDbEntity
  8
pv
100
AcDbLine
 10
198.1792840903877
 20
80.0
 30
0.0
 11
200.6792840903877
 21
80.0
 31
0.0
  0
LINE
  5
1250E
330
1F
100
AcDbEntity
  8
pv
100
AcDbLine
 10
212.6792840903877
 20
80.0
 30
0.0
 11
215.1792840903877
 21
80.0
 31
0.0
  0
LINE
  5
1250F
330
1F
100
AcDbEntity
  8
pv
100
AcDbLine
 10
198.1792840903877
 20
108.0
 30
0.0
 11
200.6792840903877
 21
108.0
 31
0.0
  0
LINE
  5
12510
330
1F
100
AcDbEntity
  8
pv
100
AcDbLine
 10
212.6792840903877
 20
108.0
 30
0.0
 11
215.1792840903877
 21
108.0
 31
0.0
  0
LINE
  5
12511
330
1F
100
AcDbEntity
  8
pv
100
AcDbLine
 10
198.1792840903877
 20
80.0
 30
0.0
 11
198.1792840903877
 21
108.0
 31
0.0
  0
LINE
  5
12512
330
1F
100
AcDbEntity
  8
pv
100
AcDbLine
 10
200.6792840903877
 20
80.0
 30
0.0
 11
200.6792840903877
 21
108.0
 31
0.0
  0
LINE
  5
12513
330
1F
100
AcDbEntity
  8
KANAMONO_SCREW
100
AcDbLine
 10
211.972177309201
 20
111.7928932188133
 30
0.0
 11
215.6792840903877
 21
115.5
 31
0.0
  0
LINE
  5
12514
330
1F
100
AcDbEntity
  8
KANAMONO_SCREW
100
AcDbLine
 10
201.3863908715744
 20
111.7928932188133
 30
0.0
 11
197.6792840903877
 21
115.5
 31
0.0
  0
LINE
  5
12515
330
1F
100
AcDbEntity
  8
KANAMONO_SCREW
100
AcDbLine
 10
215.6792840903877
 20
116.0999999999999
 30
0.0
 11
197.6792840903877
 21
116.0999999999999
 31
0.0
  0
LINE
  5
12516
330
1F
100
AcDbEntity
  8
KANAMONO_SCREW
100
AcDbLine
 10
215.6792840903877
 20
115.5
 30
0.0
 11
197.6792840903877
 21
115.5
 31
0.0
  0
LINE
  5
12517
330
1F
100
AcDbEntity
  8
KANAMONO_SCREW
100
AcDbLine
 10
215.6792840903877
 20
116.0999999999999
 30
0.0
 11
215.6792840903877
 21
115.5
 31
0.0
  0
LINE
  5
12518
330
1F
100
AcDbEntity
  8
KANAMONO_SCREW
100
AcDbLine
 10
197.6792840903877
 20
116.0999999999999
 30
0.0
 11
197.6792840903877
 21
115.5
 31
0.0
  0
LINE
  5
12519
330
1F
100
AcDbEntity
  8
KANAMONO_SCREW
 62
     7
100
AcDbLine
 10
202.1433877388026
 20
86.0999999999999
 30
0.0
 11
201.6792840903877
 21
85.63589635158496
 31
0.0
  0
LINE
  5
1251A
330
1F
100
AcDbEntity
  8
KANAMONO_SCREW
 62
     7
100
AcDbLine
 10
203.5576013011755
 20
86.0999999999999
 30
0.0
 11
201.6792840903877
 21
84.22168278921208
 31
0.0
  0
LINE
  5
1251B
330
1F
100
AcDbEntity
  8
KANAMONO_SCREW
 62
     7
100
AcDbLine
 10
204.9718148635488
 20
86.10000000000013
 30
0.0
 11
202.9718148635488
 21
84.10000000000014
 31
0.0
  0
LINE
  5
1251C
330
1F
100
AcDbEntity
  8
KANAMONO_SCREW
 62
     7
100
AcDbLine
 10
206.3860284259222
 20
86.10000000000013
 30
0.0
 11
204.3860284259222
 21
84.10000000000014
 31
0.0
  0
LINE
  5
1251D
330
1F
100
AcDbEntity
  8
KANAMONO_SCREW
 62
     7
100
AcDbLine
 10
207.8002419882951
 20
86.0999999999999
 30
0.0
 11
206.6792840903877
 21
84.97904210209275
 31
0.0
  0
LINE
  5
1251E
330
1F
100
AcDbEntity
  8
KANAMONO_SCREW
 62
     7
100
AcDbLine
 10
206.6792840903877
 20
84.97904210209275
 30
0.0
 11
205.8002419882951
 21
84.09999999999991
 31
0.0
  0
LINE
  5
1251F
330
1F
100
AcDbEntity
  8
KANAMONO_SCREW
 62
     7
100
AcDbLine
 10
209.2144555506679
 20
86.0999999999999
 30
0.0
 11
207.2144555506679
 21
84.09999999999991
 31
0.0
  0
LINE
  5
12520
330
1F
100
AcDbEntity
  8
KANAMONO_SCREW
 62
     7
100
AcDbLine
 10
210.6286691130413
 20
86.0999999999999
 30
0.0
 11
208.6286691130413
 21
84.09999999999991
 31
0.0
  0
LINE
  5
12521
330
1F
100
AcDbEntity
  8
KANAMONO_SCREW
 62
     7
100
AcDbLine
 10
211.6792840903877
 20
85.73640141497344
 30
0.0
 11
210.0428826754141
 21
84.09999999999991
 31
0.0
  0
LINE
  5
12522
330
1F
100
AcDbEntity
  8
KANAMONO_SCREW
 62
     7
100
AcDbLine
 10
211.6792840903877
 20
84.32218785260033
 30
0.0
 11
211.4570962377875
 21
84.09999999999991
 31
0.0
  0
LINE
  5
12523
330
1F
100
AcDbEntity
  8
KANAMONO_SCREW
 62
     7
100
AcDbLine
 10
211.6792840903877
 20
85.36768888718711
 30
0.0
 11
210.9469729775747
 21
86.0999999999999
 31
0.0
  0
LINE
  5
12524
330
1F
100
AcDbEntity
  8
KANAMONO_SCREW
 62
     7
100
AcDbLine
 10
211.5327594152018
 20
84.09999999999991
 30
0.0
 11
209.5327594152018
 21
86.0999999999999
 31
0.0
  0
LINE
  5
12525
330
1F
100
AcDbEntity
  8
KANAMONO_SCREW
 62
     7
100
AcDbLine
 10
210.1185458528284
 20
84.09999999999991
 30
0.0
 11
208.1185458528284
 21
86.0999999999999
 31
0.0
  0
LINE
  5
12526
330
1F
100
AcDbEntity
  8
KANAMONO_SCREW
 62
     7
100
AcDbLine
 10
208.7043322904555
 20
84.09999999999991
 30
0.0
 11
206.7043322904555
 21
86.0999999999999
 31
0.0
  0
LINE
  5
12527
330
1F
100
AcDbEntity
  8
KANAMONO_SCREW
 62
     7
100
AcDbLine
 10
207.2901187280822
 20
84.09999999999991
 30
0.0
 11
206.6792840903877
 21
84.71083463769446
 31
0.0
  0
LINE
  5
12528
330
1F
100
AcDbEntity
  8
KANAMONO_SCREW
 62
     7
100
AcDbLine
 10
206.6792840903877
 20
84.71083463769446
 30
0.0
 11
205.2901187280822
 21
86.0999999999999
 31
0.0
  0
LINE
  5
12529
330
1F
100
AcDbEntity
  8
KANAMONO_SCREW
 62
     7
100
AcDbLine
 10
205.8759051657093
 20
84.09999999999991
 30
0.0
 11
203.8759051657093
 21
86.0999999999999
 31
0.0
  0
LINE
  5
1252A
330
1F
100
AcDbEntity
  8
KANAMONO_SCREW
 62
     7
100
AcDbLine
 10
204.461691603336
 20
84.09999999999991
 30
0.0
 11
202.461691603336
 21
86.0999999999999
 31
0.0
  0
LINE
  5
1252B
330
1F
100
AcDbEntity
  8
KANAMONO_SCREW
 62
     7
100
AcDbLine
 10
203.0474780409631
 20
84.09999999999991
 30
0.0
 11
201.6792840903877
 21
85.46819395057537
 31
0.0
  0
ARC
  5
1252C
330
1F
100
AcDbEntity
  8
KANAMONO_SCREW
100
AcDbCircle
 10
212.6792840903877
 20
111.0857864376269
 30
0.0
 40
1.0
100
AcDbArc
 50
134.9999999999916
 51
180.0
  0
ARC
  5
1252D
330
1F
100
AcDbEntity
  8
KANAMONO_SCREW
100
AcDbCircle
 10
200.6792840903877
 20
111.0857864376269
 30
0.0
 40
1.0
100
AcDbArc
 50
0.0
 51
45.00000000000834
  0
LINE
  5
1252E
330
1F
100
AcDbEntity
  8
KANAMONO_SCREW
100
AcDbLine
 10
207.1792840903877
 20
62.09999999999991
 30
0.0
 11
206.1792840903877
 21
62.09999999999991
 31
0.0
  0
ARC
  5
1252F
330
1F
100
AcDbEntity
  8
KANAMONO_SCREW
100
AcDbCircle
 10
220.1792840903877
 20
48.281534085977
 30
0.0
 40
16.0
100
AcDbArc
 50
187.5265906715485
 51
210.7535198081051
  0
LINE
  5
12530
330
1F
100
AcDbEntity
  8
KANAMONO_SCREW
100
AcDbLine
 10
206.6792840903877
 20
40.0999999999999
 30
0.0
 11
206.4292840903877
 21
40.0999999999999
 31
0.0
  0
ARC
  5
12531
330
1F
100
AcDbEntity
  8
KANAMONO_SCREW
100
AcDbCircle
 10
193.1792840903877
 20
48.281534085977
 30
0.0
 40
16.0
100
AcDbArc
 50
329.246480191895
 51
352.4734093284515
  0
LINE
  5
12532
330
1F
100
AcDbEntity
  8
KANAMONO_SCREW
100
AcDbLine
 10
206.6792840903877
 20
40.0999999999999
 30
0.0
 11
206.9292840903877
 21
40.0999999999999
 31
0.0
  0
LINE
  5
12533
330
1F
100
AcDbEntity
  8
KANAMONO_SCREW
100
AcDbLine
 10
206.1792840903877
 20
62.09999999999991
 30
0.0
 11
205.1703279788139
 21
46.13184395226198
 31
0.0
1001
ACAD
1000
ASC_BOUNDS
1002
{
1070
    19
1002
}
  0
LINE
  5
12534
330
1F
100
AcDbEntity
  8
KANAMONO_SCREW
100
AcDbLine
 10
207.1792840903877
 20
62.09999999999991
 30
0.0
 11
208.1882402019614
 21
46.13184395226198
 31
0.0
1001
ACAD
1000
ASC_BOUNDS
1002
{
1070
    19
1002
}
  0
LINE
  5
12535
330
1F
100
AcDbEntity
  8
KANAMONO_SCREW
100
AcDbLine
 10
200.6792840903877
 20
46.41561285864191
 30
0.0
 11
201.6792840903877
 21
62.24202578638915
 31
0.0
  0
LINE
  5
12536
330
1F
100
AcDbEntity
  8
KANAMONO_SCREW
100
AcDbLine
 10
212.6792840903877
 20
46.41561285864191
 30
0.0
 11
211.6792840903877
 21
62.24202578638915
 31
0.0
1001
ACAD
1000
ASC_BOUNDS
1002
{
1070
    19
1002
}
  0
LINE
  5
12537
330
1F
100
AcDbEntity
  8
KANAMONO_SCREW
100
AcDbLine
 10
208.1882402019614
 20
46.13184395226198
 30
0.0
 11
212.6792840903877
 21
46.41561285864191
 31
0.0
1001
ACAD
1000
ASC_BOUNDS
1002
{
1070
    19
1002
}
  0
LINE
  5
12538
330
1F
100
AcDbEntity
  8
KANAMONO_SCREW
100
AcDbLine
 10
200.6792840903877
 20
46.41561285864191
 30
0.0
 11
205.1703279788139
 21
46.13184395226198
 31
0.0
  0
LINE
  5
12539
330
1F
100
AcDbEntity
  8
KANAMONO_SCREW
100
AcDbLine
 10
201.6792840903877
 20
62.24202578638915
 30
0.0
 11
201.6792840903877
 21
111.0857864376269
 31
0.0
  0
LINE
  5
1253A
330
1F
100
AcDbEntity
  8
KANAMONO_SCREW
100
AcDbLine
 10
211.6792840903877
 20
62.24202578638915
 30
0.0
 11
211.6792840903877
 21
111.0857864376269
 31
0.0
1001
ACAD
1000
ASC_BOUNDS
1002
{
1070
    19
1002
}
  0
LINE
  5
1253B
330
1F
100
AcDbEntity
  8
KANAMONO_SCREW
 62
     7
100
AcDbLine
 10
203.0910600162774
 20
66.10000000000013
 30
0.0
 11
201.6792840903877
 21
64.68822407411062
 31
0.0
  0
LINE
  5
1253C
330
1F
100
AcDbEntity
  8
KANAMONO_SCREW
 62
     7
100
AcDbLine
 10
204.5052735786503
 20
66.09999999999991
 30
0.0
 11
201.6792840903877
 21
63.27401051173751
 31
0.0
  0
LINE
  5
1253D
330
1F
100
AcDbEntity
  8
KANAMONO_SCREW
 62
     7
100
AcDbLine
 10
205.9194871410232
 20
66.10000000000013
 30
0.0
 11
202.786415261402
 21
62.96692812037872
 31
0.0
  0
LINE
  5
1253E
330
1F
100
AcDbEntity
  8
KANAMONO_SCREW
 62
     7
100
AcDbLine
 10
207.3337007033965
 20
66.10000000000013
 30
0.0
 11
206.6792840903877
 21
65.44558338699153
 31
0.0
  0
LINE
  5
1253F
330
1F
100
AcDbEntity
  8
KANAMONO_SCREW
 62
     7
100
AcDbLine
 10
206.6792840903877
 20
65.44558338699153
 30
0.0
 11
204.2006288237753
 21
62.96692812037872
 31
0.0
  0
LINE
  5
12540
330
1F
100
AcDbEntity
  8
KANAMONO_SCREW
 62
     7
100
AcDbLine
 10
208.7479142657699
 20
66.10000000000013
 30
0.0
 11
206.6792840903877
 21
64.0313698246182
 31
0.0
  0
LINE
  5
12541
330
1F
100
AcDbEntity
  8
KANAMONO_SCREW
 62
     7
100
AcDbLine
 10
206.6792840903877
 20
64.0313698246182
 30
0.0
 11
205.6148423861482
 21
62.96692812037872
 31
0.0
  0
LINE
  5
12542
330
1F
100
AcDbEntity
  8
KANAMONO_SCREW
 62
     7
100
AcDbLine
 10
210.1621278281427
 20
66.10000000000013
 30
0.0
 11
206.1631474312108
 21
62.10101960306815
 31
0.0
  0
LINE
  5
12543
330
1F
100
AcDbEntity
  8
KANAMONO_SCREW
 62
     7
100
AcDbLine
 10
205.5814540775986
 20
61.58939734791875
 30
0.0
 11
201.4055531653089
 21
57.90984713499892
 31
0.0
  0
LINE
  5
12544
330
1F
100
AcDbEntity
  8
KANAMONO_SCREW
 62
     7
100
AcDbLine
 10
211.5763413905156
 20
66.09999999999991
 30
0.0
 11
208.4432695108944
 21
62.96692812037872
 31
0.0
  0
LINE
  5
12545
330
1F
100
AcDbEntity
  8
KANAMONO_SCREW
 62
     7
100
AcDbLine
 10
206.091185996564
 20
60.70572318899531
 30
0.0
 11
201.3163732017574
 21
56.49844820694898
 31
0.0
  0
LINE
  5
12546
330
1F
100
AcDbEntity
  8
KANAMONO_SCREW
 62
     7
100
AcDbLine
 10
211.6792840903877
 20
64.7887291374991
 30
0.0
 11
209.8574830732673
 21
62.96692812037872
 31
0.0
  0
LINE
  5
12547
330
1F
100
AcDbEntity
  8
KANAMONO_SCREW
 62
     7
100
AcDbLine
 10
206.0020060330121
 20
59.29432426094535
 30
0.0
 11
201.2271932382059
 21
55.08704927889903
 31
0.0
  0
LINE
  5
12548
330
1F
100
AcDbEntity
  8
KANAMONO_SCREW
 62
     7
100
AcDbLine
 10
205.9128260694606
 20
57.88292533289518
 30
0.0
 11
201.138013274654
 21
53.67565035084886
 31
0.0
  0
LINE
  5
12549
330
1F
100
AcDbEntity
  8
KANAMONO_SCREW
 62
     7
100
AcDbLine
 10
211.6792840903877
 20
62.24451554429197
 30
0.0
 11
207.4718623178933
 21
57.46953615782877
 31
0.0
  0
LINE
  5
1254A
330
1F
100
AcDbEntity
  8
KANAMONO_SCREW
 62
     7
100
AcDbLine
 10
205.8236461059091
 20
56.47152640484501
 30
0.0
 11
201.0488333111025
 21
52.26425142279868
 31
0.0
  0
LINE
  5
1254B
330
1F
100
AcDbEntity
  8
KANAMONO_SCREW
 62
     7
100
AcDbLine
 10
211.7683172634911
 20
60.83295002458498
 30
0.0
 11
207.5610422814448
 21
56.0581372297786
 31
0.0
  0
LINE
  5
1254C
330
1F
100
AcDbEntity
  8
KANAMONO_SCREW
 62
     7
100
AcDbLine
 10
205.7344661423572
 20
55.06012747679505
 30
0.0
 11
200.959653347551
 21
50.85285249474873
 31
0.0
  0
LINE
  5
1254D
330
1F
100
AcDbEntity
  8
KANAMONO_SCREW
 62
     7
100
AcDbLine
 10
211.8574972270431
 20
59.42155109653504
 30
0.0
 11
207.6502222449967
 21
54.64673830172841
 31
0.0
  0
LINE
  5
1254E
330
1F
100
AcDbEntity
  8
KANAMONO_SCREW
 62
     7
100
AcDbLine
 10
205.6452861788057
 20
53.64872854874488
 30
0.0
 11
200.8704733839991
 21
49.44145356669878
 31
0.0
  0
LINE
  5
1254F
330
1F
100
AcDbEntity
  8
KANAMONO_SCREW
 62
     7
100
AcDbLine
 10
211.9466771905945
 20
58.01015216848487
 30
0.0
 11
207.7394022085482
 21
53.23533937367847
 31
0.0
  0
LINE
  5
12550
330
1F
100
AcDbEntity
  8
KANAMONO_SCREW
 62
     7
100
AcDbLine
 10
205.5561062152537
 20
52.23732962069471
 30
0.0
 11
200.7812934204476
 21
48.03005463864838
 31
0.0
  0
LINE
  5
12551
330
1F
100
AcDbEntity
  8
KANAMONO_SCREW
 62
     7
100
AcDbLine
 10
212.035857154146
 20
56.59875324043468
 30
0.0
 11
207.8285821721002
 21
51.82394044562852
 31
0.0
  0
LINE
  5
12552
330
1F
100
AcDbEntity
  8
KANAMONO_SCREW
 62
     7
100
AcDbLine
 10
205.4669262517023
 20
50.82593069264476
 30
0.0
 11
200.6921134568957
 21
46.61865571059843
 31
0.0
  0
LINE
  5
12553
330
1F
100
AcDbEntity
  8
KANAMONO_SCREW
 62
     7
100
AcDbLine
 10
212.125037117698
 20
55.18735431238474
 30
0.0
 11
207.9177621356516
 21
50.41254151757835
 31
0.0
  0
LINE
  5
12554
330
1F
100
AcDbEntity
  8
KANAMONO_SCREW
 62
     7
100
AcDbLine
 10
205.3777462881503
 20
49.41453176459481
 30
0.0
 11
201.8876401664816
 21
46.33926226159838
 31
0.0
  0
LINE
  5
12555
330
1F
100
AcDbEntity
  8
KANAMONO_SCREW
 62
     7
100
AcDbLine
 10
212.2142170812495
 20
53.77595538433479
 30
0.0
 11
208.0069420992036
 21
49.00114258952817
 31
0.0
  0
LINE
  5
12556
330
1F
100
AcDbEntity
  8
KANAMONO_SCREW
 62
     7
100
AcDbLine
 10
205.2885663245988
 20
48.00313283654441
 30
0.0
 11
203.2990390945315
 21
46.25008229804643
 31
0.0
  0
LINE
  5
12557
330
1F
100
AcDbEntity
  8
KANAMONO_SCREW
 62
     7
100
AcDbLine
 10
212.3033970448014
 20
52.36455645628462
 30
0.0
 11
208.0961220627551
 21
47.58974366147822
 31
0.0
  0
LINE
  5
12558
330
1F
100
AcDbEntity
  8
KANAMONO_SCREW
 62
     7
100
AcDbLine
 10
205.1993863610473
 20
46.59173390849446
 30
0.0
 11
204.7104380225814
 21
46.16090233449495
 31
0.0
  0
LINE
  5
12559
330
1F
100
AcDbEntity
  8
KANAMONO_SCREW
 62
     7
100
AcDbLine
 10
212.3925770083529
 20
50.95315752823444
 30
0.0
 11
208.1853020263066
 21
46.17834473342805
 31
0.0
  0
LINE
  5
1255A
330
1F
100
AcDbEntity
  8
KANAMONO_SCREW
 62
     7
100
AcDbLine
 10
212.4817569719048
 20
49.54175860018449
 30
0.0
 11
209.5531383488455
 21
46.21808574015881
 31
0.0
  0
LINE
  5
1255B
330
1F
100
AcDbEntity
  8
KANAMONO_SCREW
 62
     7
100
AcDbLine
 10
212.5709369354563
 20
48.13035967213432
 30
0.0
 11
210.9645372768955
 21
46.30726570371052
 31
0.0
  0
LINE
  5
1255C
330
1F
100
AcDbEntity
  8
KANAMONO_SCREW
 62
     7
100
AcDbLine
 10
212.6601168990078
 20
46.71896074408414
 30
0.0
 11
212.3759362049455
 21
46.39644566726201
 31
0.0
  0
LINE
  5
1255D
330
1F
100
AcDbEntity
  8
KANAMONO_SCREW
 62
     7
100
AcDbLine
 10
211.6792840903877
 20
65.38776779037789
 30
0.0
 11
210.9670518807657
 21
66.09999999999991
 31
0.0
  0
LINE
  5
1255E
330
1F
100
AcDbEntity
  8
KANAMONO_SCREW
 62
     7
100
AcDbLine
 10
211.6792840903877
 20
63.97355422800479
 30
0.0
 11
209.5528383183923
 21
66.09999999999991
 31
0.0
  0
LINE
  5
1255F
330
1F
100
AcDbEntity
  8
KANAMONO_SCREW
 62
     7
100
AcDbLine
 10
211.6792840903877
 20
62.55934066563168
 30
0.0
 11
208.1386247560195
 21
66.10000000000013
 31
0.0
  0
LINE
  5
12560
330
1F
100
AcDbEntity
  8
KANAMONO_SCREW
 62
     7
100
AcDbLine
 10
211.8197219951749
 20
60.01939751452233
 30
0.0
 11
209.8866644826999
 21
61.72269036821035
 31
0.0
  0
LINE
  5
12561
330
1F
100
AcDbEntity
  8
KANAMONO_SCREW
 62
     7
100
AcDbLine
 10
206.6792840903877
 20
64.73091354088547
 30
0.0
 11
205.3101976312732
 21
66.10000000000013
 31
0.0
  0
LINE
  5
12562
330
1F
100
AcDbEntity
  8
KANAMONO_SCREW
 62
     7
100
AcDbLine
 10
211.9089019587264
 20
58.60799858647215
 30
0.0
 11
208.4752655546499
 21
61.63351040465864
 31
0.0
  0
LINE
  5
12563
330
1F
100
AcDbEntity
  8
KANAMONO_SCREW
 62
     7
100
AcDbLine
 10
206.6792840903877
 20
63.31669997851236
 30
0.0
 11
203.8959840688999
 21
66.10000000000013
 31
0.0
  0
LINE
  5
12564
330
1F
100
AcDbEntity
  8
KANAMONO_SCREW
 62
     7
100
AcDbLine
 10
211.9980819222778
 20
57.1965996584222
 30
0.0
 11
207.2232691274717
 21
61.40387464046852
 31
0.0
  0
LINE
  5
12565
330
1F
100
AcDbEntity
  8
KANAMONO_SCREW
 62
     7
100
AcDbLine
 10
206.481770506527
 20
62.10000000000014
 30
0.0
 11
202.481770506527
 21
66.10000000000013
 31
0.0
  0
LINE
  5
12566
330
1F
100
AcDbEntity
  8
KANAMONO_SCREW
 62
     7
100
AcDbLine
 10
212.0872618858298
 20
55.78520073037203
 30
0.0
 11
207.3124490910231
 21
59.99247571241835
 31
0.0
  0
LINE
  5
12567
330
1F
100
AcDbEntity
  8
KANAMONO_SCREW
 62
     7
100
AcDbLine
 10
206.1091788467256
 20
60.99048546540188
 30
0.0
 11
205.5814540775986
 21
61.58939734791875
 31
0.0
  0
LINE
  5
12568
330
1F
100
AcDbEntity
  8
KANAMONO_SCREW
 62
     7
100
AcDbLine
 10
212.1764418493813
 20
54.37380180232185
 30
0.0
 11
207.4016290545751
 21
58.58107678436818
 31
0.0
  0
LINE
  5
12569
330
1F
100
AcDbEntity
  8
KANAMONO_SCREW
 62
     7
100
AcDbLine
 10
206.0199988831741
 20
59.57908653735194
 30
0.0
 11
204.1700551495487
 21
61.67857731147046
 31
0.0
  0
LINE
  5
1256A
330
1F
100
AcDbEntity
  8
KANAMONO_SCREW
 62
     7
100
AcDbLine
 10
212.2656218129332
 20
52.9624028742719
 30
0.0
 11
207.4908090181266
 21
57.16967785631823
 31
0.0
  0
LINE
  5
1256B
330
1F
100
AcDbEntity
  8
KANAMONO_SCREW
 62
     7
100
AcDbLine
 10
205.9308189196222
 20
58.16768760930177
 30
0.0
 11
203.419765703748
 21
61.017467829221
 31
0.0
  0
LINE
  5
1256C
330
1F
100
AcDbEntity
  8
KANAMONO_SCREW
 62
     7
100
AcDbLine
 10
212.3548017764847
 20
51.55100394622195
 30
0.0
 11
207.5799889816785
 21
55.75827892826805
 31
0.0
  0
LINE
  5
1256D
330
1F
100
AcDbEntity
  8
KANAMONO_SCREW
 62
     7
100
AcDbLine
 10
205.8416389560707
 20
56.75628868125158
 30
0.0
 11
201.6343639740244
 21
61.53110147605821
 31
0.0
  0
LINE
  5
1256E
330
1F
100
AcDbEntity
  8
KANAMONO_SCREW
 62
     7
100
AcDbLine
 10
212.4439817400366
 20
50.13960501817155
 30
0.0
 11
207.66916894523
 21
54.34688000021788
 31
0.0
  0
LINE
  5
1256F
330
1F
100
AcDbEntity
  8
KANAMONO_SCREW
 62
     7
100
AcDbLine
 10
205.7524589925188
 20
55.34488975320164
 30
0.0
 11
201.5451840104729
 21
60.11970254800804
 31
0.0
  0
LINE
  5
12570
330
1F
100
AcDbEntity
  8
KANAMONO_SCREW
 62
     7
100
AcDbLine
 10
212.5331617035881
 20
48.7282060901216
 30
0.0
 11
207.7583489087815
 21
52.93548107216793
 31
0.0
  0
LINE
  5
12571
330
1F
100
AcDbEntity
  8
KANAMONO_SCREW
 62
     7
100
AcDbLine
 10
205.6632790289673
 20
53.93349082515169
 30
0.0
 11
201.456004046921
 21
58.70830361995786
 31
0.0
  0
LINE
  5
12572
330
1F
100
AcDbEntity
  8
KANAMONO_SCREW
 62
     7
100
AcDbLine
 10
212.6223416671396
 20
47.31680716207165
 30
0.0
 11
207.8475288723335
 21
51.52408214411798
 31
0.0
  0
LINE
  5
12573
330
1F
100
AcDbEntity
  8
KANAMONO_SCREW
 62
     7
100
AcDbLine
 10
205.5740990654153
 20
52.52209189710152
 30
0.0
 11
201.3668240833695
 21
57.29690469190791
 31
0.0
  0
LINE
  5
12574
330
1F
100
AcDbEntity
  8
KANAMONO_SCREW
 62
     7
100
AcDbLine
 10
212.1690794657675
 20
46.38337531833826
 30
0.0
 11
207.9367088358849
 21
50.11268321606781
 31
0.0
  0
LINE
  5
12575
330
1F
100
AcDbEntity
  8
KANAMONO_SCREW
 62
     7
100
AcDbLine
 10
205.4849191018639
 20
51.11069296905134
 30
0.0
 11
201.277644119818
 21
55.88550576385774
 31
0.0
  0
LINE
  5
12576
330
1F
100
AcDbEntity
  8
KANAMONO_SCREW
 62
     7
100
AcDbLine
 10
210.7576805377171
 20
46.29419535478655
 30
0.0
 11
208.0258887994364
 21
48.70128428801763
 31
0.0
  0
LINE
  5
12577
330
1F
100
AcDbEntity
  8
KANAMONO_SCREW
 62
     7
100
AcDbLine
 10
205.3957391383124
 20
49.69929404100139
 30
0.0
 11
201.1884641562661
 21
54.47410683580756
 31
0.0
  0
LINE
  5
12578
330
1F
100
AcDbEntity
  8
KANAMONO_SCREW
 62
     7
100
AcDbLine
 10
209.3462816096671
 20
46.20501539123506
 30
0.0
 11
208.1150687629884
 21
47.28988535996768
 31
0.0
  0
LINE
  5
12579
330
1F
100
AcDbEntity
  8
KANAMONO_SCREW
 62
     7
100
AcDbLine
 10
205.3065591747604
 20
48.28789511295122
 30
0.0
 11
201.0992841927141
 21
53.06270790775761
 31
0.0
  0
LINE
  5
1257A
330
1F
100
AcDbEntity
  8
KANAMONO_SCREW
 62
     7
100
AcDbLine
 10
205.2173792112089
 20
46.87649618490104
 30
0.0
 11
201.0101042291626
 21
51.65130897970766
 31
0.0
  0
LINE
  5
1257B
330
1F
100
AcDbEntity
  8
KANAMONO_SCREW
 62
     7
100
AcDbLine
 10
204.5035812834035
 20
46.17397268341892
 30
0.0
 11
200.9209242656111
 21
50.23991005165726
 31
0.0
  0
LINE
  5
1257C
330
1F
100
AcDbEntity
  8
KANAMONO_SCREW
 62
     7
100
AcDbLine
 10
203.0921823553531
 20
46.26315264697041
 30
0.0
 11
200.8317443020592
 21
48.82851112360731
 31
0.0
  0
LINE
  5
1257D
330
1F
100
AcDbEntity
  8
KANAMONO_SCREW
 62
     7
100
AcDbLine
 10
201.6807834273032
 20
46.3523326105219
 30
0.0
 11
200.7425643385077
 21
47.41711219555736
 31
0.0
  0
LINE
  5
1257E
330
1F
100
AcDbEntity
  8
KANAMONO_SCREW
 62
     7
100
AcDbLine
 10
202.7586562214988
 20
61.76775727502195
 30
0.0
 11
201.5839130924123
 21
60.73264499109928
 31
0.0
  0
LINE
  5
1257F
330
1F
100
AcDbEntity
  8
KANAMONO_SCREW
 62
     7
100
AcDbLine
 10
202.786415261402
 20
62.96692812037872
 30
0.0
 11
201.6792840903877
 21
64.07405929139304
 31
0.0
  0
LINE
  5
12580
330
1F
100
AcDbEntity
  8
KANAMONO_SCREW
 62
     7
100
AcDbLine
 10
204.1700551495487
 20
61.67857731147023
 30
0.0
 11
201.4947331288608
 21
59.32124606304933
 31
0.0
  0
LINE
  5
12581
330
1F
100
AcDbEntity
  8
KANAMONO_SCREW
 62
     7
100
AcDbLine
 10
204.9841991107533
 20
62.18335783340058
 30
0.0
 11
201.6792840903877
 21
65.48827285376614
 31
0.0
  0
LINE
  5
12582
330
1F
100
AcDbEntity
  8
KANAMONO_SCREW
 62
     7
100
AcDbLine
 10
209.8574830732677
 20
62.96692812037872
 30
0.0
 11
206.7244111936461
 21
66.10000000000013
 31
0.0
  0
LINE
  5
12583
330
1F
100
AcDbEntity
  8
KANAMONO_SCREW
 62
     7
100
AcDbLine
 10
209.8866644826999
 20
61.72269036821035
 30
0.0
 11
207.3826823543418
 21
58.88093508587871
 31
0.0
  0
LINE
  5
12584
330
1F
100
AcDbEntity
  8
KANAMONO_SCREW
 62
     7
100
AcDbLine
 10
208.4432695108944
 20
62.96692812037872
 30
0.0
 11
206.6792840903877
 21
64.73091354088547
 31
0.0
  0
LINE
  5
12585
330
1F
100
AcDbEntity
  8
KANAMONO_SCREW
 62
     7
100
AcDbLine
 10
208.4752655546495
 20
61.6335104046584
 30
0.0
 11
207.2935023907898
 21
60.2923340139289
 31
0.0
  0
LINE
  5
12586
330
1F
100
AcDbEntity
  8
KANAMONO_SCREW
 62
     7
100
AcDbLine
 10
207.0290559485215
 20
62.96692812037872
 30
0.0
 11
206.6792840903877
 21
63.31669997851236
 31
0.0
  0
LINE
  5
12587
330
1F
100
AcDbEntity
  8
KANAMONO_SCREW
 62
     7
100
AcDbLine
 10
206.1631474312108
 20
62.10101960306815
 30
0.0
 11
205.5814540775986
 21
61.58939734791875
 31
0.0
  0
LINE
  5
12588
330
1F
100
AcDbEntity
  8
KANAMONO_SCREW
 62
     7
100
AcDbLine
 10
204.9077356049616
 20
62.25982133919206
 30
0.0
 11
205.5814540775986
 21
61.58939734791875
 31
0.0
  0
LINE
  5
12589
330
1F
100
AcDbEntity
  8
KANAMONO_SCREW
 62
     7
100
AcDbLine
 10
204.2006288237749
 20
62.96692812037872
 30
0.0
 11
202.7586562214988
 21
61.76775727502195
 31
0.0
  0
LINE
  5
1258A
330
1F
100
AcDbEntity
  8
KANAMONO_SCREW
 62
     7
100
AcDbLine
 10
202.786415261402
 20
62.96692812037872
 30
0.0
 11
204.1700551495487
 21
61.67857731147023
 31
0.0
  0
LINE
  5
1258B
330
1F
100
AcDbEntity
  8
KANAMONO_SCREW
 62
     7
100
AcDbLine
 10
201.6792840903877
 20
62.65984572901993
 30
0.0
 11
202.0058180299625
 21
62.38996924348066
 31
0.0
  0
LINE
  5
1258C
330
1F
100
AcDbEntity
  8
KANAMONO_SCREW
 62
     7
100
AcDbLine
 10
202.786415261402
 20
62.96692812037872
 30
0.0
 11
201.6730930559638
 21
62.14404391914922
 31
0.0
  0
LINE
  5
1258D
330
1F
100
AcDbEntity
  8
KANAMONO_SCREW
 62
     7
100
AcDbLine
 10
205.6148423861482
 20
62.96692812037872
 30
0.0
 11
204.1700551495487
 21
61.67857731147023
 31
0.0
  0
LINE
  5
1258E
330
1F
100
AcDbEntity
  8
KANAMONO_SCREW
 62
     7
100
AcDbLine
 10
202.0058180299625
 20
62.38996924348066
 30
0.0
 11
203.419765703748
 21
61.017467829221
 31
0.0
  0
LINE
  5
1258F
330
1F
100
AcDbEntity
  8
KANAMONO_SCREW
 62
     7
100
AcDbLine
 10
207.0290559485215
 20
62.96692812037872
 30
0.0
 11
208.4752655546499
 21
61.63351040465864
 31
0.0
  0
LINE
  5
12590
330
1F
100
AcDbEntity
  8
KANAMONO_SCREW
 62
     7
100
AcDbLine
 10
208.4432695108944
 20
62.96692812037872
 30
0.0
 11
207.2043224272384
 21
61.70373294197907
 31
0.0
  0
LINE
  5
12591
330
1F
100
AcDbEntity
  8
KANAMONO_SCREW
 62
     7
100
AcDbLine
 10
209.8574830732673
 20
62.96692812037872
 30
0.0
 11
208.4752655546499
 21
61.63351040465864
 31
0.0
  0
LINE
  5
12592
330
1F
100
AcDbEntity
  8
KANAMONO_SCREW
 62
     7
100
AcDbLine
 10
208.4432695108944
 20
62.96692812037872
 30
0.0
 11
209.8866644826999
 21
61.72269036821035
 31
0.0
  0
LINE
  5
12593
330
1F
100
AcDbEntity
  8
KANAMONO_SCREW
 62
     7
100
AcDbLine
 10
211.6792840903877
 20
63.37451557512577
 30
0.0
 11
209.8866644827012
 21
61.72269036820921
 31
0.0
  0
LINE
  5
12594
330
1F
100
AcDbEntity
  8
KANAMONO_SCREW
 62
     7
100
AcDbLine
 10
209.8574830732673
 20
62.96692812037872
 30
0.0
 11
211.7305420316229
 21
61.4307964425725
 31
0.0
  0
LINE
  5
12595
330
1F
100
AcDbEntity
  8
KANAMONO2
100
AcDbLine
 10
217.6792840903877
 20
117.5
 30
0.0
 11
195.6792840903877
 21
117.5
 31
0.0
  0
LINE
  5
12596
330
1F
100
AcDbEntity
  8
KANAMONO2
100
AcDbLine
 10
212.1792840903877
 20
111.5
 30
0.0
 11
201.1792840903877
 21
111.5
 31
0.0
  0
LINE
  5
12597
330
1F
100
AcDbEntity
  8
pv
100
AcDbLine
 10
215.1792840903877
 20
108.0
 30
0.0
 11
215.1792840903877
 21
111.5
 31
0.0
  0
LINE
  5
12598
330
1F
100
AcDbEntity
  8
pv
100
AcDbLine
 10
198.1792840903877
 20
108.0
 30
0.0
 11
198.1792840903877
 21
111.5
 31
0.0
  0
LINE
  5
12599
330
1F
100
AcDbEntity
  8
KANAMONO2
100
AcDbLine
 10
370.679284090384
 20
108.0
 30
0.0
 11
382.679284090384
 21
108.0
 31
0.0
  0
LINE
  5
1259A
330
1F
100
AcDbEntity
  8
KANAMONO2
100
AcDbLine
 10
200.6792840903877
 20
108.0
 30
0.0
 11
212.6792840903877
 21
108.0
 31
0.0
  0
LINE
  5
1259B
330
1F
100
AcDbEntity
  8
KANAMONO2
100
AcDbLine
 10
200.6792840903877
 20
80.0
 30
0.0
 11
212.6792840903877
 21
80.0
 31
0.0
  0
LINE
  5
1259C
330
1F
100
AcDbEntity
  8
KANAMONO2
100
AcDbLine
 10
272.679284090384
 20
117.5
 30
0.0
 11
266.679284090384
 21
117.5
 31
0.0
  0
LINE
  5
1259D
330
1F
100
AcDbEntity
  8
KANAMONO2
100
AcDbLine
 10
266.679284090384
 20
117.5
 30
0.0
 11
269.6792840903841
 21
117.5
 31
0.0
  0
LINE
  5
125A6
330
1F
100
AcDbEntity
  8
BOUSUI
100
AcDbLine
 10
264.679284090384
 20
117.5
 30
0.0
 11
264.679284090384
 21
119.0
 31
0.0
  0
LINE
  5
125A7
330
1F
100
AcDbEntity
  8
BOUSUI
100
AcDbLine
 10
274.679284090384
 20
119.0
 30
0.0
 11
274.679284090384
 21
117.5
 31
0.0
  0
LINE
  5
125A8
330
1F
100
AcDbEntity
  8
BOUSUI
100
AcDbLine
 10
114.679284090384
 20
113.0
 30
0.0
 11
114.679284090384
 21
111.5
 31
0.0
  0
ARC
  5
125A9
330
1F
100
AcDbEntity
  8
BOUSUI
100
AcDbCircle
 10
474.3342718890585
 20
98.84383327512114
 30
0.0
 40
14.97469277488714
100
AcDbArc
 50
57.69019486551707
 51
109.031511629487
  0
ARC
  5
125AB
330
1F
100
AcDbEntity
  8
BOUSUI
100
AcDbCircle
 10
272.679284090384
 20
119.0
 30
0.0
 40
5.0
100
AcDbArc
 50
0.0
 51
90.0
  0
ARC
  5
125AC
330
1F
100
AcDbEntity
  8
BOUSUI
100
AcDbCircle
 10
266.679284090384
 20
119.0
 30
0.0
 40
5.0
100
AcDbArc
 50
90.0
 51
180.0
  0
ARC
  5
125AD
330
1F
100
AcDbEntity
  8
BOUSUI
100
AcDbCircle
 10
115.0242962917095
 20
98.84383327512114
 30
0.0
 40
14.97469277488714
100
AcDbArc
 50
70.96848837051298
 51
122.3098051344829
  0
LINE
  5
125AF
330
1F
100
AcDbEntity
  8
MOJI
100
AcDbLine
 10
205.578254339674
 20
114.499511203895
 30
0.0
 11
173.6896967785728
 21
169.7321130798086
 31
0.0
  0
LINE
  5
125B0
330
1F
100
AcDbEntity
  8
MOJI
100
AcDbLine
 10
173.6896967785728
 20
169.7321130798086
 30
0.0
 11
168.6896967785728
 21
169.7321130798086
 31
0.0
  0
TEXT
  5
125B1
330
1F
100
AcDbEntity
  8
MOJI
100
AcDbText
 10
111.6267434622586
 20
169.7321130798086
 30
0.0
 40
4.0
  1
エポキシ樹脂接着剤注入
  7
MSゴシック
 11
111.6267434622586
 21
171.7321130798086
 31
0.0
100
AcDbText
 73
     2
  0
TEXT
  5
125B2
330
1F
100
AcDbEntity
  8
MOJI
100
AcDbText
 10
111.6267434622586
 20
163.7321130798086
 30
0.0
 40
4.0
  1
(本穴 φ１０．５)
  7
MSゴシック
 11
111.6267434622586
 21
165.7321130798086
 31
0.0
100
AcDbText
 73
     2
  0
TEXT
  5
125B3
330
1F
100
AcDbEntity
  8
MOJI
100
AcDbText
 10
111.6267434622586
 20
175.7321130798086
 30
0.0
 40
4.0
  1
ソーラーステイアンカー ４ヶ所
  7
MSゴシック
 11
111.6267434622586
 21
177.7321130798086
 31
0.0
100
AcDbText
 73
     2
  0
HATCH
  5
125B4
330
1F
100
AcDbEntity
  8
MOJI
100
AcDbHatch
 10
0.0
 20
0.0
 30
0.0
210
0.0
220
0.0
230
1.0
  2
SOLID
 70
     1
 71
     0
 91
        1
 92
        7
 72
     1
 73
     1
 93
        2
 10
206.3782543396751
 20
114.499511203895
 42
1.0
 10
204.7782543396747
 20
114.499511203895
 42
1.0
 97
        0
 75
     0
 76
     1
 47
0.0294696588072039
 98
        1
 10
205.9908796647319
 20
114.322609136484
  0
CIRCLE
  5
125B5
330
1F
100
AcDbEntity
  8
MOJI
100
AcDbCircle
 10
205.578254339674
 20
114.499511203895
 30
0.0
 40
0.8000000000000113
  0
LINE
  5
125B6
330
1F
100
AcDbEntity
  8
MOJI
100
AcDbLine
 10
199.5361705657947
 20
92.47090541467605
 30
0.0
 11
173.6896967785728
 21
137.2383112106431
 31
0.0
  0
LINE
  5
125B7
330
1F
100
AcDbEntity
  8
MOJI
100
AcDbLine
 10
173.6896967785728
 20
137.2383112106431
 30
0.0
 11
168.6896967785728
 21
137.2383112106431
 31
0.0
  0
TEXT
  5
125B8
330
1F
100
AcDbEntity
  8
MOJI
100
AcDbText
 10
127.2594582734389
 20
135.4689207319512
 30
0.0
 40
4.0
  1
ステイスペーサー
  7
MSゴシック
 11
127.2594582734389
 21
137.4689207319512
 31
0.0
100
AcDbText
 73
     2
  0
HATCH
  5
125B9
330
1F
100
AcDbEntity
  8
MOJI
100
AcDbHatch
 10
0.0
 20
0.0
 30
0.0
210
0.0
220
0.0
230
1.0
  2
SOLID
 70
     1
 71
     0
 91
        1
 92
        1
 93
        1
 72
     2
 10
199.5361705657956
 20
92.47090541467605
 40
0.8000000000001818
 50
0.0
 51
360.0
 73
     1
 97
        0
 75
     0
 76
     1
 98
        1
 10
205.9908796647319
 20
81.82880726731855
  0
CIRCLE
  5
125BA
330
1F
100
AcDbEntity
  8
MOJI
100
AcDbCircle
 10
199.5361705657947
 20
92.47090541467605
 30
0.0
 40
0.8000000000000113
  0
LINE
  5
125BB
330
1F
100
AcDbEntity
  8
MOJI
100
AcDbLine
 10
437.4012954817917
 20
129.4698077902761
 30
0.0
 11
442.4012954817917
 21
129.4698077902761
 31
0.0
  0
LINE
  5
125BC
330
1F
100
AcDbEntity
  8
MOJI
100
AcDbLine
 10
417.7332481927241
 20
95.40375059994294
 30
0.0
 11
437.4012954817917
 21
129.4698077902761
 31
0.0
  0
TEXT
  5
125BD
330
1F
100
AcDbEntity
  8
MOJI
100
AcDbText
 10
442.4012954817917
 20
127.4698077902761
 30
0.0
 40
4.0
  1
断熱材(ｔ＝５０ｍｍまで)
  7
MSゴシック
 11
442.4012954817917
 21
129.4698077902761
 31
0.0
100
AcDbText
 73
     2
  0
HATCH
  5
125BE
330
1F
100
AcDbEntity
  8
MOJI
100
AcDbHatch
 10
0.0
 20
0.0
 30
0.0
210
0.0
220
0.0
230
1.0
  2
SOLID
 70
     1
 71
     0
 91
        1
 92
        7
 72
     1
 73
     1
 93
        2
 10
418.5332481927234
 20
95.40375059994294
 42
1.0
 10
416.9332481927249
 20
95.40375059994294
 42
1.0
 97
        0
 75
     0
 76
     1
 47
0.0294696588072039
 98
        1
 10
418.145873517782
 20
95.22684853253196
  0
CIRCLE
  5
125BF
330
1F
100
AcDbEntity
  8
MOJI
100
AcDbCircle
 10
417.7332481927241
 20
95.40375059994294
 30
0.0
 40
0.8000000000000113
  0
LINE
  5
125C0
330
1F
100
AcDbEntity
  8
MOJI
100
AcDbLine
 10
330.1188374076905
 20
246.7651091488476
 30
0.0
 11
335.1188374076905
 21
246.7651091488476
 31
0.0
  0
LINE
  5
125C1
330
1F
100
AcDbEntity
  8
MOJI
100
AcDbLine
 10
310.450790118623
 20
212.6990519585145
 30
0.0
 11
330.1188374076905
 21
246.7651091488476
 31
0.0
  0
TEXT
  5
125C2
330
1F
100
AcDbEntity
  8
MOJI
100
AcDbText
 10
335.1188374076905
 20
244.7651091488476
 30
0.0
 40
4.0
  1
本体
  7
MSゴシック
 11
335.1188374076905
 21
246.7651091488476
 31
0.0
100
AcDbText
 73
     2
  0
HATCH
  5
125C3
330
1F
100
AcDbEntity
  8
MOJI
100
AcDbHatch
 10
0.0
 20
0.0
 30
0.0
210
0.0
220
0.0
230
1.0
  2
SOLID
 70
     1
 71
     0
 91
        1
 92
        7
 72
     1
 73
     1
 93
        2
 10
311.2507901186223
 20
212.6990519585145
 42
1.0
 10
309.6507901186237
 20
212.6990519585145
 42
1.0
 97
        0
 75
     0
 76
     1
 47
0.0294696588072039
 98
        1
 10
310.8634154436809
 20
212.5221498911035
  0
CIRCLE
  5
125C4
330
1F
100
AcDbEntity
  8
MOJI
100
AcDbCircle
 10
310.450790118623
 20
212.6990519585145
 30
0.0
 40
0.8000000000000113
  0
LINE
  5
125C8
330
1F
100
AcDbEntity
  8
MOJI
100
AcDbLine
 10
311.3473313794534
 20
304.7660571903321
 30
0.0
 11
316.3473313794534
 21
304.7660571903321
 31
0.0
  0
LINE
  5
125C9
330
1F
100
AcDbEntity
  8
MOJI
100
AcDbLine
 10
291.6792840903859
 20
270.6999999999989
 30
0.0
 11
311.3473313794534
 21
304.7660571903321
 31
0.0
  0
TEXT
  5
125CA
330
1F
100
AcDbEntity
  8
MOJI
100
AcDbText
 10
316.3473313794534
 20
302.7660571903321
 30
0.0
 40
4.0
  1
高さ調整用ワッシャー
  7
MSゴシック
 11
316.3473313794534
 21
304.7660571903321
 31
0.0
100
AcDbText
 73
     2
  0
HATCH
  5
125CB
330
1F
100
AcDbEntity
  8
MOJI
100
AcDbHatch
 10
0.0
 20
0.0
 30
0.0
210
0.0
220
0.0
230
1.0
  2
SOLID
 70
     1
 71
     0
 91
        1
 92
        7
 72
     1
 73
     1
 93
        2
 10
292.4792840903851
 20
270.6999999999989
 42
1.0
 10
290.8792840903866
 20
270.6999999999989
 42
1.0
 97
        0
 75
     0
 76
     1
 47
0.0294696588072039
 98
        1
 10
292.0919094154438
 20
270.5230979325879
  0
CIRCLE
  5
125CC
330
1F
100
AcDbEntity
  8
MOJI
100
AcDbCircle
 10
291.6792840903859
 20
270.6999999999989
 30
0.0
 40
0.8000000000000113
  0
LINE
  5
125CD
330
1F
100
AcDbEntity
  8
MOJI
100
AcDbLine
 10
322.3169864940542
 20
359.6660571903324
 30
0.0
 11
327.3169864940542
 21
359.6660571903324
 31
0.0
  0
LINE
  5
125CE
330
1F
100
AcDbEntity
  8
MOJI
100
AcDbLine
 10
302.6489392049866
 20
325.599999999999
 30
0.0
 11
322.3169864940542
 21
359.6660571903324
 31
0.0
  0
TEXT
  5
125CF
330
1F
100
AcDbEntity
  8
MOJI
100
AcDbText
 10
327.3169864940542
 20
357.6660571903324
 30
0.0
 40
4.0
  1
Ｍ１２ Ｕナット
  7
MSゴシック
 11
327.3169864940542
 21
359.6660571903324
 31
0.0
100
AcDbText
 73
     2
  0
HATCH
  5
125D0
330
1F
100
AcDbEntity
  8
MOJI
100
AcDbHatch
 10
0.0
 20
0.0
 30
0.0
210
0.0
220
0.0
230
1.0
  2
SOLID
 70
     1
 71
     0
 91
        1
 92
        7
 72
     1
 73
     1
 93
        2
 10
303.4489392049859
 20
325.599999999999
 42
1.0
 10
301.8489392049874
 20
325.599999999999
 42
1.0
 97
        0
 75
     0
 76
     1
 47
0.0294696588072039
 98
        1
 10
303.0615645300445
 20
325.423097932588
  0
CIRCLE
  5
125D1
330
1F
100
AcDbEntity
  8
MOJI
100
AcDbCircle
 10
302.6489392049866
 20
325.599999999999
 30
0.0
 40
0.8000000000000113
  0
LINE
  5
125D2
330
1F
100
AcDbEntity
  8
0
100
AcDbLine
 10
291.6792840903859
 20
502.0
 30
0.0
 11
291.6792840903859
 21
0.0
 31
0.0
  0
CIRCLE
  5
125D4
330
1F
100
AcDbEntity
  8
0
100
AcDbCircle
 10
611.7017521047159
 20
375.0
 30
0.0
 40
85.0
  0
LINE
  5
125D5
330
1F
100
AcDbEntity
  8
0
100
AcDbLine
 10
721.7017521047157
 20
375.0
 30
0.0
 11
501.701752104716
 21
375.0
 31
0.0
  0
LINE
  5
125D6
330
1F
100
AcDbEntity
  8
0
100
AcDbLine
 10
611.7017521047159
 20
485.0
 30
0.0
 11
611.7017521047159
 21
265.0
 31
0.0
  0
CIRCLE
  5
125D7
330
1F
100
AcDbEntity
  8
pv
100
AcDbCircle
 10
611.7017521047159
 20
460.0
 30
0.0
 40
11.0
  0
CIRCLE
  5
125D8
330
1F
100
AcDbEntity
  8
pv
100
AcDbCircle
 10
611.7017521047159
 20
460.0
 30
0.0
 40
5.5
  0
CIRCLE
  5
125D9
330
1F
100
AcDbEntity
  8
pv
100
AcDbCircle
 10
551.5976757038592
 20
435.1040764008566
 30
0.0
 40
11.0
  0
CIRCLE
  5
125DA
330
1F
100
AcDbEntity
  8
pv
100
AcDbCircle
 10
551.5976757038592
 20
435.1040764008566
 30
0.0
 40
5.5
  0
CIRCLE
  5
125DB
330
1F
100
AcDbEntity
  8
pv
100
AcDbCircle
 10
526.701752104716
 20
375.0
 30
0.0
 40
11.0
  0
CIRCLE
  5
125DC
330
1F
100
AcDbEntity
  8
pv
100
AcDbCircle
 10
526.701752104716
 20
375.0
 30
0.0
 40
5.5
  0
CIRCLE
  5
125DD
330
1F
100
AcDbEntity
  8
pv
100
AcDbCircle
 10
551.5976757038592
 20
314.8959235991435
 30
0.0
 40
11.0
  0
CIRCLE
  5
125DE
330
1F
100
AcDbEntity
  8
pv
100
AcDbCircle
 10
551.5976757038592
 20
314.8959235991435
 30
0.0
 40
5.5
  0
CIRCLE
  5
125DF
330
1F
100
AcDbEntity
  8
pv
100
AcDbCircle
 10
611.7017521047159
 20
290.0
 30
0.0
 40
11.0
  0
CIRCLE
  5
125E0
330
1F
100
AcDbEntity
  8
pv
100
AcDbCircle
 10
611.7017521047159
 20
290.0
 30
0.0
 40
5.5
  0
CIRCLE
  5
125E1
330
1F
100
AcDbEntity
  8
pv
100
AcDbCircle
 10
671.8058285055722
 20
314.8959235991433
 30
0.0
 40
11.0
  0
CIRCLE
  5
125E2
330
1F
100
AcDbEntity
  8
pv
100
AcDbCircle
 10
671.8058285055722
 20
314.8959235991433
 30
0.0
 40
5.5
  0
CIRCLE
  5
125E3
330
1F
100
AcDbEntity
  8
pv
100
AcDbCircle
 10
696.7017521047157
 20
375.0
 30
0.0
 40
11.0
  0
CIRCLE
  5
125E4
330
1F
100
AcDbEntity
  8
pv
100
AcDbCircle
 10
696.7017521047157
 20
375.0
 30
0.0
 40
5.5
  0
CIRCLE
  5
125E5
330
1F
100
AcDbEntity
  8
pv
100
AcDbCircle
 10
671.8058285055724
 20
435.1040764008565
 30
0.0
 40
11.0
  0
CIRCLE
  5
125E6
330
1F
100
AcDbEntity
  8
pv
100
AcDbCircle
 10
671.8058285055724
 20
435.1040764008565
 30
0.0
 40
5.5
  0
CIRCLE
  5
125E9
330
1F
100
AcDbEntity
  8
pv
100
AcDbCircle
 10
611.7017521047159
 20
375.0
 30
0.0
 40
5.052999999999999
  0
CIRCLE
  5
125EA
330
1F
100
AcDbEntity
  8
pv
100
AcDbCircle
 10
611.7017521047159
 20
375.0
 30
0.0
 40
6.0
  0
LINE
  5
125EE
330
1F
100
AcDbEntity
  8
0
100
AcDbLine
 10
542.2638661921969
 20
444.437885912519
 30
0.0
 11
560.9314852155216
 21
425.7702668891941
 31
0.0
  0
LINE
  5
125EF
330
1F
100
AcDbEntity
  8
0
100
AcDbLine
 10
542.2638661921969
 20
305.5621140874809
 30
0.0
 11
560.9314852155216
 21
324.2297331108059
 31
0.0
  0
LINE
  5
125F0
330
1F
100
AcDbEntity
  8
0
100
AcDbLine
 10
681.1396380172348
 20
305.5621140874809
 30
0.0
 11
662.4720189939098
 21
324.2297331108059
 31
0.0
  0
LINE
  5
125F1
330
1F
100
AcDbEntity
  8
0
100
AcDbLine
 10
681.139638017235
 20
444.437885912519
 30
0.0
 11
662.47201899391
 21
425.7702668891941
 31
0.0
  0
TEXT
  5
125F5
330
1F
100
AcDbEntity
  8
sunpo
100
AcDbText
 10
425.0721638937632
 20
520.0089799823845
 30
0.0
 40
5.0
  1
< 本体 >
  7
MSゴシック
 11
425.0721638937632
 21
522.5089799823845
 31
0.0
100
AcDbText
 73
     2
  0
TEXT
  5
125F6
330
1F
100
AcDbEntity
  8
MOJI
100
AcDbText
 10
335.1188374076905
 20
238.7651091488476
 30
0.0
 40
4.0
  1
(塩ビ被覆処理)
  7
MSゴシック
 11
335.1188374076905
 21
240.7651091488476
 31
0.0
100
AcDbText
 73
     2
  0
LINE
  5
125FC
330
1F
100
AcDbEntity
  8
pv
100
AcDbLine
 10
272.679284090384
 20
247.5
 30
0.0
 11
277.6792840903841
 21
252.5
 31
0.0
  0
LINE
  5
125FD
330
1F
100
AcDbEntity
  8
pv
100
AcDbLine
 10
277.6792840903841
 20
252.5
 30
0.0
 11
280.7096289757815
 21
249.5
 31
0.0
  0
LINE
  5
125FE
330
1F
100
AcDbEntity
  8
pv
100
AcDbLine
 10
302.6489392049866
 20
249.5
 30
0.0
 11
305.6489392049866
 21
252.5
 31
0.0
  0
ARC
  5
125FF
330
1F
100
AcDbEntity
  8
pv
100
AcDbCircle
 10
266.679284090384
 20
117.5
 30
0.0
 40
2.0
100
AcDbArc
 50
90.0
 51
180.0
  0
LINE
  5
1291A
330
1F
100
AcDbEntity
  8
WAKU
100
AcDbLine
 10
0.0
 20
0.0
 30
0.0
 11
800.0
 21
0.0
 31
0.0
  0
LINE
  5
1291B
330
1F
100
AcDbEntity
  8
WAKU
100
AcDbLine
 10
800.0
 20
0.0
 30
0.0
 11
800.0
 21
550.0
 31
0.0
  0
LINE
  5
1291C
330
1F
100
AcDbEntity
  8
WAKU
100
AcDbLine
 10
800.0
 20
550.0
 30
0.0
 11
0.0
 21
550.0
 31
0.0
  0
LINE
  5
1291D
330
1F
100
AcDbEntity
  8
WAKU
100
AcDbLine
 10
0.0
 20
550.0
 30
0.0
 11
0.0
 21
0.0
 31
0.0
  0
LINE
  5
1291E
330
1F
100
AcDbEntity
  8
WAKU
100
AcDbLine
 10
800.0
 20
525.9999999999986
 30
0.0
 11
0.0
 21
526.0
 31
0.0
  0
LINE
  5
1291F
330
1F
100
AcDbEntity
  8
WAKU
100
AcDbLine
 10
0.0
 20
526.0
 30
0.0
 11
0.0
 21
550.0
 31
0.0
  0
LINE
  5
12920
330
1F
100
AcDbEntity
  8
WAKU
100
AcDbLine
 10
0.0
 20
550.0
 30
0.0
 11
800.0
 21
549.9999999999986
 31
0.0
  0
LINE
  5
12921
330
1F
100
AcDbEntity
  8
WAKU
100
AcDbLine
 10
800.0
 20
549.9999999999986
 30
0.0
 11
800.0
 21
525.9999999999986
 31
0.0
  0
LINE
  5
12922
330
1F
100
AcDbEntity
  8
HATCH
  6
Continuous
100
AcDbLine
 10
0.0000000000001137
 20
105.0779211344595
 30
0.0
 11
4.922078865540697
 21
110.0
 31
0.0
1001
ACAD
1010
0.0
1020
0.0
1030
0.0
  0
LINE
  5
12923
330
1F
100
AcDbEntity
  8
HATCH
  6
Continuous
100
AcDbLine
 10
0.0000000000002274
 20
96.09766501339038
 30
0.0
 11
13.90233498660984
 21
110.0
 31
0.0
1001
ACAD
1010
0.0
1020
0.0
1030
0.0
  0
LINE
  5
12924
330
1F
100
AcDbEntity
  8
HATCH
  6
Continuous
100
AcDbLine
 10
0.0000000000002274
 20
87.11740889232117
 30
0.0
 11
22.88259110767899
 21
109.9999999999999
 31
0.0
1001
ACAD
1010
0.0
1020
0.0
1030
0.0
  0
LINE
  5
12925
330
1F
100
AcDbEntity
  8
HATCH
  6
Continuous
100
AcDbLine
 10
1.862847228748137
 20
80.0
 30
0.0
 11
31.86284722874814
 21
110.0
 31
0.0
1001
ACAD
1010
0.0
1020
0.0
1030
0.0
  0
LINE
  5
12926
330
1F
100
AcDbEntity
  8
HATCH
  6
Continuous
100
AcDbLine
 10
10.84310334981722
 20
79.99999999999994
 30
0.0
 11
40.84310334981722
 21
109.9999999999999
 31
0.0
1001
ACAD
1010
0.0
1020
0.0
1030
0.0
  0
LINE
  5
12927
330
1F
100
AcDbEntity
  8
HATCH
  6
Continuous
100
AcDbLine
 10
19.82335947088643
 20
80.0
 30
0.0
 11
49.82335947088643
 21
110.0
 31
0.0
1001
ACAD
1010
0.0
1020
0.0
1030
0.0
  0
LINE
  5
12928
330
1F
100
AcDbEntity
  8
HATCH
  6
Continuous
100
AcDbLine
 10
28.80361559195552
 20
79.99999999999994
 30
0.0
 11
58.80361559195552
 21
109.9999999999999
 31
0.0
1001
ACAD
1010
0.0
1020
0.0
1030
0.0
  0
LINE
  5
12929
330
1F
100
AcDbEntity
  8
HATCH
  6
Continuous
100
AcDbLine
 10
37.78387171302473
 20
80.0
 30
0.0
 11
67.78387171302461
 21
109.9999999999999
 31
0.0
1001
ACAD
1010
0.0
1020
0.0
1030
0.0
  0
LINE
  5
1292A
330
1F
100
AcDbEntity
  8
HATCH
  6
Continuous
100
AcDbLine
 10
46.76412783409381
 20
79.99999999999994
 30
0.0
 11
76.76412783409381
 21
109.9999999999999
 31
0.0
1001
ACAD
1010
0.0
1020
0.0
1030
0.0
  0
LINE
  5
1292B
330
1F
100
AcDbEntity
  8
HATCH
  6
Continuous
100
AcDbLine
 10
55.74438395516302
 20
80.0
 30
0.0
 11
85.74438395516301
 21
110.0
 31
0.0
1001
ACAD
1010
0.0
1020
0.0
1030
0.0
  0
LINE
  5
1292C
330
1F
100
AcDbEntity
  8
HATCH
  6
Continuous
100
AcDbLine
 10
64.72464007623222
 20
80.00000000000005
 30
0.0
 11
94.7246400762321
 21
109.9999999999999
 31
0.0
1001
ACAD
1010
0.0
1020
0.0
1030
0.0
  0
LINE
  5
1292D
330
1F
100
AcDbEntity
  8
HATCH
  6
Continuous
100
AcDbLine
 10
73.70489619730131
 20
80.0
 30
0.0
 11
103.7048961973012
 21
109.9999999999999
 31
0.0
1001
ACAD
1010
0.0
1020
0.0
1030
0.0
  0
LINE
  5
1292E
330
1F
100
AcDbEntity
  8
HATCH
  6
Continuous
100
AcDbLine
 10
82.68515231837051
 20
80.00000000000005
 30
0.0
 11
112.6851523183705
 21
110.0
 31
0.0
1001
ACAD
1010
0.0
1020
0.0
1030
0.0
  0
LINE
  5
1292F
330
1F
100
AcDbEntity
  8
HATCH
  6
Continuous
100
AcDbLine
 10
91.66540843943961
 20
80.0
 30
0.0
 11
121.6654084394396
 21
110.0
 31
0.0
1001
ACAD
1010
0.0
1020
0.0
1030
0.0
  0
LINE
  5
12930
330
1F
100
AcDbEntity
  8
HATCH
  6
Continuous
100
AcDbLine
 10
100.6456645605088
 20
80.00000000000005
 30
0.0
 11
130.6456645605087
 21
109.9999999999999
 31
0.0
1001
ACAD
1010
0.0
1020
0.0
1030
0.0
  0
LINE
  5
12931
330
1F
100
AcDbEntity
  8
HATCH
  6
Continuous
100
AcDbLine
 10
109.6259206815779
 20
80.0
 30
0.0
 11
139.6259206815777
 21
109.9999999999999
 31
0.0
1001
ACAD
1010
0.0
1020
0.0
1030
0.0
  0
LINE
  5
12932
330
1F
100
AcDbEntity
  8
HATCH
  6
Continuous
100
AcDbLine
 10
118.6061768026471
 20
80.0
 30
0.0
 11
148.6061768026471
 21
110.0
 31
0.0
1001
ACAD
1010
0.0
1020
0.0
1030
0.0
  0
LINE
  5
12933
330
1F
100
AcDbEntity
  8
HATCH
  6
Continuous
100
AcDbLine
 10
127.5864329237162
 20
79.99999999999994
 30
0.0
 11
157.5864329237162
 21
109.9999999999999
 31
0.0
1001
ACAD
1010
0.0
1020
0.0
1030
0.0
  0
LINE
  5
12934
330
1F
100
AcDbEntity
  8
HATCH
  6
Continuous
100
AcDbLine
 10
136.5666890447854
 20
80.0
 30
0.0
 11
166.5666890447853
 21
109.9999999999999
 31
0.0
1001
ACAD
1010
0.0
1020
0.0
1030
0.0
  0
LINE
  5
12935
330
1F
100
AcDbEntity
  8
HATCH
  6
Continuous
100
AcDbLine
 10
145.5469451658545
 20
79.99999999999994
 30
0.0
 11
175.5469451658544
 21
109.9999999999998
 31
0.0
1001
ACAD
1010
0.0
1020
0.0
1030
0.0
  0
LINE
  5
12936
330
1F
100
AcDbEntity
  8
HATCH
  6
Continuous
100
AcDbLine
 10
154.5272012869237
 20
80.0
 30
0.0
 11
184.5272012869237
 21
110.0
 31
0.0
1001
ACAD
1010
0.0
1020
0.0
1030
0.0
  0
LINE
  5
12937
330
1F
100
AcDbEntity
  8
HATCH
  6
Continuous
100
AcDbLine
 10
163.5074574079929
 20
80.00000000000012
 30
0.0
 11
193.5074574079928
 21
110.0
 31
0.0
1001
ACAD
1010
0.0
1020
0.0
1030
0.0
  0
LINE
  5
12938
330
1F
100
AcDbEntity
  8
HATCH
  6
Continuous
100
AcDbLine
 10
172.487713529062
 20
80.0
 30
0.0
 11
198.1792840903879
 21
105.6915705613258
 31
0.0
1001
ACAD
1010
0.0
1020
0.0
1030
0.0
  0
LINE
  5
12939
330
1F
100
AcDbEntity
  8
HATCH
  6
Continuous
100
AcDbLine
 10
181.4679696501312
 20
80.0
 30
0.0
 11
198.1792840903879
 21
96.71131444025673
 31
0.0
1001
ACAD
1010
0.0
1020
0.0
1030
0.0
  0
LINE
  5
1293A
330
1F
100
AcDbEntity
  8
HATCH
  6
Continuous
100
AcDbLine
 10
190.4482257712003
 20
80.0
 30
0.0
 11
198.1792840903879
 21
87.73105831918758
 31
0.0
1001
ACAD
1010
0.0
1020
0.0
1030
0.0
  0
LINE
  5
1293B
330
1F
100
AcDbEntity
  8
HATCH
  6
Continuous
100
AcDbLine
 10
215.179284090388
 20
104.7310583191877
 30
0.0
 11
220.4482257712003
 21
110.0
 31
0.0
1001
ACAD
1010
0.0
1020
0.0
1030
0.0
  0
LINE
  5
1293C
330
1F
100
AcDbEntity
  8
HATCH
  6
Continuous
100
AcDbLine
 10
215.179284090388
 20
95.75080219811855
 30
0.0
 11
229.4284818922694
 21
110.0
 31
0.0
1001
ACAD
1010
0.0
1020
0.0
1030
0.0
  0
LINE
  5
1293D
330
1F
100
AcDbEntity
  8
HATCH
  6
Continuous
100
AcDbLine
 10
215.1792840903879
 20
86.77054607704929
 30
0.0
 11
238.4087380133387
 21
110.0000000000001
 31
0.0
1001
ACAD
1010
0.0
1020
0.0
1030
0.0
  0
LINE
  5
1293E
330
1F
100
AcDbEntity
  8
HATCH
  6
Continuous
100
AcDbLine
 10
217.3889941344079
 20
80.0
 30
0.0
 11
247.3889941344079
 21
110.0
 31
0.0
1001
ACAD
1010
0.0
1020
0.0
1030
0.0
  0
LINE
  5
1293F
330
1F
100
AcDbEntity
  8
HATCH
  6
Continuous
100
AcDbLine
 10
226.369250255477
 20
80.00000000000012
 30
0.0
 11
256.3692502554769
 21
110.0
 31
0.0
1001
ACAD
1010
0.0
1020
0.0
1030
0.0
  0
LINE
  5
12940
330
1F
100
AcDbEntity
  8
HATCH
  6
Continuous
100
AcDbLine
 10
235.3495063765462
 20
80.0
 30
0.0
 11
265.3495063765461
 21
109.9999999999999
 31
0.0
1001
ACAD
1010
0.0
1020
0.0
1030
0.0
  0
LINE
  5
12941
330
1F
100
AcDbEntity
  8
HATCH
  6
Continuous
100
AcDbLine
 10
244.3297624976152
 20
80.0
 30
0.0
 11
274.3297624976153
 21
110.0000000000001
 31
0.0
1001
ACAD
1010
0.0
1020
0.0
1030
0.0
  0
LINE
  5
12942
330
1F
100
AcDbEntity
  8
HATCH
  6
Continuous
100
AcDbLine
 10
253.3100186186845
 20
80.0
 30
0.0
 11
283.3100186186845
 21
110.0
 31
0.0
1001
ACAD
1010
0.0
1020
0.0
1030
0.0
  0
LINE
  5
12943
330
1F
100
AcDbEntity
  8
HATCH
  6
Continuous
100
AcDbLine
 10
262.2902747397536
 20
80.00000000000012
 30
0.0
 11
292.2902747397535
 21
110.0
 31
0.0
1001
ACAD
1010
0.0
1020
0.0
1030
0.0
  0
LINE
  5
12944
330
1F
100
AcDbEntity
  8
HATCH
  6
Continuous
100
AcDbLine
 10
271.2705308608228
 20
80.0
 30
0.0
 11
301.2705308608226
 21
109.9999999999999
 31
0.0
1001
ACAD
1010
0.0
1020
0.0
1030
0.0
  0
LINE
  5
12945
330
1F
100
AcDbEntity
  8
HATCH
  6
Continuous
100
AcDbLine
 10
280.2507869818918
 20
80.0
 30
0.0
 11
310.2507869818919
 21
110.0000000000001
 31
0.0
1001
ACAD
1010
0.0
1020
0.0
1030
0.0
  0
LINE
  5
12946
330
1F
100
AcDbEntity
  8
HATCH
  6
Continuous
100
AcDbLine
 10
289.231043102961
 20
80.0
 30
0.0
 11
319.2310431029611
 21
110.0
 31
0.0
1001
ACAD
1010
0.0
1020
0.0
1030
0.0
  0
LINE
  5
12947
330
1F
100
AcDbEntity
  8
HATCH
  6
Continuous
100
AcDbLine
 10
298.2112992240302
 20
80.00000000000012
 30
0.0
 11
328.2112992240301
 21
110.0
 31
0.0
1001
ACAD
1010
0.0
1020
0.0
1030
0.0
  0
LINE
  5
12948
330
1F
100
AcDbEntity
  8
HATCH
  6
Continuous
100
AcDbLine
 10
307.1915553450994
 20
80.0
 30
0.0
 11
337.1915553450993
 21
109.9999999999999
 31
0.0
1001
ACAD
1010
0.0
1020
0.0
1030
0.0
  0
LINE
  5
12949
330
1F
100
AcDbEntity
  8
HATCH
  6
Continuous
100
AcDbLine
 10
316.1718114661684
 20
80.0
 30
0.0
 11
346.1718114661685
 21
110.0000000000001
 31
0.0
1001
ACAD
1010
0.0
1020
0.0
1030
0.0
  0
LINE
  5
1294A
330
1F
100
AcDbEntity
  8
HATCH
  6
Continuous
100
AcDbLine
 10
325.1520675872376
 20
80.0
 30
0.0
 11
355.1520675872376
 21
110.0
 31
0.0
1001
ACAD
1010
0.0
1020
0.0
1030
0.0
  0
LINE
  5
1294B
330
1F
100
AcDbEntity
  8
HATCH
  6
Continuous
100
AcDbLine
 10
334.1323237083069
 20
80.0
 30
0.0
 11
364.1323237083068
 21
109.9999999999999
 31
0.0
1001
ACAD
1010
0.0
1020
0.0
1030
0.0
  0
LINE
  5
1294C
330
1F
100
AcDbEntity
  8
HATCH
  6
Continuous
100
AcDbLine
 10
343.1125798293759
 20
80.0
 30
0.0
 11
368.1792840903844
 21
105.0667042610084
 31
0.0
1001
ACAD
1010
0.0
1020
0.0
1030
0.0
  0
LINE
  5
1294D
330
1F
100
AcDbEntity
  8
HATCH
  6
Continuous
100
AcDbLine
 10
352.0928359504451
 20
79.99999999999989
 30
0.0
 11
368.1792840903844
 21
96.08644813993919
 31
0.0
1001
ACAD
1010
0.0
1020
0.0
1030
0.0
  0
LINE
  5
1294E
330
1F
100
AcDbEntity
  8
HATCH
  6
Continuous
100
AcDbLine
 10
361.0730920715142
 20
80.0
 30
0.0
 11
368.1792840903843
 21
87.10619201887004
 31
0.0
1001
ACAD
1010
0.0
1020
0.0
1030
0.0
  0
LINE
  5
1294F
330
1F
100
AcDbEntity
  8
HATCH
  6
Continuous
100
AcDbLine
 10
385.1792840903843
 20
104.10619201887
 30
0.0
 11
391.0730920715142
 21
110.0
 31
0.0
1001
ACAD
1010
0.0
1020
0.0
1030
0.0
  0
LINE
  5
12950
330
1F
100
AcDbEntity
  8
HATCH
  6
Continuous
100
AcDbLine
 10
385.1792840903843
 20
95.12593589780079
 30
0.0
 11
400.0533481925833
 21
109.9999999999999
 31
0.0
1001
ACAD
1010
0.0
1020
0.0
1030
0.0
  0
LINE
  5
12951
330
1F
100
AcDbEntity
  8
HATCH
  6
Continuous
100
AcDbLine
 10
385.1792840903843
 20
86.14567977673175
 30
0.0
 11
409.0336043136524
 21
109.9999999999999
 31
0.0
1001
ACAD
1010
0.0
1020
0.0
1030
0.0
  0
LINE
  5
12952
330
1F
100
AcDbEntity
  8
HATCH
  6
Continuous
100
AcDbLine
 10
388.0138604347218
 20
80.0
 30
0.0
 11
418.0138604347215
 21
109.9999999999997
 31
0.0
1001
ACAD
1010
0.0
1020
0.0
1030
0.0
  0
LINE
  5
12953
330
1F
100
AcDbEntity
  8
HATCH
  6
Continuous
100
AcDbLine
 10
396.9941165557909
 20
80.00000000000012
 30
0.0
 11
426.9941165557908
 21
110.0
 31
0.0
1001
ACAD
1010
0.0
1020
0.0
1030
0.0
  0
LINE
  5
12954
330
1F
100
AcDbEntity
  8
HATCH
  6
Continuous
100
AcDbLine
 10
405.97437267686
 20
80.0
 30
0.0
 11
435.97437267686
 21
110.0
 31
0.0
1001
ACAD
1010
0.0
1020
0.0
1030
0.0
  0
LINE
  5
12955
330
1F
100
AcDbEntity
  8
HATCH
  6
Continuous
100
AcDbLine
 10
414.9546287979291
 20
80.00000000000012
 30
0.0
 11
444.954628797929
 21
110.0
 31
0.0
1001
ACAD
1010
0.0
1020
0.0
1030
0.0
  0
LINE
  5
12956
330
1F
100
AcDbEntity
  8
HATCH
  6
Continuous
100
AcDbLine
 10
423.9348849189983
 20
80.0
 30
0.0
 11
453.9348849189982
 21
109.9999999999999
 31
0.0
1001
ACAD
1010
0.0
1020
0.0
1030
0.0
  0
LINE
  5
12957
330
1F
100
AcDbEntity
  8
HATCH
  6
Continuous
100
AcDbLine
 10
432.9151410400675
 20
80.00000000000012
 30
0.0
 11
462.9151410400673
 21
110.0
 31
0.0
1001
ACAD
1010
0.0
1020
0.0
1030
0.0
  0
LINE
  5
12958
330
1F
100
AcDbEntity
  8
HATCH
  6
Continuous
100
AcDbLine
 10
441.8953971611366
 20
80.0
 30
0.0
 11
471.8953971611365
 21
109.9999999999999
 31
0.0
1001
ACAD
1010
0.0
1020
0.0
1030
0.0
  0
LINE
  5
12959
330
1F
100
AcDbEntity
  8
HATCH
  6
Continuous
100
AcDbLine
 10
450.8756532822056
 20
80.0
 30
0.0
 11
480.8756532822055
 21
109.9999999999999
 31
0.0
1001
ACAD
1010
0.0
1020
0.0
1030
0.0
  0
LINE
  5
1295A
330
1F
100
AcDbEntity
  8
HATCH
  6
Continuous
100
AcDbLine
 10
459.8559094032749
 20
80.0
 30
0.0
 11
489.8559094032749
 21
110.0
 31
0.0
1001
ACAD
1010
0.0
1020
0.0
1030
0.0
  0
LINE
  5
1295B
330
1F
100
AcDbEntity
  8
HATCH
  6
Continuous
100
AcDbLine
 10
468.8361655243439
 20
80.0
 30
0.0
 11
498.836165524344
 21
110.0
 31
0.0
1001
ACAD
1010
0.0
1020
0.0
1030
0.0
  0
LINE
  5
1295C
330
1F
100
AcDbEntity
  8
HATCH
  6
Continuous
100
AcDbLine
 10
477.8164216454131
 20
79.99999999999989
 30
0.0
 11
507.8164216454132
 21
110.0
 31
0.0
1001
ACAD
1010
0.0
1020
0.0
1030
0.0
  0
LINE
  5
1295D
330
1F
100
AcDbEntity
  8
HATCH
  6
Continuous
100
AcDbLine
 10
486.7966777664824
 20
80.0
 30
0.0
 11
516.7966777664823
 21
109.9999999999999
 31
0.0
1001
ACAD
1010
0.0
1020
0.0
1030
0.0
  0
LINE
  5
1295E
330
1F
100
AcDbEntity
  8
HATCH
  6
Continuous
100
AcDbLine
 10
495.7769338875516
 20
80.00000000000012
 30
0.0
 11
525.7769338875515
 21
110.0
 31
0.0
1001
ACAD
1010
0.0
1020
0.0
1030
0.0
  0
LINE
  5
1295F
330
1F
100
AcDbEntity
  8
HATCH
  6
Continuous
100
AcDbLine
 10
504.7571900086207
 20
80.0
 30
0.0
 11
534.7571900086209
 21
110.0000000000001
 31
0.0
1001
ACAD
1010
0.0
1020
0.0
1030
0.0
  0
LINE
  5
12960
330
1F
100
AcDbEntity
  8
HATCH
  6
Continuous
100
AcDbLine
 10
513.7374461296898
 20
80.0
 30
0.0
 11
543.7374461296899
 21
110.0000000000001
 31
0.0
1001
ACAD
1010
0.0
1020
0.0
1030
0.0
  0
LINE
  5
12961
330
1F
100
AcDbEntity
  8
HATCH
  6
Continuous
100
AcDbLine
 10
522.7177022507589
 20
79.99999999999989
 30
0.0
 11
552.7177022507591
 21
110.0
 31
0.0
1001
ACAD
1010
0.0
1020
0.0
1030
0.0
  0
LINE
  5
12962
330
1F
100
AcDbEntity
  8
HATCH
  6
Continuous
100
AcDbLine
 10
531.6979583718281
 20
80.0
 30
0.0
 11
561.6979583718282
 21
110.0000000000001
 31
0.0
1001
ACAD
1010
0.0
1020
0.0
1030
0.0
  0
LINE
  5
12963
330
1F
100
AcDbEntity
  8
HATCH
  6
Continuous
100
AcDbLine
 10
540.6782144928972
 20
79.99999999999989
 30
0.0
 11
570.6782144928974
 21
110.0
 31
0.0
1001
ACAD
1010
0.0
1020
0.0
1030
0.0
  0
LINE
  5
12964
330
1F
100
AcDbEntity
  8
HATCH
  6
Continuous
100
AcDbLine
 10
549.6584706139663
 20
79.99999999999989
 30
0.0
 11
579.6584706139664
 21
110.0
 31
0.0
1001
ACAD
1010
0.0
1020
0.0
1030
0.0
  0
LINE
  5
12965
330
1F
100
AcDbEntity
  8
HATCH
  6
Continuous
100
AcDbLine
 10
558.6387267350357
 20
80.0
 30
0.0
 11
583.358568180772
 21
104.7198414457364
 31
0.0
1001
ACAD
1010
0.0
1020
0.0
1030
0.0
  0
LINE
  5
12966
330
1F
100
AcDbEntity
  8
HATCH
  6
Continuous
100
AcDbLine
 10
567.6189828561047
 20
80.0
 30
0.0
 11
583.3585681807719
 21
95.73958532466724
 31
0.0
1001
ACAD
1010
0.0
1020
0.0
1030
0.0
  0
LINE
  5
12967
330
1F
100
AcDbEntity
  8
HATCH
  6
Continuous
100
AcDbLine
 10
576.599238977174
 20
80.0
 30
0.0
 11
583.358568180772
 21
86.75932920359811
 31
0.0
1001
ACAD
1010
0.0
1020
0.0
1030
0.0
  0
LINE
  5
12968
330
1F
100
AcDbEntity
  8
HATCH
  6
Continuous
100
AcDbLine
 10
0.4087380133383931
 20
80.00000000000005
 30
0.0
 11
0.0
 21
80.40873801333844
 31
0.0
1001
ACAD
1010
0.0
1020
0.0
1030
0.0
  0
LINE
  5
12969
330
1F
100
AcDbEntity
  8
HATCH
  6
Continuous
100
AcDbLine
 10
9.388994134407596
 20
80.00000000000005
 30
0.0
 11
0.0000000000001137
 21
89.3889941344076
 31
0.0
1001
ACAD
1010
0.0
1020
0.0
1030
0.0
  0
LINE
  5
1296A
330
1F
100
AcDbEntity
  8
HATCH
  6
Continuous
100
AcDbLine
 10
18.36925025547674
 20
80.0
 30
0.0
 11
0.0000000000000568
 21
98.36925025547669
 31
0.0
1001
ACAD
1010
0.0
1020
0.0
1030
0.0
  0
LINE
  5
1296B
330
1F
100
AcDbEntity
  8
HATCH
  6
Continuous
100
AcDbLine
 10
27.34950637654589
 20
80.00000000000012
 30
0.0
 11
0.0000000000000568
 21
107.3495063765459
 31
0.0
1001
ACAD
1010
0.0
1020
0.0
1030
0.0
  0
LINE
  5
1296C
330
1F
100
AcDbEntity
  8
HATCH
  6
Continuous
100
AcDbLine
 10
36.32976249761498
 20
80.00000000000005
 30
0.0
 11
6.329762497614979
 21
110.0
 31
0.0
1001
ACAD
1010
0.0
1020
0.0
1030
0.0
  0
LINE
  5
1296D
330
1F
100
AcDbEntity
  8
HATCH
  6
Continuous
100
AcDbLine
 10
45.31001861868418
 20
80.00000000000005
 30
0.0
 11
15.31001861868412
 21
110.0000000000001
 31
0.0
1001
ACAD
1010
0.0
1020
0.0
1030
0.0
  0
LINE
  5
1296E
330
1F
100
AcDbEntity
  8
HATCH
  6
Continuous
100
AcDbLine
 10
54.29027473975333
 20
80.0
 30
0.0
 11
24.29027473975333
 21
110.0
 31
0.0
1001
ACAD
1010
0.0
1020
0.0
1030
0.0
  0
LINE
  5
1296F
330
1F
100
AcDbEntity
  8
HATCH
  6
Continuous
100
AcDbLine
 10
63.27053086082248
 20
80.00000000000012
 30
0.0
 11
33.27053086082248
 21
110.0000000000001
 31
0.0
1001
ACAD
1010
0.0
1020
0.0
1030
0.0
  0
LINE
  5
12970
330
1F
100
AcDbEntity
  8
HATCH
  6
Continuous
100
AcDbLine
 10
72.25078698189157
 20
80.00000000000005
 30
0.0
 11
42.25078698189162
 21
109.9999999999999
 31
0.0
1001
ACAD
1010
0.0
1020
0.0
1030
0.0
  0
LINE
  5
12971
330
1F
100
AcDbEntity
  8
HATCH
  6
Continuous
100
AcDbLine
 10
81.23104310296088
 20
80.0
 30
0.0
 11
51.23104310296077
 21
110.0000000000001
 31
0.0
1001
ACAD
1010
0.0
1020
0.0
1030
0.0
  0
LINE
  5
12972
330
1F
100
AcDbEntity
  8
HATCH
  6
Continuous
100
AcDbLine
 10
90.21129922402991
 20
80.0
 30
0.0
 11
60.21129922402991
 21
110.0
 31
0.0
1001
ACAD
1010
0.0
1020
0.0
1030
0.0
  0
LINE
  5
12973
330
1F
100
AcDbEntity
  8
HATCH
  6
Continuous
100
AcDbLine
 10
99.19155534509911
 20
80.00000000000005
 30
0.0
 11
69.19155534509911
 21
110.0
 31
0.0
1001
ACAD
1010
0.0
1020
0.0
1030
0.0
  0
LINE
  5
12974
330
1F
100
AcDbEntity
  8
HATCH
  6
Continuous
100
AcDbLine
 10
108.1718114661681
 20
80.00000000000005
 30
0.0
 11
78.17181146616821
 21
110.0
 31
0.0
1001
ACAD
1010
0.0
1020
0.0
1030
0.0
  0
LINE
  5
12975
330
1F
100
AcDbEntity
  8
HATCH
  6
Continuous
100
AcDbLine
 10
117.1520675872374
 20
80.0
 30
0.0
 11
87.15206758723736
 21
110.0000000000001
 31
0.0
1001
ACAD
1010
0.0
1020
0.0
1030
0.0
  0
LINE
  5
12976
330
1F
100
AcDbEntity
  8
HATCH
  6
Continuous
100
AcDbLine
 10
126.1323237083066
 20
80.00000000000012
 30
0.0
 11
96.13232370830662
 21
110.0000000000001
 31
0.0
1001
ACAD
1010
0.0
1020
0.0
1030
0.0
  0
LINE
  5
12977
330
1F
100
AcDbEntity
  8
HATCH
  6
Continuous
100
AcDbLine
 10
135.1125798293757
 20
80.00000000000005
 30
0.0
 11
105.1125798293757
 21
109.9999999999999
 31
0.0
1001
ACAD
1010
0.0
1020
0.0
1030
0.0
  0
LINE
  5
12978
330
1F
100
AcDbEntity
  8
HATCH
  6
Continuous
100
AcDbLine
 10
144.0928359504448
 20
80.00000000000017
 30
0.0
 11
114.0928359504449
 21
110.0000000000001
 31
0.0
1001
ACAD
1010
0.0
1020
0.0
1030
0.0
  0
LINE
  5
12979
330
1F
100
AcDbEntity
  8
HATCH
  6
Continuous
100
AcDbLine
 10
153.073092071514
 20
80.0
 30
0.0
 11
123.073092071514
 21
110.0
 31
0.0
1001
ACAD
1010
0.0
1020
0.0
1030
0.0
  0
LINE
  5
1297A
330
1F
100
AcDbEntity
  8
HATCH
  6
Continuous
100
AcDbLine
 10
162.0533481925832
 20
80.00000000000005
 30
0.0
 11
132.0533481925831
 21
110.0000000000001
 31
0.0
1001
ACAD
1010
0.0
1020
0.0
1030
0.0
  0
LINE
  5
1297B
330
1F
100
AcDbEntity
  8
HATCH
  6
Continuous
100
AcDbLine
 10
171.0336043136523
 20
80.00000000000005
 30
0.0
 11
141.0336043136523
 21
109.9999999999999
 31
0.0
1001
ACAD
1010
0.0
1020
0.0
1030
0.0
  0
LINE
  5
1297C
330
1F
100
AcDbEntity
  8
HATCH
  6
Continuous
100
AcDbLine
 10
180.0138604347214
 20
80.00000000000017
 30
0.0
 11
150.0138604347215
 21
110.0000000000001
 31
0.0
1001
ACAD
1010
0.0
1020
0.0
1030
0.0
  0
LINE
  5
1297D
330
1F
100
AcDbEntity
  8
HATCH
  6
Continuous
100
AcDbLine
 10
188.9941165557906
 20
80.0
 30
0.0
 11
158.9941165557906
 21
110.0
 31
0.0
1001
ACAD
1010
0.0
1020
0.0
1030
0.0
  0
LINE
  5
1297E
330
1F
100
AcDbEntity
  8
HATCH
  6
Continuous
100
AcDbLine
 10
197.9743726768598
 20
80.00000000000005
 30
0.0
 11
167.9743726768597
 21
110.0000000000001
 31
0.0
1001
ACAD
1010
0.0
1020
0.0
1030
0.0
  0
LINE
  5
1297F
330
1F
100
AcDbEntity
  8
HATCH
  6
Continuous
100
AcDbLine
 10
198.1792840903878
 20
88.77534470754103
 30
0.0
 11
176.9546287979289
 21
109.9999999999999
 31
0.0
1001
ACAD
1010
0.0
1020
0.0
1030
0.0
  0
LINE
  5
12980
330
1F
100
AcDbEntity
  8
HATCH
  6
Continuous
100
AcDbLine
 10
215.934884918998
 20
80.00000000000012
 30
0.0
 11
215.1792840903878
 21
80.75560082861034
 31
0.0
1001
ACAD
1010
0.0
1020
0.0
1030
0.0
  0
LINE
  5
12981
330
1F
100
AcDbEntity
  8
HATCH
  6
Continuous
100
AcDbLine
 10
198.1792840903879
 20
97.75560082861028
 30
0.0
 11
185.9348849189981
 21
110.0000000000001
 31
0.0
1001
ACAD
1010
0.0
1020
0.0
1030
0.0
  0
LINE
  5
12982
330
1F
100
AcDbEntity
  8
HATCH
  6
Continuous
100
AcDbLine
 10
224.9151410400672
 20
80.0
 30
0.0
 11
215.1792840903877
 21
89.73585694967949
 31
0.0
1001
ACAD
1010
0.0
1020
0.0
1030
0.0
  0
LINE
  5
12983
330
1F
100
AcDbEntity
  8
HATCH
  6
Continuous
100
AcDbLine
 10
198.1792840903878
 20
106.7358569496793
 30
0.0
 11
194.9151410400672
 21
110.0
 31
0.0
1001
ACAD
1010
0.0
1020
0.0
1030
0.0
  0
LINE
  5
12984
330
1F
100
AcDbEntity
  8
HATCH
  6
Continuous
100
AcDbLine
 10
233.8953971611364
 20
80.0
 30
0.0
 11
215.1792840903878
 21
98.7161130707487
 31
0.0
1001
ACAD
1010
0.0
1020
0.0
1030
0.0
  0
LINE
  5
12985
330
1F
100
AcDbEntity
  8
HATCH
  6
Continuous
100
AcDbLine
 10
242.8756532822055
 20
80.0
 30
0.0
 11
215.1792840903877
 21
107.6963691918177
 31
0.0
1001
ACAD
1010
0.0
1020
0.0
1030
0.0
  0
LINE
  5
12986
330
1F
100
AcDbEntity
  8
HATCH
  6
Continuous
100
AcDbLine
 10
251.8559094032747
 20
80.0
 30
0.0
 11
221.8559094032747
 21
110.0
 31
0.0
1001
ACAD
1010
0.0
1020
0.0
1030
0.0
  0
LINE
  5
12987
330
1F
100
AcDbEntity
  8
HATCH
  6
Continuous
100
AcDbLine
 10
260.8361655243438
 20
80.0
 30
0.0
 11
230.8361655243437
 21
110.0
 31
0.0
1001
ACAD
1010
0.0
1020
0.0
1030
0.0
  0
LINE
  5
12988
330
1F
100
AcDbEntity
  8
HATCH
  6
Continuous
100
AcDbLine
 10
269.816421645413
 20
80.0
 30
0.0
 11
239.8164216454131
 21
110.0
 31
0.0
1001
ACAD
1010
0.0
1020
0.0
1030
0.0
  0
LINE
  5
12989
330
1F
100
AcDbEntity
  8
HATCH
  6
Continuous
100
AcDbLine
 10
278.7966777664822
 20
80.0
 30
0.0
 11
248.7966777664823
 21
110.0
 31
0.0
1001
ACAD
1010
0.0
1020
0.0
1030
0.0
  0
LINE
  5
1298A
330
1F
100
AcDbEntity
  8
HATCH
  6
Continuous
100
AcDbLine
 10
287.7769338875513
 20
80.0
 30
0.0
 11
257.7769338875513
 21
110.0
 31
0.0
1001
ACAD
1010
0.0
1020
0.0
1030
0.0
  0
LINE
  5
1298B
330
1F
100
AcDbEntity
  8
HATCH
  6
Continuous
100
AcDbLine
 10
296.7571900086205
 20
80.0
 30
0.0
 11
266.7571900086205
 21
110.0
 31
0.0
1001
ACAD
1010
0.0
1020
0.0
1030
0.0
  0
LINE
  5
1298C
330
1F
100
AcDbEntity
  8
HATCH
  6
Continuous
100
AcDbLine
 10
305.7374461296896
 20
80.0
 30
0.0
 11
275.7374461296897
 21
110.0
 31
0.0
1001
ACAD
1010
0.0
1020
0.0
1030
0.0
  0
LINE
  5
1298D
330
1F
100
AcDbEntity
  8
HATCH
  6
Continuous
100
AcDbLine
 10
314.7177022507587
 20
80.00000000000012
 30
0.0
 11
284.7177022507588
 21
110.0000000000001
 31
0.0
1001
ACAD
1010
0.0
1020
0.0
1030
0.0
  0
LINE
  5
1298E
330
1F
100
AcDbEntity
  8
HATCH
  6
Continuous
100
AcDbLine
 10
323.6979583718279
 20
80.0
 30
0.0
 11
293.6979583718278
 21
110.0000000000001
 31
0.0
1001
ACAD
1010
0.0
1020
0.0
1030
0.0
  0
LINE
  5
1298F
330
1F
100
AcDbEntity
  8
HATCH
  6
Continuous
100
AcDbLine
 10
332.6782144928972
 20
80.0
 30
0.0
 11
302.678214492897
 21
110.0000000000001
 31
0.0
1001
ACAD
1010
0.0
1020
0.0
1030
0.0
  0
LINE
  5
12990
330
1F
100
AcDbEntity
  8
HATCH
  6
Continuous
100
AcDbLine
 10
341.6584706139662
 20
80.0
 30
0.0
 11
311.6584706139663
 21
110.0
 31
0.0
1001
ACAD
1010
0.0
1020
0.0
1030
0.0
  0
LINE
  5
12991
330
1F
100
AcDbEntity
  8
HATCH
  6
Continuous
100
AcDbLine
 10
350.6387267350353
 20
80.00000000000012
 30
0.0
 11
320.6387267350353
 21
110.0000000000001
 31
0.0
1001
ACAD
1010
0.0
1020
0.0
1030
0.0
  0
LINE
  5
12992
330
1F
100
AcDbEntity
  8
HATCH
  6
Continuous
100
AcDbLine
 10
359.6189828561045
 20
80.0
 30
0.0
 11
329.6189828561044
 21
110.0000000000001
 31
0.0
1001
ACAD
1010
0.0
1020
0.0
1030
0.0
  0
LINE
  5
12993
330
1F
100
AcDbEntity
  8
HATCH
  6
Continuous
100
AcDbLine
 10
368.179284090384
 20
80.41995488678969
 30
0.0
 11
338.5992389771736
 21
110.0000000000001
 31
0.0
1001
ACAD
1010
0.0
1020
0.0
1030
0.0
  0
LINE
  5
12994
330
1F
100
AcDbEntity
  8
HATCH
  6
Continuous
100
AcDbLine
 10
368.1792840903842
 20
89.40021100785873
 30
0.0
 11
347.5794950982427
 21
110.0000000000001
 31
0.0
1001
ACAD
1010
0.0
1020
0.0
1030
0.0
  0
LINE
  5
12995
330
1F
100
AcDbEntity
  8
HATCH
  6
Continuous
100
AcDbLine
 10
386.5597512193119
 20
80.00000000000012
 30
0.0
 11
385.1792840903842
 21
81.38046712892787
 31
0.0
1001
ACAD
1010
0.0
1020
0.0
1030
0.0
  0
LINE
  5
12996
330
1F
100
AcDbEntity
  8
HATCH
  6
Continuous
100
AcDbLine
 10
368.1792840903842
 20
98.38046712892788
 30
0.0
 11
356.5597512193119
 21
110.0000000000001
 31
0.0
1001
ACAD
1010
0.0
1020
0.0
1030
0.0
  0
LINE
  5
12997
330
1F
100
AcDbEntity
  8
HATCH
  6
Continuous
100
AcDbLine
 10
395.5400073403811
 20
80.0
 30
0.0
 11
385.1792840903842
 21
90.36072324999702
 31
0.0
1001
ACAD
1010
0.0
1020
0.0
1030
0.0
  0
LINE
  5
12998
330
1F
100
AcDbEntity
  8
HATCH
  6
Continuous
100
AcDbLine
 10
368.1792840903842
 20
107.3607232499969
 30
0.0
 11
365.5400073403809
 21
110.0000000000001
 31
0.0
1001
ACAD
1010
0.0
1020
0.0
1030
0.0
  0
LINE
  5
12999
330
1F
100
AcDbEntity
  8
HATCH
  6
Continuous
100
AcDbLine
 10
404.5202634614502
 20
80.00000000000012
 30
0.0
 11
385.1792840903842
 21
99.34097937106617
 31
0.0
1001
ACAD
1010
0.0
1020
0.0
1030
0.0
  0
LINE
  5
1299A
330
1F
100
AcDbEntity
  8
HATCH
  6
Continuous
100
AcDbLine
 10
413.5005195825194
 20
80.0
 30
0.0
 11
385.1792840903842
 21
108.3212354921353
 31
0.0
1001
ACAD
1010
0.0
1020
0.0
1030
0.0
  0
LINE
  5
1299B
330
1F
100
AcDbEntity
  8
HATCH
  6
Continuous
100
AcDbLine
 10
422.4807757035884
 20
80.00000000000012
 30
0.0
 11
392.4807757035885
 21
110.0000000000001
 31
0.0
1001
ACAD
1010
0.0
1020
0.0
1030
0.0
  0
LINE
  5
1299C
330
1F
100
AcDbEntity
  8
HATCH
  6
Continuous
100
AcDbLine
 10
431.4610318246577
 20
80.0
 30
0.0
 11
401.4610318246577
 21
110.0
 31
0.0
1001
ACAD
1010
0.0
1020
0.0
1030
0.0
  0
LINE
  5
1299D
330
1F
100
AcDbEntity
  8
HATCH
  6
Continuous
100
AcDbLine
 10
440.4412879457269
 20
80.0
 30
0.0
 11
410.4412879457269
 21
110.0
 31
0.0
1001
ACAD
1010
0.0
1020
0.0
1030
0.0
  0
LINE
  5
1299E
330
1F
100
AcDbEntity
  8
HATCH
  6
Continuous
100
AcDbLine
 10
449.421544066796
 20
80.0
 30
0.0
 11
419.421544066796
 21
110.0
 31
0.0
1001
ACAD
1010
0.0
1020
0.0
1030
0.0
  0
LINE
  5
1299F
330
1F
100
AcDbEntity
  8
HATCH
  6
Continuous
100
AcDbLine
 10
458.4018001878652
 20
80.0
 30
0.0
 11
428.401800187865
 21
110.0000000000001
 31
0.0
1001
ACAD
1010
0.0
1020
0.0
1030
0.0
  0
LINE
  5
129A0
330
1F
100
AcDbEntity
  8
HATCH
  6
Continuous
100
AcDbLine
 10
467.3820563089345
 20
79.99999999999989
 30
0.0
 11
437.3820563089343
 21
110.0
 31
0.0
1001
ACAD
1010
0.0
1020
0.0
1030
0.0
  0
LINE
  5
129A1
330
1F
100
AcDbEntity
  8
HATCH
  6
Continuous
100
AcDbLine
 10
476.3623124300035
 20
80.0
 30
0.0
 11
446.3623124300035
 21
110.0
 31
0.0
1001
ACAD
1010
0.0
1020
0.0
1030
0.0
  0
LINE
  5
129A2
330
1F
100
AcDbEntity
  8
HATCH
  6
Continuous
100
AcDbLine
 10
485.3425685510726
 20
80.0
 30
0.0
 11
455.3425685510726
 21
110.0
 31
0.0
1001
ACAD
1010
0.0
1020
0.0
1030
0.0
  0
LINE
  5
129A3
330
1F
100
AcDbEntity
  8
HATCH
  6
Continuous
100
AcDbLine
 10
494.3228246721417
 20
80.0
 30
0.0
 11
464.3228246721418
 21
110.0
 31
0.0
1001
ACAD
1010
0.0
1020
0.0
1030
0.0
  0
LINE
  5
129A4
330
1F
100
AcDbEntity
  8
HATCH
  6
Continuous
100
AcDbLine
 10
503.303080793211
 20
80.0
 30
0.0
 11
473.3030807932109
 21
110.0000000000001
 31
0.0
1001
ACAD
1010
0.0
1020
0.0
1030
0.0
  0
LINE
  5
129A5
330
1F
100
AcDbEntity
  8
HATCH
  6
Continuous
100
AcDbLine
 10
512.28333691428
 20
80.0
 30
0.0
 11
482.28333691428
 21
110.0
 31
0.0
1001
ACAD
1010
0.0
1020
0.0
1030
0.0
  0
LINE
  5
129A6
330
1F
100
AcDbEntity
  8
HATCH
  6
Continuous
100
AcDbLine
 10
521.2635930353493
 20
80.0
 30
0.0
 11
491.2635930353492
 21
110.0000000000001
 31
0.0
1001
ACAD
1010
0.0
1020
0.0
1030
0.0
  0
LINE
  5
129A7
330
1F
100
AcDbEntity
  8
HATCH
  6
Continuous
100
AcDbLine
 10
530.2438491564185
 20
79.99999999999989
 30
0.0
 11
500.2438491564183
 21
110.0
 31
0.0
1001
ACAD
1010
0.0
1020
0.0
1030
0.0
  0
LINE
  5
129A8
330
1F
100
AcDbEntity
  8
HATCH
  6
Continuous
100
AcDbLine
 10
539.2241052774876
 20
80.0
 30
0.0
 11
509.2241052774876
 21
110.0
 31
0.0
1001
ACAD
1010
0.0
1020
0.0
1030
0.0
  0
LINE
  5
129A9
330
1F
100
AcDbEntity
  8
HATCH
  6
Continuous
100
AcDbLine
 10
548.2043613985568
 20
80.0
 30
0.0
 11
518.2043613985568
 21
110.0
 31
0.0
1001
ACAD
1010
0.0
1020
0.0
1030
0.0
  0
LINE
  5
129AA
330
1F
100
AcDbEntity
  8
HATCH
  6
Continuous
100
AcDbLine
 10
557.184617519626
 20
79.99999999999989
 30
0.0
 11
527.1846175196258
 21
110.0000000000001
 31
0.0
1001
ACAD
1010
0.0
1020
0.0
1030
0.0
  0
LINE
  5
129AB
330
1F
100
AcDbEntity
  8
HATCH
  6
Continuous
100
AcDbLine
 10
566.1648736406951
 20
79.99999999999989
 30
0.0
 11
536.1648736406949
 21
110.0000000000001
 31
0.0
1001
ACAD
1010
0.0
1020
0.0
1030
0.0
  0
LINE
  5
129AC
330
1F
100
AcDbEntity
  8
HATCH
  6
Continuous
100
AcDbLine
 10
575.1451297617641
 20
80.0
 30
0.0
 11
545.1451297617642
 21
110.0
 31
0.0
1001
ACAD
1010
0.0
1020
0.0
1030
0.0
  0
LINE
  5
129AD
330
1F
100
AcDbEntity
  8
HATCH
  6
Continuous
100
AcDbLine
 10
583.3585681807718
 20
80.76681770206153
 30
0.0
 11
554.1253858828333
 21
110.0
 31
0.0
1001
ACAD
1010
0.0
1020
0.0
1030
0.0
  0
LINE
  5
129AE
330
1F
100
AcDbEntity
  8
HATCH
  6
Continuous
100
AcDbLine
 10
583.3585681807718
 20
89.74707382313068
 30
0.0
 11
563.1056420039024
 21
110.0000000000001
 31
0.0
1001
ACAD
1010
0.0
1020
0.0
1030
0.0
  0
LINE
  5
129AF
330
1F
100
AcDbEntity
  8
HATCH
  6
Continuous
100
AcDbLine
 10
583.3585681807719
 20
98.72732994419971
 30
0.0
 11
572.0858981249716
 21
110.0
 31
0.0
1001
ACAD
1010
0.0
1020
0.0
1030
0.0
  0
LINE
  5
129B0
330
1F
100
AcDbEntity
  8
HATCH
  6
Continuous
100
AcDbLine
 10
583.3585681807719
 20
107.7075860652688
 30
0.0
 11
581.0661542460406
 21
110.0000000000001
 31
0.0
1001
ACAD
1010
0.0
1020
0.0
1030
0.0
  0
LINE
  5
129B1
330
1F
100
AcDbEntity
  8
HATCH
  6
Continuous
100
AcDbLine
 10
50.27343869222511
 20
0.0
 30
0.0
 11
130.2734386922251
 21
80.0
 31
0.0
1001
ACAD
1010
0.0
1020
0.0
1030
0.0
  0
LINE
  5
129B2
330
1F
100
AcDbEntity
  8
HATCH
  6
Continuous
100
AcDbLine
 10
368.4714902261716
 20
0.0
 30
0.0
 11
448.4714902261714
 21
79.99999999999989
 31
0.0
1001
ACAD
1010
0.0
1020
0.0
1030
0.0
  0
LINE
  5
129B3
330
1F
100
AcDbEntity
  8
HATCH
  6
Continuous
100
AcDbLine
 10
61.14843869222517
 20
0.0000000000000568
 30
0.0
 11
141.1484386922252
 21
80.00000000000012
 31
0.0
1001
ACAD
1010
0.0
1020
0.0
1030
0.0
  0
LINE
  5
129B4
330
1F
100
AcDbEntity
  8
HATCH
  6
Continuous
100
AcDbLine
 10
379.3464902261717
 20
0.0000000000001137
 30
0.0
 11
459.3464902261716
 21
80.00000000000012
 31
0.0
1001
ACAD
1010
0.0
1020
0.0
1030
0.0
  0
LINE
  5
129B5
330
1F
100
AcDbEntity
  8
HATCH
  6
Continuous
100
AcDbLine
 10
72.02343869222517
 20
0.0000000000000568
 30
0.0
 11
152.0234386922252
 21
80.00000000000012
 31
0.0
1001
ACAD
1010
0.0
1020
0.0
1030
0.0
  0
LINE
  5
129B6
330
1F
100
AcDbEntity
  8
HATCH
  6
Continuous
100
AcDbLine
 10
390.2214902261717
 20
0.0000000000001137
 30
0.0
 11
470.2214902261714
 21
79.99999999999989
 31
0.0
1001
ACAD
1010
0.0
1020
0.0
1030
0.0
  0
LINE
  5
129B7
330
1F
100
AcDbEntity
  8
HATCH
  6
Continuous
100
AcDbLine
 10
262.5234596570273
 20
121.7801300831282
 30
0.0
 11
263.8991540072558
 21
123.1558244333568
 31
0.0
1001
ACAD
1010
0.0
1020
0.0
1030
0.0
  0
LINE
  5
129B8
330
1F
100
AcDbEntity
  8
HATCH
  6
Continuous
100
AcDbLine
 10
264.2334576344336
 20
119.0
 30
0.0
 11
266.6792840903841
 21
121.4458264559505
 31
0.0
1001
ACAD
1010
0.0
1020
0.0
1030
0.0
  0
LINE
  5
129B9
330
1F
100
AcDbEntity
  8
HATCH
  6
Continuous
100
AcDbLine
 10
272.6792840903841
 20
122.9556983954159
 30
0.0
 11
273.6319830583145
 21
123.9083973633463
 31
0.0
1001
ACAD
1010
0.0
1020
0.0
1030
0.0
  0
LINE
  5
129BA
330
1F
100
AcDbEntity
  8
HATCH
  6
Continuous
100
AcDbLine
 10
272.6792840903841
 20
118.4655703348813
 30
0.0
 11
276.4719203492782
 21
122.2582065937754
 31
0.0
1001
ACAD
1010
0.0
1020
0.0
1030
0.0
  0
LINE
  5
129BB
330
1F
100
AcDbEntity
  8
HATCH
  6
Continuous
100
AcDbLine
 10
265.4921122574884
 20
119.109541251158
 30
0.0
 11
262.646233821394
 21
121.9554196872524
 31
0.0
1001
ACAD
1010
0.0
1020
0.0
1030
0.0
  0
LINE
  5
129BC
330
1F
100
AcDbEntity
  8
HATCH
  6
Continuous
100
AcDbLine
 10
266.679284090384
 20
122.412497478797
 30
0.0
 11
265.2889677587238
 21
123.8028138104572
 31
0.0
1001
ACAD
1010
0.0
1020
0.0
1030
0.0
  0
LINE
  5
129BD
330
1F
100
AcDbEntity
  8
HATCH
  6
Continuous
100
AcDbLine
 10
274.679284090384
 20
118.9026255393315
 30
0.0
 11
272.679284090384
 21
120.9026255393315
 31
0.0
1001
ACAD
1010
0.0
1020
0.0
1030
0.0
  0
LINE
  5
129BE
330
1F
100
AcDbEntity
  8
HATCH
  6
Continuous
100
AcDbLine
 10
277.3866788759313
 20
120.6853588143188
 30
0.0
 11
274.3646429047029
 21
123.7073947855472
 31
0.0
1001
ACAD
1010
0.0
1020
0.0
1030
0.0
  0
LINE
  5
129BF
330
1F
100
AcDbEntity
  8
pv
100
AcDbLine
 10
365.6792840903841
 20
117.5
 30
0.0
 11
217.6792840903877
 21
117.5
 31
0.0
  0
LINE
  5
129C0
330
1F
100
AcDbEntity
  8
pv
100
AcDbLine
 10
195.6792840903877
 20
117.5
 30
0.0
 11
191.679284090384
 21
117.5
 31
0.0
  0
LINE
  5
129C1
330
1F
100
AcDbEntity
  8
pv
100
AcDbLine
 10
191.679284090384
 20
117.5
 30
0.0
 11
191.679284090384
 21
111.5
 31
0.0
  0
LINE
  5
129C2
330
1F
100
AcDbEntity
  8
pv
100
AcDbLine
 10
191.679284090384
 20
111.5
 30
0.0
 11
201.5894638115119
 21
111.5
 31
0.0
  0
LINE
  5
129C3
330
1F
100
AcDbEntity
  8
pv
100
AcDbLine
 10
211.7691043692635
 20
111.5
 30
0.0
 11
371.179284090384
 21
111.5
 31
0.0
  0
LINE
  5
129C4
330
1F
100
AcDbEntity
  8
pv
100
AcDbLine
 10
382.1792840903841
 20
111.5
 30
0.0
 11
391.679284090384
 21
111.5
 31
0.0
  0
LINE
  5
129C5
330
1F
100
AcDbEntity
  8
pv
100
AcDbLine
 10
391.679284090384
 20
111.5
 30
0.0
 11
391.679284090384
 21
117.5
 31
0.0
  0
LINE
  5
129C6
330
1F
100
AcDbEntity
  8
pv
100
AcDbLine
 10
391.679284090384
 20
117.5
 30
0.0
 11
387.679284090384
 21
117.5
 31
0.0
  0
LINE
  5
129C7
330
1F
100
AcDbEntity
  8
pv
100
AcDbLine
 10
266.679284090384
 20
252.5
 30
0.0
 11
316.679284090384
 21
252.5
 31
0.0
  0
LINE
  5
129C8
330
1F
100
AcDbEntity
  8
pv
100
AcDbLine
 10
316.679284090384
 20
252.5
 30
0.0
 11
316.679284090384
 21
261.5
 31
0.0
  0
LINE
  5
129C9
330
1F
100
AcDbEntity
  8
pv
100
AcDbLine
 10
316.679284090384
 20
261.5
 30
0.0
 11
266.679284090384
 21
261.5
 31
0.0
  0
LINE
  5
129CA
330
1F
100
AcDbEntity
  8
pv
100
AcDbLine
 10
266.679284090384
 20
261.5
 30
0.0
 11
266.679284090384
 21
252.5
 31
0.0
  0
ARC
  5
129CB
330
1F
100
AcDbEntity
  8
KANAMONO_SCREW
100
AcDbCircle
 10
299.9065254263355
 20
327.8202372308811
 30
0.0
 40
6.2202372308859
100
AcDbArc
 50
243.8395926941206
 51
296.1604073058794
  0
ARC
  5
129CC
330
1F
100
AcDbEntity
  8
KANAMONO_SCREW
100
AcDbCircle
 10
291.6792840903882
 20
334.895744135171
 30
0.0
 40
13.79574413517196
100
AcDbArc
 50
246.5734024913489
 51
293.4265975086129
  0
ARC
  5
129CD
330
1F
100
AcDbEntity
  8
KANAMONO_SCREW
100
AcDbCircle
 10
283.4520427544325
 20
327.8202372308801
 30
0.0
 40
6.220237230881792
100
AcDbArc
 50
243.8395926941399
 51
296.1604073058985
  0
ARC
  5
129CE
330
1F
100
AcDbEntity
  8
KANAMONO_SCREW
100
AcDbCircle
 10
299.9065254263356
 20
323.3797627691197
 30
0.0
 40
6.220237230881771
100
AcDbArc
 50
63.83959269413985
 51
116.1604073058985
  0
ARC
  5
129CF
330
1F
100
AcDbEntity
  8
KANAMONO_SCREW
100
AcDbCircle
 10
291.6792840903843
 20
316.3042558648219
 30
0.0
 40
13.79574413517649
100
AcDbArc
 50
66.57340249137742
 51
113.4265975086416
  0
ARC
  5
129D0
330
1F
100
AcDbEntity
  8
KANAMONO_SCREW
100
AcDbCircle
 10
283.4520427544307
 20
323.3797627691215
 30
0.0
 40
6.220237230877674
100
AcDbArc
 50
63.83959269410148
 51
116.1604073058601
  0
LINE
  5
129D1
330
1F
100
AcDbEntity
  8
KANAMONO_SCREW
100
AcDbLine
 10
297.1641116476844
 20
328.9628190893723
 30
0.0
 11
297.1641116476844
 21
322.2371809106257
 31
0.0
  0
LINE
  5
129D2
330
1F
100
AcDbEntity
  8
KANAMONO_SCREW
100
AcDbLine
 10
286.19445653308
 20
328.9628190893704
 30
0.0
 11
286.19445653308
 21
322.2371809106276
 31
0.0
  0
LINE
  5
129D3
330
1F
100
AcDbEntity
  8
KANAMONO_SCREW
100
AcDbLine
 10
280.7096289757815
 20
328.9628190893723
 30
0.0
 11
282.6792840903859
 21
330.0999999999999
 31
0.0
  0
LINE
  5
129D4
330
1F
100
AcDbEntity
  8
KANAMONO_SCREW
100
AcDbLine
 10
282.6792840903859
 20
330.0999999999999
 30
0.0
 11
300.6792840903822
 21
330.0999999999999
 31
0.0
  0
LINE
  5
129D5
330
1F
100
AcDbEntity
  8
KANAMONO_SCREW
100
AcDbLine
 10
300.6792840903822
 20
330.0999999999999
 30
0.0
 11
302.6489392049866
 21
328.9628190893723
 31
0.0
  0
LINE
  5
129D6
330
1F
100
AcDbEntity
  8
KANAMONO_SCREW
100
AcDbLine
 10
302.6489392049866
 20
328.9628190893723
 30
0.0
 11
302.6489392049866
 21
322.2371809106257
 31
0.0
  0
LINE
  5
129D7
330
1F
100
AcDbEntity
  8
KANAMONO_SCREW
100
AcDbLine
 10
302.6489392049866
 20
322.2371809106257
 30
0.0
 11
300.6792840903822
 21
321.0999999999999
 31
0.0
  0
LINE
  5
129D8
330
1F
100
AcDbEntity
  8
KANAMONO_SCREW
100
AcDbLine
 10
300.6792840903822
 20
321.0999999999999
 30
0.0
 11
282.6792840903895
 21
321.0999999999999
 31
0.0
  0
LINE
  5
129D9
330
1F
100
AcDbEntity
  8
KANAMONO_SCREW
100
AcDbLine
 10
282.6792840903895
 20
321.0999999999999
 30
0.0
 11
280.7096289757851
 21
322.2371809106257
 31
0.0
  0
LINE
  5
129DA
330
1F
100
AcDbEntity
  8
KANAMONO_SCREW
100
AcDbLine
 10
280.7096289757851
 20
322.2371809106257
 30
0.0
 11
280.7096289757815
 21
328.9628190893723
 31
0.0
  0
LINE
  5
129DB
330
1F
100
AcDbEntity
  8
BOUSUI
100
AcDbLine
 10
264.679284090384
 20
117.5
 30
0.0
 11
191.679284090384
 21
117.5
 31
0.0
  0
LINE
  5
129DC
330
1F
100
AcDbEntity
  8
BOUSUI
100
AcDbLine
 10
191.679284090384
 20
117.5
 30
0.0
 11
181.2869792449705
 21
111.5
 31
0.0
  0
LINE
  5
129DD
330
1F
100
AcDbEntity
  8
BOUSUI
100
AcDbLine
 10
181.2869792449705
 20
111.5
 30
0.0
 11
114.679284090384
 21
111.5
 31
0.0
  0
LINE
  5
129DE
330
1F
100
AcDbEntity
  8
BOUSUI
  6
DASHED2
100
AcDbLine
 10
264.3899629113553
 20
118.0
 30
0.0
 11
191.5453094941686
 21
118.0
 31
0.0
  0
LINE
  5
129DF
330
1F
100
AcDbEntity
  8
BOUSUI
  6
DASHED2
100
AcDbLine
 10
165.5027468254161
 20
112.0
 30
0.0
 11
115.5027468254161
 21
112.0
 31
0.0
  0
LINE
  5
129E0
330
1F
100
AcDbEntity
  8
BOUSUI
100
AcDbLine
 10
264.679284090384
 20
119.0
 30
0.0
 11
191.2773603017372
 21
119.0
 31
0.0
  0
LINE
  5
129E1
330
1F
100
AcDbEntity
  8
BOUSUI
100
AcDbLine
 10
191.2773603017372
 20
119.0
 30
0.0
 11
180.8850554563237
 21
113.0
 31
0.0
  0
LINE
  5
129E2
330
1F
100
AcDbEntity
  8
BOUSUI
100
AcDbLine
 10
180.8850554563237
 20
113.0
 30
0.0
 11
114.679284090384
 21
113.0
 31
0.0
  0
LINE
  5
129E3
330
1F
100
AcDbEntity
  8
BOUSUI
100
AcDbLine
 10
274.679284090384
 20
117.5
 30
0.0
 11
391.679284090384
 21
117.5
 31
0.0
  0
LINE
  5
129E4
330
1F
100
AcDbEntity
  8
BOUSUI
100
AcDbLine
 10
391.679284090384
 20
117.5
 30
0.0
 11
402.0715889357975
 21
111.5
 31
0.0
  0
LINE
  5
129E5
330
1F
100
AcDbEntity
  8
BOUSUI
100
AcDbLine
 10
402.0715889357975
 20
111.5
 30
0.0
 11
474.679284090384
 21
111.5
 31
0.0
  0
LINE
  5
129E6
330
1F
100
AcDbEntity
  8
BOUSUI
  6
DASHED2
100
AcDbLine
 10
275.4652135426854
 20
118.0
 30
0.0
 11
391.8132586865995
 21
118.0
 31
0.0
  0
LINE
  5
129E7
330
1F
100
AcDbEntity
  8
BOUSUI
  6
DASHED2
100
AcDbLine
 10
424.0029886394973
 20
112.0
 30
0.0
 11
474.0029886394973
 21
112.0
 31
0.0
  0
LINE
  5
129E8
330
1F
100
AcDbEntity
  8
BOUSUI
100
AcDbLine
 10
274.679284090384
 20
119.0
 30
0.0
 11
392.0812078790309
 21
119.0
 31
0.0
  0
LINE
  5
129E9
330
1F
100
AcDbEntity
  8
BOUSUI
100
AcDbLine
 10
392.0812078790309
 20
119.0
 30
0.0
 11
402.4735127244439
 21
113.0
 31
0.0
  0
LINE
  5
129EA
330
1F
100
AcDbEntity
  8
BOUSUI
100
AcDbLine
 10
402.4735127244439
 20
113.0
 30
0.0
 11
474.679284090384
 21
113.0
 31
0.0
  0
LINE
  5
129EB
330
1F
100
AcDbEntity
  8
HATCH
  6
Continuous
100
AcDbLine
 10
473.7596045400932
 20
113.0
 30
0.0
 11
474.5761765702804
 21
113.8165720301871
 31
0.0
1001
ACAD
1010
0.0
1020
0.0
1030
0.0
  0
LINE
  5
129EC
330
1F
100
AcDbEntity
  8
HATCH
  6
Continuous
100
AcDbLine
 10
476.7497326006277
 20
111.4999999999999
 30
0.0
 11
478.4822896636349
 21
113.232557063007
 31
0.0
1001
ACAD
1010
0.0
1020
0.0
1030
0.0
  0
LINE
  5
129ED
330
1F
100
AcDbEntity
  8
HATCH
  6
Continuous
100
AcDbLine
 10
481.2398606611623
 20
111.5
 30
0.0
 11
481.6498329828769
 21
111.9099723217146
 31
0.0
1001
ACAD
1010
0.0
1020
0.0
1030
0.0
  0
LINE
  5
129EE
330
1F
100
AcDbEntity
  8
HATCH
  6
Continuous
100
AcDbLine
 10
475.1574162327023
 20
111.4999999999999
 30
0.0
 11
474.679284090384
 21
111.9781321423183
 31
0.0
1001
ACAD
1010
0.0
1020
0.0
1030
0.0
  0
LINE
  5
129EF
330
1F
100
AcDbEntity
  8
HATCH
  6
Continuous
100
AcDbLine
 10
473.6574162327023
 20
112.9999999999999
 30
0.0
 11
472.9070580640965
 21
113.7503581686057
 31
0.0
1001
ACAD
1010
0.0
1020
0.0
1030
0.0
  0
LINE
  5
129F0
330
1F
100
AcDbEntity
  8
HATCH
  6
Continuous
100
AcDbLine
 10
479.6475442932369
 20
111.5
 30
0.0
 11
477.7158203694678
 21
113.431723923769
 31
0.0
1001
ACAD
1010
0.0
1020
0.0
1030
0.0
  0
LINE
  5
129F1
330
1F
100
AcDbEntity
  8
HATCH
  6
Continuous
100
AcDbLine
 10
108.5592316367925
 20
111.5
 30
0.0
 11
110.01509131512
 21
112.9558596783274
 31
0.0
1001
ACAD
1010
0.0
1020
0.0
1030
0.0
  0
LINE
  5
129F2
330
1F
100
AcDbEntity
  8
HATCH
  6
Continuous
100
AcDbLine
 10
113.0493596973271
 20
111.5
 30
0.0
 11
115.3640314174579
 21
113.8146717201308
 31
0.0
1001
ACAD
1010
0.0
1020
0.0
1030
0.0
  0
LINE
  5
129F3
330
1F
100
AcDbEntity
  8
HATCH
  6
Continuous
100
AcDbLine
 10
119.0394877578617
 20
113.0
 30
0.0
 11
119.2495532291675
 21
113.2100654713058
 31
0.0
1001
ACAD
1010
0.0
1020
0.0
1030
0.0
  0
LINE
  5
129F4
330
1F
100
AcDbEntity
  8
HATCH
  6
Continuous
100
AcDbLine
 10
111.4570433294017
 20
111.5
 30
0.0
 11
110.0048301544175
 21
112.9522131749842
 31
0.0
1001
ACAD
1010
0.0
1020
0.0
1030
0.0
  0
LINE
  5
129F5
330
1F
100
AcDbEntity
  8
HATCH
  6
Continuous
100
AcDbLine
 10
114.679284090384
 20
112.7678872995522
 30
0.0
 11
113.6883561306391
 21
113.7588152592972
 31
0.0
1001
ACAD
1010
0.0
1020
0.0
1030
0.0
  0
LINE
  5
129F6
330
1F
100
AcDbEntity
  8
HATCH
  6
Continuous
100
AcDbLine
 10
118.9372994504708
 20
112.9999999999999
 30
0.0
 11
118.5364735357809
 21
113.4008259146899
 31
0.0
1001
ACAD
1010
0.0
1020
0.0
1030
0.0
  0
LINE
  5
129F7
330
1F
100
AcDbEntity
  8
pv
100
AcDbLine
 10
278.6792840903859
 20
270.6999999999989
 30
0.0
 11
278.6792840903859
 21
268.3999999999992
 31
0.0
  0
LINE
  5
129F8
330
1F
100
AcDbEntity
  8
pv
100
AcDbLine
 10
278.6792840903859
 20
268.3999999999992
 30
0.0
 11
304.6792840903858
 21
268.3999999999992
 31
0.0
  0
LINE
  5
129F9
330
1F
100
AcDbEntity
  8
pv
100
AcDbLine
 10
304.6792840903858
 20
268.3999999999992
 30
0.0
 11
304.6792840903858
 21
270.6999999999989
 31
0.0
  0
LINE
  5
129FA
330
1F
100
AcDbEntity
  8
pv
100
AcDbLine
 10
304.6792840903858
 20
270.6999999999989
 30
0.0
 11
278.6792840903859
 21
270.6999999999989
 31
0.0
  0
LINE
  5
129FB
330
1F
100
AcDbEntity
  8
pv
100
AcDbLine
 10
278.6792840903859
 20
272.9999999999986
 30
0.0
 11
278.6792840903859
 21
270.6999999999989
 31
0.0
  0
LINE
  5
129FC
330
1F
100
AcDbEntity
  8
pv
100
AcDbLine
 10
278.6792840903859
 20
270.6999999999989
 30
0.0
 11
304.6792840903858
 21
270.6999999999989
 31
0.0
  0
LINE
  5
129FD
330
1F
100
AcDbEntity
  8
pv
100
AcDbLine
 10
304.6792840903858
 20
270.6999999999989
 30
0.0
 11
304.6792840903858
 21
272.9999999999986
 31
0.0
  0
LINE
  5
129FE
330
1F
100
AcDbEntity
  8
pv
100
AcDbLine
 10
304.6792840903858
 20
272.9999999999986
 30
0.0
 11
278.6792840903859
 21
272.9999999999986
 31
0.0
  0
LINE
  5
129FF
330
1F
100
AcDbEntity
  8
pv
100
AcDbLine
 10
278.6792840903859
 20
275.2999999999984
 30
0.0
 11
278.6792840903859
 21
272.9999999999986
 31
0.0
  0
LINE
  5
12A00
330
1F
100
AcDbEntity
  8
pv
100
AcDbLine
 10
278.6792840903859
 20
272.9999999999986
 30
0.0
 11
304.6792840903858
 21
272.9999999999986
 31
0.0
  0
LINE
  5
12A01
330
1F
100
AcDbEntity
  8
pv
100
AcDbLine
 10
304.6792840903858
 20
272.9999999999986
 30
0.0
 11
304.6792840903858
 21
275.2999999999984
 31
0.0
  0
LINE
  5
12A02
330
1F
100
AcDbEntity
  8
pv
100
AcDbLine
 10
304.6792840903858
 20
275.2999999999984
 30
0.0
 11
278.6792840903859
 21
275.2999999999984
 31
0.0
  0
LINE
  5
12A03
330
1F
100
AcDbEntity
  8
pv
100
AcDbLine
 10
511.7017521047159
 20
275.0
 30
0.0
 11
711.7017521047158
 21
275.0
 31
0.0
  0
LINE
  5
12A04
330
1F
100
AcDbEntity
  8
pv
100
AcDbLine
 10
711.7017521047158
 20
275.0
 30
0.0
 11
711.7017521047158
 21
475.0
 31
0.0
  0
LINE
  5
12A05
330
1F
100
AcDbEntity
  8
pv
100
AcDbLine
 10
711.7017521047158
 20
475.0
 30
0.0
 11
511.7017521047159
 21
475.0
 31
0.0
  0
LINE
  5
12A06
330
1F
100
AcDbEntity
  8
pv
100
AcDbLine
 10
511.7017521047159
 20
475.0
 30
0.0
 11
511.7017521047159
 21
275.0
 31
0.0
  0
LINE
  5
12A07
330
1F
100
AcDbEntity
  8
KANAMONO2
100
AcDbLine
 10
586.7017521047159
 20
350.0
 30
0.0
 11
586.7017521047159
 21
400.0
 31
0.0
  0
LINE
  5
12A08
330
1F
100
AcDbEntity
  8
KANAMONO2
100
AcDbLine
 10
586.7017521047159
 20
400.0
 30
0.0
 11
636.7017521047159
 21
400.0
 31
0.0
  0
LINE
  5
12A09
330
1F
100
AcDbEntity
  8
KANAMONO2
100
AcDbLine
 10
636.7017521047159
 20
400.0
 30
0.0
 11
636.7017521047159
 21
398.5
 31
0.0
  0
ARC
  5
12A0A
330
1F
100
AcDbEntity
  8
KANAMONO2
100
AcDbCircle
 10
632.2017521047159
 20
398.5
 30
0.0
 40
4.5
100
AcDbArc
 50
270.0
 51
0.0
  0
LINE
  5
12A0B
330
1F
100
AcDbEntity
  8
KANAMONO2
100
AcDbLine
 10
632.2017521047159
 20
394.0
 30
0.0
 11
599.2017521047159
 21
394.0
 31
0.0
  0
ARC
  5
12A0C
330
1F
100
AcDbEntity
  8
KANAMONO2
100
AcDbCircle
 10
599.2017521047159
 20
387.5
 30
0.0
 40
6.5
100
AcDbArc
 50
90.0
 51
180.0
  0
LINE
  5
12A0D
330
1F
100
AcDbEntity
  8
KANAMONO2
100
AcDbLine
 10
592.701752104716
 20
387.5
 30
0.0
 11
592.701752104716
 21
354.5
 31
0.0
  0
ARC
  5
12A0E
330
1F
100
AcDbEntity
  8
KANAMONO2
100
AcDbCircle
 10
588.2017521047159
 20
354.5
 30
0.0
 40
4.5
100
AcDbArc
 50
270.0
 51
0.0
  0
LINE
  5
12A0F
330
1F
100
AcDbEntity
  8
KANAMONO2
100
AcDbLine
 10
588.2017521047159
 20
350.0
 30
0.0
 11
586.7017521047159
 21
350.0
 31
0.0
  0
LINE
  5
12A10
330
1F
100
AcDbEntity
  8
pv
100
AcDbLine
 10
586.7017521047159
 20
350.0
 30
0.0
 11
636.7017521047159
 21
350.0
 31
0.0
  0
LINE
  5
12A11
330
1F
100
AcDbEntity
  8
pv
100
AcDbLine
 10
636.7017521047159
 20
350.0
 30
0.0
 11
636.7017521047159
 21
400.0
 31
0.0
  0
LINE
  5
12A12
330
1F
100
AcDbEntity
  8
pv
100
AcDbLine
 10
636.7017521047159
 20
400.0
 30
0.0
 11
586.7017521047159
 21
400.0
 31
0.0
  0
LINE
  5
12A13
330
1F
100
AcDbEntity
  8
pv
100
AcDbLine
 10
586.7017521047159
 20
400.0
 30
0.0
 11
586.7017521047159
 21
350.0
 31
0.0
  0
LINE
  5
12A14
330
1F
100
AcDbEntity
  8
KANAMONO2
100
AcDbLine
 10
606.2169245474174
 20
384.5000000000018
 30
0.0
 11
617.1865796620145
 21
384.5000000000037
 31
0.0
  0
LINE
  5
12A15
330
1F
100
AcDbEntity
  8
KANAMONO2
100
AcDbLine
 10
617.1865796620145
 20
384.5000000000037
 30
0.0
 11
622.6714072193167
 21
375.0
 31
0.0
  0
LINE
  5
12A16
330
1F
100
AcDbEntity
  8
KANAMONO2
100
AcDbLine
 10
622.6714072193167
 20
375.0
 30
0.0
 11
617.1865796620145
 21
365.5000000000037
 31
0.0
  0
LINE
  5
12A17
330
1F
100
AcDbEntity
  8
KANAMONO2
100
AcDbLine
 10
617.1865796620145
 20
365.5000000000037
 30
0.0
 11
606.2169245474101
 21
365.5000000000037
 31
0.0
  0
LINE
  5
12A18
330
1F
100
AcDbEntity
  8
KANAMONO2
100
AcDbLine
 10
606.2169245474101
 20
365.5000000000037
 30
0.0
 11
600.7320969901152
 21
375.0000000000018
 31
0.0
  0
LINE
  5
12A19
330
1F
100
AcDbEntity
  8
KANAMONO2
100
AcDbLine
 10
600.7320969901152
 20
375.0000000000018
 30
0.0
 11
606.2169245474174
 21
384.5000000000018
 31
0.0
  0
LINE
  5
12A1A
330
1F
100
AcDbEntity
  8
sunpo
100
AcDbLine
 10
511.7017521047159
 20
476.0
 30
0.0
 11
511.7017521047159
 21
492.3908112396543
 31
0.0
  0
LINE
  5
12A1B
330
1F
100
AcDbEntity
  8
sunpo
100
AcDbLine
 10
711.7017521047158
 20
476.0
 30
0.0
 11
711.7017521047158
 21
492.3908112396543
 31
0.0
  0
LINE
  5
12A1C
330
1F
100
AcDbEntity
  8
sunpo
100
AcDbLine
 10
513.701752104716
 20
492.3908112396543
 30
0.0
 11
709.7017521047157
 21
492.3908112396543
 31
0.0
  0
INSERT
  5
12A1D
330
1F
100
AcDbEntity
  8
sunpo
100
AcDbBlockReference
  2
_Open30
 10
511.7017521047159
 20
492.3908112396543
 30
0.0
 41
2.0
 42
2.0
 43
2.0
 50
180.0
  0
INSERT
  5
12A1E
330
1F
100
AcDbEntity
  8
sunpo
100
AcDbBlockReference
  2
_Open30
 10
711.7017521047158
 20
492.3908112396543
 30
0.0
 41
2.0
 42
2.0
 43
2.0
  0
MTEXT
  5
12A1F
330
1F
100
AcDbEntity
  8
sunpo
100
AcDbMText
 10
611.7017521047158
 20
494.5908112396543
 30
0.0
 40
4.0
 41
0.0
 71
     5
 72
     1
  1
\A1;200
  7
MSゴシック
 73
     1
 44
1.0
1001
ACAD
1000
MTEXTBEGIN
1070
    73
1070
     1
1070
    44
1040
1.0
1070
    74
1070
     0
1000
MTEXTEND
  0
LINE
  5
12A20
330
1F
100
AcDbEntity
  8
sunpo
100
AcDbLine
 10
510.7017521047161
 20
475.0000000000002
 30
0.0
 11
494.3109408650626
 21
475.0000000000002
 31
0.0
  0
LINE
  5
12A21
330
1F
100
AcDbEntity
  8
sunpo
100
AcDbLine
 10
510.701752104716
 20
275.0000000000001
 30
0.0
 11
494.3109408650627
 21
275.0000000000001
 31
0.0
  0
LINE
  5
12A22
330
1F
100
AcDbEntity
  8
sunpo
100
AcDbLine
 10
494.3109408650626
 20
473.0000000000002
 30
0.0
 11
494.3109408650627
 21
277.0000000000001
 31
0.0
  0
INSERT
  5
12A23
330
1F
100
AcDbEntity
  8
sunpo
100
AcDbBlockReference
  2
_Open30
 10
494.3109408650626
 20
475.0000000000002
 30
0.0
 41
2.0
 42
2.0
 43
2.0
 50
90.0
  0
INSERT
  5
12A24
330
1F
100
AcDbEntity
  8
sunpo
100
AcDbBlockReference
  2
_Open30
 10
494.3109408650627
 20
275.0000000000001
 30
0.0
 41
2.0
 42
2.0
 43
2.0
 50
270.0
  0
MTEXT
  5
12A25
330
1F
100
AcDbEntity
  8
sunpo
100
AcDbMText
 10
492.1109408650627
 20
375.0
 30
0.0
 40
4.0
 41
0.0
 71
     5
 72
     1
  1
\A1;200
  7
MSゴシック
 11
0.0000000000000001
 21
1.0
 31
0.0
 73
     1
 44
1.0
1001
ACAD
1000
MTEXTBEGIN
1070
    73
1070
     1
1070
    44
1040
1.0
1070
    74
1070
     0
1000
MTEXTEND
  0
LINE
  5
12A26
330
1F
100
AcDbEntity
  8
sunpo
100
AcDbLine
 10
270.679284090386
 20
287.0999999999987
 30
0.0
 11
232.9966683817271
 21
287.0999999999987
 31
0.0
  0
LINE
  5
12A27
330
1F
100
AcDbEntity
  8
sunpo
100
AcDbLine
 10
265.6792840903841
 20
261.5000000000001
 30
0.0
 11
232.9966683817271
 21
261.5000000000001
 31
0.0
  0
LINE
  5
12A28
330
1F
100
AcDbEntity
  8
sunpo
100
AcDbLine
 10
232.9966683817271
 20
285.0999999999987
 30
0.0
 11
232.9966683817271
 21
263.5000000000001
 31
0.0
  0
MTEXT
  5
12A29
330
1F
100
AcDbEntity
  8
sunpo
100
AcDbMText
 10
230.4413384324875
 20
283.0089351733887
 30
0.0
 40
4.0
 41
0.0
 71
     5
 72
     1
  1
\A1;0～60(調整範囲)
  7
MSゴシック
 11
0.0000000000000001
 21
1.0
 31
0.0
 73
     1
 44
1.0
1001
ACAD
1000
MTEXTBEGIN
1070
    73
1070
     1
1070
    44
1040
1.0
1070
    74
1070
     0
1000
MTEXTEND
  0
INSERT
  5
12A2A
330
1F
100
AcDbEntity
  8
sunpo
100
AcDbBlockReference
  2
_Open30
 10
232.9966683817271
 20
287.0999999999987
 30
0.0
 41
2.0
 42
2.0
 43
2.0
 50
90.0
  0
INSERT
  5
12A2B
330
1F
100
AcDbEntity
  8
sunpo
100
AcDbBlockReference
  2
_Open30
 10
232.9966683817271
 20
261.5000000000001
 30
0.0
 41
2.0
 42
2.0
 43
2.0
 50
270.0
  0
LINE
  5
12A2C
330
1F
100
AcDbEntity
  8
sunpo
100
AcDbLine
 10
243.6009675860843
 20
111.5
 30
0.0
 11
227.2101563464325
 21
111.5
 31
0.0
  0
LINE
  5
12A2D
330
1F
100
AcDbEntity
  8
sunpo
100
AcDbLine
 10
265.6792840903841
 20
261.5000000000001
 30
0.0
 11
227.2101563464324
 21
261.5000000000001
 31
0.0
  0
LINE
  5
12A2E
330
1F
100
AcDbEntity
  8
sunpo
100
AcDbLine
 10
227.2101563464325
 20
113.5
 30
0.0
 11
227.2101563464324
 21
259.5000000000001
 31
0.0
  0
INSERT
  5
12A2F
330
1F
100
AcDbEntity
  8
sunpo
100
AcDbBlockReference
  2
_Open30
 10
227.2101563464325
 20
111.5
 30
0.0
 41
2.0
 42
2.0
 43
2.0
 50
270.0
  0
INSERT
  5
12A30
330
1F
100
AcDbEntity
  8
sunpo
100
AcDbBlockReference
  2
_Open30
 10
227.2101563464324
 20
261.5000000000001
 30
0.0
 41
2.0
 42
2.0
 43
2.0
 50
90.0
  0
MTEXT
  5
12A31
330
1F
100
AcDbEntity
  8
sunpo
100
AcDbMText
 10
225.0101563464324
 20
186.5
 30
0.0
 40
4.0
 41
0.0
 71
     5
 72
     1
  1
\A1;150
  7
MSゴシック
 11
0.0000000000000001
 21
1.0
 31
0.0
 73
     1
 44
1.0
1001
ACAD
1000
MTEXTBEGIN
1070
    73
1070
     1
1070
    44
1040
1.0
1070
    74
1070
     0
1000
MTEXTEND
  0
LINE
  5
12A32
330
1F
100
AcDbEntity
  8
sunpo
100
AcDbLine
 10
265.6792840903841
 20
261.5000000000001
 30
0.0
 11
227.2101563464325
 21
261.5000000000001
 31
0.0
  0
LINE
  5
12A33
330
1F
100
AcDbEntity
  8
sunpo
100
AcDbLine
 10
286.679284090386
 20
347.5000000000001
 30
0.0
 11
227.2101563464324
 21
347.5000000000001
 31
0.0
  0
LINE
  5
12A34
330
1F
100
AcDbEntity
  8
sunpo
100
AcDbLine
 10
227.2101563464325
 20
263.5000000000001
 30
0.0
 11
227.2101563464324
 21
345.5000000000001
 31
0.0
  0
INSERT
  5
12A35
330
1F
100
AcDbEntity
  8
sunpo
100
AcDbBlockReference
  2
_Open30
 10
227.2101563464325
 20
261.5000000000001
 30
0.0
 41
2.0
 42
2.0
 43
2.0
 50
270.0
  0
INSERT
  5
12A36
330
1F
100
AcDbEntity
  8
sunpo
100
AcDbBlockReference
  2
_Open30
 10
227.2101563464324
 20
347.5000000000001
 30
0.0
 41
2.0
 42
2.0
 43
2.0
 50
90.0
  0
MTEXT
  5
12A37
330
1F
100
AcDbEntity
  8
sunpo
100
AcDbMText
 10
225.0101563464325
 20
304.5
 30
0.0
 40
4.0
 41
0.0
 71
     5
 72
     1
  1
\A1;86
  7
MSゴシック
 11
0.0000000000000001
 21
1.0
 31
0.0
 73
     1
 44
1.0
1001
ACAD
1000
MTEXTBEGIN
1070
    73
1070
     1
1070
    44
1040
1.0
1070
    74
1070
     0
1000
MTEXTEND
  0
LINE
  5
12A38
330
1F
100
AcDbEntity
  8
pv
100
AcDbLine
 10
278.6792840903859
 20
277.5999999999981
 30
0.0
 11
278.6792840903859
 21
275.2999999999984
 31
0.0
  0
LINE
  5
12A39
330
1F
100
AcDbEntity
  8
pv
100
AcDbLine
 10
278.6792840903859
 20
275.2999999999984
 30
0.0
 11
304.6792840903858
 21
275.2999999999984
 31
0.0
  0
LINE
  5
12A3A
330
1F
100
AcDbEntity
  8
pv
100
AcDbLine
 10
304.6792840903858
 20
275.2999999999984
 30
0.0
 11
304.6792840903858
 21
277.5999999999981
 31
0.0
  0
LINE
  5
12A3B
330
1F
100
AcDbEntity
  8
pv
100
AcDbLine
 10
304.6792840903858
 20
277.5999999999981
 30
0.0
 11
278.6792840903859
 21
277.5999999999981
 31
0.0
  0
LINE
  5
12A3C
330
1F
100
AcDbEntity
  8
pv
100
AcDbLine
 10
278.6792840903859
 20
279.8999999999978
 30
0.0
 11
278.6792840903859
 21
277.5999999999981
 31
0.0
  0
LINE
  5
12A3D
330
1F
100
AcDbEntity
  8
pv
100
AcDbLine
 10
278.6792840903859
 20
277.5999999999981
 30
0.0
 11
304.6792840903858
 21
277.5999999999981
 31
0.0
  0
LINE
  5
12A3E
330
1F
100
AcDbEntity
  8
pv
100
AcDbLine
 10
304.6792840903858
 20
277.5999999999981
 30
0.0
 11
304.6792840903858
 21
279.8999999999978
 31
0.0
  0
LINE
  5
12A3F
330
1F
100
AcDbEntity
  8
pv
100
AcDbLine
 10
304.6792840903858
 20
279.8999999999978
 30
0.0
 11
278.6792840903859
 21
279.8999999999978
 31
0.0
  0
LINE
  5
12A40
330
1F
100
AcDbEntity
  8
pv
100
AcDbLine
 10
278.6792840903859
 20
263.7999999999997
 30
0.0
 11
278.6792840903859
 21
261.5
 31
0.0
  0
LINE
  5
12A41
330
1F
100
AcDbEntity
  8
pv
100
AcDbLine
 10
278.6792840903859
 20
261.5
 30
0.0
 11
304.6792840903858
 21
261.5
 31
0.0
  0
LINE
  5
12A42
330
1F
100
AcDbEntity
  8
pv
100
AcDbLine
 10
304.6792840903858
 20
261.5
 30
0.0
 11
304.6792840903858
 21
263.7999999999997
 31
0.0
  0
LINE
  5
12A43
330
1F
100
AcDbEntity
  8
pv
100
AcDbLine
 10
304.6792840903858
 20
263.7999999999997
 30
0.0
 11
278.6792840903859
 21
263.7999999999997
 31
0.0
  0
LINE
  5
12A44
330
1F
100
AcDbEntity
  8
pv
100
AcDbLine
 10
278.6792840903859
 20
266.0999999999995
 30
0.0
 11
278.6792840903859
 21
263.7999999999997
 31
0.0
  0
LINE
  5
12A45
330
1F
100
AcDbEntity
  8
pv
100
AcDbLine
 10
278.6792840903859
 20
263.7999999999997
 30
0.0
 11
304.6792840903858
 21
263.7999999999997
 31
0.0
  0
LINE
  5
12A46
330
1F
100
AcDbEntity
  8
pv
100
AcDbLine
 10
304.6792840903858
 20
263.7999999999997
 30
0.0
 11
304.6792840903858
 21
266.0999999999995
 31
0.0
  0
LINE
  5
12A47
330
1F
100
AcDbEntity
  8
pv
100
AcDbLine
 10
304.6792840903858
 20
266.0999999999995
 30
0.0
 11
278.6792840903859
 21
266.0999999999995
 31
0.0
  0
LINE
  5
12A48
330
1F
100
AcDbEntity
  8
pv
100
AcDbLine
 10
278.6792840903859
 20
268.3999999999992
 30
0.0
 11
278.6792840903859
 21
266.0999999999995
 31
0.0
  0
LINE
  5
12A49
330
1F
100
AcDbEntity
  8
pv
100
AcDbLine
 10
278.6792840903859
 20
266.0999999999995
 30
0.0
 11
304.6792840903858
 21
266.0999999999995
 31
0.0
  0
LINE
  5
12A4A
330
1F
100
AcDbEntity
  8
pv
100
AcDbLine
 10
304.6792840903858
 20
266.0999999999995
 30
0.0
 11
304.6792840903858
 21
268.3999999999992
 31
0.0
  0
LINE
  5
12A4B
330
1F
100
AcDbEntity
  8
pv
100
AcDbLine
 10
304.6792840903858
 20
268.3999999999992
 30
0.0
 11
278.6792840903859
 21
268.3999999999992
 31
0.0
  0
LINE
  5
12A4C
330
1F
100
AcDbEntity
  8
BOUSUI
100
AcDbLine
 10
474.679284090384
 20
113.0
 30
0.0
 11
474.679284090384
 21
111.5
 31
0.0
  0
ENDSEC
  0
SECTION
  2
OBJECTS
  0
DICTIONARY
  5
C
330
0
100
AcDbDictionary
281
     1
  3
ACAD_CIP_PREVIOUS_PRODUCT_INFO
350
12407
  3
ACAD_COLOR
350
1349
  3
ACAD_DETAILVIEWSTYLE
350
12401
  3
ACAD_GROUP
350
D
  3
ACAD_LAYOUT
350
1A
  3
ACAD_MATERIAL
350
131C
  3
ACAD_MLEADERSTYLE
350
135E
  3
ACAD_MLINESTYLE
350
17
  3
ACAD_PLOTSETTINGS
350
19
  3
ACAD_PLOTSTYLENAME
350
E
  3
ACAD_SCALELIST
350
134C
  3
ACAD_SECTIONVIEWSTYLE
350
123FF
  3
ACAD_TABLESTYLE
350
134A
  3
ACAD_VISUALSTYLE
350
1335
  3
ACDB_RECOMPOSE_DATA
350
12A4F
  3
AcDbVariableDictionary
350
7E4
  3
AEC_PROPERTY_SET_DEFS
350
14E8
  3
DWGPROPS
350
12A50
  0
DICTIONARY
  5
1392
330
8
100
AcDbDictionary
280
     1
281
     1
  0
DICTIONARY
  5
69
330
2
100
AcDbDictionary
280
     1
281
     1
  3
ACAD_LAYERFILTERS
360
109
  3
ACAD_LAYERSTATES
360
6A
  0
DICTIONARY
  5
1364
330
10
100
AcDbDictionary
280
     1
281
     1
  3
ADSK_XREC_LAYER_RECONCILED
360
1365
  0
DICTIONARY
  5
1366
330
66
100
AcDbDictionary
280
     1
281
     1
  3
ADSK_XREC_LAYER_RECONCILED
360
1367
  0
DICTIONARY
  5
136A
330
1A0
100
AcDbDictionary
280
     1
281
     1
  3
ADSK_XREC_LAYER_RECONCILED
360
136B
  0
DICTIONARY
  5
136C
330
1A1
100
AcDbDictionary
280
     1
281
     1
  3
ADSK_XREC_LAYER_RECONCILED
360
136D
  0
DICTIONARY
  5
136E
330
1A2
100
AcDbDictionary
280
     1
281
     1
  3
ADSK_XREC_LAYER_RECONCILED
360
136F
  0
DICTIONARY
  5
1372
330
1A4
100
AcDbDictionary
280
     1
281
     1
  3
ADSK_XREC_LAYER_RECONCILED
360
1373
  0
DICTIONARY
  5
1374
330
1A5
100
AcDbDictionary
280
     1
281
     1
  3
ADSK_XREC_LAYER_RECONCILED
360
1375
  0
DICTIONARY
  5
1376
330
1A6
100
AcDbDictionary
280
     1
281
     1
  3
ADSK_XREC_LAYER_RECONCILED
360
1377
  0
DICTIONARY
  5
54CD
330
54CC
100
AcDbDictionary
280
     1
281
     1
  0
DICTIONARY
  5
1240F
330
1240E
100
AcDbDictionary
280
     1
281
     1
  0
DICTIONARY
  5
2066
330
1F
100
AcDbDictionary
280
     1
281
     1
  3
ACAD_SORTENTS
360
2067
  0
XRECORD
  5
12407
102
{ACAD_REACTORS
330
C
102
}
330
C
100
AcDbXrecord
280
     1
300
ACD
300
2022
300

  0
DICTIONARY
  5
1349
102
{ACAD_REACTORS
330
C
102
}
330
C
100
AcDbDictionary
281
     1
  0
DICTIONARY
  5
12401
102
{ACAD_REACTORS
330
C
102
}
330
C
100
AcDbDictionary
281
     1
  3
Metric50
350
12402
  0
DICTIONARY
  5
D
102
{ACAD_REACTORS
330
C
102
}
330
C
100
AcDbDictionary
281
     1
  0
DICTIONARY
  5
1A
102
{ACAD_REACTORS
330
C
102
}
330
C
100
AcDbDictionary
281
     1
  3
Model
350
22
  3
\U+FF9A\U+FF72\U+FF71\U+FF73\U+FF841
350
51
  0
DICTIONARY
  5
131C
102
{ACAD_REACTORS
330
C
102
}
330
C
100
AcDbDictionary
281
     1
  3
ByBlock
350
1325
  3
ByLayer
350
131D
  3
Global
350
132D
  0
DICTIONARY
  5
135E
102
{ACAD_REACTORS
330
C
102
}
330
C
100
AcDbDictionary
281
     1
  3
Standard
350
135F
  0
DICTIONARY
  5
17
102
{ACAD_REACTORS
330
C
102
}
330
C
100
AcDbDictionary
281
     1
  3
Standard
350
18
  0
DICTIONARY
  5
19
102
{ACAD_REACTORS
330
C
102
}
330
C
100
AcDbDictionary
281
     1
  0
ACDBDICTIONARYWDFLT
  5
E
102
{ACAD_REACTORS
330
C
102
}
330
C
100
AcDbDictionary
281
     1
  3
Normal
350
F
  3
通常
350
68
100
AcDbDictionaryWithDefault
340
F
  0
DICTIONARY
  5
134C
102
{ACAD_REACTORS
330
C
102
}
330
C
100
AcDbDictionary
281
     1
  3
A0
350
134D
  3
A1
350
134E
  3
A2
350
134F
  3
A3
350
1350
  3
A4
350
1351
  3
A5
350
1352
  3
A6
350
1353
  3
A7
350
1354
  3
A8
350
1355
  3
A9
350
1356
  3
B0
350
1357
  3
B1
350
1358
  3
B2
350
1359
  3
B3
350
135A
  3
B4
350
135B
  3
B5
350
135C
  3
B6
350
135D
  0
DICTIONARY
  5
123FF
102
{ACAD_REACTORS
330
C
102
}
330
C
100
AcDbDictionary
281
     1
  3
Metric50
350
12400
  0
DICTIONARY
  5
134A
102
{ACAD_REACTORS
330
C
102
}
330
C
100
AcDbDictionary
281
     1
  3
Standard
350
134B
  0
DICTIONARY
  5
1335
102
{ACAD_REACTORS
330
C
102
}
330
C
100
AcDbDictionary
281
     1
  3
2dWireframe
350
133B
  3
3D Hidden
350
133D
  3
3dWireframe
350
133C
  3
Basic
350
133A
  3
Brighten
350
1341
  3
ColorChange
350
1345
  3
Conceptual
350
133E
  3
Dim
350
1340
  3
EdgeColorOff
350
1348
  3
Facepattern
350
1344
  3
Flat
350
1336
  3
FlatWithEdges
350
1337
  3
Gouraud
350
1338
  3
GouraudWithEdges
350
1339
  3
Hidden
350
123F9
  3
JitterOff
350
1346
  3
Linepattern
350
1343
  3
OverhangOff
350
1347
  3
Realistic
350
133F
  3
Shaded
350
123FE
  3
Shaded with edges
350
123FD
  3
Shades of Gray
350
123FA
  3
Sketchy
350
123FB
  3
Thicken
350
1342
  3
Wireframe
350
3AD5
  3
X-Ray
350
123FC
  0
XRECORD
  5
12A4F
102
{ACAD_REACTORS
330
C
102
}
330
C
100
AcDbXrecord
280
     1
 90
        1
330
134B
  0
DICTIONARY
  5
7E4
102
{ACAD_REACTORS
330
C
102
}
330
C
100
AcDbDictionary
281
     1
  3
CANNOSCALE
350
13C5
  3
CMLEADERSTYLE
350
13C4
  3
CTABLESTYLE
350
13C3
  3
CVIEWDETAILSTYLE
350
126DC
  3
CVIEWSECTIONSTYLE
350
126DD
  3
DIMASSOC
350
13C7
  3
INDEXCTL
350
13C6
  3
SORTENTS
350
7E5
  3
XCLIPFRAME
350
12A4D
  0
DICTIONARY
  5
14E8
102
{ACAD_REACTORS
330
C
102
}
330
C
100
AcDbDictionary
281
     1
  0
XRECORD
  5
12A50
102
{ACAD_REACTORS
330
C
102
}
330
C
100
AcDbXrecord
280
     1
  1
DWGPROPS COOKIE
  2

  3

  4

  6

  7

  8
2020009
  9

300
=
301
=
302
=
303
=
304
=
305
=
306
=
307
=
308
=
309
=
 40
1.082534224537037
 41
2454042.641631945
 42
2459975.533159722
  1

 90
        0
  0
DICTIONARY
  5
109
102
{ACAD_REACTORS
330
69
102
}
330
69
100
AcDbDictionary
280
     1
281
     1
  0
DICTIONARY
  5
6A
102
{ACAD_REACTORS
330
69
102
}
330
69
100
AcDbDictionary
281
     1
  0
XRECORD
  5
1365
102
{ACAD_REACTORS
330
1364
102
}
330
1364
100
AcDbXrecord
280
     1
290
     1
  0
XRECORD
  5
1367
102
{ACAD_REACTORS
330
1366
102
}
330
1366
100
AcDbXrecord
280
     1
290
     1
  0
XRECORD
  5
136B
102
{ACAD_REACTORS
330
136A
102
}
330
136A
100
AcDbXrecord
280
     1
290
     1
  0
XRECORD
  5
136D
102
{ACAD_REACTORS
330
136C
102
}
330
136C
100
AcDbXrecord
280
     1
290
     1
  0
XRECORD
  5
136F
102
{ACAD_REACTORS
330
136E
102
}
330
136E
100
AcDbXrecord
280
     1
290
     1
  0
XRECORD
  5
1373
102
{ACAD_REACTORS
330
1372
102
}
330
1372
100
AcDbXrecord
280
     1
290
     1
  0
XRECORD
  5
1375
102
{ACAD_REACTORS
330
1374
102
}
330
1374
100
AcDbXrecord
280
     1
290
     1
  0
XRECORD
  5
1377
102
{ACAD_REACTORS
330
1376
102
}
330
1376
100
AcDbXrecord
280
     1
290
     1
  0
SORTENTSTABLE
  5
2067
102
{ACAD_REACTORS
330
2066
102
}
330
2066
100
AcDbSortentsTable
330
1F
331
1241F
  5
12427
331
12420
  5
12428
331
12421
  5
12429
331
12422
  5
1242A
331
12423
  5
1242B
331
12424
  5
1242C
331
12425
  5
1242D
331
12426
  5
1242E
331
12427
  5
1242F
331
12428
  5
12430
331
12429
  5
12431
331
1242A
  5
12432
331
1242B
  5
12433
331
1242C
  5
12434
331
1242D
  5
12435
331
1242E
  5
12436
331
1242F
  5
12437
331
12430
  5
12438
331
12431
  5
12439
331
12432
  5
1243A
331
12433
  5
1243B
331
12434
  5
1243C
331
12435
  5
1243F
331
12436
  5
12440
331
12437
  5
12441
331
12438
  5
12442
331
12439
  5
12443
331
1243A
  5
12444
331
1243B
  5
12445
331
1243C
  5
12446
331
1243F
  5
124E7
331
12440
  5
124E8
331
12441
  5
124E9
331
12442
  5
124EA
331
12443
  5
124EB
331
12444
  5
124EC
331
12445
  5
124ED
331
12446
  5
124EE
331
12447
  5
124EF
331
12448
  5
124F0
331
12449
  5
124F1
331
1244A
  5
124F2
331
1244B
  5
124F3
331
1244C
  5
124F4
331
1244D
  5
124F5
331
1244E
  5
124F6
331
1244F
  5
124F7
331
12450
  5
124F8
331
12451
  5
124F9
331
12452
  5
124FA
331
12453
  5
124FB
331
12454
  5
124FC
331
12455
  5
124FD
331
12456
  5
124FE
331
12457
  5
124FF
331
12458
  5
12500
331
12459
  5
12501
331
1245A
  5
12502
331
1245B
  5
12503
331
1245C
  5
12504
331
1245D
  5
12505
331
1245E
  5
12506
331
1245F
  5
12507
331
12460
  5
12508
331
12461
  5
12509
331
12468
  5
1251E
331
12469
  5
1251F
331
1246A
  5
12520
331
1246B
  5
12521
331
1246C
  5
12522
331
1246D
  5
12523
331
1246E
  5
12524
331
1246F
  5
12525
331
12475
  5
12536
331
12476
  5
12537
331
12477
  5
12538
331
12478
  5
12539
331
12479
  5
1253A
331
1247A
  5
1253B
331
1247B
  5
1253C
331
1247C
  5
1253D
331
1247D
  5
1253E
331
1247E
  5
1253F
331
1247F
  5
12540
331
12480
  5
12541
331
12481
  5
12542
331
12482
  5
12543
331
12483
  5
12544
331
12484
  5
12545
331
12485
  5
12546
331
12486
  5
12547
331
12487
  5
12548
331
12488
  5
12549
331
12489
  5
1254A
331
1248A
  5
1254B
331
1248B
  5
1254C
331
1248C
  5
1254D
331
1248D
  5
1254E
331
1248E
  5
1254F
331
1248F
  5
12550
331
12490
  5
12551
331
12491
  5
12552
331
12492
  5
12553
331
12493
  5
12554
331
12494
  5
12555
331
12495
  5
12556
331
12496
  5
12557
331
12497
  5
12558
331
12498
  5
12559
331
12499
  5
1255A
331
1249A
  5
1255B
331
1249B
  5
1255C
331
1249C
  5
1255D
331
1249D
  5
1255E
331
1249E
  5
1255F
331
1249F
  5
12560
331
124A0
  5
12561
331
124A1
  5
12562
331
124A2
  5
12563
331
124A3
  5
12564
331
124A4
  5
12565
331
124A5
  5
12566
331
124A6
  5
12567
331
124A7
  5
12568
331
124A8
  5
12569
331
124A9
  5
1256A
331
124AA
  5
1256B
331
124AB
  5
1256C
331
124AC
  5
1256D
331
124AD
  5
1256E
331
124AE
  5
1256F
331
124AF
  5
12570
331
124B0
  5
12571
331
124B1
  5
12572
331
124B2
  5
12573
331
124B3
  5
12574
331
124B4
  5
12575
331
124B5
  5
12576
331
124B6
  5
12577
331
124B7
  5
12578
331
124B8
  5
12579
331
124B9
  5
1257A
331
124BA
  5
1257B
331
124BB
  5
1257C
331
124BC
  5
1257D
331
124BD
  5
1257E
331
124BE
  5
1257F
331
124BF
  5
12580
331
124C0
  5
12581
331
124C1
  5
12582
331
124C2
  5
12583
331
124C3
  5
12584
331
124C4
  5
12585
331
124C5
  5
12586
331
124C6
  5
12587
331
124C7
  5
12588
331
124C8
  5
12589
331
124C9
  5
1258A
331
124CA
  5
1258B
331
124CB
  5
1258C
331
124CC
  5
1258D
331
124CD
  5
1258E
331
124CE
  5
1258F
331
124CF
  5
12590
331
124D0
  5
12591
331
124D1
  5
12592
331
124D2
  5
12593
331
124D3
  5
12594
331
124D4
  5
12595
331
124D5
  5
12596
331
124D6
  5
12597
331
124D7
  5
12598
331
124D8
  5
12599
331
124D9
  5
1259A
331
124DA
  5
1259B
331
124DB
  5
1259C
331
124DC
  5
1259D
331
124DD
  5
125A6
331
124DE
  5
125A7
331
124DF
  5
125A8
331
124E0
  5
125A9
331
124E1
  5
125AB
331
124E2
  5
125AC
331
124E3
  5
125AD
331
124E4
  5
125AF
331
124E5
  5
125B0
331
124E6
  5
125B1
331
124E7
  5
125B2
331
124E8
  5
125B3
331
124E9
  5
125B5
331
124EA
  5
125B6
331
124EB
  5
125B7
331
124EC
  5
125B8
331
124ED
  5
125BA
331
124EE
  5
125BB
331
124EF
  5
125BC
331
124F0
  5
125BD
331
124F1
  5
125BF
331
124F2
  5
125C0
331
124F3
  5
125C1
331
124F4
  5
125C2
331
124F5
  5
125C4
331
124F6
  5
125C8
331
124F7
  5
125C9
331
124F8
  5
125CA
331
124F9
  5
125CC
331
124FA
  5
125CD
331
124FB
  5
125CE
331
124FC
  5
125CF
331
124FD
  5
125D1
331
124FE
  5
125D2
331
124FF
  5
125D4
331
12500
  5
125D5
331
12501
  5
125D6
331
12502
  5
125D7
331
12503
  5
125D8
331
12504
  5
125D9
331
12505
  5
125DA
331
12506
  5
125DB
331
12507
  5
125DC
331
12508
  5
125DD
331
12509
  5
125DE
331
1250A
  5
125DF
331
1250B
  5
125E0
331
1250C
  5
125E1
331
1250D
  5
125E2
331
1250E
  5
125E3
331
1250F
  5
125E4
331
12510
  5
125E5
331
12511
  5
125E6
331
12512
  5
125E9
331
12513
  5
125EA
331
12514
  5
125EE
331
12515
  5
125EF
331
12516
  5
125F0
331
12517
  5
125F1
331
12518
  5
125F5
331
12519
  5
125F6
331
1251A
  5
125FC
331
1251B
  5
125FD
331
1251C
  5
125FE
331
1251D
  5
125FF
331
1251E
  5
1291A
331
1251F
  5
1291B
331
12520
  5
1291C
331
12521
  5
1291D
331
12522
  5
1291E
331
12523
  5
1291F
331
12524
  5
12920
331
12525
  5
12921
331
12526
  5
12922
331
12527
  5
12923
331
12528
  5
12924
331
12529
  5
12925
331
1252A
  5
12926
331
1252B
  5
12927
331
1252C
  5
12928
331
1252D
  5
12929
331
1252E
  5
1292A
331
1252F
  5
1292B
331
12530
  5
1292C
331
12531
  5
1292D
331
12532
  5
1292E
331
12533
  5
1292F
331
12534
  5
12930
331
12535
  5
12931
331
12536
  5
12932
331
12537
  5
12933
331
12538
  5
12934
331
12539
  5
12935
331
1253A
  5
12936
331
1253B
  5
12937
331
1253C
  5
12938
331
1253D
  5
12939
331
1253E
  5
1293A
331
1253F
  5
1293B
331
12540
  5
1293C
331
12541
  5
1293D
331
12542
  5
1293E
331
12543
  5
1293F
331
12544
  5
12940
331
12545
  5
12941
331
12546
  5
12942
331
12547
  5
12943
331
12548
  5
12944
331
12549
  5
12945
331
1254A
  5
12946
331
1254B
  5
12947
331
1254C
  5
12948
331
1254D
  5
12949
331
1254E
  5
1294A
331
1254F
  5
1294B
331
12550
  5
1294C
331
12551
  5
1294D
331
12552
  5
1294E
331
12553
  5
1294F
331
12554
  5
12950
331
12555
  5
12951
331
12556
  5
12952
331
12557
  5
12953
331
12558
  5
12954
331
12559
  5
12955
331
1255A
  5
12956
331
1255B
  5
12957
331
1255C
  5
12958
331
1255D
  5
12959
331
1255E
  5
1295A
331
1255F
  5
1295B
331
12560
  5
1295C
331
12561
  5
1295D
331
12562
  5
1295E
331
12563
  5
1295F
331
12564
  5
12960
331
12565
  5
12961
331
12566
  5
12962
331
12567
  5
12963
331
12568
  5
12964
331
12569
  5
12965
331
1256A
  5
12966
331
1256B
  5
12967
331
1256C
  5
12968
331
1256D
  5
12969
331
1256E
  5
1296A
331
1256F
  5
1296B
331
12570
  5
1296C
331
12571
  5
1296D
331
12572
  5
1296E
331
12573
  5
1296F
331
12574
  5
12970
331
12575
  5
12971
331
12576
  5
12972
331
12577
  5
12973
331
12578
  5
12974
331
12579
  5
12975
331
1257A
  5
12976
331
1257B
  5
12977
331
1257C
  5
12978
331
1257D
  5
12979
331
1257E
  5
1297A
331
1257F
  5
1297B
331
12580
  5
1297C
331
12581
  5
1297D
331
12582
  5
1297E
331
12583
  5
1297F
331
12584
  5
12980
331
12585
  5
12981
331
12586
  5
12982
331
12587
  5
12983
331
12588
  5
12984
331
12589
  5
12985
331
1258A
  5
12986
331
1258B
  5
12987
331
1258C
  5
12988
331
1258D
  5
12989
331
1258E
  5
1298A
331
1258F
  5
1298B
331
12590
  5
1298C
331
12591
  5
1298D
331
12592
  5
1298E
331
12593
  5
1298F
331
12594
  5
12990
331
12595
  5
12991
331
12596
  5
12992
331
12597
  5
12993
331
12598
  5
12994
331
12599
  5
12995
331
1259A
  5
12996
331
1259B
  5
12997
331
1259C
  5
12998
331
1259D
  5
12999
331
125A6
  5
129AA
331
125A7
  5
129AB
331
125A8
  5
129AC
331
125A9
  5
129AD
331
125AB
  5
129B4
331
125AC
  5
129B5
331
125AD
  5
129B6
331
125AF
  5
129BD
331
125B0
  5
129BE
331
125B1
  5
129BF
331
125B2
  5
129C0
331
125B3
  5
129C1
331
125B5
  5
129C2
331
125B6
  5
129C3
331
125B7
  5
129C4
331
125B8
  5
129C5
331
125BA
  5
129C6
331
125BB
  5
129C7
331
125BC
  5
129C8
331
125BD
  5
129C9
331
125BF
  5
129CA
331
125C0
  5
129CB
331
125C1
  5
129CC
331
125C2
  5
129CD
331
125C4
  5
129CE
331
125C8
  5
129DB
331
125C9
  5
129DC
331
125CA
  5
129DD
331
125CC
  5
129DE
331
125CD
  5
129DF
331
125CE
  5
129E0
331
125CF
  5
129E1
331
125D1
  5
129E2
331
125D2
  5
129E3
331
125D4
  5
129E8
331
125D5
  5
129E9
331
125D6
  5
129EA
331
125D7
  5
129EB
331
125D8
  5
129EC
331
125D9
  5
129ED
331
125DA
  5
129EE
331
125DB
  5
129EF
331
125DC
  5
129F0
331
125DD
  5
129F1
331
125DE
  5
129F2
331
125DF
  5
129F3
331
125E0
  5
129F4
331
125E1
  5
129F5
331
125E2
  5
129F6
331
125E3
  5
129F7
331
125E4
  5
129F8
331
125E5
  5
129F9
331
125E6
  5
129FA
331
125E9
  5
12A08
331
125EA
  5
12A09
331
125EE
  5
12A1C
331
125EF
  5
12A1D
331
125F0
  5
12A1E
331
125F1
  5
12A1F
331
125F5
  5
12A32
331
125F6
  5
12A33
331
125FC
  5
12A48
331
125FD
  5
12A49
331
125FE
  5
12A4A
331
125FF
  5
12A4B
331
1291A
  5
1241F
331
1291B
  5
12420
331
1291C
  5
12421
331
1291D
  5
12422
331
1291E
  5
12423
331
1291F
  5
12424
331
12920
  5
12425
331
12921
  5
12426
331
12922
  5
12447
331
12923
  5
12448
331
12924
  5
12449
331
12925
  5
1244A
331
12926
  5
1244B
331
12927
  5
1244C
331
12928
  5
1244D
331
12929
  5
1244E
331
1292A
  5
1244F
331
1292B
  5
12450
331
1292C
  5
12451
331
1292D
  5
12452
331
1292E
  5
12453
331
1292F
  5
12454
331
12930
  5
12455
331
12931
  5
12456
331
12932
  5
12457
331
12933
  5
12458
331
12934
  5
12459
331
12935
  5
1245A
331
12936
  5
1245B
331
12937
  5
1245C
331
12938
  5
1245D
331
12939
  5
1245E
331
1293A
  5
1245F
331
1293B
  5
12460
331
1293C
  5
12461
331
1293D
  5
12468
331
1293E
  5
12469
331
1293F
  5
1246A
331
12940
  5
1246B
331
12941
  5
1246C
331
12942
  5
1246D
331
12943
  5
1246E
331
12944
  5
1246F
331
12945
  5
12475
331
12946
  5
12476
331
12947
  5
12477
331
12948
  5
12478
331
12949
  5
12479
331
1294A
  5
1247A
331
1294B
  5
1247B
331
1294C
  5
1247C
331
1294D
  5
1247D
331
1294E
  5
1247E
331
1294F
  5
1247F
331
12950
  5
12480
331
12951
  5
12481
331
12952
  5
12482
331
12953
  5
12483
331
12954
  5
12484
331
12955
  5
12485
331
12956
  5
12486
331
12957
  5
12487
331
12958
  5
12488
331
12959
  5
12489
331
1295A
  5
1248A
331
1295B
  5
1248B
331
1295C
  5
1248C
331
1295D
  5
1248D
331
1295E
  5
1248E
331
1295F
  5
1248F
331
12960
  5
12490
331
12961
  5
12491
331
12962
  5
12492
331
12963
  5
12493
331
12964
  5
12494
331
12965
  5
12495
331
12966
  5
12496
331
12967
  5
12497
331
12968
  5
12498
331
12969
  5
12499
331
1296A
  5
1249A
331
1296B
  5
1249B
331
1296C
  5
1249C
331
1296D
  5
1249D
331
1296E
  5
1249E
331
1296F
  5
1249F
331
12970
  5
124A0
331
12971
  5
124A1
331
12972
  5
124A2
331
12973
  5
124A3
331
12974
  5
124A4
331
12975
  5
124A5
331
12976
  5
124A6
331
12977
  5
124A7
331
12978
  5
124A8
331
12979
  5
124A9
331
1297A
  5
124AA
331
1297B
  5
124AB
331
1297C
  5
124AC
331
1297D
  5
124AD
331
1297E
  5
124AE
331
1297F
  5
124AF
331
12980
  5
124B0
331
12981
  5
124B1
331
12982
  5
124B2
331
12983
  5
124B3
331
12984
  5
124B4
331
12985
  5
124B5
331
12986
  5
124B6
331
12987
  5
124B7
331
12988
  5
124B8
331
12989
  5
124B9
331
1298A
  5
124BA
331
1298B
  5
124BB
331
1298C
  5
124BC
331
1298D
  5
124BD
331
1298E
  5
124BE
331
1298F
  5
124BF
331
12990
  5
124C0
331
12991
  5
124C1
331
12992
  5
124C2
331
12993
  5
124C3
331
12994
  5
124C4
331
12995
  5
124C5
331
12996
  5
124C6
331
12997
  5
124C7
331
12998
  5
124C8
331
12999
  5
124C9
331
1299A
  5
124CA
331
1299B
  5
124CB
331
1299C
  5
124CC
331
1299D
  5
124CD
331
1299E
  5
124CE
331
1299F
  5
124CF
331
129A0
  5
124D0
331
129A1
  5
124D1
331
129A2
  5
124D2
331
129A3
  5
124D3
331
129A4
  5
124D4
331
129A5
  5
124D5
331
129A6
  5
124D6
331
129A7
  5
124D7
331
129A8
  5
124D8
331
129A9
  5
124D9
331
129AA
  5
124DA
331
129AB
  5
124DB
331
129AC
  5
124DC
331
129AD
  5
124DD
331
129AE
  5
124DE
331
129AF
  5
124DF
331
129B0
  5
124E0
331
129B1
  5
124E1
331
129B2
  5
124E2
331
129B3
  5
124E3
331
129B4
  5
124E4
331
129B5
  5
124E5
331
129B6
  5
124E6
331
129B7
  5
1250A
331
129B8
  5
1250B
331
129B9
  5
1250C
331
129BA
  5
1250D
331
129BB
  5
1250E
331
129BC
  5
1250F
331
129BD
  5
12510
331
129BE
  5
12511
331
129BF
  5
12512
331
129C0
  5
12513
331
129C1
  5
12514
331
129C2
  5
12515
331
129C3
  5
12516
331
129C4
  5
12517
331
129C5
  5
12518
331
129C6
  5
12519
331
129C7
  5
1251A
331
129C8
  5
1251B
331
129C9
  5
1251C
331
129CA
  5
1251D
331
129CB
  5
12526
331
129CC
  5
12527
331
129CD
  5
12528
331
129CE
  5
12529
331
129CF
  5
1252A
331
129D0
  5
1252B
331
129D1
  5
1252C
331
129D2
  5
1252D
331
129D3
  5
1252E
331
129D4
  5
1252F
331
129D5
  5
12530
331
129D6
  5
12531
331
129D7
  5
12532
331
129D8
  5
12533
331
129D9
  5
12534
331
129DA
  5
12535
331
129DB
  5
1299A
331
129DC
  5
1299B
331
129DD
  5
1299C
331
129DE
  5
1299D
331
129DF
  5
1299E
331
129E0
  5
1299F
331
129E1
  5
129A0
331
129E2
  5
129A1
331
129E3
  5
129A2
331
129E4
  5
129A3
331
129E5
  5
129A4
331
129E6
  5
129A5
331
129E7
  5
129A6
331
129E8
  5
129A7
331
129E9
  5
129A8
331
129EA
  5
129A9
331
129EB
  5
129AE
331
129EC
  5
129AF
331
129ED
  5
129B0
331
129EE
  5
129B1
331
129EF
  5
129B2
331
129F0
  5
129B3
331
129F1
  5
129B7
331
129F2
  5
129B8
331
129F3
  5
129B9
331
129F4
  5
129BA
331
129F5
  5
129BB
331
129F6
  5
129BC
331
129F7
  5
129CF
331
129F8
  5
129D0
331
129F9
  5
129D1
331
129FA
  5
129D2
331
129FB
  5
129D3
331
129FC
  5
129D4
331
129FD
  5
129D5
331
129FE
  5
129D6
331
129FF
  5
129D7
331
12A00
  5
129D8
331
12A01
  5
129D9
331
12A02
  5
129DA
331
12A03
  5
129E4
331
12A04
  5
129E5
331
12A05
  5
129E6
331
12A06
  5
129E7
331
12A07
  5
129FB
331
12A08
  5
129FC
331
12A09
  5
129FD
331
12A0A
  5
129FE
331
12A0B
  5
129FF
331
12A0C
  5
12A00
331
12A0D
  5
12A01
331
12A0E
  5
12A02
331
12A0F
  5
12A03
331
12A10
  5
12A04
331
12A11
  5
12A05
331
12A12
  5
12A06
331
12A13
  5
12A07
331
12A14
  5
12A0A
331
12A15
  5
12A0B
331
12A16
  5
12A0C
331
12A17
  5
12A0D
331
12A18
  5
12A0E
331
12A19
  5
12A0F
331
12A1A
  5
12A10
331
12A1B
  5
12A11
331
12A1C
  5
12A12
331
12A1D
  5
12A13
331
12A1E
  5
12A14
331
12A1F
  5
12A15
331
12A20
  5
12A16
331
12A21
  5
12A17
331
12A22
  5
12A18
331
12A23
  5
12A19
331
12A24
  5
12A1A
331
12A25
  5
12A1B
331
12A26
  5
12A20
331
12A27
  5
12A21
331
12A28
  5
12A22
331
12A29
  5
12A23
331
12A2A
  5
12A24
331
12A2B
  5
12A25
331
12A2C
  5
12A26
331
12A2D
  5
12A27
331
12A2E
  5
12A28
331
12A2F
  5
12A29
331
12A30
  5
12A2A
331
12A31
  5
12A2B
331
12A32
  5
12A2C
331
12A33
  5
12A2D
331
12A34
  5
12A2E
331
12A35
  5
12A2F
331
12A36
  5
12A30
331
12A37
  5
12A31
331
12A38
  5
12A34
331
12A39
  5
12A35
331
12A3A
  5
12A36
331
12A3B
  5
12A37
331
12A3C
  5
12A38
331
12A3D
  5
12A39
331
12A3E
  5
12A3A
331
12A3F
  5
12A3B
331
12A40
  5
12A3C
331
12A41
  5
12A3D
331
12A42
  5
12A3E
331
12A43
  5
12A3F
331
12A44
  5
12A40
331
12A45
  5
12A41
331
12A46
  5
12A42
331
12A47
  5
12A43
331
12A48
  5
12A44
331
12A49
  5
12A45
331
12A4A
  5
12A46
331
12A4B
  5
12A47
  0
ACDBDETAILVIEWSTYLE
  5
12402
102
{ACAD_XDICTIONARY
360
12A8F
102
}
102
{ACAD_REACTORS
330
12401
102
}
330
12401
100
AcDbModelDocViewStyle
 70
     0
  3
Metric50
290
     0
100
AcDbDetailViewStyle
 70
     0
 71
     0
 90
        3
 71
     1
340
11
 40
5.0
340
0
 40
5.0
300

 40
0.0
280
     1
 71
     2
340
16
 90
       25
 71
     3
340
11
 40
5.0
 90
        0
 40
15.0
 90
        1
300
%<\AcVar ViewDetailId>% (%<\AcVar ViewScale \f "%sn">%)
 71
     4
340
16
 90
       25
340
16
 90
       25
280
     0
  0
LAYOUT
  5
22
102
{ACAD_XDICTIONARY
360
12A51
102
}
102
{ACAD_REACTORS
330
1A
102
}
330
1A
100
AcDbPlotSettings
  1

  2
DWG To PDF.pc3
  4
ISO_full_bleed_A3_(420.00_x_297.00_MM)
  6

 40
0.7937499880790711
 41
0.7937499880790711
 42
0.79376220703125
 43
0.79376220703125
 44
420.0
 45
297.0
 46
9.206243902444782
 47
10.20624390244484
 48
0.0
 49
0.0
140
800.0000000000001
141
550.0
142
1.0
143
2.0
 70
 11940
 72
     1
 73
     0
 74
     4
  7
monochrome.ctb
 75
    26
147
0.01
148
0.0
149
0.0
100
AcDbLayout
  1
Model
 70
     1
 71
     0
 10
0.0
 20
0.0
 11
12.0
 21
9.0
 12
0.0
 22
0.0
 32
0.0
 14
0.0
 24
0.0
 34
0.0
 15
0.0
 25
0.0
 35
0.0
146
0.0
 13
0.0
 23
0.0
 33
0.0
 16
1.0
 26
0.0
 36
0.0
 17
0.0
 27
1.0
 37
0.0
 76
     0
330
1F
331
131A
1001
ACAD_PSEXT
1000
DWG To PDF.pc3
1000
DWG To PDF
1000
ファイル
1000

1070
     0
  0
LAYOUT
  5
51
102
{ACAD_XDICTIONARY
360
12A53
102
}
102
{ACAD_REACTORS
330
1A
102
}
330
1A
100
AcDbPlotSettings
  1

  2
None
  4

  6

 40
0.0
 41
0.0
 42
0.0
 43
0.0
 44
0.0
 45
0.0
 46
0.0
 47
0.0
 48
0.0
 49
0.0
140
0.0
141
0.0
142
1.0
143
1.0
 70
   688
 72
     0
 73
     0
 74
     5
  7
monochrome.ctb
 75
    16
147
1.0
148
0.0
149
0.0
100
AcDbLayout
  1
\U+FF9A\U+FF72\U+FF71\U+FF73\U+FF841
 70
     0
 71
     1
 10
0.0
 20
0.0
 11
12.0
 21
9.0
 12
0.0
 22
0.0
 32
0.0
 14
0.0
 24
0.0
 34
0.0
 15
0.0
 25
0.0
 35
0.0
146
0.0
 13
0.0
 23
0.0
 33
0.0
 16
1.0
 26
0.0
 36
0.0
 17
0.0
 27
1.0
 37
0.0
 76
     0
330
50
  0
MATERIAL
  5
1325
102
{ACAD_XDICTIONARY
360
1326
102
}
102
{ACAD_REACTORS
330
131C
102
}
330
131C
100
AcDbMaterial
  1
ByBlock
 72
     0
 43
0.0008202099737533
 43
0.0
 43
0.0
 43
0.0
 43
0.0
 43
0.0008202099737533
 43
0.0
 43
0.0
 43
0.0
 43
0.0
 43
1.0
 43
0.0
 43
0.0
 43
0.0
 43
0.0
 43
1.0
 77
     0
 47
0.0008202099737533
 47
0.0
 47
0.0
 47
0.0
 47
0.0
 47
0.0008202099737533
 47
0.0
 47
0.0
 47
0.0
 47
0.0
 47
1.0
 47
0.0
 47
0.0
 47
0.0
 47
0.0
 47
1.0
171
     0
 49
0.0008202099737533
 49
0.0
 49
0.0
 49
0.0
 49
0.0
 49
0.0008202099737533
 49
0.0
 49
0.0
 49
0.0
 49
0.0
 49
1.0
 49
0.0
 49
0.0
 49
0.0
 49
0.0
 49
1.0
175
     0
142
0.0008202099737533
142
0.0
142
0.0
142
0.0
142
0.0
142
0.0008202099737533
142
0.0
142
0.0
142
0.0
142
0.0
142
1.0
142
0.0
142
0.0
142
0.0
142
0.0
142
1.0
179
     0
144
0.0008202099737533
144
0.0
144
0.0
144
0.0
144
0.0
144
0.0008202099737533
144
0.0
144
0.0
144
0.0
144
0.0
144
1.0
144
0.0
144
0.0
144
0.0
144
0.0
144
1.0
147
0.0008202099737533
147
0.0
147
0.0
147
0.0
147
0.0
147
0.0008202099737533
147
0.0
147
0.0
147
0.0
147
0.0
147
1.0
147
0.0
147
0.0
147
0.0
147
0.0
147
1.0
  0
MATERIAL
  5
131D
102
{ACAD_XDICTIONARY
360
131E
102
}
102
{ACAD_REACTORS
330
131C
102
}
330
131C
100
AcDbMaterial
  1
ByLayer
 72
     0
 43
0.0008202099737533
 43
0.0
 43
0.0
 43
0.0
 43
0.0
 43
0.0008202099737533
 43
0.0
 43
0.0
 43
0.0
 43
0.0
 43
1.0
 43
0.0
 43
0.0
 43
0.0
 43
0.0
 43
1.0
 77
     0
 47
0.0008202099737533
 47
0.0
 47
0.0
 47
0.0
 47
0.0
 47
0.0008202099737533
 47
0.0
 47
0.0
 47
0.0
 47
0.0
 47
1.0
 47
0.0
 47
0.0
 47
0.0
 47
0.0
 47
1.0
171
     0
 49
0.0008202099737533
 49
0.0
 49
0.0
 49
0.0
 49
0.0
 49
0.0008202099737533
 49
0.0
 49
0.0
 49
0.0
 49
0.0
 49
1.0
 49
0.0
 49
0.0
 49
0.0
 49
0.0
 49
1.0
175
     0
142
0.0008202099737533
142
0.0
142
0.0
142
0.0
142
0.0
142
0.0008202099737533
142
0.0
142
0.0
142
0.0
142
0.0
142
1.0
142
0.0
142
0.0
142
0.0
142
0.0
142
1.0
179
     0
144
0.0008202099737533
144
0.0
144
0.0
144
0.0
144
0.0
144
0.0008202099737533
144
0.0
144
0.0
144
0.0
144
0.0
144
1.0
144
0.0
144
0.0
144
0.0
144
0.0
144
1.0
147
0.0008202099737533
147
0.0
147
0.0
147
0.0
147
0.0
147
0.0008202099737533
147
0.0
147
0.0
147
0.0
147
0.0
147
1.0
147
0.0
147
0.0
147
0.0
147
0.0
147
1.0
  0
MATERIAL
  5
132D
102
{ACAD_XDICTIONARY
360
132E
102
}
102
{ACAD_REACTORS
330
131C
102
}
330
131C
100
AcDbMaterial
  1
Global
 72
     0
 43
0.0008202099737533
 43
0.0
 43
0.0
 43
0.0
 43
0.0
 43
0.0008202099737533
 43
0.0
 43
0.0
 43
0.0
 43
0.0
 43
1.0
 43
0.0
 43
0.0
 43
0.0
 43
0.0
 43
1.0
 77
     0
 47
0.0008202099737533
 47
0.0
 47
0.0
 47
0.0
 47
0.0
 47
0.0008202099737533
 47
0.0
 47
0.0
 47
0.0
 47
0.0
 47
1.0
 47
0.0
 47
0.0
 47
0.0
 47
0.0
 47
1.0
171
     0
 49
0.0008202099737533
 49
0.0
 49
0.0
 49
0.0
 49
0.0
 49
0.0008202099737533
 49
0.0
 49
0.0
 49
0.0
 49
0.0
 49
1.0
 49
0.0
 49
0.0
 49
0.0
 49
0.0
 49
1.0
175
     0
142
0.0008202099737533
142
0.0
142
0.0
142
0.0
142
0.0
142
0.0008202099737533
142
0.0
142
0.0
142
0.0
142
0.0
142
1.0
142
0.0
142
0.0
142
0.0
142
0.0
142
1.0
179
     0
144
0.0008202099737533
144
0.0
144
0.0
144
0.0
144
0.0
144
0.0008202099737533
144
0.0
144
0.0
144
0.0
144
0.0
144
1.0
144
0.0
144
0.0
144
0.0
144
0.0
144
1.0
147
0.0008202099737533
147
0.0
147
0.0
147
0.0
147
0.0
147
0.0008202099737533
147
0.0
147
0.0
147
0.0
147
0.0
147
1.0
147
0.0
147
0.0
147
0.0
147
0.0
147
1.0
  0
MLEADERSTYLE
  5
135F
102
{ACAD_REACTORS
330
135E
102
}
330
135E
100
AcDbMLeaderStyle
170
     2
171
     1
172
     0
 90
        2
 40
0.0
 41
0.0
173
     1
 91
-1056964608
340
14
 92
       -2
290
     1
 42
2.0
291
     1
 43
0.36
  3
Standard
 44
4.0
300

342
11
174
     1
178
     6
175
     1
176
     0
 93
-1056964608
 45
4.0
292
     0
297
     0
 46
4.0
 94
-1056964608
 47
1.0
 49
1.0
140
1.0
293
     1
141
0.0
294
     1
177
     0
142
1.0
295
     0
296
     0
143
0.125
1001
ACAD_MLEADERVER
1070
     2
  0
MLINESTYLE
  5
18
102
{ACAD_REACTORS
330
17
102
}
330
17
100
AcDbMlineStyle
  2
STANDARD
 70
     0
  3

 62
   256
 51
90.0
 52
90.0
 71
     2
 49
0.5
 62
   256
  6
BYLAYER
 49
-0.5
 62
   256
  6
BYLAYER
  0
ACDBPLACEHOLDER
  5
F
102
{ACAD_REACTORS
330
E
102
}
330
E
  0
ACDBPLACEHOLDER
  5
68
102
{ACAD_REACTORS
330
E
102
}
330
E
  0
SCALE
  5
134D
102
{ACAD_REACTORS
330
134C
102
}
330
134C
100
AcDbScale
 70
     0
300
1:1
140
1.0
141
1.0
290
     1
  0
SCALE
  5
134E
102
{ACAD_REACTORS
330
134C
102
}
330
134C
100
AcDbScale
 70
     0
300
1:2
140
1.0
141
2.0
290
     0
  0
SCALE
  5
134F
102
{ACAD_REACTORS
330
134C
102
}
330
134C
100
AcDbScale
 70
     0
300
1:4
140
1.0
141
4.0
290
     0
  0
SCALE
  5
1350
102
{ACAD_REACTORS
330
134C
102
}
330
134C
100
AcDbScale
 70
     0
300
1:5
140
1.0
141
5.0
290
     0
  0
SCALE
  5
1351
102
{ACAD_REACTORS
330
134C
102
}
330
134C
100
AcDbScale
 70
     0
300
1:8
140
1.0
141
8.0
290
     0
  0
SCALE
  5
1352
102
{ACAD_REACTORS
330
134C
102
}
330
134C
100
AcDbScale
 70
     0
300
1:10
140
1.0
141
10.0
290
     0
  0
SCALE
  5
1353
102
{ACAD_REACTORS
330
134C
102
}
330
134C
100
AcDbScale
 70
     0
300
1:16
140
1.0
141
16.0
290
     0
  0
SCALE
  5
1354
102
{ACAD_REACTORS
330
134C
102
}
330
134C
100
AcDbScale
 70
     0
300
1:20
140
1.0
141
20.0
290
     0
  0
SCALE
  5
1355
102
{ACAD_REACTORS
330
134C
102
}
330
134C
100
AcDbScale
 70
     0
300
1:30
140
1.0
141
30.0
290
     0
  0
SCALE
  5
1356
102
{ACAD_REACTORS
330
134C
102
}
330
134C
100
AcDbScale
 70
     0
300
1:40
140
1.0
141
40.0
290
     0
  0
SCALE
  5
1357
102
{ACAD_REACTORS
330
134C
102
}
330
134C
100
AcDbScale
 70
     0
300
1:50
140
1.0
141
50.0
290
     0
  0
SCALE
  5
1358
102
{ACAD_REACTORS
330
134C
102
}
330
134C
100
AcDbScale
 70
     0
300
1:100
140
1.0
141
100.0
290
     0
  0
SCALE
  5
1359
102
{ACAD_REACTORS
330
134C
102
}
330
134C
100
AcDbScale
 70
     0
300
2:1
140
2.0
141
1.0
290
     0
  0
SCALE
  5
135A
102
{ACAD_REACTORS
330
134C
102
}
330
134C
100
AcDbScale
 70
     0
300
4:1
140
4.0
141
1.0
290
     0
  0
SCALE
  5
135B
102
{ACAD_REACTORS
330
134C
102
}
330
134C
100
AcDbScale
 70
     0
300
8:1
140
8.0
141
1.0
290
     0
  0
SCALE
  5
135C
102
{ACAD_REACTORS
330
134C
102
}
330
134C
100
AcDbScale
 70
     0
300
10:1
140
10.0
141
1.0
290
     0
  0
SCALE
  5
135D
102
{ACAD_REACTORS
330
134C
102
}
330
134C
100
AcDbScale
 70
     0
300
100:1
140
100.0
141
1.0
290
     0
  0
ACDBSECTIONVIEWSTYLE
  5
12400
102
{ACAD_XDICTIONARY
360
12A8D
102
}
102
{ACAD_REACTORS
330
123FF
102
}
330
123FF
100
AcDbModelDocViewStyle
 70
     0
  3
Metric50
290
     0
100
AcDbSectionViewStyle
 70
     0
 71
     0
 90
      102
 71
     1
340
11
 40
5.0
340
0
340
0
 40
5.0
300
I, O, Q, S, X, Z
 40
10.0
 90
        0
 40
2.5
 90
        0
 71
     2
340
16
 90
       25
340
16
 90
       50
 40
5.0
 40
2.5
 40
5.0
 71
     3
340
11
 40
5.0
 90
        0
 40
15.0
 90
        1
300
%<\AcVar ViewSectionStartId>%-%<\AcVar ViewSectionEndId>% (%<\AcVar ViewScale \f "%sn">%)
 71
     4
300
ANSI31
 40
1.0
 90
        0
290
     0
290
     0
 90
        6
 40
0.0
 40
1.570796326794896
 40
0.2617993877991494
 40
1.308996938995747
 40
-0.2617993877991494
 40
1.832595714594046
  0
TABLESTYLE
  5
134B
102
{ACAD_XDICTIONARY
360
138E
102
}
102
{ACAD_REACTORS
330
134A
102
}
330
134A
100
AcDbTableStyle
  3
Standard
 70
     0
 71
     0
 40
1.5
 41
1.5
280
     0
281
     0
  7
Standard
140
4.5
170
     2
 62
     0
 63
     7
283
     0
274
    -2
284
     1
 64
     0
275
    -2
285
     1
 65
     0
276
    -2
286
     1
 66
     0
277
    -2
287
     1
 67
     0
278
    -2
288
     1
 68
     0
279
    -2
289
     1
 69
     0
  7
Standard
140
6.0
170
     5
 62
     0
 63
     7
283
     0
274
    -2
284
     1
 64
     0
275
    -2
285
     1
 65
     0
276
    -2
286
     1
 66
     0
277
    -2
287
     1
 67
     0
278
    -2
288
     1
 68
     0
279
    -2
289
     1
 69
     0
  7
Standard
140
4.5
170
     5
 62
     0
 63
     7
283
     0
274
    -2
284
     1
 64
     0
275
    -2
285
     1
 65
     0
276
    -2
286
     1
 66
     0
277
    -2
287
     1
 67
     0
278
    -2
288
     1
 68
     0
279
    -2
289
     1
 69
     0
  0
VISUALSTYLE
  5
133B
102
{ACAD_XDICTIONARY
360
12A62
102
}
102
{ACAD_REACTORS
330
1335
102
}
330
1335
100
AcDbVisualStyle
  2
2dWireframe
 70
     4
 71
     0
 72
     2
 73
     0
 90
        0
 40
-0.6
 41
-30.0
 62
     5
 63
     7
 74
     1
 91
        4
 64
     7
 65
   257
 75
     1
175
     1
 42
1.0
 92
        0
 66
   257
 43
1.0
 76
     1
 77
     6
 78
     2
 67
     7
 79
     5
170
     0
171
     0
290
     0
174
     0
 93
        1
 44
0.0
173
     0
291
     0
 45
0.0
1001
ACAD
1000
AcDbSavedByObjectVersion
1070
     0
  0
VISUALSTYLE
  5
133D
102
{ACAD_XDICTIONARY
360
12A66
102
}
102
{ACAD_REACTORS
330
1335
102
}
330
1335
100
AcDbVisualStyle
  2
3D Hidden
 70
     6
 71
     1
 72
     2
 73
     2
 90
        0
 40
-0.6
 41
-30.0
 62
     5
 63
     7
 74
     2
 91
        2
 64
     7
 65
   257
 75
     2
175
     1
 42
179.0
 92
        0
 66
   257
 43
1.0
 76
     1
 77
     6
 78
     2
 67
     7
 79
     3
170
     0
171
     0
290
     0
174
     0
 93
        1
 44
0.0
173
     0
291
     0
 45
0.0
1001
ACAD
1000
AcDbSavedByObjectVersion
1070
     0
  0
VISUALSTYLE
  5
133C
102
{ACAD_XDICTIONARY
360
12A64
102
}
102
{ACAD_REACTORS
330
1335
102
}
330
1335
100
AcDbVisualStyle
  2
3dWireframe
 70
     5
 71
     0
 72
     2
 73
     0
 90
        0
 40
-0.6
 41
-30.0
 62
     5
 63
     7
 74
     1
 91
        4
 64
     7
 65
   257
 75
     1
175
     1
 42
1.0
 92
        0
 66
   257
 43
1.0
 76
     1
 77
     6
 78
     2
 67
     7
 79
     5
170
     0
171
     0
290
     0
174
     0
 93
        1
 44
0.0
173
     0
291
     0
 45
0.0
1001
ACAD
1000
AcDbSavedByObjectVersion
1070
     0
  0
VISUALSTYLE
  5
133A
102
{ACAD_XDICTIONARY
360
12A60
102
}
102
{ACAD_REACTORS
330
1335
102
}
330
1335
100
AcDbVisualStyle
  2
Basic
 70
     7
 71
     1
 72
     0
 73
     1
 90
        0
 40
-0.6
 41
-30.0
 62
     5
 63
     7
 74
     0
 91
        4
 64
     7
 65
   257
 75
     1
175
     1
 42
1.0
 92
        8
 66
     7
 43
1.0
 76
     1
 77
     6
 78
     2
 67
     7
 79
     5
170
     0
171
     0
290
     0
174
     0
 93
        1
 44
0.0
173
     0
291
     1
 45
0.0
1001
ACAD
1000
AcDbSavedByObjectVersion
1070
     0
  0
VISUALSTYLE
  5
1341
102
{ACAD_XDICTIONARY
360
12A6E
102
}
102
{ACAD_REACTORS
330
1335
102
}
330
1335
100
AcDbVisualStyle
  2
Brighten
 70
    12
 71
     2
 72
     2
 73
     0
 90
        0
 40
-0.6
 41
-30.0
 62
     5
 63
     7
 74
     1
 91
        4
 64
     7
 65
   257
 75
     1
175
     1
 42
1.0
 92
        8
 66
     7
 43
1.0
 76
     1
 77
     6
 78
     2
 67
     7
 79
     5
170
     0
171
     0
290
     0
174
     0
 93
        1
 44
50.0
173
     0
291
     1
 45
0.0
1001
ACAD
1000
AcDbSavedByObjectVersion
1070
     0
  0
VISUALSTYLE
  5
1345
102
{ACAD_XDICTIONARY
360
12A76
102
}
102
{ACAD_REACTORS
330
1335
102
}
330
1335
100
AcDbVisualStyle
  2
ColorChange
 70
    16
 71
     2
 72
     2
 73
     3
 90
        0
 40
-0.6
 41
-30.0
 62
     5
 63
     8
 74
     1
 91
        4
 64
     7
 65
   257
 75
     1
175
     1
 42
1.0
 92
        8
 66
     8
 43
1.0
 76
     1
 77
     6
 78
     2
 67
     7
 79
     5
170
     0
171
     0
290
     0
174
     0
 93
        1
 44
0.0
173
     0
291
     1
 45
0.0
1001
ACAD
1000
AcDbSavedByObjectVersion
1070
     0
  0
VISUALSTYLE
  5
133E
102
{ACAD_XDICTIONARY
360
12A68
102
}
102
{ACAD_REACTORS
330
1335
102
}
330
1335
100
AcDbVisualStyle
  2
Conceptual
 70
     9
 71
     3
 72
     2
 73
     0
 90
        0
 40
-0.6
 41
-30.0
 62
     5
 63
     7
 74
     2
 91
        2
 64
     7
 65
   257
 75
     1
175
     1
 42
179.0
 92
        8
 66
     7
 43
1.0
 76
     1
 77
     6
 78
     2
 67
     7
 79
     3
170
     0
171
     0
290
     0
174
     0
 93
        1
 44
0.0
173
     0
291
     0
 45
0.0
1001
ACAD
1000
AcDbSavedByObjectVersion
1070
     0
  0
VISUALSTYLE
  5
1340
102
{ACAD_XDICTIONARY
360
12A6C
102
}
102
{ACAD_REACTORS
330
1335
102
}
330
1335
100
AcDbVisualStyle
  2
Dim
 70
    11
 71
     2
 72
     2
 73
     0
 90
        0
 40
-0.6
 41
-30.0
 62
     5
 63
     7
 74
     1
 91
        4
 64
     7
 65
   257
 75
     1
175
     1
 42
1.0
 92
        8
 66
     7
 43
1.0
 76
     1
 77
     6
 78
     2
 67
     7
 79
     5
170
     0
171
     0
290
     0
174
     0
 93
        1
 44
-50.0
173
     0
291
     1
 45
0.0
1001
ACAD
1000
AcDbSavedByObjectVersion
1070
     0
  0
VISUALSTYLE
  5
1348
102
{ACAD_XDICTIONARY
360
12A7C
102
}
102
{ACAD_REACTORS
330
1335
102
}
330
1335
100
AcDbVisualStyle
  2
EdgeColorOff
 70
    22
 71
     2
 72
     2
 73
     0
 90
        0
 40
-0.6
 41
-30.0
 62
     5
 63
     7
 74
     1
 91
        4
 64
     7
 65
   257
 75
     1
175
     1
 42
1.0
 92
        8
 66
     7
 43
1.0
 76
     1
 77
     6
 78
     2
 67
     7
 79
     5
170
     0
171
     0
290
     0
174
     0
 93
        1
 44
0.0
173
     0
291
     1
 45
0.0
1001
ACAD
1000
AcDbSavedByObjectVersion
1070
     0
  0
VISUALSTYLE
  5
1344
102
{ACAD_XDICTIONARY
360
12A74
102
}
102
{ACAD_REACTORS
330
1335
102
}
330
1335
100
AcDbVisualStyle
  2
Facepattern
 70
    15
 71
     2
 72
     2
 73
     0
 90
        0
 40
-0.6
 41
-30.0
 62
     5
 63
     7
 74
     1
 91
        4
 64
     7
 65
   257
 75
     1
175
     1
 42
1.0
 92
        8
 66
     7
 43
1.0
 76
     1
 77
     6
 78
     2
 67
     7
 79
     5
170
     0
171
     0
290
     0
174
     0
 93
        1
 44
0.0
173
     0
291
     1
 45
0.0
1001
ACAD
1000
AcDbSavedByObjectVersion
1070
     0
  0
VISUALSTYLE
  5
1336
102
{ACAD_XDICTIONARY
360
12A58
102
}
102
{ACAD_REACTORS
330
1335
102
}
330
1335
100
AcDbVisualStyle
  2
Flat
 70
     0
 71
     2
 72
     1
 73
     1
 90
        2
 40
-0.6
 41
30.0
 62
     5
 63
     7
 74
     0
 91
        4
 64
     7
 65
   257
 75
     1
175
     1
 42
1.0
 92
        8
 66
     7
 43
1.0
 76
     1
 77
     6
 78
     2
 67
     7
 79
     5
170
     0
171
     0
290
     0
174
     0
 93
       13
 44
0.0
173
     0
291
     1
 45
0.0
1001
ACAD
1000
AcDbSavedByObjectVersion
1070
     0
  0
VISUALSTYLE
  5
1337
102
{ACAD_XDICTIONARY
360
12A5A
102
}
102
{ACAD_REACTORS
330
1335
102
}
330
1335
100
AcDbVisualStyle
  2
FlatWithEdges
 70
     1
 71
     2
 72
     1
 73
     1
 90
        2
 40
-0.6
 41
30.0
 62
     5
 63
     7
 74
     1
 91
        4
 64
     7
 65
   257
 75
     1
175
     1
 42
1.0
 92
        0
 66
   257
 43
1.0
 76
     1
 77
     6
 78
     2
 67
     7
 79
     5
170
     0
171
     0
290
     0
174
     0
 93
       13
 44
0.0
173
     0
291
     1
 45
0.0
1001
ACAD
1000
AcDbSavedByObjectVersion
1070
     0
  0
VISUALSTYLE
  5
1338
102
{ACAD_XDICTIONARY
360
12A5C
102
}
102
{ACAD_REACTORS
330
1335
102
}
330
1335
100
AcDbVisualStyle
  2
Gouraud
 70
     2
 71
     2
 72
     2
 73
     1
 90
        2
 40
-0.6
 41
30.0
 62
     5
 63
     7
 74
     0
 91
        4
 64
     7
 65
   257
 75
     1
175
     1
 42
1.0
 92
        0
 66
     7
 43
1.0
 76
     1
 77
     6
 78
     2
 67
     7
 79
     5
170
     0
171
     0
290
     0
174
     0
 93
       13
 44
0.0
173
     0
291
     1
 45
0.0
1001
ACAD
1000
AcDbSavedByObjectVersion
1070
     0
  0
VISUALSTYLE
  5
1339
102
{ACAD_XDICTIONARY
360
12A5E
102
}
102
{ACAD_REACTORS
330
1335
102
}
330
1335
100
AcDbVisualStyle
  2
GouraudWithEdges
 70
     3
 71
     2
 72
     2
 73
     1
 90
        2
 40
-0.6
 41
30.0
 62
     5
 63
     7
 74
     1
 91
        4
 64
     7
 65
   257
 75
     1
175
     1
 42
1.0
 92
        0
 66
   257
 43
1.0
 76
     1
 77
     6
 78
     2
 67
     7
 79
     5
170
     0
171
     0
290
     0
174
     0
 93
       13
 44
0.0
173
     0
291
     1
 45
0.0
1001
ACAD
1000
AcDbSavedByObjectVersion
1070
     0
  0
VISUALSTYLE
  5
123F9
102
{ACAD_XDICTIONARY
360
12A81
102
}
102
{ACAD_REACTORS
330
1335
102
}
330
1335
100
AcDbVisualStyle
  2
Hidden
 70
     6
 71
     1
 72
     2
 73
     2
 90
        0
 40
-0.6
 41
-30.0
 62
     5
 63
     7
 74
     2
 91
        2
 64
     7
 65
   257
 75
     2
175
     1
 42
40.0
 92
        0
 66
   257
 43
1.0
 76
     1
 77
     6
 78
     2
 67
     7
 79
     3
170
     0
171
     0
290
     0
174
     0
 93
        1
 44
0.0
173
     0
291
     0
 45
0.0
1001
ACAD
1000
AcDbSavedByObjectVersion
1070
     0
  0
VISUALSTYLE
  5
1346
102
{ACAD_XDICTIONARY
360
12A78
102
}
102
{ACAD_REACTORS
330
1335
102
}
330
1335
100
AcDbVisualStyle
  2
JitterOff
 70
    20
 71
     2
 72
     2
 73
     0
 90
        0
 40
-0.6
 41
-30.0
 62
     5
 63
     7
 74
     1
 91
        4
 64
     7
 65
   257
 75
     1
175
     1
 42
1.0
 92
       10
 66
     7
 43
1.0
 76
     1
 77
     6
 78
     2
 67
     7
 79
     5
170
     0
171
     0
290
     0
174
     0
 93
        1
 44
0.0
173
     0
291
     1
 45
0.0
1001
ACAD
1000
AcDbSavedByObjectVersion
1070
     0
  0
VISUALSTYLE
  5
1343
102
{ACAD_XDICTIONARY
360
12A72
102
}
102
{ACAD_REACTORS
330
1335
102
}
330
1335
100
AcDbVisualStyle
  2
Linepattern
 70
    14
 71
     2
 72
     2
 73
     0
 90
        0
 40
-0.6
 41
-30.0
 62
     5
 63
     7
 74
     1
 91
        4
 64
     7
 65
   257
 75
     7
175
     7
 42
1.0
 92
        8
 66
     7
 43
1.0
 76
     1
 77
     6
 78
     2
 67
     7
 79
     5
170
     0
171
     0
290
     0
174
     0
 93
        1
 44
0.0
173
     0
291
     1
 45
0.0
1001
ACAD
1000
AcDbSavedByObjectVersion
1070
     0
  0
VISUALSTYLE
  5
1347
102
{ACAD_XDICTIONARY
360
12A7A
102
}
102
{ACAD_REACTORS
330
1335
102
}
330
1335
100
AcDbVisualStyle
  2
OverhangOff
 70
    21
 71
     2
 72
     2
 73
     0
 90
        0
 40
-0.6
 41
-30.0
 62
     5
 63
     7
 74
     1
 91
        4
 64
     7
 65
   257
 75
     1
175
     1
 42
1.0
 92
        9
 66
     7
 43
1.0
 76
     1
 77
     6
 78
     2
 67
     7
 79
     5
170
     0
171
     0
290
     0
174
     0
 93
        1
 44
0.0
173
     0
291
     1
 45
0.0
1001
ACAD
1000
AcDbSavedByObjectVersion
1070
     0
  0
VISUALSTYLE
  5
133F
102
{ACAD_XDICTIONARY
360
12A6A
102
}
102
{ACAD_REACTORS
330
1335
102
}
330
1335
100
AcDbVisualStyle
  2
Realistic
 70
     8
 71
     2
 72
     2
 73
     0
 90
        0
 40
-0.6
 41
-30.0
 62
     5
 63
     7
 74
     1
 91
        0
 64
     7
 65
   257
 75
     1
175
     1
 42
1.0
 92
        8
 66
     8
 43
1.0
 76
     1
 77
     6
 78
     2
 67
     7
 79
     5
170
     0
171
     0
290
     0
174
     0
 93
       13
 44
0.0
173
     0
291
     0
 45
0.0
1001
ACAD
1000
AcDbSavedByObjectVersion
1070
     0
  0
VISUALSTYLE
  5
123FE
102
{ACAD_XDICTIONARY
360
12A8B
102
}
102
{ACAD_REACTORS
330
1335
102
}
330
1335
100
AcDbVisualStyle
  2
Shaded
 70
    27
 71
     2
 72
     2
 73
     1
 90
        2
 40
-0.6
 41
30.0
 62
     5
 63
     7
 74
     0
 91
        4
 64
     7
 65
   257
 75
     1
175
     1
 42
1.0
 92
        8
 66
   257
 43
1.0
 76
     1
 77
     6
 78
     2
 67
     8
 79
     3
170
     0
171
     0
290
     0
174
     0
 93
        5
 44
0.0
173
     0
291
     0
 45
0.0
1001
ACAD
1000
AcDbSavedByObjectVersion
1070
     0
  0
VISUALSTYLE
  5
123FD
102
{ACAD_XDICTIONARY
360
12A89
102
}
102
{ACAD_REACTORS
330
1335
102
}
330
1335
100
AcDbVisualStyle
  2
Shaded with edges
 70
    26
 71
     2
 72
     2
 73
     1
 90
        2
 40
-0.6
 41
30.0
 62
     5
 63
     7
 74
     1
 91
        2
 64
     7
 65
   257
 75
     2
175
     1
 42
1.0
 92
        8
 66
   257
 43
1.0
 76
     1
 77
     6
 78
     2
 67
     7
 79
     3
170
     0
171
     0
290
     0
174
     0
 93
        5
 44
0.0
173
     0
291
     0
 45
0.0
1001
ACAD
1000
AcDbSavedByObjectVersion
1070
     0
  0
VISUALSTYLE
  5
123FA
102
{ACAD_XDICTIONARY
360
12A83
102
}
102
{ACAD_REACTORS
330
1335
102
}
330
1335
100
AcDbVisualStyle
  2
Shades of Gray
 70
    23
 71
     2
 72
     2
 73
     3
 90
        0
 40
-0.6
 41
-30.0
 62
     5
 63
     7
 74
     2
 91
        2
 64
     7
 65
     7
 75
     1
175
     1
 42
40.0
 92
        8
 66
     7
 43
1.0
 76
     1
 77
     6
 78
     2
 67
     7
 79
     3
170
     0
171
     0
290
     0
174
     0
 93
        1
 44
0.0
173
     0
291
     0
 45
0.0
1001
ACAD
1000
AcDbSavedByObjectVersion
1070
     0
  0
VISUALSTYLE
  5
123FB
102
{ACAD_XDICTIONARY
360
12A85
102
}
102
{ACAD_REACTORS
330
1335
102
}
330
1335
100
AcDbVisualStyle
  2
Sketchy
 70
    24
 71
     1
 72
     2
 73
     2
 90
        0
 40
-0.6
 41
-30.0
 62
     5
 63
     7
 74
     2
 91
        2
 64
     7
 65
     7
 75
     1
175
     1
 42
40.0
 92
       11
 66
     7
 43
1.0
 76
     1
 77
     6
 78
     2
 67
     7
 79
     6
170
     0
171
     0
290
     0
174
     0
 93
        1
 44
0.0
173
     0
291
     0
 45
0.0
1001
ACAD
1000
AcDbSavedByObjectVersion
1070
     0
  0
VISUALSTYLE
  5
1342
102
{ACAD_XDICTIONARY
360
12A70
102
}
102
{ACAD_REACTORS
330
1335
102
}
330
1335
100
AcDbVisualStyle
  2
Thicken
 70
    13
 71
     2
 72
     2
 73
     0
 90
        0
 40
-0.6
 41
-30.0
 62
     5
 63
     7
 74
     1
 91
        4
 64
     7
 65
   257
 75
     1
175
     1
 42
1.0
 92
       12
 66
     7
 43
1.0
 76
     1
 77
     6
 78
     2
 67
     7
 79
     5
170
     0
171
     0
290
     0
174
     0
 93
        1
 44
0.0
173
     0
291
     1
 45
0.0
1001
ACAD
1000
AcDbSavedByObjectVersion
1070
     0
  0
VISUALSTYLE
  5
3AD5
102
{ACAD_XDICTIONARY
360
12A7F
102
}
102
{ACAD_REACTORS
330
1335
102
}
330
1335
100
AcDbVisualStyle
  2
Wireframe
 70
     5
 71
     0
 72
     2
 73
     0
 90
        0
 40
-0.6
 41
-30.0
 62
     5
 63
     7
 74
     1
 91
        4
 64
     7
 65
   257
 75
     1
175
     1
 42
1.0
 92
        0
 66
   257
 43
1.0
 76
     1
 77
     6
 78
     2
 67
     7
 79
     3
170
     0
171
     0
290
     0
174
     0
 93
        1
 44
0.0
173
     0
291
     0
 45
0.0
1001
ACAD
1000
AcDbSavedByObjectVersion
1070
     0
  0
VISUALSTYLE
  5
123FC
102
{ACAD_XDICTIONARY
360
12A87
102
}
102
{ACAD_REACTORS
330
1335
102
}
330
1335
100
AcDbVisualStyle
  2
X-Ray
 70
    25
 71
     2
 72
     2
 73
     1
 90
        1
 40
0.5
 41
-30.0
 62
     5
 63
     7
 74
     1
 91
        0
 64
     7
 65
   257
 75
     1
175
     1
 42
1.0
 92
        8
 66
     7
 43
1.0
 76
     1
 77
     6
 78
     2
 67
     7
 79
     3
170
     0
171
     0
290
     0
174
     0
 93
       13
 44
0.0
173
     0
291
     0
 45
0.0
1001
ACAD
1000
AcDbSavedByObjectVersion
1070
     0
  0
DICTIONARYVAR
  5
13C5
102
{ACAD_REACTORS
330
7E4
102
}
330
7E4
100
DictionaryVariables
280
     0
  1
1:1
  0
DICTIONARYVAR
  5
13C4
102
{ACAD_REACTORS
330
7E4
102
}
330
7E4
100
DictionaryVariables
280
     0
  1
STANDARD
  0
DICTIONARYVAR
  5
13C3
102
{ACAD_REACTORS
330
7E4
102
}
330
7E4
100
DictionaryVariables
280
     0
  1
STANDARD
  0
DICTIONARYVAR
  5
126DC
102
{ACAD_REACTORS
330
7E4
102
}
330
7E4
100
DictionaryVariables
280
     0
  1
Metric50
  0
DICTIONARYVAR
  5
126DD
102
{ACAD_REACTORS
330
7E4
102
}
330
7E4
100
DictionaryVariables
280
     0
  1
Metric50
  0
DICTIONARYVAR
  5
13C7
102
{ACAD_REACTORS
330
7E4
102
}
330
7E4
100
DictionaryVariables
280
     0
  1
1
  0
DICTIONARYVAR
  5
13C6
102
{ACAD_REACTORS
330
7E4
102
}
330
7E4
100
DictionaryVariables
280
     0
  1
0
  0
DICTIONARYVAR
  5
7E5
102
{ACAD_REACTORS
330
7E4
102
}
330
7E4
100
DictionaryVariables
280
     0
  1
127
  0
DICTIONARYVAR
  5
12A4D
102
{ACAD_REACTORS
330
7E4
102
}
330
7E4
100
DictionaryVariables
280
     0
  1
2
  0
DICTIONARY
  5
12A8F
330
12402
100
AcDbDictionary
280
     1
281
     1
  3
ACAD_XREC_ROUNDTRIP
360
12A90
  0
DICTIONARY
  5
12A51
330
22
100
AcDbDictionary
280
     1
281
     1
  3
ACAD_XREC_ROUNDTRIP
360
12A52
  0
DICTIONARY
  5
12A53
330
51
100
AcDbDictionary
280
     1
281
     1
  3
ACAD_XREC_ROUNDTRIP
360
12A54
  0
DICTIONARY
  5
1326
330
1325
100
AcDbDictionary
280
     1
281
     1
  3
ACAD_XREC_ROUNDTRIP
360
12A56
  3
BUMPTILE
360
1328
  3
DIFFUSETILE
360
1327
  3
OPACITYTILE
360
132B
  3
REFLECTIONTILE
360
132A
  3
REFRACTIONTILE
360
132C
  3
SPECULARTILE
360
1329
  0
DICTIONARY
  5
131E
330
131D
100
AcDbDictionary
280
     1
281
     1
  3
ACAD_XREC_ROUNDTRIP
360
12A55
  3
BUMPTILE
360
1320
  3
DIFFUSETILE
360
131F
  3
OPACITYTILE
360
1323
  3
REFLECTIONTILE
360
1322
  3
REFRACTIONTILE
360
1324
  3
SPECULARTILE
360
1321
  0
DICTIONARY
  5
132E
330
132D
100
AcDbDictionary
280
     1
281
     1
  3
ACAD_XREC_ROUNDTRIP
360
12A57
  3
BUMPTILE
360
1330
  3
DIFFUSETILE
360
132F
  3
OPACITYTILE
360
1333
  3
REFLECTIONTILE
360
1332
  3
REFRACTIONTILE
360
1334
  3
SPECULARTILE
360
1331
  0
DICTIONARY
  5
12A8D
330
12400
100
AcDbDictionary
280
     1
281
     1
  3
ACAD_XREC_ROUNDTRIP
360
12A8E
  0
DICTIONARY
  5
138E
330
134B
100
AcDbDictionary
280
     1
281
     1
  3
ACAD_ROUNDTRIP_2008_TABLESTYLE_CELLSTYLEMAP
360
12A4E
  3
ACAD_XREC_ROUNDTRIP
360
12A7E
  0
DICTIONARY
  5
12A62
330
133B
100
AcDbDictionary
280
     1
281
     1
  3
ACAD_XREC_ROUNDTRIP
360
12A63
  0
DICTIONARY
  5
12A66
330
133D
100
AcDbDictionary
280
     1
281
     1
  3
ACAD_XREC_ROUNDTRIP
360
12A67
  0
DICTIONARY
  5
12A64
330
133C
100
AcDbDictionary
280
     1
281
     1
  3
ACAD_XREC_ROUNDTRIP
360
12A65
  0
DICTIONARY
  5
12A60
330
133A
100
AcDbDictionary
280
     1
281
     1
  3
ACAD_XREC_ROUNDTRIP
360
12A61
  0
DICTIONARY
  5
12A6E
330
1341
100
AcDbDictionary
280
     1
281
     1
  3
ACAD_XREC_ROUNDTRIP
360
12A6F
  0
DICTIONARY
  5
12A76
330
1345
100
AcDbDictionary
280
     1
281
     1
  3
ACAD_XREC_ROUNDTRIP
360
12A77
  0
DICTIONARY
  5
12A68
330
133E
100
AcDbDictionary
280
     1
281
     1
  3
ACAD_XREC_ROUNDTRIP
360
12A69
  0
DICTIONARY
  5
12A6C
330
1340
100
AcDbDictionary
280
     1
281
     1
  3
ACAD_XREC_ROUNDTRIP
360
12A6D
  0
DICTIONARY
  5
12A7C
330
1348
100
AcDbDictionary
280
     1
281
     1
  3
ACAD_XREC_ROUNDTRIP
360
12A7D
  0
DICTIONARY
  5
12A74
330
1344
100
AcDbDictionary
280
     1
281
     1
  3
ACAD_XREC_ROUNDTRIP
360
12A75
  0
DICTIONARY
  5
12A58
330
1336
100
AcDbDictionary
280
     1
281
     1
  3
ACAD_XREC_ROUNDTRIP
360
12A59
  0
DICTIONARY
  5
12A5A
330
1337
100
AcDbDictionary
280
     1
281
     1
  3
ACAD_XREC_ROUNDTRIP
360
12A5B
  0
DICTIONARY
  5
12A5C
330
1338
100
AcDbDictionary
280
     1
281
     1
  3
ACAD_XREC_ROUNDTRIP
360
12A5D
  0
DICTIONARY
  5
12A5E
330
1339
100
AcDbDictionary
280
     1
281
     1
  3
ACAD_XREC_ROUNDTRIP
360
12A5F
  0
DICTIONARY
  5
12A81
330
123F9
100
AcDbDictionary
280
     1
281
     1
  3
ACAD_XREC_ROUNDTRIP
360
12A82
  0
DICTIONARY
  5
12A78
330
1346
100
AcDbDictionary
280
     1
281
     1
  3
ACAD_XREC_ROUNDTRIP
360
12A79
  0
DICTIONARY
  5
12A72
330
1343
100
AcDbDictionary
280
     1
281
     1
  3
ACAD_XREC_ROUNDTRIP
360
12A73
  0
DICTIONARY
  5
12A7A
330
1347
100
AcDbDictionary
280
     1
281
     1
  3
ACAD_XREC_ROUNDTRIP
360
12A7B
  0
DICTIONARY
  5
12A6A
330
133F
100
AcDbDictionary
280
     1
281
     1
  3
ACAD_XREC_ROUNDTRIP
360
12A6B
  0
DICTIONARY
  5
12A8B
330
123FE
100
AcDbDictionary
280
     1
281
     1
  3
ACAD_XREC_ROUNDTRIP
360
12A8C
  0
DICTIONARY
  5
12A89
330
123FD
100
AcDbDictionary
280
     1
281
     1
  3
ACAD_XREC_ROUNDTRIP
360
12A8A
  0
DICTIONARY
  5
12A83
330
123FA
100
AcDbDictionary
280
     1
281
     1
  3
ACAD_XREC_ROUNDTRIP
360
12A84
  0
DICTIONARY
  5
12A85
330
123FB
100
AcDbDictionary
280
     1
281
     1
  3
ACAD_XREC_ROUNDTRIP
360
12A86
  0
DICTIONARY
  5
12A70
330
1342
100
AcDbDictionary
280
     1
281
     1
  3
ACAD_XREC_ROUNDTRIP
360
12A71
  0
DICTIONARY
  5
12A7F
330
3AD5
100
AcDbDictionary
280
     1
281
     1
  3
ACAD_XREC_ROUNDTRIP
360
12A80
  0
DICTIONARY
  5
12A87
330
123FC
100
AcDbDictionary
280
     1
281
     1
  3
ACAD_XREC_ROUNDTRIP
360
12A88
  0
XRECORD
  5
12A90
102
{ACAD_REACTORS
330
12A8F
102
}
330
12A8F
100
AcDbXrecord
280
     1
102
DISPLAYNAME
  1
Metric50
102
FLAGS
 90
        0
  0
XRECORD
  5
12A52
102
{ACAD_REACTORS
330
12A51
102
}
330
12A51
100
AcDbXrecord
280
     1
102
SHADEPLOT
 70
     0
102
SHADEPLOTRESLEVEL
 70
     2
102
SHADEPLOTCUSTOMDPI
 70
   300
  0
XRECORD
  5
12A54
102
{ACAD_REACTORS
330
12A53
102
}
330
12A53
100
AcDbXrecord
280
     1
102
SHADEPLOT
 70
     0
102
SHADEPLOTRESLEVEL
 70
     2
102
SHADEPLOTCUSTOMDPI
 70
   300
  0
XRECORD
  5
12A56
102
{ACAD_REACTORS
330
1326
102
}
330
1326
100
AcDbXrecord
280
     1
102
MATERIAL
148
0.0
149
0.0
149
0.0
 93
        0
 94
      127
282
     0
 72
     0
 77
     0
171
     0
175
     0
179
     0
273
     0
  0
XRECORD
  5
1328
102
{ACAD_REACTORS
330
1326
102
}
330
1326
100
AcDbXrecord
280
     1
270
     1
271
     1
  0
XRECORD
  5
1327
102
{ACAD_REACTORS
330
1326
102
}
330
1326
100
AcDbXrecord
280
     1
270
     1
271
     1
  0
XRECORD
  5
132B
102
{ACAD_REACTORS
330
1326
102
}
330
1326
100
AcDbXrecord
280
     1
270
     1
271
     1
  0
XRECORD
  5
132A
102
{ACAD_REACTORS
330
1326
102
}
330
1326
100
AcDbXrecord
280
     1
270
     1
271
     1
  0
XRECORD
  5
132C
102
{ACAD_REACTORS
330
1326
102
}
330
1326
100
AcDbXrecord
280
     1
270
     1
271
     1
  0
XRECORD
  5
1329
102
{ACAD_REACTORS
330
1326
102
}
330
1326
100
AcDbXrecord
280
     1
270
     1
271
     1
  0
XRECORD
  5
12A55
102
{ACAD_REACTORS
330
131E
102
}
330
131E
100
AcDbXrecord
280
     1
102
MATERIAL
148
0.0
149
0.0
149
0.0
 93
        0
 94
      127
282
     0
 72
     0
 77
     0
171
     0
175
     0
179
     0
273
     0
  0
XRECORD
  5
1320
102
{ACAD_REACTORS
330
131E
102
}
330
131E
100
AcDbXrecord
280
     1
270
     1
271
     1
  0
XRECORD
  5
131F
102
{ACAD_REACTORS
330
131E
102
}
330
131E
100
AcDbXrecord
280
     1
270
     1
271
     1
  0
XRECORD
  5
1323
102
{ACAD_REACTORS
330
131E
102
}
330
131E
100
AcDbXrecord
280
     1
270
     1
271
     1
  0
XRECORD
  5
1322
102
{ACAD_REACTORS
330
131E
102
}
330
131E
100
AcDbXrecord
280
     1
270
     1
271
     1
  0
XRECORD
  5
1324
102
{ACAD_REACTORS
330
131E
102
}
330
131E
100
AcDbXrecord
280
     1
270
     1
271
     1
  0
XRECORD
  5
1321
102
{ACAD_REACTORS
330
131E
102
}
330
131E
100
AcDbXrecord
280
     1
270
     1
271
     1
  0
XRECORD
  5
12A57
102
{ACAD_REACTORS
330
132E
102
}
330
132E
100
AcDbXrecord
280
     1
102
MATERIAL
148
0.0
149
0.0
149
0.0
 93
        0
 94
      127
282
     0
 72
     0
 77
     0
171
     0
175
     0
179
     0
273
     0
  0
XRECORD
  5
1330
102
{ACAD_REACTORS
330
132E
102
}
330
132E
100
AcDbXrecord
280
     1
270
     1
271
     1
  0
XRECORD
  5
132F
102
{ACAD_REACTORS
330
132E
102
}
330
132E
100
AcDbXrecord
280
     1
270
     1
271
     1
  0
XRECORD
  5
1333
102
{ACAD_REACTORS
330
132E
102
}
330
132E
100
AcDbXrecord
280
     1
270
     1
271
     1
  0
XRECORD
  5
1332
102
{ACAD_REACTORS
330
132E
102
}
330
132E
100
AcDbXrecord
280
     1
270
     1
271
     1
  0
XRECORD
  5
1334
102
{ACAD_REACTORS
330
132E
102
}
330
132E
100
AcDbXrecord
280
     1
270
     1
271
     1
  0
XRECORD
  5
1331
102
{ACAD_REACTORS
330
132E
102
}
330
132E
100
AcDbXrecord
280
     1
270
     1
271
     1
  0
XRECORD
  5
12A8E
102
{ACAD_REACTORS
330
12A8D
102
}
330
12A8D
100
AcDbXrecord
280
     1
102
DISPLAYNAME
  1
Metric50
102
FLAGS
 90
        0
  0
CELLSTYLEMAP
  5
12A4E
102
{ACAD_REACTORS
330
138E
102
}
330
138E
100
AcDbCellStyleMap
 90
        3
300
CELLSTYLE
  1
TABLEFORMAT_BEGIN
 90
        5
170
     1
 91
        0
 92
    32768
 62
   257
 93
        1
300
CONTENTFORMAT
  1
CONTENTFORMAT_BEGIN
 90
        0
 91
        0
 92
      512
 93
        0
300

 40
0.0
140
1.0
 94
        5
 62
     0
340
11
144
6.0
309
CONTENTFORMAT_END
171
     1
301
MARGIN
  1
CELLMARGIN_BEGIN
 40
1.5
 40
1.5
 40
1.5
 40
1.5
 40
4.5
 40
4.5
309
CELLMARGIN_END
 94
        6
 95
        1
302
GRIDFORMAT
  1
GRIDFORMAT_BEGIN
 90
        0
 91
        1
 62
     0
 92
       -2
340
0
 93
        0
 40
1.125
309
GRIDFORMAT_END
 95
        2
302
GRIDFORMAT
  1
GRIDFORMAT_BEGIN
 90
        0
 91
        1
 62
     0
 92
       -2
340
0
 93
        0
 40
1.125
309
GRIDFORMAT_END
 95
        4
302
GRIDFORMAT
  1
GRIDFORMAT_BEGIN
 90
        0
 91
        1
 62
     0
 92
       -2
340
0
 93
        0
 40
1.125
309
GRIDFORMAT_END
 95
        8
302
GRIDFORMAT
  1
GRIDFORMAT_BEGIN
 90
        0
 91
        1
 62
     0
 92
       -2
340
0
 93
        0
 40
1.125
309
GRIDFORMAT_END
 95
       16
302
GRIDFORMAT
  1
GRIDFORMAT_BEGIN
 90
        0
 91
        1
 62
     0
 92
       -2
340
0
 93
        0
 40
1.125
309
GRIDFORMAT_END
 95
       32
302
GRIDFORMAT
  1
GRIDFORMAT_BEGIN
 90
        0
 91
        1
 62
     0
 92
       -2
340
0
 93
        0
 40
1.125
309
GRIDFORMAT_END
309
TABLEFORMAT_END
  1
CELLSTYLE_BEGIN
 90
        1
 91
        1
300
_TITLE
309
CELLSTYLE_END
300
CELLSTYLE
  1
TABLEFORMAT_BEGIN
 90
        5
170
     1
 91
        0
 92
        0
 62
   257
 93
        1
300
CONTENTFORMAT
  1
CONTENTFORMAT_BEGIN
 90
        0
 91
        0
 92
      512
 93
        0
300

 40
0.0
140
1.0
 94
        5
 62
     0
340
11
144
4.5
309
CONTENTFORMAT_END
171
     1
301
MARGIN
  1
CELLMARGIN_BEGIN
 40
1.5
 40
1.5
 40
1.5
 40
1.5
 40
4.5
 40
4.5
309
CELLMARGIN_END
 94
        6
 95
        1
302
GRIDFORMAT
  1
GRIDFORMAT_BEGIN
 90
        0
 91
        1
 62
     0
 92
       -2
340
0
 93
        0
 40
1.125
309
GRIDFORMAT_END
 95
        2
302
GRIDFORMAT
  1
GRIDFORMAT_BEGIN
 90
        0
 91
        1
 62
     0
 92
       -2
340
0
 93
        0
 40
1.125
309
GRIDFORMAT_END
 95
        4
302
GRIDFORMAT
  1
GRIDFORMAT_BEGIN
 90
        0
 91
        1
 62
     0
 92
       -2
340
0
 93
        0
 40
1.125
309
GRIDFORMAT_END
 95
        8
302
GRIDFORMAT
  1
GRIDFORMAT_BEGIN
 90
        0
 91
        1
 62
     0
 92
       -2
340
0
 93
        0
 40
1.125
309
GRIDFORMAT_END
 95
       16
302
GRIDFORMAT
  1
GRIDFORMAT_BEGIN
 90
        0
 91
        1
 62
     0
 92
       -2
340
0
 93
        0
 40
1.125
309
GRIDFORMAT_END
 95
       32
302
GRIDFORMAT
  1
GRIDFORMAT_BEGIN
 90
        0
 91
        1
 62
     0
 92
       -2
340
0
 93
        0
 40
1.125
309
GRIDFORMAT_END
309
TABLEFORMAT_END
  1
CELLSTYLE_BEGIN
 90
        2
 91
        1
300
_HEADER
309
CELLSTYLE_END
300
CELLSTYLE
  1
TABLEFORMAT_BEGIN
 90
        5
170
     1
 91
        0
 92
        0
 62
   257
 93
        1
300
CONTENTFORMAT
  1
CONTENTFORMAT_BEGIN
 90
        0
 91
        0
 92
      512
 93
        0
300

 40
0.0
140
1.0
 94
        2
 62
     0
340
11
144
4.5
309
CONTENTFORMAT_END
171
     1
301
MARGIN
  1
CELLMARGIN_BEGIN
 40
1.5
 40
1.5
 40
1.5
 40
1.5
 40
4.5
 40
4.5
309
CELLMARGIN_END
 94
        6
 95
        1
302
GRIDFORMAT
  1
GRIDFORMAT_BEGIN
 90
        0
 91
        1
 62
     0
 92
       -2
340
0
 93
        0
 40
1.125
309
GRIDFORMAT_END
 95
        2
302
GRIDFORMAT
  1
GRIDFORMAT_BEGIN
 90
        0
 91
        1
 62
     0
 92
       -2
340
0
 93
        0
 40
1.125
309
GRIDFORMAT_END
 95
        4
302
GRIDFORMAT
  1
GRIDFORMAT_BEGIN
 90
        0
 91
        1
 62
     0
 92
       -2
340
0
 93
        0
 40
1.125
309
GRIDFORMAT_END
 95
        8
302
GRIDFORMAT
  1
GRIDFORMAT_BEGIN
 90
        0
 91
        1
 62
     0
 92
       -2
340
0
 93
        0
 40
1.125
309
GRIDFORMAT_END
 95
       16
302
GRIDFORMAT
  1
GRIDFORMAT_BEGIN
 90
        0
 91
        1
 62
     0
 92
       -2
340
0
 93
        0
 40
1.125
309
GRIDFORMAT_END
 95
       32
302
GRIDFORMAT
  1
GRIDFORMAT_BEGIN
 90
        0
 91
        1
 62
     0
 92
       -2
340
0
 93
        0
 40
1.125
309
GRIDFORMAT_END
309
TABLEFORMAT_END
  1
CELLSTYLE_BEGIN
 90
        3
 91
        2
300
_DATA
309
CELLSTYLE_END
  0
XRECORD
  5
12A7E
102
{ACAD_REACTORS
330
138E
102
}
330
138E
100
AcDbXrecord
280
     1
102
ACAD_ROUNDTRIP_PRE2007_TABLESTYLE
 90
      512
 91
        0
  1

 92
      512
 93
        0
  2

 94
      512
 95
        0
  3

  0
XRECORD
  5
12A63
102
{ACAD_REACTORS
330
12A62
102
}
330
12A62
100
AcDbXrecord
280
     1
102
RTVSPost2010Prop28
280
     1
102
RTVSPost2010PropOp28
 70
     1
102
RTVSPost2010Prop29
280
     1
102
RTVSPost2010PropOp29
 70
     1
102
RTVSPost2010Prop30
280
     0
102
RTVSPost2010PropOp30
 70
     1
102
RTVSPost2010Prop31
280
     0
102
RTVSPost2010PropOp31
 70
     1
102
RTVSPost2010Prop32
280
     0
102
RTVSPost2010PropOp32
 70
     1
102
RTVSPost2010Prop33
280
     0
102
RTVSPost2010PropOp33
 70
     1
102
RTVSPost2010Prop34
280
     0
102
RTVSPost2010PropOp34
 70
     1
102
RTVSPost2010Prop35
280
     0
102
RTVSPost2010PropOp35
 70
     1
102
RTVSPost2010Prop36
280
     0
102
RTVSPost2010PropOp36
 70
     1
102
RTVSPost2010Prop37
 90
       50
102
RTVSPost2010PropOp37
 70
     1
102
RTVSPost2010Prop38
140
0.0
102
RTVSPost2010PropOp38
 70
     1
102
RTVSPost2010Prop39
140
1.0
102
RTVSPost2010PropOp39
 70
     1
102
RTVSPost2010Prop40
 90
        0
102
RTVSPost2010PropOp40
 70
     1
102
RTVSPost2010Prop41ColorIndex
 90
       18
102
RTVSPost2010Prop41ColorRGB
 90
        0
102
RTVSPost2010PropOp41
 70
     1
102
RTVSPost2010Prop42
 90
       50
102
RTVSPost2010PropOp42
 70
     1
102
RTVSPost2010Prop43
 90
        3
102
RTVSPost2010PropOp43
 70
     1
102
RTVSPost2010Prop44ColorIndex
 90
        5
102
RTVSPost2010Prop44ColorRGB
 90
      255
102
RTVSPost2010PropOp44
 70
     1
102
RTVSPost2010Prop45
280
     0
102
RTVSPost2010PropOp45
 70
     1
102
RTVSPost2010Prop46
 90
       50
102
RTVSPost2010PropOp46
 70
     1
102
RTVSPost2010Prop47
 90
       50
102
RTVSPost2010PropOp47
 70
     1
102
RTVSPost2010Prop48
 90
       50
102
RTVSPost2010PropOp48
 70
     1
102
RTVSPost2010Prop49
280
     0
102
RTVSPost2010PropOp49
 70
     1
102
RTVSPost2010Prop50
 90
       50
102
RTVSPost2010PropOp50
 70
     1
102
RTVSPost2010Prop51ColorIndex
 90
      256
102
RTVSPost2010Prop51ColorRGB
 90
-16777216
102
RTVSPost2010PropOp51
 70
     0
102
RTVSPost2010Prop52
140
1.0
102
RTVSPost2010PropOp52
 70
     0
102
RTVSPost2010Prop53
 90
        2
102
RTVSPost2010PropOp53
 70
     1
102
RTVSPost2010Prop54
  1
strokes_ogs.tif
102
RTVSPost2010PropOp54
 70
     1
102
RTVSPost2010Prop55
280
     0
102
RTVSPost2010PropOp55
 70
     1
102
RTVSPost2010Prop56
140
1.0
102
RTVSPost2010PropOp56
 70
     1
102
RTVSPost2010Prop57
140
1.0
102
RTVSPost2010PropOp57
 70
     1
102
RTVSPropertyOp0
 70
     1
102
RTVSPropertyOp1
 70
     1
102
RTVSPropertyOp2
 70
     1
102
RTVSPropertyOp3
 70
     1
102
RTVSPropertyOp4
 70
     1
102
RTVSPropertyOp5
 70
     1
102
RTVSPropertyOp6
 70
     1
102
RTVSPropertyOp7
 70
     1
102
RTVSPropertyOp8
 70
     1
102
RTVSPropertyOp9
 70
     1
102
RTVSPropertyOp10
 70
     1
102
RTVSPropertyOp11
 70
     1
102
RTVSPropertyOp12
 70
     1
102
RTVSPropertyOp13
 70
     1
102
RTVSPropertyOp14
 70
     1
102
RTVSPropertyOp15
 70
     1
102
RTVSPropertyOp16
 70
     1
102
RTVSPropertyOp17
 70
     1
102
RTVSPropertyOp18
 70
     1
102
RTVSPropertyOp19
 70
     1
102
RTVSPropertyOp20
 70
     1
102
RTVSPropertyOp21
 70
     1
102
RTVSPropertyOp22
 70
     1
102
RTVSPropertyOp23
 70
     1
102
RTVSPropertyOp24
 70
     1
102
RTVSPropertyOp25
 70
     1
102
RTVSPropertyOp26
 70
     1
102
RTVSPropertyOp27
 70
     1
102
RTVSPropertyOp28
 70
     1
102
RTVSPropertyOp29
 70
     1
102
RTVSPropertyOp30
 70
     1
102
RTVSPropertyOp31
 70
     1
102
RTVSPropertyOp32
 70
     1
102
RTVSPropertyOp33
 70
     1
102
RTVSPropertyOp34
 70
     1
102
RTVSPropertyOp35
 70
     1
102
RTVSPropertyOp36
 70
     1
102
RTVSPropertyOp37
 70
     1
102
RTVSPropertyOp38
 70
     1
102
RTVSPropertyOp39
 70
     1
102
RTVSPropertyOp40
 70
     1
102
RTVSPropertyOp41
 70
     1
102
RTVSPropertyOp42
 70
     1
102
RTVSPropertyOp43
 70
     1
102
RTVSPropertyOp44
 70
     1
102
RTVSPropertyOp45
 70
     1
102
RTVSPropertyOp46
 70
     1
102
RTVSPropertyOp47
 70
     1
102
RTVSPropertyOp48
 70
     1
102
RTVSPropertyOp49
 70
     1
102
RTVSPropertyOp50
 70
     1
102
RTVSPropertyOp51
 70
     0
102
RTVSPropertyOp52
 70
     0
102
RTVSPropertyOp53
 70
     1
102
RTVSPropertyOp54
 70
     1
102
RTVSPropertyOp55
 70
     1
102
RTVSPropertyOp56
 70
     1
102
RTVSPropertyOp57
 70
     1
102
RTVSPropertyOp58
 70
     1
102
RTVSPropertyOp59
 70
     1
102
RTVSPropertyOp60
 70
     1
102
RTVSPropertyOp61
 70
     1
102
RTVSPropertyOp62
 70
     1
  0
XRECORD
  5
12A67
102
{ACAD_REACTORS
330
12A66
102
}
330
12A66
100
AcDbXrecord
280
     1
102
RTVSPost2010Prop28
280
     0
102
RTVSPost2010PropOp28
 70
     1
102
RTVSPost2010Prop29
280
     1
102
RTVSPost2010PropOp29
 70
     1
102
RTVSPost2010Prop30
280
     1
102
RTVSPost2010PropOp30
 70
     1
102
RTVSPost2010Prop31
280
     0
102
RTVSPost2010PropOp31
 70
     1
102
RTVSPost2010Prop32
280
     0
102
RTVSPost2010PropOp32
 70
     1
102
RTVSPost2010Prop33
280
     0
102
RTVSPost2010PropOp33
 70
     1
102
RTVSPost2010Prop34
280
     0
102
RTVSPost2010PropOp34
 70
     1
102
RTVSPost2010Prop35
280
     0
102
RTVSPost2010PropOp35
 70
     1
102
RTVSPost2010Prop36
280
     0
102
RTVSPost2010PropOp36
 70
     1
102
RTVSPost2010Prop37
 90
       50
102
RTVSPost2010PropOp37
 70
     1
102
RTVSPost2010Prop38
140
0.0
102
RTVSPost2010PropOp38
 70
     1
102
RTVSPost2010Prop39
140
1.0
102
RTVSPost2010PropOp39
 70
     1
102
RTVSPost2010Prop40
 90
        0
102
RTVSPost2010PropOp40
 70
     1
102
RTVSPost2010Prop41ColorIndex
 90
       18
102
RTVSPost2010Prop41ColorRGB
 90
        0
102
RTVSPost2010PropOp41
 70
     1
102
RTVSPost2010Prop42
 90
       50
102
RTVSPost2010PropOp42
 70
     1
102
RTVSPost2010Prop43
 90
        3
102
RTVSPost2010PropOp43
 70
     1
102
RTVSPost2010Prop44ColorIndex
 90
        5
102
RTVSPost2010Prop44ColorRGB
 90
      255
102
RTVSPost2010PropOp44
 70
     1
102
RTVSPost2010Prop45
280
     0
102
RTVSPost2010PropOp45
 70
     1
102
RTVSPost2010Prop46
 90
       50
102
RTVSPost2010PropOp46
 70
     1
102
RTVSPost2010Prop47
 90
       50
102
RTVSPost2010PropOp47
 70
     1
102
RTVSPost2010Prop48
 90
       50
102
RTVSPost2010PropOp48
 70
     1
102
RTVSPost2010Prop49
280
     0
102
RTVSPost2010PropOp49
 70
     1
102
RTVSPost2010Prop50
 90
       50
102
RTVSPost2010PropOp50
 70
     1
102
RTVSPost2010Prop51ColorIndex
 90
      256
102
RTVSPost2010Prop51ColorRGB
 90
-16777216
102
RTVSPost2010PropOp51
 70
     0
102
RTVSPost2010Prop52
140
1.0
102
RTVSPost2010PropOp52
 70
     0
102
RTVSPost2010Prop53
 90
        2
102
RTVSPost2010PropOp53
 70
     1
102
RTVSPost2010Prop54
  1
strokes_ogs.tif
102
RTVSPost2010PropOp54
 70
     1
102
RTVSPost2010Prop55
280
     0
102
RTVSPost2010PropOp55
 70
     1
102
RTVSPost2010Prop56
140
1.0
102
RTVSPost2010PropOp56
 70
     1
102
RTVSPost2010Prop57
140
1.0
102
RTVSPost2010PropOp57
 70
     1
102
RTVSPropertyOp0
 70
     1
102
RTVSPropertyOp1
 70
     1
102
RTVSPropertyOp2
 70
     1
102
RTVSPropertyOp3
 70
     1
102
RTVSPropertyOp4
 70
     1
102
RTVSPropertyOp5
 70
     1
102
RTVSPropertyOp6
 70
     1
102
RTVSPropertyOp7
 70
     1
102
RTVSPropertyOp8
 70
     1
102
RTVSPropertyOp9
 70
     1
102
RTVSPropertyOp10
 70
     1
102
RTVSPropertyOp11
 70
     1
102
RTVSPropertyOp12
 70
     1
102
RTVSPropertyOp13
 70
     1
102
RTVSPropertyOp14
 70
     1
102
RTVSPropertyOp15
 70
     1
102
RTVSPropertyOp16
 70
     1
102
RTVSPropertyOp17
 70
     1
102
RTVSPropertyOp18
 70
     1
102
RTVSPropertyOp19
 70
     1
102
RTVSPropertyOp20
 70
     1
102
RTVSPropertyOp21
 70
     1
102
RTVSPropertyOp22
 70
     1
102
RTVSPropertyOp23
 70
     1
102
RTVSPropertyOp24
 70
     1
102
RTVSPropertyOp25
 70
     1
102
RTVSPropertyOp26
 70
     1
102
RTVSPropertyOp27
 70
     1
102
RTVSPropertyOp28
 70
     1
102
RTVSPropertyOp29
 70
     1
102
RTVSPropertyOp30
 70
     1
102
RTVSPropertyOp31
 70
     1
102
RTVSPropertyOp32
 70
     1
102
RTVSPropertyOp33
 70
     1
102
RTVSPropertyOp34
 70
     1
102
RTVSPropertyOp35
 70
     1
102
RTVSPropertyOp36
 70
     1
102
RTVSPropertyOp37
 70
     1
102
RTVSPropertyOp38
 70
     1
102
RTVSPropertyOp39
 70
     1
102
RTVSPropertyOp40
 70
     1
102
RTVSPropertyOp41
 70
     1
102
RTVSPropertyOp42
 70
     1
102
RTVSPropertyOp43
 70
     1
102
RTVSPropertyOp44
 70
     1
102
RTVSPropertyOp45
 70
     1
102
RTVSPropertyOp46
 70
     1
102
RTVSPropertyOp47
 70
     1
102
RTVSPropertyOp48
 70
     1
102
RTVSPropertyOp49
 70
     1
102
RTVSPropertyOp50
 70
     1
102
RTVSPropertyOp51
 70
     0
102
RTVSPropertyOp52
 70
     0
102
RTVSPropertyOp53
 70
     1
102
RTVSPropertyOp54
 70
     1
102
RTVSPropertyOp55
 70
     1
102
RTVSPropertyOp56
 70
     1
102
RTVSPropertyOp57
 70
     1
102
RTVSPropertyOp58
 70
     1
102
RTVSPropertyOp59
 70
     1
102
RTVSPropertyOp60
 70
     1
102
RTVSPropertyOp61
 70
     1
102
RTVSPropertyOp62
 70
     1
  0
XRECORD
  5
12A65
102
{ACAD_REACTORS
330
12A64
102
}
330
12A64
100
AcDbXrecord
280
     1
102
RTVSPost2010Prop28
280
     0
102
RTVSPost2010PropOp28
 70
     1
102
RTVSPost2010Prop29
280
     1
102
RTVSPost2010PropOp29
 70
     1
102
RTVSPost2010Prop30
280
     1
102
RTVSPost2010PropOp30
 70
     1
102
RTVSPost2010Prop31
280
     0
102
RTVSPost2010PropOp31
 70
     1
102
RTVSPost2010Prop32
280
     0
102
RTVSPost2010PropOp32
 70
     1
102
RTVSPost2010Prop33
280
     0
102
RTVSPost2010PropOp33
 70
     1
102
RTVSPost2010Prop34
280
     0
102
RTVSPost2010PropOp34
 70
     1
102
RTVSPost2010Prop35
280
     0
102
RTVSPost2010PropOp35
 70
     1
102
RTVSPost2010Prop36
280
     0
102
RTVSPost2010PropOp36
 70
     1
102
RTVSPost2010Prop37
 90
       50
102
RTVSPost2010PropOp37
 70
     1
102
RTVSPost2010Prop38
140
0.0
102
RTVSPost2010PropOp38
 70
     1
102
RTVSPost2010Prop39
140
1.0
102
RTVSPost2010PropOp39
 70
     1
102
RTVSPost2010Prop40
 90
        0
102
RTVSPost2010PropOp40
 70
     1
102
RTVSPost2010Prop41ColorIndex
 90
       18
102
RTVSPost2010Prop41ColorRGB
 90
        0
102
RTVSPost2010PropOp41
 70
     1
102
RTVSPost2010Prop42
 90
       50
102
RTVSPost2010PropOp42
 70
     1
102
RTVSPost2010Prop43
 90
        3
102
RTVSPost2010PropOp43
 70
     1
102
RTVSPost2010Prop44ColorIndex
 90
        5
102
RTVSPost2010Prop44ColorRGB
 90
      255
102
RTVSPost2010PropOp44
 70
     1
102
RTVSPost2010Prop45
280
     0
102
RTVSPost2010PropOp45
 70
     1
102
RTVSPost2010Prop46
 90
       50
102
RTVSPost2010PropOp46
 70
     1
102
RTVSPost2010Prop47
 90
       50
102
RTVSPost2010PropOp47
 70
     1
102
RTVSPost2010Prop48
 90
       50
102
RTVSPost2010PropOp48
 70
     1
102
RTVSPost2010Prop49
280
     0
102
RTVSPost2010PropOp49
 70
     1
102
RTVSPost2010Prop50
 90
       50
102
RTVSPost2010PropOp50
 70
     1
102
RTVSPost2010Prop51ColorIndex
 90
      256
102
RTVSPost2010Prop51ColorRGB
 90
-16777216
102
RTVSPost2010PropOp51
 70
     0
102
RTVSPost2010Prop52
140
1.0
102
RTVSPost2010PropOp52
 70
     0
102
RTVSPost2010Prop53
 90
        2
102
RTVSPost2010PropOp53
 70
     1
102
RTVSPost2010Prop54
  1
strokes_ogs.tif
102
RTVSPost2010PropOp54
 70
     1
102
RTVSPost2010Prop55
280
     0
102
RTVSPost2010PropOp55
 70
     1
102
RTVSPost2010Prop56
140
1.0
102
RTVSPost2010PropOp56
 70
     1
102
RTVSPost2010Prop57
140
1.0
102
RTVSPost2010PropOp57
 70
     1
102
RTVSPropertyOp0
 70
     1
102
RTVSPropertyOp1
 70
     1
102
RTVSPropertyOp2
 70
     1
102
RTVSPropertyOp3
 70
     1
102
RTVSPropertyOp4
 70
     1
102
RTVSPropertyOp5
 70
     1
102
RTVSPropertyOp6
 70
     1
102
RTVSPropertyOp7
 70
     1
102
RTVSPropertyOp8
 70
     1
102
RTVSPropertyOp9
 70
     1
102
RTVSPropertyOp10
 70
     1
102
RTVSPropertyOp11
 70
     1
102
RTVSPropertyOp12
 70
     1
102
RTVSPropertyOp13
 70
     1
102
RTVSPropertyOp14
 70
     1
102
RTVSPropertyOp15
 70
     1
102
RTVSPropertyOp16
 70
     1
102
RTVSPropertyOp17
 70
     1
102
RTVSPropertyOp18
 70
     1
102
RTVSPropertyOp19
 70
     1
102
RTVSPropertyOp20
 70
     1
102
RTVSPropertyOp21
 70
     1
102
RTVSPropertyOp22
 70
     1
102
RTVSPropertyOp23
 70
     1
102
RTVSPropertyOp24
 70
     1
102
RTVSPropertyOp25
 70
     1
102
RTVSPropertyOp26
 70
     1
102
RTVSPropertyOp27
 70
     1
102
RTVSPropertyOp28
 70
     1
102
RTVSPropertyOp29
 70
     1
102
RTVSPropertyOp30
 70
     1
102
RTVSPropertyOp31
 70
     1
102
RTVSPropertyOp32
 70
     1
102
RTVSPropertyOp33
 70
     1
102
RTVSPropertyOp34
 70
     1
102
RTVSPropertyOp35
 70
     1
102
RTVSPropertyOp36
 70
     1
102
RTVSPropertyOp37
 70
     1
102
RTVSPropertyOp38
 70
     1
102
RTVSPropertyOp39
 70
     1
102
RTVSPropertyOp40
 70
     1
102
RTVSPropertyOp41
 70
     1
102
RTVSPropertyOp42
 70
     1
102
RTVSPropertyOp43
 70
     1
102
RTVSPropertyOp44
 70
     1
102
RTVSPropertyOp45
 70
     1
102
RTVSPropertyOp46
 70
     1
102
RTVSPropertyOp47
 70
     1
102
RTVSPropertyOp48
 70
     1
102
RTVSPropertyOp49
 70
     1
102
RTVSPropertyOp50
 70
     1
102
RTVSPropertyOp51
 70
     0
102
RTVSPropertyOp52
 70
     0
102
RTVSPropertyOp53
 70
     1
102
RTVSPropertyOp54
 70
     1
102
RTVSPropertyOp55
 70
     1
102
RTVSPropertyOp56
 70
     1
102
RTVSPropertyOp57
 70
     1
102
RTVSPropertyOp58
 70
     1
102
RTVSPropertyOp59
 70
     1
102
RTVSPropertyOp60
 70
     1
102
RTVSPropertyOp61
 70
     1
102
RTVSPropertyOp62
 70
     1
  0
XRECORD
  5
12A61
102
{ACAD_REACTORS
330
12A60
102
}
330
12A60
100
AcDbXrecord
280
     1
102
RTVSPost2010Prop28
280
     0
102
RTVSPost2010PropOp28
 70
     1
102
RTVSPost2010Prop29
280
     1
102
RTVSPost2010PropOp29
 70
     1
102
RTVSPost2010Prop30
280
     1
102
RTVSPost2010PropOp30
 70
     1
102
RTVSPost2010Prop31
280
     0
102
RTVSPost2010PropOp31
 70
     1
102
RTVSPost2010Prop32
280
     0
102
RTVSPost2010PropOp32
 70
     1
102
RTVSPost2010Prop33
280
     0
102
RTVSPost2010PropOp33
 70
     1
102
RTVSPost2010Prop34
280
     0
102
RTVSPost2010PropOp34
 70
     1
102
RTVSPost2010Prop35
280
     0
102
RTVSPost2010PropOp35
 70
     1
102
RTVSPost2010Prop36
280
     0
102
RTVSPost2010PropOp36
 70
     1
102
RTVSPost2010Prop37
 90
       50
102
RTVSPost2010PropOp37
 70
     1
102
RTVSPost2010Prop38
140
0.0
102
RTVSPost2010PropOp38
 70
     1
102
RTVSPost2010Prop39
140
1.0
102
RTVSPost2010PropOp39
 70
     1
102
RTVSPost2010Prop40
 90
        0
102
RTVSPost2010PropOp40
 70
     1
102
RTVSPost2010Prop41ColorIndex
 90
       18
102
RTVSPost2010Prop41ColorRGB
 90
        0
102
RTVSPost2010PropOp41
 70
     1
102
RTVSPost2010Prop42
 90
       50
102
RTVSPost2010PropOp42
 70
     1
102
RTVSPost2010Prop43
 90
        3
102
RTVSPost2010PropOp43
 70
     1
102
RTVSPost2010Prop44ColorIndex
 90
        5
102
RTVSPost2010Prop44ColorRGB
 90
      255
102
RTVSPost2010PropOp44
 70
     1
102
RTVSPost2010Prop45
280
     0
102
RTVSPost2010PropOp45
 70
     1
102
RTVSPost2010Prop46
 90
       50
102
RTVSPost2010PropOp46
 70
     1
102
RTVSPost2010Prop47
 90
       50
102
RTVSPost2010PropOp47
 70
     1
102
RTVSPost2010Prop48
 90
       50
102
RTVSPost2010PropOp48
 70
     1
102
RTVSPost2010Prop49
280
     0
102
RTVSPost2010PropOp49
 70
     1
102
RTVSPost2010Prop50
 90
       50
102
RTVSPost2010PropOp50
 70
     1
102
RTVSPost2010Prop51ColorIndex
 90
      256
102
RTVSPost2010Prop51ColorRGB
 90
-16777216
102
RTVSPost2010PropOp51
 70
     0
102
RTVSPost2010Prop52
140
1.0
102
RTVSPost2010PropOp52
 70
     0
102
RTVSPost2010Prop53
 90
        2
102
RTVSPost2010PropOp53
 70
     1
102
RTVSPost2010Prop54
  1
strokes_ogs.tif
102
RTVSPost2010PropOp54
 70
     1
102
RTVSPost2010Prop55
280
     0
102
RTVSPost2010PropOp55
 70
     1
102
RTVSPost2010Prop56
140
1.0
102
RTVSPost2010PropOp56
 70
     1
102
RTVSPost2010Prop57
140
1.0
102
RTVSPost2010PropOp57
 70
     1
102
RTVSPropertyOp0
 70
     1
102
RTVSPropertyOp1
 70
     1
102
RTVSPropertyOp2
 70
     1
102
RTVSPropertyOp3
 70
     1
102
RTVSPropertyOp4
 70
     1
102
RTVSPropertyOp5
 70
     1
102
RTVSPropertyOp6
 70
     1
102
RTVSPropertyOp7
 70
     1
102
RTVSPropertyOp8
 70
     1
102
RTVSPropertyOp9
 70
     1
102
RTVSPropertyOp10
 70
     1
102
RTVSPropertyOp11
 70
     1
102
RTVSPropertyOp12
 70
     1
102
RTVSPropertyOp13
 70
     1
102
RTVSPropertyOp14
 70
     1
102
RTVSPropertyOp15
 70
     1
102
RTVSPropertyOp16
 70
     1
102
RTVSPropertyOp17
 70
     1
102
RTVSPropertyOp18
 70
     1
102
RTVSPropertyOp19
 70
     1
102
RTVSPropertyOp20
 70
     1
102
RTVSPropertyOp21
 70
     1
102
RTVSPropertyOp22
 70
     1
102
RTVSPropertyOp23
 70
     1
102
RTVSPropertyOp24
 70
     1
102
RTVSPropertyOp25
 70
     1
102
RTVSPropertyOp26
 70
     1
102
RTVSPropertyOp27
 70
     1
102
RTVSPropertyOp28
 70
     1
102
RTVSPropertyOp29
 70
     1
102
RTVSPropertyOp30
 70
     1
102
RTVSPropertyOp31
 70
     1
102
RTVSPropertyOp32
 70
     1
102
RTVSPropertyOp33
 70
     1
102
RTVSPropertyOp34
 70
     1
102
RTVSPropertyOp35
 70
     1
102
RTVSPropertyOp36
 70
     1
102
RTVSPropertyOp37
 70
     1
102
RTVSPropertyOp38
 70
     1
102
RTVSPropertyOp39
 70
     1
102
RTVSPropertyOp40
 70
     1
102
RTVSPropertyOp41
 70
     1
102
RTVSPropertyOp42
 70
     1
102
RTVSPropertyOp43
 70
     1
102
RTVSPropertyOp44
 70
     1
102
RTVSPropertyOp45
 70
     1
102
RTVSPropertyOp46
 70
     1
102
RTVSPropertyOp47
 70
     1
102
RTVSPropertyOp48
 70
     1
102
RTVSPropertyOp49
 70
     1
102
RTVSPropertyOp50
 70
     1
102
RTVSPropertyOp51
 70
     0
102
RTVSPropertyOp52
 70
     0
102
RTVSPropertyOp53
 70
     1
102
RTVSPropertyOp54
 70
     1
102
RTVSPropertyOp55
 70
     1
102
RTVSPropertyOp56
 70
     1
102
RTVSPropertyOp57
 70
     1
102
RTVSPropertyOp58
 70
     1
102
RTVSPropertyOp59
 70
     1
102
RTVSPropertyOp60
 70
     1
102
RTVSPropertyOp61
 70
     1
102
RTVSPropertyOp62
 70
     1
  0
XRECORD
  5
12A6F
102
{ACAD_REACTORS
330
12A6E
102
}
330
12A6E
100
AcDbXrecord
280
     1
102
RTVSPost2010Prop28
280
     0
102
RTVSPost2010PropOp28
 70
     1
102
RTVSPost2010Prop29
280
     1
102
RTVSPost2010PropOp29
 70
     1
102
RTVSPost2010Prop30
280
     1
102
RTVSPost2010PropOp30
 70
     1
102
RTVSPost2010Prop31
280
     0
102
RTVSPost2010PropOp31
 70
     1
102
RTVSPost2010Prop32
280
     0
102
RTVSPost2010PropOp32
 70
     1
102
RTVSPost2010Prop33
280
     0
102
RTVSPost2010PropOp33
 70
     1
102
RTVSPost2010Prop34
280
     0
102
RTVSPost2010PropOp34
 70
     1
102
RTVSPost2010Prop35
280
     0
102
RTVSPost2010PropOp35
 70
     1
102
RTVSPost2010Prop36
280
     0
102
RTVSPost2010PropOp36
 70
     1
102
RTVSPost2010Prop37
 90
       50
102
RTVSPost2010PropOp37
 70
     1
102
RTVSPost2010Prop38
140
0.0
102
RTVSPost2010PropOp38
 70
     1
102
RTVSPost2010Prop39
140
1.0
102
RTVSPost2010PropOp39
 70
     1
102
RTVSPost2010Prop40
 90
        0
102
RTVSPost2010PropOp40
 70
     1
102
RTVSPost2010Prop41ColorIndex
 90
       18
102
RTVSPost2010Prop41ColorRGB
 90
        0
102
RTVSPost2010PropOp41
 70
     1
102
RTVSPost2010Prop42
 90
       50
102
RTVSPost2010PropOp42
 70
     1
102
RTVSPost2010Prop43
 90
        3
102
RTVSPost2010PropOp43
 70
     1
102
RTVSPost2010Prop44ColorIndex
 90
        5
102
RTVSPost2010Prop44ColorRGB
 90
      255
102
RTVSPost2010PropOp44
 70
     1
102
RTVSPost2010Prop45
280
     0
102
RTVSPost2010PropOp45
 70
     1
102
RTVSPost2010Prop46
 90
       50
102
RTVSPost2010PropOp46
 70
     1
102
RTVSPost2010Prop47
 90
       50
102
RTVSPost2010PropOp47
 70
     1
102
RTVSPost2010Prop48
 90
       50
102
RTVSPost2010PropOp48
 70
     1
102
RTVSPost2010Prop49
280
     0
102
RTVSPost2010PropOp49
 70
     1
102
RTVSPost2010Prop50
 90
       50
102
RTVSPost2010PropOp50
 70
     1
102
RTVSPost2010Prop51ColorIndex
 90
      256
102
RTVSPost2010Prop51ColorRGB
 90
-16777216
102
RTVSPost2010PropOp51
 70
     0
102
RTVSPost2010Prop52
140
1.0
102
RTVSPost2010PropOp52
 70
     0
102
RTVSPost2010Prop53
 90
        2
102
RTVSPost2010PropOp53
 70
     1
102
RTVSPost2010Prop54
  1
strokes_ogs.tif
102
RTVSPost2010PropOp54
 70
     1
102
RTVSPost2010Prop55
280
     0
102
RTVSPost2010PropOp55
 70
     1
102
RTVSPost2010Prop56
140
1.0
102
RTVSPost2010PropOp56
 70
     1
102
RTVSPost2010Prop57
140
1.0
102
RTVSPost2010PropOp57
 70
     1
102
RTVSPropertyOp0
 70
     1
102
RTVSPropertyOp1
 70
     1
102
RTVSPropertyOp2
 70
     1
102
RTVSPropertyOp3
 70
     1
102
RTVSPropertyOp4
 70
     1
102
RTVSPropertyOp5
 70
     1
102
RTVSPropertyOp6
 70
     1
102
RTVSPropertyOp7
 70
     1
102
RTVSPropertyOp8
 70
     1
102
RTVSPropertyOp9
 70
     1
102
RTVSPropertyOp10
 70
     1
102
RTVSPropertyOp11
 70
     1
102
RTVSPropertyOp12
 70
     1
102
RTVSPropertyOp13
 70
     1
102
RTVSPropertyOp14
 70
     1
102
RTVSPropertyOp15
 70
     1
102
RTVSPropertyOp16
 70
     1
102
RTVSPropertyOp17
 70
     1
102
RTVSPropertyOp18
 70
     1
102
RTVSPropertyOp19
 70
     1
102
RTVSPropertyOp20
 70
     1
102
RTVSPropertyOp21
 70
     1
102
RTVSPropertyOp22
 70
     1
102
RTVSPropertyOp23
 70
     1
102
RTVSPropertyOp24
 70
     1
102
RTVSPropertyOp25
 70
     1
102
RTVSPropertyOp26
 70
     1
102
RTVSPropertyOp27
 70
     1
102
RTVSPropertyOp28
 70
     1
102
RTVSPropertyOp29
 70
     1
102
RTVSPropertyOp30
 70
     1
102
RTVSPropertyOp31
 70
     1
102
RTVSPropertyOp32
 70
     1
102
RTVSPropertyOp33
 70
     1
102
RTVSPropertyOp34
 70
     1
102
RTVSPropertyOp35
 70
     1
102
RTVSPropertyOp36
 70
     1
102
RTVSPropertyOp37
 70
     1
102
RTVSPropertyOp38
 70
     1
102
RTVSPropertyOp39
 70
     1
102
RTVSPropertyOp40
 70
     1
102
RTVSPropertyOp41
 70
     1
102
RTVSPropertyOp42
 70
     1
102
RTVSPropertyOp43
 70
     1
102
RTVSPropertyOp44
 70
     1
102
RTVSPropertyOp45
 70
     1
102
RTVSPropertyOp46
 70
     1
102
RTVSPropertyOp47
 70
     1
102
RTVSPropertyOp48
 70
     1
102
RTVSPropertyOp49
 70
     1
102
RTVSPropertyOp50
 70
     1
102
RTVSPropertyOp51
 70
     0
102
RTVSPropertyOp52
 70
     0
102
RTVSPropertyOp53
 70
     1
102
RTVSPropertyOp54
 70
     1
102
RTVSPropertyOp55
 70
     1
102
RTVSPropertyOp56
 70
     1
102
RTVSPropertyOp57
 70
     1
102
RTVSPropertyOp58
 70
     1
102
RTVSPropertyOp59
 70
     1
102
RTVSPropertyOp60
 70
     1
102
RTVSPropertyOp61
 70
     1
102
RTVSPropertyOp62
 70
     1
  0
XRECORD
  5
12A77
102
{ACAD_REACTORS
330
12A76
102
}
330
12A76
100
AcDbXrecord
280
     1
102
RTVSPost2010Prop28
280
     0
102
RTVSPost2010PropOp28
 70
     1
102
RTVSPost2010Prop29
280
     1
102
RTVSPost2010PropOp29
 70
     1
102
RTVSPost2010Prop30
280
     1
102
RTVSPost2010PropOp30
 70
     1
102
RTVSPost2010Prop31
280
     0
102
RTVSPost2010PropOp31
 70
     1
102
RTVSPost2010Prop32
280
     0
102
RTVSPost2010PropOp32
 70
     1
102
RTVSPost2010Prop33
280
     0
102
RTVSPost2010PropOp33
 70
     1
102
RTVSPost2010Prop34
280
     0
102
RTVSPost2010PropOp34
 70
     1
102
RTVSPost2010Prop35
280
     0
102
RTVSPost2010PropOp35
 70
     1
102
RTVSPost2010Prop36
280
     0
102
RTVSPost2010PropOp36
 70
     1
102
RTVSPost2010Prop37
 90
       50
102
RTVSPost2010PropOp37
 70
     1
102
RTVSPost2010Prop38
140
0.0
102
RTVSPost2010PropOp38
 70
     1
102
RTVSPost2010Prop39
140
1.0
102
RTVSPost2010PropOp39
 70
     1
102
RTVSPost2010Prop40
 90
        0
102
RTVSPost2010PropOp40
 70
     1
102
RTVSPost2010Prop41ColorIndex
 90
       18
102
RTVSPost2010Prop41ColorRGB
 90
        0
102
RTVSPost2010PropOp41
 70
     1
102
RTVSPost2010Prop42
 90
       50
102
RTVSPost2010PropOp42
 70
     1
102
RTVSPost2010Prop43
 90
        3
102
RTVSPost2010PropOp43
 70
     1
102
RTVSPost2010Prop44ColorIndex
 90
        5
102
RTVSPost2010Prop44ColorRGB
 90
      255
102
RTVSPost2010PropOp44
 70
     1
102
RTVSPost2010Prop45
280
     0
102
RTVSPost2010PropOp45
 70
     1
102
RTVSPost2010Prop46
 90
       50
102
RTVSPost2010PropOp46
 70
     1
102
RTVSPost2010Prop47
 90
       50
102
RTVSPost2010PropOp47
 70
     1
102
RTVSPost2010Prop48
 90
       50
102
RTVSPost2010PropOp48
 70
     1
102
RTVSPost2010Prop49
280
     0
102
RTVSPost2010PropOp49
 70
     1
102
RTVSPost2010Prop50
 90
       50
102
RTVSPost2010PropOp50
 70
     1
102
RTVSPost2010Prop51ColorIndex
 90
      256
102
RTVSPost2010Prop51ColorRGB
 90
-16777216
102
RTVSPost2010PropOp51
 70
     0
102
RTVSPost2010Prop52
140
1.0
102
RTVSPost2010PropOp52
 70
     0
102
RTVSPost2010Prop53
 90
        2
102
RTVSPost2010PropOp53
 70
     1
102
RTVSPost2010Prop54
  1
strokes_ogs.tif
102
RTVSPost2010PropOp54
 70
     1
102
RTVSPost2010Prop55
280
     0
102
RTVSPost2010PropOp55
 70
     1
102
RTVSPost2010Prop56
140
1.0
102
RTVSPost2010PropOp56
 70
     1
102
RTVSPost2010Prop57
140
1.0
102
RTVSPost2010PropOp57
 70
     1
102
RTVSPropertyOp0
 70
     1
102
RTVSPropertyOp1
 70
     1
102
RTVSPropertyOp2
 70
     1
102
RTVSPropertyOp3
 70
     1
102
RTVSPropertyOp4
 70
     1
102
RTVSPropertyOp5
 70
     1
102
RTVSPropertyOp6
 70
     1
102
RTVSPropertyOp7
 70
     1
102
RTVSPropertyOp8
 70
     1
102
RTVSPropertyOp9
 70
     1
102
RTVSPropertyOp10
 70
     1
102
RTVSPropertyOp11
 70
     1
102
RTVSPropertyOp12
 70
     1
102
RTVSPropertyOp13
 70
     1
102
RTVSPropertyOp14
 70
     1
102
RTVSPropertyOp15
 70
     1
102
RTVSPropertyOp16
 70
     1
102
RTVSPropertyOp17
 70
     1
102
RTVSPropertyOp18
 70
     1
102
RTVSPropertyOp19
 70
     1
102
RTVSPropertyOp20
 70
     1
102
RTVSPropertyOp21
 70
     1
102
RTVSPropertyOp22
 70
     1
102
RTVSPropertyOp23
 70
     1
102
RTVSPropertyOp24
 70
     1
102
RTVSPropertyOp25
 70
     1
102
RTVSPropertyOp26
 70
     1
102
RTVSPropertyOp27
 70
     1
102
RTVSPropertyOp28
 70
     1
102
RTVSPropertyOp29
 70
     1
102
RTVSPropertyOp30
 70
     1
102
RTVSPropertyOp31
 70
     1
102
RTVSPropertyOp32
 70
     1
102
RTVSPropertyOp33
 70
     1
102
RTVSPropertyOp34
 70
     1
102
RTVSPropertyOp35
 70
     1
102
RTVSPropertyOp36
 70
     1
102
RTVSPropertyOp37
 70
     1
102
RTVSPropertyOp38
 70
     1
102
RTVSPropertyOp39
 70
     1
102
RTVSPropertyOp40
 70
     1
102
RTVSPropertyOp41
 70
     1
102
RTVSPropertyOp42
 70
     1
102
RTVSPropertyOp43
 70
     1
102
RTVSPropertyOp44
 70
     1
102
RTVSPropertyOp45
 70
     1
102
RTVSPropertyOp46
 70
     1
102
RTVSPropertyOp47
 70
     1
102
RTVSPropertyOp48
 70
     1
102
RTVSPropertyOp49
 70
     1
102
RTVSPropertyOp50
 70
     1
102
RTVSPropertyOp51
 70
     0
102
RTVSPropertyOp52
 70
     0
102
RTVSPropertyOp53
 70
     1
102
RTVSPropertyOp54
 70
     1
102
RTVSPropertyOp55
 70
     1
102
RTVSPropertyOp56
 70
     1
102
RTVSPropertyOp57
 70
     1
102
RTVSPropertyOp58
 70
     1
102
RTVSPropertyOp59
 70
     1
102
RTVSPropertyOp60
 70
     1
102
RTVSPropertyOp61
 70
     1
102
RTVSPropertyOp62
 70
     1
  0
XRECORD
  5
12A69
102
{ACAD_REACTORS
330
12A68
102
}
330
12A68
100
AcDbXrecord
280
     1
102
RTVSPost2010Prop28
280
     0
102
RTVSPost2010PropOp28
 70
     1
102
RTVSPost2010Prop29
280
     1
102
RTVSPost2010PropOp29
 70
     1
102
RTVSPost2010Prop30
280
     1
102
RTVSPost2010PropOp30
 70
     1
102
RTVSPost2010Prop31
280
     0
102
RTVSPost2010PropOp31
 70
     1
102
RTVSPost2010Prop32
280
     0
102
RTVSPost2010PropOp32
 70
     1
102
RTVSPost2010Prop33
280
     0
102
RTVSPost2010PropOp33
 70
     1
102
RTVSPost2010Prop34
280
     0
102
RTVSPost2010PropOp34
 70
     1
102
RTVSPost2010Prop35
280
     0
102
RTVSPost2010PropOp35
 70
     1
102
RTVSPost2010Prop36
280
     0
102
RTVSPost2010PropOp36
 70
     1
102
RTVSPost2010Prop37
 90
       50
102
RTVSPost2010PropOp37
 70
     1
102
RTVSPost2010Prop38
140
0.0
102
RTVSPost2010PropOp38
 70
     1
102
RTVSPost2010Prop39
140
1.0
102
RTVSPost2010PropOp39
 70
     1
102
RTVSPost2010Prop40
 90
        0
102
RTVSPost2010PropOp40
 70
     1
102
RTVSPost2010Prop41ColorIndex
 90
       18
102
RTVSPost2010Prop41ColorRGB
 90
        0
102
RTVSPost2010PropOp41
 70
     1
102
RTVSPost2010Prop42
 90
       50
102
RTVSPost2010PropOp42
 70
     1
102
RTVSPost2010Prop43
 90
        3
102
RTVSPost2010PropOp43
 70
     1
102
RTVSPost2010Prop44ColorIndex
 90
        5
102
RTVSPost2010Prop44ColorRGB
 90
      255
102
RTVSPost2010PropOp44
 70
     1
102
RTVSPost2010Prop45
280
     0
102
RTVSPost2010PropOp45
 70
     1
102
RTVSPost2010Prop46
 90
       50
102
RTVSPost2010PropOp46
 70
     1
102
RTVSPost2010Prop47
 90
       50
102
RTVSPost2010PropOp47
 70
     1
102
RTVSPost2010Prop48
 90
       50
102
RTVSPost2010PropOp48
 70
     1
102
RTVSPost2010Prop49
280
     0
102
RTVSPost2010PropOp49
 70
     1
102
RTVSPost2010Prop50
 90
       50
102
RTVSPost2010PropOp50
 70
     1
102
RTVSPost2010Prop51ColorIndex
 90
      256
102
RTVSPost2010Prop51ColorRGB
 90
-16777216
102
RTVSPost2010PropOp51
 70
     0
102
RTVSPost2010Prop52
140
1.0
102
RTVSPost2010PropOp52
 70
     0
102
RTVSPost2010Prop53
 90
        2
102
RTVSPost2010PropOp53
 70
     1
102
RTVSPost2010Prop54
  1
strokes_ogs.tif
102
RTVSPost2010PropOp54
 70
     1
102
RTVSPost2010Prop55
280
     0
102
RTVSPost2010PropOp55
 70
     1
102
RTVSPost2010Prop56
140
1.0
102
RTVSPost2010PropOp56
 70
     1
102
RTVSPost2010Prop57
140
1.0
102
RTVSPost2010PropOp57
 70
     1
102
RTVSPropertyOp0
 70
     1
102
RTVSPropertyOp1
 70
     1
102
RTVSPropertyOp2
 70
     1
102
RTVSPropertyOp3
 70
     1
102
RTVSPropertyOp4
 70
     1
102
RTVSPropertyOp5
 70
     1
102
RTVSPropertyOp6
 70
     1
102
RTVSPropertyOp7
 70
     1
102
RTVSPropertyOp8
 70
     1
102
RTVSPropertyOp9
 70
     1
102
RTVSPropertyOp10
 70
     1
102
RTVSPropertyOp11
 70
     1
102
RTVSPropertyOp12
 70
     1
102
RTVSPropertyOp13
 70
     1
102
RTVSPropertyOp14
 70
     1
102
RTVSPropertyOp15
 70
     1
102
RTVSPropertyOp16
 70
     1
102
RTVSPropertyOp17
 70
     1
102
RTVSPropertyOp18
 70
     1
102
RTVSPropertyOp19
 70
     1
102
RTVSPropertyOp20
 70
     1
102
RTVSPropertyOp21
 70
     1
102
RTVSPropertyOp22
 70
     1
102
RTVSPropertyOp23
 70
     1
102
RTVSPropertyOp24
 70
     1
102
RTVSPropertyOp25
 70
     1
102
RTVSPropertyOp26
 70
     1
102
RTVSPropertyOp27
 70
     1
102
RTVSPropertyOp28
 70
     1
102
RTVSPropertyOp29
 70
     1
102
RTVSPropertyOp30
 70
     1
102
RTVSPropertyOp31
 70
     1
102
RTVSPropertyOp32
 70
     1
102
RTVSPropertyOp33
 70
     1
102
RTVSPropertyOp34
 70
     1
102
RTVSPropertyOp35
 70
     1
102
RTVSPropertyOp36
 70
     1
102
RTVSPropertyOp37
 70
     1
102
RTVSPropertyOp38
 70
     1
102
RTVSPropertyOp39
 70
     1
102
RTVSPropertyOp40
 70
     1
102
RTVSPropertyOp41
 70
     1
102
RTVSPropertyOp42
 70
     1
102
RTVSPropertyOp43
 70
     1
102
RTVSPropertyOp44
 70
     1
102
RTVSPropertyOp45
 70
     1
102
RTVSPropertyOp46
 70
     1
102
RTVSPropertyOp47
 70
     1
102
RTVSPropertyOp48
 70
     1
102
RTVSPropertyOp49
 70
     1
102
RTVSPropertyOp50
 70
     1
102
RTVSPropertyOp51
 70
     0
102
RTVSPropertyOp52
 70
     0
102
RTVSPropertyOp53
 70
     1
102
RTVSPropertyOp54
 70
     1
102
RTVSPropertyOp55
 70
     1
102
RTVSPropertyOp56
 70
     1
102
RTVSPropertyOp57
 70
     1
102
RTVSPropertyOp58
 70
     1
102
RTVSPropertyOp59
 70
     1
102
RTVSPropertyOp60
 70
     1
102
RTVSPropertyOp61
 70
     1
102
RTVSPropertyOp62
 70
     1
  0
XRECORD
  5
12A6D
102
{ACAD_REACTORS
330
12A6C
102
}
330
12A6C
100
AcDbXrecord
280
     1
102
RTVSPost2010Prop28
280
     0
102
RTVSPost2010PropOp28
 70
     1
102
RTVSPost2010Prop29
280
     1
102
RTVSPost2010PropOp29
 70
     1
102
RTVSPost2010Prop30
280
     1
102
RTVSPost2010PropOp30
 70
     1
102
RTVSPost2010Prop31
280
     0
102
RTVSPost2010PropOp31
 70
     1
102
RTVSPost2010Prop32
280
     0
102
RTVSPost2010PropOp32
 70
     1
102
RTVSPost2010Prop33
280
     0
102
RTVSPost2010PropOp33
 70
     1
102
RTVSPost2010Prop34
280
     0
102
RTVSPost2010PropOp34
 70
     1
102
RTVSPost2010Prop35
280
     0
102
RTVSPost2010PropOp35
 70
     1
102
RTVSPost2010Prop36
280
     0
102
RTVSPost2010PropOp36
 70
     1
102
RTVSPost2010Prop37
 90
       50
102
RTVSPost2010PropOp37
 70
     1
102
RTVSPost2010Prop38
140
0.0
102
RTVSPost2010PropOp38
 70
     1
102
RTVSPost2010Prop39
140
1.0
102
RTVSPost2010PropOp39
 70
     1
102
RTVSPost2010Prop40
 90
        0
102
RTVSPost2010PropOp40
 70
     1
102
RTVSPost2010Prop41ColorIndex
 90
       18
102
RTVSPost2010Prop41ColorRGB
 90
        0
102
RTVSPost2010PropOp41
 70
     1
102
RTVSPost2010Prop42
 90
       50
102
RTVSPost2010PropOp42
 70
     1
102
RTVSPost2010Prop43
 90
        3
102
RTVSPost2010PropOp43
 70
     1
102
RTVSPost2010Prop44ColorIndex
 90
        5
102
RTVSPost2010Prop44ColorRGB
 90
      255
102
RTVSPost2010PropOp44
 70
     1
102
RTVSPost2010Prop45
280
     0
102
RTVSPost2010PropOp45
 70
     1
102
RTVSPost2010Prop46
 90
       50
102
RTVSPost2010PropOp46
 70
     1
102
RTVSPost2010Prop47
 90
       50
102
RTVSPost2010PropOp47
 70
     1
102
RTVSPost2010Prop48
 90
       50
102
RTVSPost2010PropOp48
 70
     1
102
RTVSPost2010Prop49
280
     0
102
RTVSPost2010PropOp49
 70
     1
102
RTVSPost2010Prop50
 90
       50
102
RTVSPost2010PropOp50
 70
     1
102
RTVSPost2010Prop51ColorIndex
 90
      256
102
RTVSPost2010Prop51ColorRGB
 90
-16777216
102
RTVSPost2010PropOp51
 70
     0
102
RTVSPost2010Prop52
140
1.0
102
RTVSPost2010PropOp52
 70
     0
102
RTVSPost2010Prop53
 90
        2
102
RTVSPost2010PropOp53
 70
     1
102
RTVSPost2010Prop54
  1
strokes_ogs.tif
102
RTVSPost2010PropOp54
 70
     1
102
RTVSPost2010Prop55
280
     0
102
RTVSPost2010PropOp55
 70
     1
102
RTVSPost2010Prop56
140
1.0
102
RTVSPost2010PropOp56
 70
     1
102
RTVSPost2010Prop57
140
1.0
102
RTVSPost2010PropOp57
 70
     1
102
RTVSPropertyOp0
 70
     1
102
RTVSPropertyOp1
 70
     1
102
RTVSPropertyOp2
 70
     1
102
RTVSPropertyOp3
 70
     1
102
RTVSPropertyOp4
 70
     1
102
RTVSPropertyOp5
 70
     1
102
RTVSPropertyOp6
 70
     1
102
RTVSPropertyOp7
 70
     1
102
RTVSPropertyOp8
 70
     1
102
RTVSPropertyOp9
 70
     1
102
RTVSPropertyOp10
 70
     1
102
RTVSPropertyOp11
 70
     1
102
RTVSPropertyOp12
 70
     1
102
RTVSPropertyOp13
 70
     1
102
RTVSPropertyOp14
 70
     1
102
RTVSPropertyOp15
 70
     1
102
RTVSPropertyOp16
 70
     1
102
RTVSPropertyOp17
 70
     1
102
RTVSPropertyOp18
 70
     1
102
RTVSPropertyOp19
 70
     1
102
RTVSPropertyOp20
 70
     1
102
RTVSPropertyOp21
 70
     1
102
RTVSPropertyOp22
 70
     1
102
RTVSPropertyOp23
 70
     1
102
RTVSPropertyOp24
 70
     1
102
RTVSPropertyOp25
 70
     1
102
RTVSPropertyOp26
 70
     1
102
RTVSPropertyOp27
 70
     1
102
RTVSPropertyOp28
 70
     1
102
RTVSPropertyOp29
 70
     1
102
RTVSPropertyOp30
 70
     1
102
RTVSPropertyOp31
 70
     1
102
RTVSPropertyOp32
 70
     1
102
RTVSPropertyOp33
 70
     1
102
RTVSPropertyOp34
 70
     1
102
RTVSPropertyOp35
 70
     1
102
RTVSPropertyOp36
 70
     1
102
RTVSPropertyOp37
 70
     1
102
RTVSPropertyOp38
 70
     1
102
RTVSPropertyOp39
 70
     1
102
RTVSPropertyOp40
 70
     1
102
RTVSPropertyOp41
 70
     1
102
RTVSPropertyOp42
 70
     1
102
RTVSPropertyOp43
 70
     1
102
RTVSPropertyOp44
 70
     1
102
RTVSPropertyOp45
 70
     1
102
RTVSPropertyOp46
 70
     1
102
RTVSPropertyOp47
 70
     1
102
RTVSPropertyOp48
 70
     1
102
RTVSPropertyOp49
 70
     1
102
RTVSPropertyOp50
 70
     1
102
RTVSPropertyOp51
 70
     0
102
RTVSPropertyOp52
 70
     0
102
RTVSPropertyOp53
 70
     1
102
RTVSPropertyOp54
 70
     1
102
RTVSPropertyOp55
 70
     1
102
RTVSPropertyOp56
 70
     1
102
RTVSPropertyOp57
 70
     1
102
RTVSPropertyOp58
 70
     1
102
RTVSPropertyOp59
 70
     1
102
RTVSPropertyOp60
 70
     1
102
RTVSPropertyOp61
 70
     1
102
RTVSPropertyOp62
 70
     1
  0
XRECORD
  5
12A7D
102
{ACAD_REACTORS
330
12A7C
102
}
330
12A7C
100
AcDbXrecord
280
     1
102
RTVSPost2010Prop28
280
     0
102
RTVSPost2010PropOp28
 70
     1
102
RTVSPost2010Prop29
280
     1
102
RTVSPost2010PropOp29
 70
     1
102
RTVSPost2010Prop30
280
     1
102
RTVSPost2010PropOp30
 70
     1
102
RTVSPost2010Prop31
280
     0
102
RTVSPost2010PropOp31
 70
     1
102
RTVSPost2010Prop32
280
     0
102
RTVSPost2010PropOp32
 70
     1
102
RTVSPost2010Prop33
280
     0
102
RTVSPost2010PropOp33
 70
     1
102
RTVSPost2010Prop34
280
     0
102
RTVSPost2010PropOp34
 70
     1
102
RTVSPost2010Prop35
280
     0
102
RTVSPost2010PropOp35
 70
     1
102
RTVSPost2010Prop36
280
     0
102
RTVSPost2010PropOp36
 70
     1
102
RTVSPost2010Prop37
 90
       50
102
RTVSPost2010PropOp37
 70
     1
102
RTVSPost2010Prop38
140
0.0
102
RTVSPost2010PropOp38
 70
     1
102
RTVSPost2010Prop39
140
1.0
102
RTVSPost2010PropOp39
 70
     1
102
RTVSPost2010Prop40
 90
        0
102
RTVSPost2010PropOp40
 70
     1
102
RTVSPost2010Prop41ColorIndex
 90
       18
102
RTVSPost2010Prop41ColorRGB
 90
        0
102
RTVSPost2010PropOp41
 70
     1
102
RTVSPost2010Prop42
 90
       50
102
RTVSPost2010PropOp42
 70
     1
102
RTVSPost2010Prop43
 90
        3
102
RTVSPost2010PropOp43
 70
     1
102
RTVSPost2010Prop44ColorIndex
 90
        5
102
RTVSPost2010Prop44ColorRGB
 90
      255
102
RTVSPost2010PropOp44
 70
     1
102
RTVSPost2010Prop45
280
     0
102
RTVSPost2010PropOp45
 70
     1
102
RTVSPost2010Prop46
 90
       50
102
RTVSPost2010PropOp46
 70
     1
102
RTVSPost2010Prop47
 90
       50
102
RTVSPost2010PropOp47
 70
     1
102
RTVSPost2010Prop48
 90
       50
102
RTVSPost2010PropOp48
 70
     1
102
RTVSPost2010Prop49
280
     0
102
RTVSPost2010PropOp49
 70
     1
102
RTVSPost2010Prop50
 90
       50
102
RTVSPost2010PropOp50
 70
     1
102
RTVSPost2010Prop51ColorIndex
 90
      256
102
RTVSPost2010Prop51ColorRGB
 90
-16777216
102
RTVSPost2010PropOp51
 70
     0
102
RTVSPost2010Prop52
140
1.0
102
RTVSPost2010PropOp52
 70
     0
102
RTVSPost2010Prop53
 90
        2
102
RTVSPost2010PropOp53
 70
     1
102
RTVSPost2010Prop54
  1
strokes_ogs.tif
102
RTVSPost2010PropOp54
 70
     1
102
RTVSPost2010Prop55
280
     0
102
RTVSPost2010PropOp55
 70
     1
102
RTVSPost2010Prop56
140
1.0
102
RTVSPost2010PropOp56
 70
     1
102
RTVSPost2010Prop57
140
1.0
102
RTVSPost2010PropOp57
 70
     1
102
RTVSPropertyOp0
 70
     0
102
RTVSPropertyOp1
 70
     0
102
RTVSPropertyOp2
 70
     0
102
RTVSPropertyOp3
 70
     0
102
RTVSPropertyOp4
 70
     0
102
RTVSPropertyOp5
 70
     0
102
RTVSPropertyOp6
 70
     0
102
RTVSPropertyOp7
 70
     0
102
RTVSPropertyOp8
 70
     0
102
RTVSPropertyOp9
 70
     0
102
RTVSPropertyOp10
 70
     0
102
RTVSPropertyOp11
 70
     0
102
RTVSPropertyOp12
 70
     0
102
RTVSPropertyOp13
 70
     0
102
RTVSPropertyOp14
 70
     2
102
RTVSPropertyOp15
 70
     0
102
RTVSPropertyOp16
 70
     0
102
RTVSPropertyOp17
 70
     0
102
RTVSPropertyOp18
 70
     0
102
RTVSPropertyOp19
 70
     0
102
RTVSPropertyOp20
 70
     0
102
RTVSPropertyOp21
 70
     0
102
RTVSPropertyOp22
 70
     0
102
RTVSPropertyOp23
 70
     0
102
RTVSPropertyOp24
 70
     0
102
RTVSPropertyOp25
 70
     0
102
RTVSPropertyOp26
 70
     0
102
RTVSPropertyOp27
 70
     0
102
RTVSPropertyOp28
 70
     1
102
RTVSPropertyOp29
 70
     1
102
RTVSPropertyOp30
 70
     1
102
RTVSPropertyOp31
 70
     1
102
RTVSPropertyOp32
 70
     1
102
RTVSPropertyOp33
 70
     1
102
RTVSPropertyOp34
 70
     1
102
RTVSPropertyOp35
 70
     1
102
RTVSPropertyOp36
 70
     1
102
RTVSPropertyOp37
 70
     1
102
RTVSPropertyOp38
 70
     1
102
RTVSPropertyOp39
 70
     1
102
RTVSPropertyOp40
 70
     1
102
RTVSPropertyOp41
 70
     1
102
RTVSPropertyOp42
 70
     1
102
RTVSPropertyOp43
 70
     1
102
RTVSPropertyOp44
 70
     1
102
RTVSPropertyOp45
 70
     1
102
RTVSPropertyOp46
 70
     1
102
RTVSPropertyOp47
 70
     1
102
RTVSPropertyOp48
 70
     1
102
RTVSPropertyOp49
 70
     1
102
RTVSPropertyOp50
 70
     1
102
RTVSPropertyOp51
 70
     0
102
RTVSPropertyOp52
 70
     0
102
RTVSPropertyOp53
 70
     1
102
RTVSPropertyOp54
 70
     1
102
RTVSPropertyOp55
 70
     1
102
RTVSPropertyOp56
 70
     1
102
RTVSPropertyOp57
 70
     1
102
RTVSPropertyOp58
 70
     1
102
RTVSPropertyOp59
 70
     1
102
RTVSPropertyOp60
 70
     1
102
RTVSPropertyOp61
 70
     1
102
RTVSPropertyOp62
 70
     1
  0
XRECORD
  5
12A75
102
{ACAD_REACTORS
330
12A74
102
}
330
12A74
100
AcDbXrecord
280
     1
102
RTVSPost2010Prop28
280
     0
102
RTVSPost2010PropOp28
 70
     1
102
RTVSPost2010Prop29
280
     1
102
RTVSPost2010PropOp29
 70
     1
102
RTVSPost2010Prop30
280
     1
102
RTVSPost2010PropOp30
 70
     1
102
RTVSPost2010Prop31
280
     0
102
RTVSPost2010PropOp31
 70
     1
102
RTVSPost2010Prop32
280
     0
102
RTVSPost2010PropOp32
 70
     1
102
RTVSPost2010Prop33
280
     0
102
RTVSPost2010PropOp33
 70
     1
102
RTVSPost2010Prop34
280
     0
102
RTVSPost2010PropOp34
 70
     1
102
RTVSPost2010Prop35
280
     0
102
RTVSPost2010PropOp35
 70
     1
102
RTVSPost2010Prop36
280
     0
102
RTVSPost2010PropOp36
 70
     1
102
RTVSPost2010Prop37
 90
       50
102
RTVSPost2010PropOp37
 70
     1
102
RTVSPost2010Prop38
140
0.0
102
RTVSPost2010PropOp38
 70
     1
102
RTVSPost2010Prop39
140
1.0
102
RTVSPost2010PropOp39
 70
     1
102
RTVSPost2010Prop40
 90
        0
102
RTVSPost2010PropOp40
 70
     1
102
RTVSPost2010Prop41ColorIndex
 90
       18
102
RTVSPost2010Prop41ColorRGB
 90
        0
102
RTVSPost2010PropOp41
 70
     1
102
RTVSPost2010Prop42
 90
       50
102
RTVSPost2010PropOp42
 70
     1
102
RTVSPost2010Prop43
 90
        3
102
RTVSPost2010PropOp43
 70
     1
102
RTVSPost2010Prop44ColorIndex
 90
        5
102
RTVSPost2010Prop44ColorRGB
 90
      255
102
RTVSPost2010PropOp44
 70
     1
102
RTVSPost2010Prop45
280
     0
102
RTVSPost2010PropOp45
 70
     1
102
RTVSPost2010Prop46
 90
       50
102
RTVSPost2010PropOp46
 70
     1
102
RTVSPost2010Prop47
 90
       50
102
RTVSPost2010PropOp47
 70
     1
102
RTVSPost2010Prop48
 90
       50
102
RTVSPost2010PropOp48
 70
     1
102
RTVSPost2010Prop49
280
     0
102
RTVSPost2010PropOp49
 70
     1
102
RTVSPost2010Prop50
 90
       50
102
RTVSPost2010PropOp50
 70
     1
102
RTVSPost2010Prop51ColorIndex
 90
      256
102
RTVSPost2010Prop51ColorRGB
 90
-16777216
102
RTVSPost2010PropOp51
 70
     0
102
RTVSPost2010Prop52
140
1.0
102
RTVSPost2010PropOp52
 70
     0
102
RTVSPost2010Prop53
 90
        2
102
RTVSPost2010PropOp53
 70
     1
102
RTVSPost2010Prop54
  1
strokes_ogs.tif
102
RTVSPost2010PropOp54
 70
     1
102
RTVSPost2010Prop55
280
     0
102
RTVSPost2010PropOp55
 70
     1
102
RTVSPost2010Prop56
140
1.0
102
RTVSPost2010PropOp56
 70
     1
102
RTVSPost2010Prop57
140
1.0
102
RTVSPost2010PropOp57
 70
     1
102
RTVSPropertyOp0
 70
     1
102
RTVSPropertyOp1
 70
     1
102
RTVSPropertyOp2
 70
     1
102
RTVSPropertyOp3
 70
     1
102
RTVSPropertyOp4
 70
     1
102
RTVSPropertyOp5
 70
     1
102
RTVSPropertyOp6
 70
     1
102
RTVSPropertyOp7
 70
     1
102
RTVSPropertyOp8
 70
     1
102
RTVSPropertyOp9
 70
     1
102
RTVSPropertyOp10
 70
     1
102
RTVSPropertyOp11
 70
     1
102
RTVSPropertyOp12
 70
     1
102
RTVSPropertyOp13
 70
     1
102
RTVSPropertyOp14
 70
     1
102
RTVSPropertyOp15
 70
     1
102
RTVSPropertyOp16
 70
     1
102
RTVSPropertyOp17
 70
     1
102
RTVSPropertyOp18
 70
     1
102
RTVSPropertyOp19
 70
     1
102
RTVSPropertyOp20
 70
     1
102
RTVSPropertyOp21
 70
     1
102
RTVSPropertyOp22
 70
     1
102
RTVSPropertyOp23
 70
     1
102
RTVSPropertyOp24
 70
     1
102
RTVSPropertyOp25
 70
     1
102
RTVSPropertyOp26
 70
     1
102
RTVSPropertyOp27
 70
     1
102
RTVSPropertyOp28
 70
     1
102
RTVSPropertyOp29
 70
     1
102
RTVSPropertyOp30
 70
     1
102
RTVSPropertyOp31
 70
     1
102
RTVSPropertyOp32
 70
     1
102
RTVSPropertyOp33
 70
     1
102
RTVSPropertyOp34
 70
     1
102
RTVSPropertyOp35
 70
     1
102
RTVSPropertyOp36
 70
     1
102
RTVSPropertyOp37
 70
     1
102
RTVSPropertyOp38
 70
     1
102
RTVSPropertyOp39
 70
     1
102
RTVSPropertyOp40
 70
     1
102
RTVSPropertyOp41
 70
     1
102
RTVSPropertyOp42
 70
     1
102
RTVSPropertyOp43
 70
     1
102
RTVSPropertyOp44
 70
     1
102
RTVSPropertyOp45
 70
     1
102
RTVSPropertyOp46
 70
     1
102
RTVSPropertyOp47
 70
     1
102
RTVSPropertyOp48
 70
     1
102
RTVSPropertyOp49
 70
     1
102
RTVSPropertyOp50
 70
     1
102
RTVSPropertyOp51
 70
     0
102
RTVSPropertyOp52
 70
     0
102
RTVSPropertyOp53
 70
     1
102
RTVSPropertyOp54
 70
     1
102
RTVSPropertyOp55
 70
     1
102
RTVSPropertyOp56
 70
     1
102
RTVSPropertyOp57
 70
     1
102
RTVSPropertyOp58
 70
     1
102
RTVSPropertyOp59
 70
     1
102
RTVSPropertyOp60
 70
     1
102
RTVSPropertyOp61
 70
     1
102
RTVSPropertyOp62
 70
     1
  0
XRECORD
  5
12A59
102
{ACAD_REACTORS
330
12A58
102
}
330
12A58
100
AcDbXrecord
280
     1
102
RTVSPost2010Prop28
280
     0
102
RTVSPost2010PropOp28
 70
     1
102
RTVSPost2010Prop29
280
     1
102
RTVSPost2010PropOp29
 70
     1
102
RTVSPost2010Prop30
280
     1
102
RTVSPost2010PropOp30
 70
     1
102
RTVSPost2010Prop31
280
     0
102
RTVSPost2010PropOp31
 70
     1
102
RTVSPost2010Prop32
280
     0
102
RTVSPost2010PropOp32
 70
     1
102
RTVSPost2010Prop33
280
     0
102
RTVSPost2010PropOp33
 70
     1
102
RTVSPost2010Prop34
280
     0
102
RTVSPost2010PropOp34
 70
     1
102
RTVSPost2010Prop35
280
     0
102
RTVSPost2010PropOp35
 70
     1
102
RTVSPost2010Prop36
280
     0
102
RTVSPost2010PropOp36
 70
     1
102
RTVSPost2010Prop37
 90
       50
102
RTVSPost2010PropOp37
 70
     1
102
RTVSPost2010Prop38
140
0.0
102
RTVSPost2010PropOp38
 70
     1
102
RTVSPost2010Prop39
140
1.0
102
RTVSPost2010PropOp39
 70
     1
102
RTVSPost2010Prop40
 90
        0
102
RTVSPost2010PropOp40
 70
     1
102
RTVSPost2010Prop41ColorIndex
 90
       18
102
RTVSPost2010Prop41ColorRGB
 90
        0
102
RTVSPost2010PropOp41
 70
     1
102
RTVSPost2010Prop42
 90
       50
102
RTVSPost2010PropOp42
 70
     1
102
RTVSPost2010Prop43
 90
        3
102
RTVSPost2010PropOp43
 70
     1
102
RTVSPost2010Prop44ColorIndex
 90
        5
102
RTVSPost2010Prop44ColorRGB
 90
      255
102
RTVSPost2010PropOp44
 70
     1
102
RTVSPost2010Prop45
280
     0
102
RTVSPost2010PropOp45
 70
     1
102
RTVSPost2010Prop46
 90
       50
102
RTVSPost2010PropOp46
 70
     1
102
RTVSPost2010Prop47
 90
       50
102
RTVSPost2010PropOp47
 70
     1
102
RTVSPost2010Prop48
 90
       50
102
RTVSPost2010PropOp48
 70
     1
102
RTVSPost2010Prop49
280
     0
102
RTVSPost2010PropOp49
 70
     1
102
RTVSPost2010Prop50
 90
       50
102
RTVSPost2010PropOp50
 70
     1
102
RTVSPost2010Prop51ColorIndex
 90
      256
102
RTVSPost2010Prop51ColorRGB
 90
-16777216
102
RTVSPost2010PropOp51
 70
     0
102
RTVSPost2010Prop52
140
1.0
102
RTVSPost2010PropOp52
 70
     0
102
RTVSPost2010Prop53
 90
        2
102
RTVSPost2010PropOp53
 70
     1
102
RTVSPost2010Prop54
  1
strokes_ogs.tif
102
RTVSPost2010PropOp54
 70
     1
102
RTVSPost2010Prop55
280
     0
102
RTVSPost2010PropOp55
 70
     1
102
RTVSPost2010Prop56
140
1.0
102
RTVSPost2010PropOp56
 70
     1
102
RTVSPost2010Prop57
140
1.0
102
RTVSPost2010PropOp57
 70
     1
102
RTVSPropertyOp0
 70
     1
102
RTVSPropertyOp1
 70
     1
102
RTVSPropertyOp2
 70
     1
102
RTVSPropertyOp3
 70
     1
102
RTVSPropertyOp4
 70
     1
102
RTVSPropertyOp5
 70
     1
102
RTVSPropertyOp6
 70
     1
102
RTVSPropertyOp7
 70
     1
102
RTVSPropertyOp8
 70
     1
102
RTVSPropertyOp9
 70
     1
102
RTVSPropertyOp10
 70
     1
102
RTVSPropertyOp11
 70
     1
102
RTVSPropertyOp12
 70
     1
102
RTVSPropertyOp13
 70
     1
102
RTVSPropertyOp14
 70
     1
102
RTVSPropertyOp15
 70
     1
102
RTVSPropertyOp16
 70
     1
102
RTVSPropertyOp17
 70
     1
102
RTVSPropertyOp18
 70
     1
102
RTVSPropertyOp19
 70
     1
102
RTVSPropertyOp20
 70
     1
102
RTVSPropertyOp21
 70
     1
102
RTVSPropertyOp22
 70
     1
102
RTVSPropertyOp23
 70
     1
102
RTVSPropertyOp24
 70
     1
102
RTVSPropertyOp25
 70
     1
102
RTVSPropertyOp26
 70
     1
102
RTVSPropertyOp27
 70
     1
102
RTVSPropertyOp28
 70
     1
102
RTVSPropertyOp29
 70
     1
102
RTVSPropertyOp30
 70
     1
102
RTVSPropertyOp31
 70
     1
102
RTVSPropertyOp32
 70
     1
102
RTVSPropertyOp33
 70
     1
102
RTVSPropertyOp34
 70
     1
102
RTVSPropertyOp35
 70
     1
102
RTVSPropertyOp36
 70
     1
102
RTVSPropertyOp37
 70
     1
102
RTVSPropertyOp38
 70
     1
102
RTVSPropertyOp39
 70
     1
102
RTVSPropertyOp40
 70
     1
102
RTVSPropertyOp41
 70
     1
102
RTVSPropertyOp42
 70
     1
102
RTVSPropertyOp43
 70
     1
102
RTVSPropertyOp44
 70
     1
102
RTVSPropertyOp45
 70
     1
102
RTVSPropertyOp46
 70
     1
102
RTVSPropertyOp47
 70
     1
102
RTVSPropertyOp48
 70
     1
102
RTVSPropertyOp49
 70
     1
102
RTVSPropertyOp50
 70
     1
102
RTVSPropertyOp51
 70
     0
102
RTVSPropertyOp52
 70
     0
102
RTVSPropertyOp53
 70
     1
102
RTVSPropertyOp54
 70
     1
102
RTVSPropertyOp55
 70
     1
102
RTVSPropertyOp56
 70
     1
102
RTVSPropertyOp57
 70
     1
102
RTVSPropertyOp58
 70
     1
102
RTVSPropertyOp59
 70
     1
102
RTVSPropertyOp60
 70
     1
102
RTVSPropertyOp61
 70
     1
102
RTVSPropertyOp62
 70
     1
  0
XRECORD
  5
12A5B
102
{ACAD_REACTORS
330
12A5A
102
}
330
12A5A
100
AcDbXrecord
280
     1
102
RTVSPost2010Prop28
280
     0
102
RTVSPost2010PropOp28
 70
     1
102
RTVSPost2010Prop29
280
     1
102
RTVSPost2010PropOp29
 70
     1
102
RTVSPost2010Prop30
280
     1
102
RTVSPost2010PropOp30
 70
     1
102
RTVSPost2010Prop31
280
     0
102
RTVSPost2010PropOp31
 70
     1
102
RTVSPost2010Prop32
280
     0
102
RTVSPost2010PropOp32
 70
     1
102
RTVSPost2010Prop33
280
     0
102
RTVSPost2010PropOp33
 70
     1
102
RTVSPost2010Prop34
280
     0
102
RTVSPost2010PropOp34
 70
     1
102
RTVSPost2010Prop35
280
     0
102
RTVSPost2010PropOp35
 70
     1
102
RTVSPost2010Prop36
280
     0
102
RTVSPost2010PropOp36
 70
     1
102
RTVSPost2010Prop37
 90
       50
102
RTVSPost2010PropOp37
 70
     1
102
RTVSPost2010Prop38
140
0.0
102
RTVSPost2010PropOp38
 70
     1
102
RTVSPost2010Prop39
140
1.0
102
RTVSPost2010PropOp39
 70
     1
102
RTVSPost2010Prop40
 90
        0
102
RTVSPost2010PropOp40
 70
     1
102
RTVSPost2010Prop41ColorIndex
 90
       18
102
RTVSPost2010Prop41ColorRGB
 90
        0
102
RTVSPost2010PropOp41
 70
     1
102
RTVSPost2010Prop42
 90
       50
102
RTVSPost2010PropOp42
 70
     1
102
RTVSPost2010Prop43
 90
        3
102
RTVSPost2010PropOp43
 70
     1
102
RTVSPost2010Prop44ColorIndex
 90
        5
102
RTVSPost2010Prop44ColorRGB
 90
      255
102
RTVSPost2010PropOp44
 70
     1
102
RTVSPost2010Prop45
280
     0
102
RTVSPost2010PropOp45
 70
     1
102
RTVSPost2010Prop46
 90
       50
102
RTVSPost2010PropOp46
 70
     1
102
RTVSPost2010Prop47
 90
       50
102
RTVSPost2010PropOp47
 70
     1
102
RTVSPost2010Prop48
 90
       50
102
RTVSPost2010PropOp48
 70
     1
102
RTVSPost2010Prop49
280
     0
102
RTVSPost2010PropOp49
 70
     1
102
RTVSPost2010Prop50
 90
       50
102
RTVSPost2010PropOp50
 70
     1
102
RTVSPost2010Prop51ColorIndex
 90
      256
102
RTVSPost2010Prop51ColorRGB
 90
-16777216
102
RTVSPost2010PropOp51
 70
     0
102
RTVSPost2010Prop52
140
1.0
102
RTVSPost2010PropOp52
 70
     0
102
RTVSPost2010Prop53
 90
        2
102
RTVSPost2010PropOp53
 70
     1
102
RTVSPost2010Prop54
  1
strokes_ogs.tif
102
RTVSPost2010PropOp54
 70
     1
102
RTVSPost2010Prop55
280
     0
102
RTVSPost2010PropOp55
 70
     1
102
RTVSPost2010Prop56
140
1.0
102
RTVSPost2010PropOp56
 70
     1
102
RTVSPost2010Prop57
140
1.0
102
RTVSPost2010PropOp57
 70
     1
102
RTVSPropertyOp0
 70
     1
102
RTVSPropertyOp1
 70
     1
102
RTVSPropertyOp2
 70
     1
102
RTVSPropertyOp3
 70
     1
102
RTVSPropertyOp4
 70
     1
102
RTVSPropertyOp5
 70
     1
102
RTVSPropertyOp6
 70
     1
102
RTVSPropertyOp7
 70
     1
102
RTVSPropertyOp8
 70
     1
102
RTVSPropertyOp9
 70
     1
102
RTVSPropertyOp10
 70
     1
102
RTVSPropertyOp11
 70
     1
102
RTVSPropertyOp12
 70
     1
102
RTVSPropertyOp13
 70
     1
102
RTVSPropertyOp14
 70
     1
102
RTVSPropertyOp15
 70
     1
102
RTVSPropertyOp16
 70
     1
102
RTVSPropertyOp17
 70
     1
102
RTVSPropertyOp18
 70
     1
102
RTVSPropertyOp19
 70
     1
102
RTVSPropertyOp20
 70
     1
102
RTVSPropertyOp21
 70
     1
102
RTVSPropertyOp22
 70
     1
102
RTVSPropertyOp23
 70
     1
102
RTVSPropertyOp24
 70
     1
102
RTVSPropertyOp25
 70
     1
102
RTVSPropertyOp26
 70
     1
102
RTVSPropertyOp27
 70
     1
102
RTVSPropertyOp28
 70
     1
102
RTVSPropertyOp29
 70
     1
102
RTVSPropertyOp30
 70
     1
102
RTVSPropertyOp31
 70
     1
102
RTVSPropertyOp32
 70
     1
102
RTVSPropertyOp33
 70
     1
102
RTVSPropertyOp34
 70
     1
102
RTVSPropertyOp35
 70
     1
102
RTVSPropertyOp36
 70
     1
102
RTVSPropertyOp37
 70
     1
102
RTVSPropertyOp38
 70
     1
102
RTVSPropertyOp39
 70
     1
102
RTVSPropertyOp40
 70
     1
102
RTVSPropertyOp41
 70
     1
102
RTVSPropertyOp42
 70
     1
102
RTVSPropertyOp43
 70
     1
102
RTVSPropertyOp44
 70
     1
102
RTVSPropertyOp45
 70
     1
102
RTVSPropertyOp46
 70
     1
102
RTVSPropertyOp47
 70
     1
102
RTVSPropertyOp48
 70
     1
102
RTVSPropertyOp49
 70
     1
102
RTVSPropertyOp50
 70
     1
102
RTVSPropertyOp51
 70
     0
102
RTVSPropertyOp52
 70
     0
102
RTVSPropertyOp53
 70
     1
102
RTVSPropertyOp54
 70
     1
102
RTVSPropertyOp55
 70
     1
102
RTVSPropertyOp56
 70
     1
102
RTVSPropertyOp57
 70
     1
102
RTVSPropertyOp58
 70
     1
102
RTVSPropertyOp59
 70
     1
102
RTVSPropertyOp60
 70
     1
102
RTVSPropertyOp61
 70
     1
102
RTVSPropertyOp62
 70
     1
  0
XRECORD
  5
12A5D
102
{ACAD_REACTORS
330
12A5C
102
}
330
12A5C
100
AcDbXrecord
280
     1
102
RTVSPost2010Prop28
280
     0
102
RTVSPost2010PropOp28
 70
     1
102
RTVSPost2010Prop29
280
     1
102
RTVSPost2010PropOp29
 70
     1
102
RTVSPost2010Prop30
280
     1
102
RTVSPost2010PropOp30
 70
     1
102
RTVSPost2010Prop31
280
     0
102
RTVSPost2010PropOp31
 70
     1
102
RTVSPost2010Prop32
280
     0
102
RTVSPost2010PropOp32
 70
     1
102
RTVSPost2010Prop33
280
     0
102
RTVSPost2010PropOp33
 70
     1
102
RTVSPost2010Prop34
280
     0
102
RTVSPost2010PropOp34
 70
     1
102
RTVSPost2010Prop35
280
     0
102
RTVSPost2010PropOp35
 70
     1
102
RTVSPost2010Prop36
280
     0
102
RTVSPost2010PropOp36
 70
     1
102
RTVSPost2010Prop37
 90
       50
102
RTVSPost2010PropOp37
 70
     1
102
RTVSPost2010Prop38
140
0.0
102
RTVSPost2010PropOp38
 70
     1
102
RTVSPost2010Prop39
140
1.0
102
RTVSPost2010PropOp39
 70
     1
102
RTVSPost2010Prop40
 90
        0
102
RTVSPost2010PropOp40
 70
     1
102
RTVSPost2010Prop41ColorIndex
 90
       18
102
RTVSPost2010Prop41ColorRGB
 90
        0
102
RTVSPost2010PropOp41
 70
     1
102
RTVSPost2010Prop42
 90
       50
102
RTVSPost2010PropOp42
 70
     1
102
RTVSPost2010Prop43
 90
        3
102
RTVSPost2010PropOp43
 70
     1
102
RTVSPost2010Prop44ColorIndex
 90
        5
102
RTVSPost2010Prop44ColorRGB
 90
      255
102
RTVSPost2010PropOp44
 70
     1
102
RTVSPost2010Prop45
280
     0
102
RTVSPost2010PropOp45
 70
     1
102
RTVSPost2010Prop46
 90
       50
102
RTVSPost2010PropOp46
 70
     1
102
RTVSPost2010Prop47
 90
       50
102
RTVSPost2010PropOp47
 70
     1
102
RTVSPost2010Prop48
 90
       50
102
RTVSPost2010PropOp48
 70
     1
102
RTVSPost2010Prop49
280
     0
102
RTVSPost2010PropOp49
 70
     1
102
RTVSPost2010Prop50
 90
       50
102
RTVSPost2010PropOp50
 70
     1
102
RTVSPost2010Prop51ColorIndex
 90
      256
102
RTVSPost2010Prop51ColorRGB
 90
-16777216
102
RTVSPost2010PropOp51
 70
     0
102
RTVSPost2010Prop52
140
1.0
102
RTVSPost2010PropOp52
 70
     0
102
RTVSPost2010Prop53
 90
        2
102
RTVSPost2010PropOp53
 70
     1
102
RTVSPost2010Prop54
  1
strokes_ogs.tif
102
RTVSPost2010PropOp54
 70
     1
102
RTVSPost2010Prop55
280
     0
102
RTVSPost2010PropOp55
 70
     1
102
RTVSPost2010Prop56
140
1.0
102
RTVSPost2010PropOp56
 70
     1
102
RTVSPost2010Prop57
140
1.0
102
RTVSPost2010PropOp57
 70
     1
102
RTVSPropertyOp0
 70
     1
102
RTVSPropertyOp1
 70
     1
102
RTVSPropertyOp2
 70
     1
102
RTVSPropertyOp3
 70
     1
102
RTVSPropertyOp4
 70
     1
102
RTVSPropertyOp5
 70
     1
102
RTVSPropertyOp6
 70
     1
102
RTVSPropertyOp7
 70
     1
102
RTVSPropertyOp8
 70
     1
102
RTVSPropertyOp9
 70
     1
102
RTVSPropertyOp10
 70
     1
102
RTVSPropertyOp11
 70
     1
102
RTVSPropertyOp12
 70
     1
102
RTVSPropertyOp13
 70
     1
102
RTVSPropertyOp14
 70
     1
102
RTVSPropertyOp15
 70
     1
102
RTVSPropertyOp16
 70
     1
102
RTVSPropertyOp17
 70
     1
102
RTVSPropertyOp18
 70
     1
102
RTVSPropertyOp19
 70
     1
102
RTVSPropertyOp20
 70
     1
102
RTVSPropertyOp21
 70
     1
102
RTVSPropertyOp22
 70
     1
102
RTVSPropertyOp23
 70
     1
102
RTVSPropertyOp24
 70
     1
102
RTVSPropertyOp25
 70
     1
102
RTVSPropertyOp26
 70
     1
102
RTVSPropertyOp27
 70
     1
102
RTVSPropertyOp28
 70
     1
102
RTVSPropertyOp29
 70
     1
102
RTVSPropertyOp30
 70
     1
102
RTVSPropertyOp31
 70
     1
102
RTVSPropertyOp32
 70
     1
102
RTVSPropertyOp33
 70
     1
102
RTVSPropertyOp34
 70
     1
102
RTVSPropertyOp35
 70
     1
102
RTVSPropertyOp36
 70
     1
102
RTVSPropertyOp37
 70
     1
102
RTVSPropertyOp38
 70
     1
102
RTVSPropertyOp39
 70
     1
102
RTVSPropertyOp40
 70
     1
102
RTVSPropertyOp41
 70
     1
102
RTVSPropertyOp42
 70
     1
102
RTVSPropertyOp43
 70
     1
102
RTVSPropertyOp44
 70
     1
102
RTVSPropertyOp45
 70
     1
102
RTVSPropertyOp46
 70
     1
102
RTVSPropertyOp47
 70
     1
102
RTVSPropertyOp48
 70
     1
102
RTVSPropertyOp49
 70
     1
102
RTVSPropertyOp50
 70
     1
102
RTVSPropertyOp51
 70
     0
102
RTVSPropertyOp52
 70
     0
102
RTVSPropertyOp53
 70
     1
102
RTVSPropertyOp54
 70
     1
102
RTVSPropertyOp55
 70
     1
102
RTVSPropertyOp56
 70
     1
102
RTVSPropertyOp57
 70
     1
102
RTVSPropertyOp58
 70
     1
102
RTVSPropertyOp59
 70
     1
102
RTVSPropertyOp60
 70
     1
102
RTVSPropertyOp61
 70
     1
102
RTVSPropertyOp62
 70
     1
  0
XRECORD
  5
12A5F
102
{ACAD_REACTORS
330
12A5E
102
}
330
12A5E
100
AcDbXrecord
280
     1
102
RTVSPost2010Prop28
280
     0
102
RTVSPost2010PropOp28
 70
     1
102
RTVSPost2010Prop29
280
     1
102
RTVSPost2010PropOp29
 70
     1
102
RTVSPost2010Prop30
280
     1
102
RTVSPost2010PropOp30
 70
     1
102
RTVSPost2010Prop31
280
     0
102
RTVSPost2010PropOp31
 70
     1
102
RTVSPost2010Prop32
280
     0
102
RTVSPost2010PropOp32
 70
     1
102
RTVSPost2010Prop33
280
     0
102
RTVSPost2010PropOp33
 70
     1
102
RTVSPost2010Prop34
280
     0
102
RTVSPost2010PropOp34
 70
     1
102
RTVSPost2010Prop35
280
     0
102
RTVSPost2010PropOp35
 70
     1
102
RTVSPost2010Prop36
280
     0
102
RTVSPost2010PropOp36
 70
     1
102
RTVSPost2010Prop37
 90
       50
102
RTVSPost2010PropOp37
 70
     1
102
RTVSPost2010Prop38
140
0.0
102
RTVSPost2010PropOp38
 70
     1
102
RTVSPost2010Prop39
140
1.0
102
RTVSPost2010PropOp39
 70
     1
102
RTVSPost2010Prop40
 90
        0
102
RTVSPost2010PropOp40
 70
     1
102
RTVSPost2010Prop41ColorIndex
 90
       18
102
RTVSPost2010Prop41ColorRGB
 90
        0
102
RTVSPost2010PropOp41
 70
     1
102
RTVSPost2010Prop42
 90
       50
102
RTVSPost2010PropOp42
 70
     1
102
RTVSPost2010Prop43
 90
        3
102
RTVSPost2010PropOp43
 70
     1
102
RTVSPost2010Prop44ColorIndex
 90
        5
102
RTVSPost2010Prop44ColorRGB
 90
      255
102
RTVSPost2010PropOp44
 70
     1
102
RTVSPost2010Prop45
280
     0
102
RTVSPost2010PropOp45
 70
     1
102
RTVSPost2010Prop46
 90
       50
102
RTVSPost2010PropOp46
 70
     1
102
RTVSPost2010Prop47
 90
       50
102
RTVSPost2010PropOp47
 70
     1
102
RTVSPost2010Prop48
 90
       50
102
RTVSPost2010PropOp48
 70
     1
102
RTVSPost2010Prop49
280
     0
102
RTVSPost2010PropOp49
 70
     1
102
RTVSPost2010Prop50
 90
       50
102
RTVSPost2010PropOp50
 70
     1
102
RTVSPost2010Prop51ColorIndex
 90
      256
102
RTVSPost2010Prop51ColorRGB
 90
-16777216
102
RTVSPost2010PropOp51
 70
     0
102
RTVSPost2010Prop52
140
1.0
102
RTVSPost2010PropOp52
 70
     0
102
RTVSPost2010Prop53
 90
        2
102
RTVSPost2010PropOp53
 70
     1
102
RTVSPost2010Prop54
  1
strokes_ogs.tif
102
RTVSPost2010PropOp54
 70
     1
102
RTVSPost2010Prop55
280
     0
102
RTVSPost2010PropOp55
 70
     1
102
RTVSPost2010Prop56
140
1.0
102
RTVSPost2010PropOp56
 70
     1
102
RTVSPost2010Prop57
140
1.0
102
RTVSPost2010PropOp57
 70
     1
102
RTVSPropertyOp0
 70
     1
102
RTVSPropertyOp1
 70
     1
102
RTVSPropertyOp2
 70
     1
102
RTVSPropertyOp3
 70
     1
102
RTVSPropertyOp4
 70
     1
102
RTVSPropertyOp5
 70
     1
102
RTVSPropertyOp6
 70
     1
102
RTVSPropertyOp7
 70
     1
102
RTVSPropertyOp8
 70
     1
102
RTVSPropertyOp9
 70
     1
102
RTVSPropertyOp10
 70
     1
102
RTVSPropertyOp11
 70
     1
102
RTVSPropertyOp12
 70
     1
102
RTVSPropertyOp13
 70
     1
102
RTVSPropertyOp14
 70
     1
102
RTVSPropertyOp15
 70
     1
102
RTVSPropertyOp16
 70
     1
102
RTVSPropertyOp17
 70
     1
102
RTVSPropertyOp18
 70
     1
102
RTVSPropertyOp19
 70
     1
102
RTVSPropertyOp20
 70
     1
102
RTVSPropertyOp21
 70
     1
102
RTVSPropertyOp22
 70
     1
102
RTVSPropertyOp23
 70
     1
102
RTVSPropertyOp24
 70
     1
102
RTVSPropertyOp25
 70
     1
102
RTVSPropertyOp26
 70
     1
102
RTVSPropertyOp27
 70
     1
102
RTVSPropertyOp28
 70
     1
102
RTVSPropertyOp29
 70
     1
102
RTVSPropertyOp30
 70
     1
102
RTVSPropertyOp31
 70
     1
102
RTVSPropertyOp32
 70
     1
102
RTVSPropertyOp33
 70
     1
102
RTVSPropertyOp34
 70
     1
102
RTVSPropertyOp35
 70
     1
102
RTVSPropertyOp36
 70
     1
102
RTVSPropertyOp37
 70
     1
102
RTVSPropertyOp38
 70
     1
102
RTVSPropertyOp39
 70
     1
102
RTVSPropertyOp40
 70
     1
102
RTVSPropertyOp41
 70
     1
102
RTVSPropertyOp42
 70
     1
102
RTVSPropertyOp43
 70
     1
102
RTVSPropertyOp44
 70
     1
102
RTVSPropertyOp45
 70
     1
102
RTVSPropertyOp46
 70
     1
102
RTVSPropertyOp47
 70
     1
102
RTVSPropertyOp48
 70
     1
102
RTVSPropertyOp49
 70
     1
102
RTVSPropertyOp50
 70
     1
102
RTVSPropertyOp51
 70
     0
102
RTVSPropertyOp52
 70
     0
102
RTVSPropertyOp53
 70
     1
102
RTVSPropertyOp54
 70
     1
102
RTVSPropertyOp55
 70
     1
102
RTVSPropertyOp56
 70
     1
102
RTVSPropertyOp57
 70
     1
102
RTVSPropertyOp58
 70
     1
102
RTVSPropertyOp59
 70
     1
102
RTVSPropertyOp60
 70
     1
102
RTVSPropertyOp61
 70
     1
102
RTVSPropertyOp62
 70
     1
  0
XRECORD
  5
12A82
102
{ACAD_REACTORS
330
12A81
102
}
330
12A81
100
AcDbXrecord
280
     1
102
RTVSPost2010Prop28
280
     0
102
RTVSPost2010PropOp28
 70
     1
102
RTVSPost2010Prop29
280
     1
102
RTVSPost2010PropOp29
 70
     1
102
RTVSPost2010Prop30
280
     1
102
RTVSPost2010PropOp30
 70
     1
102
RTVSPost2010Prop31
280
     0
102
RTVSPost2010PropOp31
 70
     1
102
RTVSPost2010Prop32
280
     0
102
RTVSPost2010PropOp32
 70
     1
102
RTVSPost2010Prop33
280
     0
102
RTVSPost2010PropOp33
 70
     1
102
RTVSPost2010Prop34
280
     0
102
RTVSPost2010PropOp34
 70
     1
102
RTVSPost2010Prop35
280
     0
102
RTVSPost2010PropOp35
 70
     1
102
RTVSPost2010Prop36
280
     0
102
RTVSPost2010PropOp36
 70
     1
102
RTVSPost2010Prop37
 90
       50
102
RTVSPost2010PropOp37
 70
     1
102
RTVSPost2010Prop38
140
0.0
102
RTVSPost2010PropOp38
 70
     1
102
RTVSPost2010Prop39
140
1.0
102
RTVSPost2010PropOp39
 70
     1
102
RTVSPost2010Prop40
 90
        0
102
RTVSPost2010PropOp40
 70
     1
102
RTVSPost2010Prop41ColorIndex
 90
       18
102
RTVSPost2010Prop41ColorRGB
 90
        0
102
RTVSPost2010PropOp41
 70
     1
102
RTVSPost2010Prop42
 90
       50
102
RTVSPost2010PropOp42
 70
     1
102
RTVSPost2010Prop43
 90
        3
102
RTVSPost2010PropOp43
 70
     1
102
RTVSPost2010Prop44ColorIndex
 90
        5
102
RTVSPost2010Prop44ColorRGB
 90
      255
102
RTVSPost2010PropOp44
 70
     1
102
RTVSPost2010Prop45
280
     0
102
RTVSPost2010PropOp45
 70
     1
102
RTVSPost2010Prop46
 90
       50
102
RTVSPost2010PropOp46
 70
     1
102
RTVSPost2010Prop47
 90
       50
102
RTVSPost2010PropOp47
 70
     1
102
RTVSPost2010Prop48
 90
       50
102
RTVSPost2010PropOp48
 70
     1
102
RTVSPost2010Prop49
280
     0
102
RTVSPost2010PropOp49
 70
     1
102
RTVSPost2010Prop50
 90
       50
102
RTVSPost2010PropOp50
 70
     1
102
RTVSPost2010Prop51ColorIndex
 90
      256
102
RTVSPost2010Prop51ColorRGB
 90
-16777216
102
RTVSPost2010PropOp51
 70
     0
102
RTVSPost2010Prop52
140
1.0
102
RTVSPost2010PropOp52
 70
     0
102
RTVSPost2010Prop53
 90
        2
102
RTVSPost2010PropOp53
 70
     1
102
RTVSPost2010Prop54
  1
strokes_ogs.tif
102
RTVSPost2010PropOp54
 70
     1
102
RTVSPost2010Prop55
280
     0
102
RTVSPost2010PropOp55
 70
     1
102
RTVSPost2010Prop56
140
1.0
102
RTVSPost2010PropOp56
 70
     1
102
RTVSPost2010Prop57
140
1.0
102
RTVSPost2010PropOp57
 70
     1
102
RTVSPropertyOp0
 70
     1
102
RTVSPropertyOp1
 70
     1
102
RTVSPropertyOp2
 70
     1
102
RTVSPropertyOp3
 70
     1
102
RTVSPropertyOp4
 70
     1
102
RTVSPropertyOp5
 70
     1
102
RTVSPropertyOp6
 70
     1
102
RTVSPropertyOp7
 70
     1
102
RTVSPropertyOp8
 70
     1
102
RTVSPropertyOp9
 70
     1
102
RTVSPropertyOp10
 70
     1
102
RTVSPropertyOp11
 70
     1
102
RTVSPropertyOp12
 70
     1
102
RTVSPropertyOp13
 70
     1
102
RTVSPropertyOp14
 70
     1
102
RTVSPropertyOp15
 70
     1
102
RTVSPropertyOp16
 70
     1
102
RTVSPropertyOp17
 70
     1
102
RTVSPropertyOp18
 70
     1
102
RTVSPropertyOp19
 70
     1
102
RTVSPropertyOp20
 70
     1
102
RTVSPropertyOp21
 70
     1
102
RTVSPropertyOp22
 70
     1
102
RTVSPropertyOp23
 70
     1
102
RTVSPropertyOp24
 70
     1
102
RTVSPropertyOp25
 70
     1
102
RTVSPropertyOp26
 70
     1
102
RTVSPropertyOp27
 70
     1
102
RTVSPropertyOp28
 70
     1
102
RTVSPropertyOp29
 70
     1
102
RTVSPropertyOp30
 70
     1
102
RTVSPropertyOp31
 70
     1
102
RTVSPropertyOp32
 70
     1
102
RTVSPropertyOp33
 70
     1
102
RTVSPropertyOp34
 70
     1
102
RTVSPropertyOp35
 70
     1
102
RTVSPropertyOp36
 70
     1
102
RTVSPropertyOp37
 70
     1
102
RTVSPropertyOp38
 70
     1
102
RTVSPropertyOp39
 70
     1
102
RTVSPropertyOp40
 70
     1
102
RTVSPropertyOp41
 70
     1
102
RTVSPropertyOp42
 70
     1
102
RTVSPropertyOp43
 70
     1
102
RTVSPropertyOp44
 70
     1
102
RTVSPropertyOp45
 70
     1
102
RTVSPropertyOp46
 70
     1
102
RTVSPropertyOp47
 70
     1
102
RTVSPropertyOp48
 70
     1
102
RTVSPropertyOp49
 70
     1
102
RTVSPropertyOp50
 70
     1
102
RTVSPropertyOp51
 70
     0
102
RTVSPropertyOp52
 70
     0
102
RTVSPropertyOp53
 70
     1
102
RTVSPropertyOp54
 70
     1
102
RTVSPropertyOp55
 70
     1
102
RTVSPropertyOp56
 70
     1
102
RTVSPropertyOp57
 70
     1
102
RTVSPropertyOp58
 70
     1
102
RTVSPropertyOp59
 70
     1
102
RTVSPropertyOp60
 70
     1
102
RTVSPropertyOp61
 70
     1
102
RTVSPropertyOp62
 70
     1
  0
XRECORD
  5
12A79
102
{ACAD_REACTORS
330
12A78
102
}
330
12A78
100
AcDbXrecord
280
     1
102
RTVSPost2010Prop28
280
     0
102
RTVSPost2010PropOp28
 70
     1
102
RTVSPost2010Prop29
280
     1
102
RTVSPost2010PropOp29
 70
     1
102
RTVSPost2010Prop30
280
     1
102
RTVSPost2010PropOp30
 70
     1
102
RTVSPost2010Prop31
280
     0
102
RTVSPost2010PropOp31
 70
     1
102
RTVSPost2010Prop32
280
     0
102
RTVSPost2010PropOp32
 70
     1
102
RTVSPost2010Prop33
280
     0
102
RTVSPost2010PropOp33
 70
     1
102
RTVSPost2010Prop34
280
     0
102
RTVSPost2010PropOp34
 70
     1
102
RTVSPost2010Prop35
280
     0
102
RTVSPost2010PropOp35
 70
     1
102
RTVSPost2010Prop36
280
     0
102
RTVSPost2010PropOp36
 70
     1
102
RTVSPost2010Prop37
 90
       50
102
RTVSPost2010PropOp37
 70
     1
102
RTVSPost2010Prop38
140
0.0
102
RTVSPost2010PropOp38
 70
     1
102
RTVSPost2010Prop39
140
1.0
102
RTVSPost2010PropOp39
 70
     1
102
RTVSPost2010Prop40
 90
        0
102
RTVSPost2010PropOp40
 70
     1
102
RTVSPost2010Prop41ColorIndex
 90
       18
102
RTVSPost2010Prop41ColorRGB
 90
        0
102
RTVSPost2010PropOp41
 70
     1
102
RTVSPost2010Prop42
 90
       50
102
RTVSPost2010PropOp42
 70
     1
102
RTVSPost2010Prop43
 90
        3
102
RTVSPost2010PropOp43
 70
     1
102
RTVSPost2010Prop44ColorIndex
 90
        5
102
RTVSPost2010Prop44ColorRGB
 90
      255
102
RTVSPost2010PropOp44
 70
     1
102
RTVSPost2010Prop45
280
     0
102
RTVSPost2010PropOp45
 70
     1
102
RTVSPost2010Prop46
 90
       50
102
RTVSPost2010PropOp46
 70
     1
102
RTVSPost2010Prop47
 90
       50
102
RTVSPost2010PropOp47
 70
     1
102
RTVSPost2010Prop48
 90
       50
102
RTVSPost2010PropOp48
 70
     1
102
RTVSPost2010Prop49
280
     0
102
RTVSPost2010PropOp49
 70
     1
102
RTVSPost2010Prop50
 90
       50
102
RTVSPost2010PropOp50
 70
     1
102
RTVSPost2010Prop51ColorIndex
 90
      256
102
RTVSPost2010Prop51ColorRGB
 90
-16777216
102
RTVSPost2010PropOp51
 70
     0
102
RTVSPost2010Prop52
140
1.0
102
RTVSPost2010PropOp52
 70
     0
102
RTVSPost2010Prop53
 90
        2
102
RTVSPost2010PropOp53
 70
     1
102
RTVSPost2010Prop54
  1
strokes_ogs.tif
102
RTVSPost2010PropOp54
 70
     1
102
RTVSPost2010Prop55
280
     0
102
RTVSPost2010PropOp55
 70
     1
102
RTVSPost2010Prop56
140
1.0
102
RTVSPost2010PropOp56
 70
     1
102
RTVSPost2010Prop57
140
1.0
102
RTVSPost2010PropOp57
 70
     1
102
RTVSPropertyOp0
 70
     0
102
RTVSPropertyOp1
 70
     0
102
RTVSPropertyOp2
 70
     0
102
RTVSPropertyOp3
 70
     0
102
RTVSPropertyOp4
 70
     0
102
RTVSPropertyOp5
 70
     0
102
RTVSPropertyOp6
 70
     0
102
RTVSPropertyOp7
 70
     0
102
RTVSPropertyOp8
 70
     0
102
RTVSPropertyOp9
 70
     0
102
RTVSPropertyOp10
 70
     0
102
RTVSPropertyOp11
 70
     0
102
RTVSPropertyOp12
 70
     0
102
RTVSPropertyOp13
 70
     0
102
RTVSPropertyOp14
 70
     2
102
RTVSPropertyOp15
 70
     0
102
RTVSPropertyOp16
 70
     0
102
RTVSPropertyOp17
 70
     0
102
RTVSPropertyOp18
 70
     0
102
RTVSPropertyOp19
 70
     0
102
RTVSPropertyOp20
 70
     0
102
RTVSPropertyOp21
 70
     0
102
RTVSPropertyOp22
 70
     0
102
RTVSPropertyOp23
 70
     0
102
RTVSPropertyOp24
 70
     0
102
RTVSPropertyOp25
 70
     0
102
RTVSPropertyOp26
 70
     0
102
RTVSPropertyOp27
 70
     0
102
RTVSPropertyOp28
 70
     1
102
RTVSPropertyOp29
 70
     1
102
RTVSPropertyOp30
 70
     1
102
RTVSPropertyOp31
 70
     1
102
RTVSPropertyOp32
 70
     1
102
RTVSPropertyOp33
 70
     1
102
RTVSPropertyOp34
 70
     1
102
RTVSPropertyOp35
 70
     1
102
RTVSPropertyOp36
 70
     1
102
RTVSPropertyOp37
 70
     1
102
RTVSPropertyOp38
 70
     1
102
RTVSPropertyOp39
 70
     1
102
RTVSPropertyOp40
 70
     1
102
RTVSPropertyOp41
 70
     1
102
RTVSPropertyOp42
 70
     1
102
RTVSPropertyOp43
 70
     1
102
RTVSPropertyOp44
 70
     1
102
RTVSPropertyOp45
 70
     1
102
RTVSPropertyOp46
 70
     1
102
RTVSPropertyOp47
 70
     1
102
RTVSPropertyOp48
 70
     1
102
RTVSPropertyOp49
 70
     1
102
RTVSPropertyOp50
 70
     1
102
RTVSPropertyOp51
 70
     0
102
RTVSPropertyOp52
 70
     0
102
RTVSPropertyOp53
 70
     1
102
RTVSPropertyOp54
 70
     1
102
RTVSPropertyOp55
 70
     1
102
RTVSPropertyOp56
 70
     1
102
RTVSPropertyOp57
 70
     1
102
RTVSPropertyOp58
 70
     1
102
RTVSPropertyOp59
 70
     1
102
RTVSPropertyOp60
 70
     1
102
RTVSPropertyOp61
 70
     1
102
RTVSPropertyOp62
 70
     1
  0
XRECORD
  5
12A73
102
{ACAD_REACTORS
330
12A72
102
}
330
12A72
100
AcDbXrecord
280
     1
102
RTVSPost2010Prop28
280
     0
102
RTVSPost2010PropOp28
 70
     1
102
RTVSPost2010Prop29
280
     1
102
RTVSPost2010PropOp29
 70
     1
102
RTVSPost2010Prop30
280
     1
102
RTVSPost2010PropOp30
 70
     1
102
RTVSPost2010Prop31
280
     0
102
RTVSPost2010PropOp31
 70
     1
102
RTVSPost2010Prop32
280
     0
102
RTVSPost2010PropOp32
 70
     1
102
RTVSPost2010Prop33
280
     0
102
RTVSPost2010PropOp33
 70
     1
102
RTVSPost2010Prop34
280
     0
102
RTVSPost2010PropOp34
 70
     1
102
RTVSPost2010Prop35
280
     0
102
RTVSPost2010PropOp35
 70
     1
102
RTVSPost2010Prop36
280
     0
102
RTVSPost2010PropOp36
 70
     1
102
RTVSPost2010Prop37
 90
       50
102
RTVSPost2010PropOp37
 70
     1
102
RTVSPost2010Prop38
140
0.0
102
RTVSPost2010PropOp38
 70
     1
102
RTVSPost2010Prop39
140
1.0
102
RTVSPost2010PropOp39
 70
     1
102
RTVSPost2010Prop40
 90
        0
102
RTVSPost2010PropOp40
 70
     1
102
RTVSPost2010Prop41ColorIndex
 90
       18
102
RTVSPost2010Prop41ColorRGB
 90
        0
102
RTVSPost2010PropOp41
 70
     1
102
RTVSPost2010Prop42
 90
       50
102
RTVSPost2010PropOp42
 70
     1
102
RTVSPost2010Prop43
 90
        3
102
RTVSPost2010PropOp43
 70
     1
102
RTVSPost2010Prop44ColorIndex
 90
        5
102
RTVSPost2010Prop44ColorRGB
 90
      255
102
RTVSPost2010PropOp44
 70
     1
102
RTVSPost2010Prop45
280
     0
102
RTVSPost2010PropOp45
 70
     1
102
RTVSPost2010Prop46
 90
       50
102
RTVSPost2010PropOp46
 70
     1
102
RTVSPost2010Prop47
 90
       50
102
RTVSPost2010PropOp47
 70
     1
102
RTVSPost2010Prop48
 90
       50
102
RTVSPost2010PropOp48
 70
     1
102
RTVSPost2010Prop49
280
     0
102
RTVSPost2010PropOp49
 70
     1
102
RTVSPost2010Prop50
 90
       50
102
RTVSPost2010PropOp50
 70
     1
102
RTVSPost2010Prop51ColorIndex
 90
      256
102
RTVSPost2010Prop51ColorRGB
 90
-16777216
102
RTVSPost2010PropOp51
 70
     0
102
RTVSPost2010Prop52
140
1.0
102
RTVSPost2010PropOp52
 70
     0
102
RTVSPost2010Prop53
 90
        2
102
RTVSPost2010PropOp53
 70
     1
102
RTVSPost2010Prop54
  1
strokes_ogs.tif
102
RTVSPost2010PropOp54
 70
     1
102
RTVSPost2010Prop55
280
     0
102
RTVSPost2010PropOp55
 70
     1
102
RTVSPost2010Prop56
140
1.0
102
RTVSPost2010PropOp56
 70
     1
102
RTVSPost2010Prop57
140
1.0
102
RTVSPost2010PropOp57
 70
     1
102
RTVSPropertyOp0
 70
     1
102
RTVSPropertyOp1
 70
     1
102
RTVSPropertyOp2
 70
     1
102
RTVSPropertyOp3
 70
     1
102
RTVSPropertyOp4
 70
     1
102
RTVSPropertyOp5
 70
     1
102
RTVSPropertyOp6
 70
     1
102
RTVSPropertyOp7
 70
     1
102
RTVSPropertyOp8
 70
     1
102
RTVSPropertyOp9
 70
     1
102
RTVSPropertyOp10
 70
     1
102
RTVSPropertyOp11
 70
     1
102
RTVSPropertyOp12
 70
     1
102
RTVSPropertyOp13
 70
     1
102
RTVSPropertyOp14
 70
     1
102
RTVSPropertyOp15
 70
     1
102
RTVSPropertyOp16
 70
     1
102
RTVSPropertyOp17
 70
     1
102
RTVSPropertyOp18
 70
     1
102
RTVSPropertyOp19
 70
     1
102
RTVSPropertyOp20
 70
     1
102
RTVSPropertyOp21
 70
     1
102
RTVSPropertyOp22
 70
     1
102
RTVSPropertyOp23
 70
     1
102
RTVSPropertyOp24
 70
     1
102
RTVSPropertyOp25
 70
     1
102
RTVSPropertyOp26
 70
     1
102
RTVSPropertyOp27
 70
     1
102
RTVSPropertyOp28
 70
     1
102
RTVSPropertyOp29
 70
     1
102
RTVSPropertyOp30
 70
     1
102
RTVSPropertyOp31
 70
     1
102
RTVSPropertyOp32
 70
     1
102
RTVSPropertyOp33
 70
     1
102
RTVSPropertyOp34
 70
     1
102
RTVSPropertyOp35
 70
     1
102
RTVSPropertyOp36
 70
     1
102
RTVSPropertyOp37
 70
     1
102
RTVSPropertyOp38
 70
     1
102
RTVSPropertyOp39
 70
     1
102
RTVSPropertyOp40
 70
     1
102
RTVSPropertyOp41
 70
     1
102
RTVSPropertyOp42
 70
     1
102
RTVSPropertyOp43
 70
     1
102
RTVSPropertyOp44
 70
     1
102
RTVSPropertyOp45
 70
     1
102
RTVSPropertyOp46
 70
     1
102
RTVSPropertyOp47
 70
     1
102
RTVSPropertyOp48
 70
     1
102
RTVSPropertyOp49
 70
     1
102
RTVSPropertyOp50
 70
     1
102
RTVSPropertyOp51
 70
     0
102
RTVSPropertyOp52
 70
     0
102
RTVSPropertyOp53
 70
     1
102
RTVSPropertyOp54
 70
     1
102
RTVSPropertyOp55
 70
     1
102
RTVSPropertyOp56
 70
     1
102
RTVSPropertyOp57
 70
     1
102
RTVSPropertyOp58
 70
     1
102
RTVSPropertyOp59
 70
     1
102
RTVSPropertyOp60
 70
     1
102
RTVSPropertyOp61
 70
     1
102
RTVSPropertyOp62
 70
     1
  0
XRECORD
  5
12A7B
102
{ACAD_REACTORS
330
12A7A
102
}
330
12A7A
100
AcDbXrecord
280
     1
102
RTVSPost2010Prop28
280
     0
102
RTVSPost2010PropOp28
 70
     1
102
RTVSPost2010Prop29
280
     1
102
RTVSPost2010PropOp29
 70
     1
102
RTVSPost2010Prop30
280
     1
102
RTVSPost2010PropOp30
 70
     1
102
RTVSPost2010Prop31
280
     0
102
RTVSPost2010PropOp31
 70
     1
102
RTVSPost2010Prop32
280
     0
102
RTVSPost2010PropOp32
 70
     1
102
RTVSPost2010Prop33
280
     0
102
RTVSPost2010PropOp33
 70
     1
102
RTVSPost2010Prop34
280
     0
102
RTVSPost2010PropOp34
 70
     1
102
RTVSPost2010Prop35
280
     0
102
RTVSPost2010PropOp35
 70
     1
102
RTVSPost2010Prop36
280
     0
102
RTVSPost2010PropOp36
 70
     1
102
RTVSPost2010Prop37
 90
       50
102
RTVSPost2010PropOp37
 70
     1
102
RTVSPost2010Prop38
140
0.0
102
RTVSPost2010PropOp38
 70
     1
102
RTVSPost2010Prop39
140
1.0
102
RTVSPost2010PropOp39
 70
     1
102
RTVSPost2010Prop40
 90
        0
102
RTVSPost2010PropOp40
 70
     1
102
RTVSPost2010Prop41ColorIndex
 90
       18
102
RTVSPost2010Prop41ColorRGB
 90
        0
102
RTVSPost2010PropOp41
 70
     1
102
RTVSPost2010Prop42
 90
       50
102
RTVSPost2010PropOp42
 70
     1
102
RTVSPost2010Prop43
 90
        3
102
RTVSPost2010PropOp43
 70
     1
102
RTVSPost2010Prop44ColorIndex
 90
        5
102
RTVSPost2010Prop44ColorRGB
 90
      255
102
RTVSPost2010PropOp44
 70
     1
102
RTVSPost2010Prop45
280
     0
102
RTVSPost2010PropOp45
 70
     1
102
RTVSPost2010Prop46
 90
       50
102
RTVSPost2010PropOp46
 70
     1
102
RTVSPost2010Prop47
 90
       50
102
RTVSPost2010PropOp47
 70
     1
102
RTVSPost2010Prop48
 90
       50
102
RTVSPost2010PropOp48
 70
     1
102
RTVSPost2010Prop49
280
     0
102
RTVSPost2010PropOp49
 70
     1
102
RTVSPost2010Prop50
 90
       50
102
RTVSPost2010PropOp50
 70
     1
102
RTVSPost2010Prop51ColorIndex
 90
      256
102
RTVSPost2010Prop51ColorRGB
 90
-16777216
102
RTVSPost2010PropOp51
 70
     0
102
RTVSPost2010Prop52
140
1.0
102
RTVSPost2010PropOp52
 70
     0
102
RTVSPost2010Prop53
 90
        2
102
RTVSPost2010PropOp53
 70
     1
102
RTVSPost2010Prop54
  1
strokes_ogs.tif
102
RTVSPost2010PropOp54
 70
     1
102
RTVSPost2010Prop55
280
     0
102
RTVSPost2010PropOp55
 70
     1
102
RTVSPost2010Prop56
140
1.0
102
RTVSPost2010PropOp56
 70
     1
102
RTVSPost2010Prop57
140
1.0
102
RTVSPost2010PropOp57
 70
     1
102
RTVSPropertyOp0
 70
     0
102
RTVSPropertyOp1
 70
     0
102
RTVSPropertyOp2
 70
     0
102
RTVSPropertyOp3
 70
     0
102
RTVSPropertyOp4
 70
     0
102
RTVSPropertyOp5
 70
     0
102
RTVSPropertyOp6
 70
     0
102
RTVSPropertyOp7
 70
     0
102
RTVSPropertyOp8
 70
     0
102
RTVSPropertyOp9
 70
     0
102
RTVSPropertyOp10
 70
     0
102
RTVSPropertyOp11
 70
     0
102
RTVSPropertyOp12
 70
     0
102
RTVSPropertyOp13
 70
     0
102
RTVSPropertyOp14
 70
     2
102
RTVSPropertyOp15
 70
     0
102
RTVSPropertyOp16
 70
     0
102
RTVSPropertyOp17
 70
     0
102
RTVSPropertyOp18
 70
     0
102
RTVSPropertyOp19
 70
     0
102
RTVSPropertyOp20
 70
     0
102
RTVSPropertyOp21
 70
     0
102
RTVSPropertyOp22
 70
     0
102
RTVSPropertyOp23
 70
     0
102
RTVSPropertyOp24
 70
     0
102
RTVSPropertyOp25
 70
     0
102
RTVSPropertyOp26
 70
     0
102
RTVSPropertyOp27
 70
     0
102
RTVSPropertyOp28
 70
     1
102
RTVSPropertyOp29
 70
     1
102
RTVSPropertyOp30
 70
     1
102
RTVSPropertyOp31
 70
     1
102
RTVSPropertyOp32
 70
     1
102
RTVSPropertyOp33
 70
     1
102
RTVSPropertyOp34
 70
     1
102
RTVSPropertyOp35
 70
     1
102
RTVSPropertyOp36
 70
     1
102
RTVSPropertyOp37
 70
     1
102
RTVSPropertyOp38
 70
     1
102
RTVSPropertyOp39
 70
     1
102
RTVSPropertyOp40
 70
     1
102
RTVSPropertyOp41
 70
     1
102
RTVSPropertyOp42
 70
     1
102
RTVSPropertyOp43
 70
     1
102
RTVSPropertyOp44
 70
     1
102
RTVSPropertyOp45
 70
     1
102
RTVSPropertyOp46
 70
     1
102
RTVSPropertyOp47
 70
     1
102
RTVSPropertyOp48
 70
     1
102
RTVSPropertyOp49
 70
     1
102
RTVSPropertyOp50
 70
     1
102
RTVSPropertyOp51
 70
     0
102
RTVSPropertyOp52
 70
     0
102
RTVSPropertyOp53
 70
     1
102
RTVSPropertyOp54
 70
     1
102
RTVSPropertyOp55
 70
     1
102
RTVSPropertyOp56
 70
     1
102
RTVSPropertyOp57
 70
     1
102
RTVSPropertyOp58
 70
     1
102
RTVSPropertyOp59
 70
     1
102
RTVSPropertyOp60
 70
     1
102
RTVSPropertyOp61
 70
     1
102
RTVSPropertyOp62
 70
     1
  0
XRECORD
  5
12A6B
102
{ACAD_REACTORS
330
12A6A
102
}
330
12A6A
100
AcDbXrecord
280
     1
102
RTVSPost2010Prop28
280
     0
102
RTVSPost2010PropOp28
 70
     1
102
RTVSPost2010Prop29
280
     1
102
RTVSPost2010PropOp29
 70
     1
102
RTVSPost2010Prop30
280
     1
102
RTVSPost2010PropOp30
 70
     1
102
RTVSPost2010Prop31
280
     0
102
RTVSPost2010PropOp31
 70
     1
102
RTVSPost2010Prop32
280
     0
102
RTVSPost2010PropOp32
 70
     1
102
RTVSPost2010Prop33
280
     0
102
RTVSPost2010PropOp33
 70
     1
102
RTVSPost2010Prop34
280
     0
102
RTVSPost2010PropOp34
 70
     1
102
RTVSPost2010Prop35
280
     0
102
RTVSPost2010PropOp35
 70
     1
102
RTVSPost2010Prop36
280
     0
102
RTVSPost2010PropOp36
 70
     1
102
RTVSPost2010Prop37
 90
       50
102
RTVSPost2010PropOp37
 70
     1
102
RTVSPost2010Prop38
140
0.0
102
RTVSPost2010PropOp38
 70
     1
102
RTVSPost2010Prop39
140
1.0
102
RTVSPost2010PropOp39
 70
     1
102
RTVSPost2010Prop40
 90
        0
102
RTVSPost2010PropOp40
 70
     1
102
RTVSPost2010Prop41ColorIndex
 90
       18
102
RTVSPost2010Prop41ColorRGB
 90
        0
102
RTVSPost2010PropOp41
 70
     1
102
RTVSPost2010Prop42
 90
       50
102
RTVSPost2010PropOp42
 70
     1
102
RTVSPost2010Prop43
 90
        3
102
RTVSPost2010PropOp43
 70
     1
102
RTVSPost2010Prop44ColorIndex
 90
        5
102
RTVSPost2010Prop44ColorRGB
 90
      255
102
RTVSPost2010PropOp44
 70
     1
102
RTVSPost2010Prop45
280
     0
102
RTVSPost2010PropOp45
 70
     1
102
RTVSPost2010Prop46
 90
       50
102
RTVSPost2010PropOp46
 70
     1
102
RTVSPost2010Prop47
 90
       50
102
RTVSPost2010PropOp47
 70
     1
102
RTVSPost2010Prop48
 90
       50
102
RTVSPost2010PropOp48
 70
     1
102
RTVSPost2010Prop49
280
     0
102
RTVSPost2010PropOp49
 70
     1
102
RTVSPost2010Prop50
 90
       50
102
RTVSPost2010PropOp50
 70
     1
102
RTVSPost2010Prop51ColorIndex
 90
      256
102
RTVSPost2010Prop51ColorRGB
 90
-16777216
102
RTVSPost2010PropOp51
 70
     0
102
RTVSPost2010Prop52
140
1.0
102
RTVSPost2010PropOp52
 70
     0
102
RTVSPost2010Prop53
 90
        2
102
RTVSPost2010PropOp53
 70
     1
102
RTVSPost2010Prop54
  1
strokes_ogs.tif
102
RTVSPost2010PropOp54
 70
     1
102
RTVSPost2010Prop55
280
     0
102
RTVSPost2010PropOp55
 70
     1
102
RTVSPost2010Prop56
140
1.0
102
RTVSPost2010PropOp56
 70
     1
102
RTVSPost2010Prop57
140
1.0
102
RTVSPost2010PropOp57
 70
     1
102
RTVSPropertyOp0
 70
     1
102
RTVSPropertyOp1
 70
     1
102
RTVSPropertyOp2
 70
     1
102
RTVSPropertyOp3
 70
     1
102
RTVSPropertyOp4
 70
     1
102
RTVSPropertyOp5
 70
     1
102
RTVSPropertyOp6
 70
     1
102
RTVSPropertyOp7
 70
     1
102
RTVSPropertyOp8
 70
     1
102
RTVSPropertyOp9
 70
     1
102
RTVSPropertyOp10
 70
     1
102
RTVSPropertyOp11
 70
     1
102
RTVSPropertyOp12
 70
     1
102
RTVSPropertyOp13
 70
     1
102
RTVSPropertyOp14
 70
     1
102
RTVSPropertyOp15
 70
     1
102
RTVSPropertyOp16
 70
     1
102
RTVSPropertyOp17
 70
     1
102
RTVSPropertyOp18
 70
     1
102
RTVSPropertyOp19
 70
     1
102
RTVSPropertyOp20
 70
     1
102
RTVSPropertyOp21
 70
     1
102
RTVSPropertyOp22
 70
     1
102
RTVSPropertyOp23
 70
     1
102
RTVSPropertyOp24
 70
     1
102
RTVSPropertyOp25
 70
     1
102
RTVSPropertyOp26
 70
     1
102
RTVSPropertyOp27
 70
     1
102
RTVSPropertyOp28
 70
     1
102
RTVSPropertyOp29
 70
     1
102
RTVSPropertyOp30
 70
     1
102
RTVSPropertyOp31
 70
     1
102
RTVSPropertyOp32
 70
     1
102
RTVSPropertyOp33
 70
     1
102
RTVSPropertyOp34
 70
     1
102
RTVSPropertyOp35
 70
     1
102
RTVSPropertyOp36
 70
     1
102
RTVSPropertyOp37
 70
     1
102
RTVSPropertyOp38
 70
     1
102
RTVSPropertyOp39
 70
     1
102
RTVSPropertyOp40
 70
     1
102
RTVSPropertyOp41
 70
     1
102
RTVSPropertyOp42
 70
     1
102
RTVSPropertyOp43
 70
     1
102
RTVSPropertyOp44
 70
     1
102
RTVSPropertyOp45
 70
     1
102
RTVSPropertyOp46
 70
     1
102
RTVSPropertyOp47
 70
     1
102
RTVSPropertyOp48
 70
     1
102
RTVSPropertyOp49
 70
     1
102
RTVSPropertyOp50
 70
     1
102
RTVSPropertyOp51
 70
     0
102
RTVSPropertyOp52
 70
     0
102
RTVSPropertyOp53
 70
     1
102
RTVSPropertyOp54
 70
     1
102
RTVSPropertyOp55
 70
     1
102
RTVSPropertyOp56
 70
     1
102
RTVSPropertyOp57
 70
     1
102
RTVSPropertyOp58
 70
     1
102
RTVSPropertyOp59
 70
     1
102
RTVSPropertyOp60
 70
     1
102
RTVSPropertyOp61
 70
     1
102
RTVSPropertyOp62
 70
     1
  0
XRECORD
  5
12A8C
102
{ACAD_REACTORS
330
12A8B
102
}
330
12A8B
100
AcDbXrecord
280
     1
102
RTVSPost2010Prop28
280
     0
102
RTVSPost2010PropOp28
 70
     1
102
RTVSPost2010Prop29
280
     1
102
RTVSPost2010PropOp29
 70
     1
102
RTVSPost2010Prop30
280
     1
102
RTVSPost2010PropOp30
 70
     1
102
RTVSPost2010Prop31
280
     0
102
RTVSPost2010PropOp31
 70
     1
102
RTVSPost2010Prop32
280
     0
102
RTVSPost2010PropOp32
 70
     1
102
RTVSPost2010Prop33
280
     0
102
RTVSPost2010PropOp33
 70
     1
102
RTVSPost2010Prop34
280
     0
102
RTVSPost2010PropOp34
 70
     1
102
RTVSPost2010Prop35
280
     0
102
RTVSPost2010PropOp35
 70
     1
102
RTVSPost2010Prop36
280
     0
102
RTVSPost2010PropOp36
 70
     1
102
RTVSPost2010Prop37
 90
       50
102
RTVSPost2010PropOp37
 70
     1
102
RTVSPost2010Prop38
140
0.0
102
RTVSPost2010PropOp38
 70
     1
102
RTVSPost2010Prop39
140
1.0
102
RTVSPost2010PropOp39
 70
     1
102
RTVSPost2010Prop40
 90
        0
102
RTVSPost2010PropOp40
 70
     1
102
RTVSPost2010Prop41ColorIndex
 90
       18
102
RTVSPost2010Prop41ColorRGB
 90
        0
102
RTVSPost2010PropOp41
 70
     1
102
RTVSPost2010Prop42
 90
       50
102
RTVSPost2010PropOp42
 70
     1
102
RTVSPost2010Prop43
 90
        3
102
RTVSPost2010PropOp43
 70
     1
102
RTVSPost2010Prop44ColorIndex
 90
        5
102
RTVSPost2010Prop44ColorRGB
 90
      255
102
RTVSPost2010PropOp44
 70
     1
102
RTVSPost2010Prop45
280
     0
102
RTVSPost2010PropOp45
 70
     1
102
RTVSPost2010Prop46
 90
       50
102
RTVSPost2010PropOp46
 70
     1
102
RTVSPost2010Prop47
 90
       50
102
RTVSPost2010PropOp47
 70
     1
102
RTVSPost2010Prop48
 90
       50
102
RTVSPost2010PropOp48
 70
     1
102
RTVSPost2010Prop49
280
     0
102
RTVSPost2010PropOp49
 70
     1
102
RTVSPost2010Prop50
 90
       50
102
RTVSPost2010PropOp50
 70
     1
102
RTVSPost2010Prop51ColorIndex
 90
      256
102
RTVSPost2010Prop51ColorRGB
 90
-16777216
102
RTVSPost2010PropOp51
 70
     0
102
RTVSPost2010Prop52
140
1.0
102
RTVSPost2010PropOp52
 70
     0
102
RTVSPost2010Prop53
 90
        2
102
RTVSPost2010PropOp53
 70
     1
102
RTVSPost2010Prop54
  1
strokes_ogs.tif
102
RTVSPost2010PropOp54
 70
     1
102
RTVSPost2010Prop55
280
     0
102
RTVSPost2010PropOp55
 70
     1
102
RTVSPost2010Prop56
140
1.0
102
RTVSPost2010PropOp56
 70
     1
102
RTVSPost2010Prop57
140
1.0
102
RTVSPost2010PropOp57
 70
     1
102
RTVSPropertyOp0
 70
     1
102
RTVSPropertyOp1
 70
     1
102
RTVSPropertyOp2
 70
     1
102
RTVSPropertyOp3
 70
     1
102
RTVSPropertyOp4
 70
     1
102
RTVSPropertyOp5
 70
     1
102
RTVSPropertyOp6
 70
     1
102
RTVSPropertyOp7
 70
     1
102
RTVSPropertyOp8
 70
     1
102
RTVSPropertyOp9
 70
     1
102
RTVSPropertyOp10
 70
     1
102
RTVSPropertyOp11
 70
     1
102
RTVSPropertyOp12
 70
     1
102
RTVSPropertyOp13
 70
     1
102
RTVSPropertyOp14
 70
     1
102
RTVSPropertyOp15
 70
     1
102
RTVSPropertyOp16
 70
     1
102
RTVSPropertyOp17
 70
     1
102
RTVSPropertyOp18
 70
     1
102
RTVSPropertyOp19
 70
     1
102
RTVSPropertyOp20
 70
     1
102
RTVSPropertyOp21
 70
     1
102
RTVSPropertyOp22
 70
     1
102
RTVSPropertyOp23
 70
     1
102
RTVSPropertyOp24
 70
     1
102
RTVSPropertyOp25
 70
     1
102
RTVSPropertyOp26
 70
     1
102
RTVSPropertyOp27
 70
     1
102
RTVSPropertyOp28
 70
     1
102
RTVSPropertyOp29
 70
     1
102
RTVSPropertyOp30
 70
     1
102
RTVSPropertyOp31
 70
     1
102
RTVSPropertyOp32
 70
     1
102
RTVSPropertyOp33
 70
     1
102
RTVSPropertyOp34
 70
     1
102
RTVSPropertyOp35
 70
     1
102
RTVSPropertyOp36
 70
     1
102
RTVSPropertyOp37
 70
     1
102
RTVSPropertyOp38
 70
     1
102
RTVSPropertyOp39
 70
     1
102
RTVSPropertyOp40
 70
     1
102
RTVSPropertyOp41
 70
     1
102
RTVSPropertyOp42
 70
     1
102
RTVSPropertyOp43
 70
     1
102
RTVSPropertyOp44
 70
     1
102
RTVSPropertyOp45
 70
     1
102
RTVSPropertyOp46
 70
     1
102
RTVSPropertyOp47
 70
     1
102
RTVSPropertyOp48
 70
     1
102
RTVSPropertyOp49
 70
     1
102
RTVSPropertyOp50
 70
     1
102
RTVSPropertyOp51
 70
     0
102
RTVSPropertyOp52
 70
     0
102
RTVSPropertyOp53
 70
     1
102
RTVSPropertyOp54
 70
     1
102
RTVSPropertyOp55
 70
     1
102
RTVSPropertyOp56
 70
     1
102
RTVSPropertyOp57
 70
     1
102
RTVSPropertyOp58
 70
     1
102
RTVSPropertyOp59
 70
     1
102
RTVSPropertyOp60
 70
     1
102
RTVSPropertyOp61
 70
     1
102
RTVSPropertyOp62
 70
     1
  0
XRECORD
  5
12A8A
102
{ACAD_REACTORS
330
12A89
102
}
330
12A89
100
AcDbXrecord
280
     1
102
RTVSPost2010Prop28
280
     0
102
RTVSPost2010PropOp28
 70
     1
102
RTVSPost2010Prop29
280
     1
102
RTVSPost2010PropOp29
 70
     1
102
RTVSPost2010Prop30
280
     1
102
RTVSPost2010PropOp30
 70
     1
102
RTVSPost2010Prop31
280
     0
102
RTVSPost2010PropOp31
 70
     1
102
RTVSPost2010Prop32
280
     0
102
RTVSPost2010PropOp32
 70
     1
102
RTVSPost2010Prop33
280
     0
102
RTVSPost2010PropOp33
 70
     1
102
RTVSPost2010Prop34
280
     0
102
RTVSPost2010PropOp34
 70
     1
102
RTVSPost2010Prop35
280
     0
102
RTVSPost2010PropOp35
 70
     1
102
RTVSPost2010Prop36
280
     0
102
RTVSPost2010PropOp36
 70
     1
102
RTVSPost2010Prop37
 90
       50
102
RTVSPost2010PropOp37
 70
     1
102
RTVSPost2010Prop38
140
0.0
102
RTVSPost2010PropOp38
 70
     1
102
RTVSPost2010Prop39
140
1.0
102
RTVSPost2010PropOp39
 70
     1
102
RTVSPost2010Prop40
 90
        0
102
RTVSPost2010PropOp40
 70
     1
102
RTVSPost2010Prop41ColorIndex
 90
       18
102
RTVSPost2010Prop41ColorRGB
 90
        0
102
RTVSPost2010PropOp41
 70
     1
102
RTVSPost2010Prop42
 90
       50
102
RTVSPost2010PropOp42
 70
     1
102
RTVSPost2010Prop43
 90
        3
102
RTVSPost2010PropOp43
 70
     1
102
RTVSPost2010Prop44ColorIndex
 90
        5
102
RTVSPost2010Prop44ColorRGB
 90
      255
102
RTVSPost2010PropOp44
 70
     1
102
RTVSPost2010Prop45
280
     0
102
RTVSPost2010PropOp45
 70
     1
102
RTVSPost2010Prop46
 90
       50
102
RTVSPost2010PropOp46
 70
     1
102
RTVSPost2010Prop47
 90
       50
102
RTVSPost2010PropOp47
 70
     1
102
RTVSPost2010Prop48
 90
       50
102
RTVSPost2010PropOp48
 70
     1
102
RTVSPost2010Prop49
280
     0
102
RTVSPost2010PropOp49
 70
     1
102
RTVSPost2010Prop50
 90
       50
102
RTVSPost2010PropOp50
 70
     1
102
RTVSPost2010Prop51ColorIndex
 90
      256
102
RTVSPost2010Prop51ColorRGB
 90
-16777216
102
RTVSPost2010PropOp51
 70
     0
102
RTVSPost2010Prop52
140
1.0
102
RTVSPost2010PropOp52
 70
     0
102
RTVSPost2010Prop53
 90
        2
102
RTVSPost2010PropOp53
 70
     1
102
RTVSPost2010Prop54
  1
strokes_ogs.tif
102
RTVSPost2010PropOp54
 70
     1
102
RTVSPost2010Prop55
280
     0
102
RTVSPost2010PropOp55
 70
     1
102
RTVSPost2010Prop56
140
1.0
102
RTVSPost2010PropOp56
 70
     1
102
RTVSPost2010Prop57
140
1.0
102
RTVSPost2010PropOp57
 70
     1
102
RTVSPropertyOp0
 70
     1
102
RTVSPropertyOp1
 70
     1
102
RTVSPropertyOp2
 70
     1
102
RTVSPropertyOp3
 70
     1
102
RTVSPropertyOp4
 70
     1
102
RTVSPropertyOp5
 70
     1
102
RTVSPropertyOp6
 70
     1
102
RTVSPropertyOp7
 70
     1
102
RTVSPropertyOp8
 70
     1
102
RTVSPropertyOp9
 70
     1
102
RTVSPropertyOp10
 70
     1
102
RTVSPropertyOp11
 70
     1
102
RTVSPropertyOp12
 70
     1
102
RTVSPropertyOp13
 70
     1
102
RTVSPropertyOp14
 70
     1
102
RTVSPropertyOp15
 70
     1
102
RTVSPropertyOp16
 70
     1
102
RTVSPropertyOp17
 70
     1
102
RTVSPropertyOp18
 70
     1
102
RTVSPropertyOp19
 70
     1
102
RTVSPropertyOp20
 70
     1
102
RTVSPropertyOp21
 70
     1
102
RTVSPropertyOp22
 70
     1
102
RTVSPropertyOp23
 70
     1
102
RTVSPropertyOp24
 70
     1
102
RTVSPropertyOp25
 70
     1
102
RTVSPropertyOp26
 70
     1
102
RTVSPropertyOp27
 70
     1
102
RTVSPropertyOp28
 70
     1
102
RTVSPropertyOp29
 70
     1
102
RTVSPropertyOp30
 70
     1
102
RTVSPropertyOp31
 70
     1
102
RTVSPropertyOp32
 70
     1
102
RTVSPropertyOp33
 70
     1
102
RTVSPropertyOp34
 70
     1
102
RTVSPropertyOp35
 70
     1
102
RTVSPropertyOp36
 70
     1
102
RTVSPropertyOp37
 70
     1
102
RTVSPropertyOp38
 70
     1
102
RTVSPropertyOp39
 70
     1
102
RTVSPropertyOp40
 70
     1
102
RTVSPropertyOp41
 70
     1
102
RTVSPropertyOp42
 70
     1
102
RTVSPropertyOp43
 70
     1
102
RTVSPropertyOp44
 70
     1
102
RTVSPropertyOp45
 70
     1
102
RTVSPropertyOp46
 70
     1
102
RTVSPropertyOp47
 70
     1
102
RTVSPropertyOp48
 70
     1
102
RTVSPropertyOp49
 70
     1
102
RTVSPropertyOp50
 70
     1
102
RTVSPropertyOp51
 70
     0
102
RTVSPropertyOp52
 70
     0
102
RTVSPropertyOp53
 70
     1
102
RTVSPropertyOp54
 70
     1
102
RTVSPropertyOp55
 70
     1
102
RTVSPropertyOp56
 70
     1
102
RTVSPropertyOp57
 70
     1
102
RTVSPropertyOp58
 70
     1
102
RTVSPropertyOp59
 70
     1
102
RTVSPropertyOp60
 70
     1
102
RTVSPropertyOp61
 70
     1
102
RTVSPropertyOp62
 70
     1
  0
XRECORD
  5
12A84
102
{ACAD_REACTORS
330
12A83
102
}
330
12A83
100
AcDbXrecord
280
     1
102
RTVSPost2010Prop28
280
     0
102
RTVSPost2010PropOp28
 70
     1
102
RTVSPost2010Prop29
280
     1
102
RTVSPost2010PropOp29
 70
     1
102
RTVSPost2010Prop30
280
     1
102
RTVSPost2010PropOp30
 70
     1
102
RTVSPost2010Prop31
280
     0
102
RTVSPost2010PropOp31
 70
     1
102
RTVSPost2010Prop32
280
     0
102
RTVSPost2010PropOp32
 70
     1
102
RTVSPost2010Prop33
280
     0
102
RTVSPost2010PropOp33
 70
     1
102
RTVSPost2010Prop34
280
     0
102
RTVSPost2010PropOp34
 70
     1
102
RTVSPost2010Prop35
280
     0
102
RTVSPost2010PropOp35
 70
     1
102
RTVSPost2010Prop36
280
     0
102
RTVSPost2010PropOp36
 70
     1
102
RTVSPost2010Prop37
 90
       50
102
RTVSPost2010PropOp37
 70
     1
102
RTVSPost2010Prop38
140
0.0
102
RTVSPost2010PropOp38
 70
     1
102
RTVSPost2010Prop39
140
1.0
102
RTVSPost2010PropOp39
 70
     1
102
RTVSPost2010Prop40
 90
        0
102
RTVSPost2010PropOp40
 70
     1
102
RTVSPost2010Prop41ColorIndex
 90
       18
102
RTVSPost2010Prop41ColorRGB
 90
        0
102
RTVSPost2010PropOp41
 70
     1
102
RTVSPost2010Prop42
 90
       50
102
RTVSPost2010PropOp42
 70
     1
102
RTVSPost2010Prop43
 90
        3
102
RTVSPost2010PropOp43
 70
     1
102
RTVSPost2010Prop44ColorIndex
 90
        5
102
RTVSPost2010Prop44ColorRGB
 90
      255
102
RTVSPost2010PropOp44
 70
     1
102
RTVSPost2010Prop45
280
     0
102
RTVSPost2010PropOp45
 70
     1
102
RTVSPost2010Prop46
 90
       50
102
RTVSPost2010PropOp46
 70
     1
102
RTVSPost2010Prop47
 90
       50
102
RTVSPost2010PropOp47
 70
     1
102
RTVSPost2010Prop48
 90
       50
102
RTVSPost2010PropOp48
 70
     1
102
RTVSPost2010Prop49
280
     0
102
RTVSPost2010PropOp49
 70
     1
102
RTVSPost2010Prop50
 90
       50
102
RTVSPost2010PropOp50
 70
     1
102
RTVSPost2010Prop51ColorIndex
 90
      256
102
RTVSPost2010Prop51ColorRGB
 90
-16777216
102
RTVSPost2010PropOp51
 70
     0
102
RTVSPost2010Prop52
140
1.0
102
RTVSPost2010PropOp52
 70
     0
102
RTVSPost2010Prop53
 90
        2
102
RTVSPost2010PropOp53
 70
     1
102
RTVSPost2010Prop54
  1
strokes_ogs.tif
102
RTVSPost2010PropOp54
 70
     1
102
RTVSPost2010Prop55
280
     0
102
RTVSPost2010PropOp55
 70
     1
102
RTVSPost2010Prop56
140
1.0
102
RTVSPost2010PropOp56
 70
     1
102
RTVSPost2010Prop57
140
1.0
102
RTVSPost2010PropOp57
 70
     1
102
RTVSPropertyOp0
 70
     1
102
RTVSPropertyOp1
 70
     1
102
RTVSPropertyOp2
 70
     1
102
RTVSPropertyOp3
 70
     1
102
RTVSPropertyOp4
 70
     1
102
RTVSPropertyOp5
 70
     1
102
RTVSPropertyOp6
 70
     1
102
RTVSPropertyOp7
 70
     1
102
RTVSPropertyOp8
 70
     1
102
RTVSPropertyOp9
 70
     1
102
RTVSPropertyOp10
 70
     1
102
RTVSPropertyOp11
 70
     1
102
RTVSPropertyOp12
 70
     1
102
RTVSPropertyOp13
 70
     1
102
RTVSPropertyOp14
 70
     1
102
RTVSPropertyOp15
 70
     1
102
RTVSPropertyOp16
 70
     1
102
RTVSPropertyOp17
 70
     1
102
RTVSPropertyOp18
 70
     1
102
RTVSPropertyOp19
 70
     1
102
RTVSPropertyOp20
 70
     1
102
RTVSPropertyOp21
 70
     1
102
RTVSPropertyOp22
 70
     1
102
RTVSPropertyOp23
 70
     1
102
RTVSPropertyOp24
 70
     1
102
RTVSPropertyOp25
 70
     1
102
RTVSPropertyOp26
 70
     1
102
RTVSPropertyOp27
 70
     1
102
RTVSPropertyOp28
 70
     1
102
RTVSPropertyOp29
 70
     1
102
RTVSPropertyOp30
 70
     1
102
RTVSPropertyOp31
 70
     1
102
RTVSPropertyOp32
 70
     1
102
RTVSPropertyOp33
 70
     1
102
RTVSPropertyOp34
 70
     1
102
RTVSPropertyOp35
 70
     1
102
RTVSPropertyOp36
 70
     1
102
RTVSPropertyOp37
 70
     1
102
RTVSPropertyOp38
 70
     1
102
RTVSPropertyOp39
 70
     1
102
RTVSPropertyOp40
 70
     1
102
RTVSPropertyOp41
 70
     1
102
RTVSPropertyOp42
 70
     1
102
RTVSPropertyOp43
 70
     1
102
RTVSPropertyOp44
 70
     1
102
RTVSPropertyOp45
 70
     1
102
RTVSPropertyOp46
 70
     1
102
RTVSPropertyOp47
 70
     1
102
RTVSPropertyOp48
 70
     1
102
RTVSPropertyOp49
 70
     1
102
RTVSPropertyOp50
 70
     1
102
RTVSPropertyOp51
 70
     0
102
RTVSPropertyOp52
 70
     0
102
RTVSPropertyOp53
 70
     1
102
RTVSPropertyOp54
 70
     1
102
RTVSPropertyOp55
 70
     1
102
RTVSPropertyOp56
 70
     1
102
RTVSPropertyOp57
 70
     1
102
RTVSPropertyOp58
 70
     1
102
RTVSPropertyOp59
 70
     1
102
RTVSPropertyOp60
 70
     1
102
RTVSPropertyOp61
 70
     1
102
RTVSPropertyOp62
 70
     1
  0
XRECORD
  5
12A86
102
{ACAD_REACTORS
330
12A85
102
}
330
12A85
100
AcDbXrecord
280
     1
102
RTVSPost2010Prop28
280
     0
102
RTVSPost2010PropOp28
 70
     1
102
RTVSPost2010Prop29
280
     1
102
RTVSPost2010PropOp29
 70
     1
102
RTVSPost2010Prop30
280
     1
102
RTVSPost2010PropOp30
 70
     1
102
RTVSPost2010Prop31
280
     0
102
RTVSPost2010PropOp31
 70
     1
102
RTVSPost2010Prop32
280
     0
102
RTVSPost2010PropOp32
 70
     1
102
RTVSPost2010Prop33
280
     0
102
RTVSPost2010PropOp33
 70
     1
102
RTVSPost2010Prop34
280
     0
102
RTVSPost2010PropOp34
 70
     1
102
RTVSPost2010Prop35
280
     0
102
RTVSPost2010PropOp35
 70
     1
102
RTVSPost2010Prop36
280
     0
102
RTVSPost2010PropOp36
 70
     1
102
RTVSPost2010Prop37
 90
       50
102
RTVSPost2010PropOp37
 70
     1
102
RTVSPost2010Prop38
140
0.0
102
RTVSPost2010PropOp38
 70
     1
102
RTVSPost2010Prop39
140
1.0
102
RTVSPost2010PropOp39
 70
     1
102
RTVSPost2010Prop40
 90
        0
102
RTVSPost2010PropOp40
 70
     1
102
RTVSPost2010Prop41ColorIndex
 90
       18
102
RTVSPost2010Prop41ColorRGB
 90
        0
102
RTVSPost2010PropOp41
 70
     1
102
RTVSPost2010Prop42
 90
       50
102
RTVSPost2010PropOp42
 70
     1
102
RTVSPost2010Prop43
 90
        3
102
RTVSPost2010PropOp43
 70
     1
102
RTVSPost2010Prop44ColorIndex
 90
        5
102
RTVSPost2010Prop44ColorRGB
 90
      255
102
RTVSPost2010PropOp44
 70
     1
102
RTVSPost2010Prop45
280
     0
102
RTVSPost2010PropOp45
 70
     1
102
RTVSPost2010Prop46
 90
       50
102
RTVSPost2010PropOp46
 70
     1
102
RTVSPost2010Prop47
 90
       50
102
RTVSPost2010PropOp47
 70
     1
102
RTVSPost2010Prop48
 90
       50
102
RTVSPost2010PropOp48
 70
     1
102
RTVSPost2010Prop49
280
     0
102
RTVSPost2010PropOp49
 70
     1
102
RTVSPost2010Prop50
 90
       50
102
RTVSPost2010PropOp50
 70
     1
102
RTVSPost2010Prop51ColorIndex
 90
      256
102
RTVSPost2010Prop51ColorRGB
 90
-16777216
102
RTVSPost2010PropOp51
 70
     0
102
RTVSPost2010Prop52
140
1.0
102
RTVSPost2010PropOp52
 70
     0
102
RTVSPost2010Prop53
 90
        2
102
RTVSPost2010PropOp53
 70
     1
102
RTVSPost2010Prop54
  1
strokes_ogs.tif
102
RTVSPost2010PropOp54
 70
     1
102
RTVSPost2010Prop55
280
     0
102
RTVSPost2010PropOp55
 70
     1
102
RTVSPost2010Prop56
140
1.0
102
RTVSPost2010PropOp56
 70
     1
102
RTVSPost2010Prop57
140
1.0
102
RTVSPost2010PropOp57
 70
     1
102
RTVSPropertyOp0
 70
     1
102
RTVSPropertyOp1
 70
     1
102
RTVSPropertyOp2
 70
     1
102
RTVSPropertyOp3
 70
     1
102
RTVSPropertyOp4
 70
     1
102
RTVSPropertyOp5
 70
     1
102
RTVSPropertyOp6
 70
     1
102
RTVSPropertyOp7
 70
     1
102
RTVSPropertyOp8
 70
     1
102
RTVSPropertyOp9
 70
     1
102
RTVSPropertyOp10
 70
     1
102
RTVSPropertyOp11
 70
     1
102
RTVSPropertyOp12
 70
     1
102
RTVSPropertyOp13
 70
     1
102
RTVSPropertyOp14
 70
     1
102
RTVSPropertyOp15
 70
     1
102
RTVSPropertyOp16
 70
     1
102
RTVSPropertyOp17
 70
     1
102
RTVSPropertyOp18
 70
     1
102
RTVSPropertyOp19
 70
     1
102
RTVSPropertyOp20
 70
     1
102
RTVSPropertyOp21
 70
     1
102
RTVSPropertyOp22
 70
     1
102
RTVSPropertyOp23
 70
     1
102
RTVSPropertyOp24
 70
     1
102
RTVSPropertyOp25
 70
     1
102
RTVSPropertyOp26
 70
     1
102
RTVSPropertyOp27
 70
     1
102
RTVSPropertyOp28
 70
     1
102
RTVSPropertyOp29
 70
     1
102
RTVSPropertyOp30
 70
     1
102
RTVSPropertyOp31
 70
     1
102
RTVSPropertyOp32
 70
     1
102
RTVSPropertyOp33
 70
     1
102
RTVSPropertyOp34
 70
     1
102
RTVSPropertyOp35
 70
     1
102
RTVSPropertyOp36
 70
     1
102
RTVSPropertyOp37
 70
     1
102
RTVSPropertyOp38
 70
     1
102
RTVSPropertyOp39
 70
     1
102
RTVSPropertyOp40
 70
     1
102
RTVSPropertyOp41
 70
     1
102
RTVSPropertyOp42
 70
     1
102
RTVSPropertyOp43
 70
     1
102
RTVSPropertyOp44
 70
     1
102
RTVSPropertyOp45
 70
     1
102
RTVSPropertyOp46
 70
     1
102
RTVSPropertyOp47
 70
     1
102
RTVSPropertyOp48
 70
     1
102
RTVSPropertyOp49
 70
     1
102
RTVSPropertyOp50
 70
     1
102
RTVSPropertyOp51
 70
     0
102
RTVSPropertyOp52
 70
     0
102
RTVSPropertyOp53
 70
     1
102
RTVSPropertyOp54
 70
     1
102
RTVSPropertyOp55
 70
     1
102
RTVSPropertyOp56
 70
     1
102
RTVSPropertyOp57
 70
     1
102
RTVSPropertyOp58
 70
     1
102
RTVSPropertyOp59
 70
     1
102
RTVSPropertyOp60
 70
     1
102
RTVSPropertyOp61
 70
     1
102
RTVSPropertyOp62
 70
     1
  0
XRECORD
  5
12A71
102
{ACAD_REACTORS
330
12A70
102
}
330
12A70
100
AcDbXrecord
280
     1
102
RTVSPost2010Prop28
280
     0
102
RTVSPost2010PropOp28
 70
     1
102
RTVSPost2010Prop29
280
     1
102
RTVSPost2010PropOp29
 70
     1
102
RTVSPost2010Prop30
280
     1
102
RTVSPost2010PropOp30
 70
     1
102
RTVSPost2010Prop31
280
     0
102
RTVSPost2010PropOp31
 70
     1
102
RTVSPost2010Prop32
280
     0
102
RTVSPost2010PropOp32
 70
     1
102
RTVSPost2010Prop33
280
     0
102
RTVSPost2010PropOp33
 70
     1
102
RTVSPost2010Prop34
280
     0
102
RTVSPost2010PropOp34
 70
     1
102
RTVSPost2010Prop35
280
     0
102
RTVSPost2010PropOp35
 70
     1
102
RTVSPost2010Prop36
280
     0
102
RTVSPost2010PropOp36
 70
     1
102
RTVSPost2010Prop37
 90
       50
102
RTVSPost2010PropOp37
 70
     1
102
RTVSPost2010Prop38
140
0.0
102
RTVSPost2010PropOp38
 70
     1
102
RTVSPost2010Prop39
140
1.0
102
RTVSPost2010PropOp39
 70
     1
102
RTVSPost2010Prop40
 90
        0
102
RTVSPost2010PropOp40
 70
     1
102
RTVSPost2010Prop41ColorIndex
 90
       18
102
RTVSPost2010Prop41ColorRGB
 90
        0
102
RTVSPost2010PropOp41
 70
     1
102
RTVSPost2010Prop42
 90
       50
102
RTVSPost2010PropOp42
 70
     1
102
RTVSPost2010Prop43
 90
        3
102
RTVSPost2010PropOp43
 70
     1
102
RTVSPost2010Prop44ColorIndex
 90
        5
102
RTVSPost2010Prop44ColorRGB
 90
      255
102
RTVSPost2010PropOp44
 70
     1
102
RTVSPost2010Prop45
280
     0
102
RTVSPost2010PropOp45
 70
     1
102
RTVSPost2010Prop46
 90
       50
102
RTVSPost2010PropOp46
 70
     1
102
RTVSPost2010Prop47
 90
       50
102
RTVSPost2010PropOp47
 70
     1
102
RTVSPost2010Prop48
 90
       50
102
RTVSPost2010PropOp48
 70
     1
102
RTVSPost2010Prop49
280
     0
102
RTVSPost2010PropOp49
 70
     1
102
RTVSPost2010Prop50
 90
       50
102
RTVSPost2010PropOp50
 70
     1
102
RTVSPost2010Prop51ColorIndex
 90
      256
102
RTVSPost2010Prop51ColorRGB
 90
-16777216
102
RTVSPost2010PropOp51
 70
     0
102
RTVSPost2010Prop52
140
1.0
102
RTVSPost2010PropOp52
 70
     0
102
RTVSPost2010Prop53
 90
        2
102
RTVSPost2010PropOp53
 70
     1
102
RTVSPost2010Prop54
  1
strokes_ogs.tif
102
RTVSPost2010PropOp54
 70
     1
102
RTVSPost2010Prop55
280
     0
102
RTVSPost2010PropOp55
 70
     1
102
RTVSPost2010Prop56
140
1.0
102
RTVSPost2010PropOp56
 70
     1
102
RTVSPost2010Prop57
140
1.0
102
RTVSPost2010PropOp57
 70
     1
102
RTVSPropertyOp0
 70
     1
102
RTVSPropertyOp1
 70
     1
102
RTVSPropertyOp2
 70
     1
102
RTVSPropertyOp3
 70
     1
102
RTVSPropertyOp4
 70
     1
102
RTVSPropertyOp5
 70
     1
102
RTVSPropertyOp6
 70
     1
102
RTVSPropertyOp7
 70
     1
102
RTVSPropertyOp8
 70
     1
102
RTVSPropertyOp9
 70
     1
102
RTVSPropertyOp10
 70
     1
102
RTVSPropertyOp11
 70
     1
102
RTVSPropertyOp12
 70
     1
102
RTVSPropertyOp13
 70
     1
102
RTVSPropertyOp14
 70
     1
102
RTVSPropertyOp15
 70
     1
102
RTVSPropertyOp16
 70
     1
102
RTVSPropertyOp17
 70
     1
102
RTVSPropertyOp18
 70
     1
102
RTVSPropertyOp19
 70
     1
102
RTVSPropertyOp20
 70
     1
102
RTVSPropertyOp21
 70
     1
102
RTVSPropertyOp22
 70
     1
102
RTVSPropertyOp23
 70
     1
102
RTVSPropertyOp24
 70
     1
102
RTVSPropertyOp25
 70
     1
102
RTVSPropertyOp26
 70
     1
102
RTVSPropertyOp27
 70
     1
102
RTVSPropertyOp28
 70
     1
102
RTVSPropertyOp29
 70
     1
102
RTVSPropertyOp30
 70
     1
102
RTVSPropertyOp31
 70
     1
102
RTVSPropertyOp32
 70
     1
102
RTVSPropertyOp33
 70
     1
102
RTVSPropertyOp34
 70
     1
102
RTVSPropertyOp35
 70
     1
102
RTVSPropertyOp36
 70
     1
102
RTVSPropertyOp37
 70
     1
102
RTVSPropertyOp38
 70
     1
102
RTVSPropertyOp39
 70
     1
102
RTVSPropertyOp40
 70
     1
102
RTVSPropertyOp41
 70
     1
102
RTVSPropertyOp42
 70
     1
102
RTVSPropertyOp43
 70
     1
102
RTVSPropertyOp44
 70
     1
102
RTVSPropertyOp45
 70
     1
102
RTVSPropertyOp46
 70
     1
102
RTVSPropertyOp47
 70
     1
102
RTVSPropertyOp48
 70
     1
102
RTVSPropertyOp49
 70
     1
102
RTVSPropertyOp50
 70
     1
102
RTVSPropertyOp51
 70
     0
102
RTVSPropertyOp52
 70
     0
102
RTVSPropertyOp53
 70
     1
102
RTVSPropertyOp54
 70
     1
102
RTVSPropertyOp55
 70
     1
102
RTVSPropertyOp56
 70
     1
102
RTVSPropertyOp57
 70
     1
102
RTVSPropertyOp58
 70
     1
102
RTVSPropertyOp59
 70
     1
102
RTVSPropertyOp60
 70
     1
102
RTVSPropertyOp61
 70
     1
102
RTVSPropertyOp62
 70
     1
  0
XRECORD
  5
12A80
102
{ACAD_REACTORS
330
12A7F
102
}
330
12A7F
100
AcDbXrecord
280
     1
102
RTVSPost2010Prop28
280
     0
102
RTVSPost2010PropOp28
 70
     1
102
RTVSPost2010Prop29
280
     1
102
RTVSPost2010PropOp29
 70
     1
102
RTVSPost2010Prop30
280
     1
102
RTVSPost2010PropOp30
 70
     1
102
RTVSPost2010Prop31
280
     0
102
RTVSPost2010PropOp31
 70
     1
102
RTVSPost2010Prop32
280
     0
102
RTVSPost2010PropOp32
 70
     1
102
RTVSPost2010Prop33
280
     0
102
RTVSPost2010PropOp33
 70
     1
102
RTVSPost2010Prop34
280
     0
102
RTVSPost2010PropOp34
 70
     1
102
RTVSPost2010Prop35
280
     0
102
RTVSPost2010PropOp35
 70
     1
102
RTVSPost2010Prop36
280
     0
102
RTVSPost2010PropOp36
 70
     1
102
RTVSPost2010Prop37
 90
       50
102
RTVSPost2010PropOp37
 70
     1
102
RTVSPost2010Prop38
140
0.0
102
RTVSPost2010PropOp38
 70
     1
102
RTVSPost2010Prop39
140
1.0
102
RTVSPost2010PropOp39
 70
     1
102
RTVSPost2010Prop40
 90
        0
102
RTVSPost2010PropOp40
 70
     1
102
RTVSPost2010Prop41ColorIndex
 90
       18
102
RTVSPost2010Prop41ColorRGB
 90
        0
102
RTVSPost2010PropOp41
 70
     1
102
RTVSPost2010Prop42
 90
       50
102
RTVSPost2010PropOp42
 70
     1
102
RTVSPost2010Prop43
 90
        3
102
RTVSPost2010PropOp43
 70
     1
102
RTVSPost2010Prop44ColorIndex
 90
        5
102
RTVSPost2010Prop44ColorRGB
 90
      255
102
RTVSPost2010PropOp44
 70
     1
102
RTVSPost2010Prop45
280
     0
102
RTVSPost2010PropOp45
 70
     1
102
RTVSPost2010Prop46
 90
       50
102
RTVSPost2010PropOp46
 70
     1
102
RTVSPost2010Prop47
 90
       50
102
RTVSPost2010PropOp47
 70
     1
102
RTVSPost2010Prop48
 90
       50
102
RTVSPost2010PropOp48
 70
     1
102
RTVSPost2010Prop49
280
     0
102
RTVSPost2010PropOp49
 70
     1
102
RTVSPost2010Prop50
 90
       50
102
RTVSPost2010PropOp50
 70
     1
102
RTVSPost2010Prop51ColorIndex
 90
      256
102
RTVSPost2010Prop51ColorRGB
 90
-16777216
102
RTVSPost2010PropOp51
 70
     0
102
RTVSPost2010Prop52
140
1.0
102
RTVSPost2010PropOp52
 70
     0
102
RTVSPost2010Prop53
 90
        2
102
RTVSPost2010PropOp53
 70
     1
102
RTVSPost2010Prop54
  1
strokes_ogs.tif
102
RTVSPost2010PropOp54
 70
     1
102
RTVSPost2010Prop55
280
     0
102
RTVSPost2010PropOp55
 70
     1
102
RTVSPost2010Prop56
140
1.0
102
RTVSPost2010PropOp56
 70
     1
102
RTVSPost2010Prop57
140
1.0
102
RTVSPost2010PropOp57
 70
     1
102
RTVSPropertyOp0
 70
     1
102
RTVSPropertyOp1
 70
     1
102
RTVSPropertyOp2
 70
     1
102
RTVSPropertyOp3
 70
     1
102
RTVSPropertyOp4
 70
     1
102
RTVSPropertyOp5
 70
     1
102
RTVSPropertyOp6
 70
     1
102
RTVSPropertyOp7
 70
     1
102
RTVSPropertyOp8
 70
     1
102
RTVSPropertyOp9
 70
     1
102
RTVSPropertyOp10
 70
     1
102
RTVSPropertyOp11
 70
     1
102
RTVSPropertyOp12
 70
     1
102
RTVSPropertyOp13
 70
     1
102
RTVSPropertyOp14
 70
     1
102
RTVSPropertyOp15
 70
     1
102
RTVSPropertyOp16
 70
     1
102
RTVSPropertyOp17
 70
     1
102
RTVSPropertyOp18
 70
     1
102
RTVSPropertyOp19
 70
     1
102
RTVSPropertyOp20
 70
     1
102
RTVSPropertyOp21
 70
     1
102
RTVSPropertyOp22
 70
     1
102
RTVSPropertyOp23
 70
     1
102
RTVSPropertyOp24
 70
     1
102
RTVSPropertyOp25
 70
     1
102
RTVSPropertyOp26
 70
     1
102
RTVSPropertyOp27
 70
     1
102
RTVSPropertyOp28
 70
     1
102
RTVSPropertyOp29
 70
     1
102
RTVSPropertyOp30
 70
     1
102
RTVSPropertyOp31
 70
     1
102
RTVSPropertyOp32
 70
     1
102
RTVSPropertyOp33
 70
     1
102
RTVSPropertyOp34
 70
     1
102
RTVSPropertyOp35
 70
     1
102
RTVSPropertyOp36
 70
     1
102
RTVSPropertyOp37
 70
     1
102
RTVSPropertyOp38
 70
     1
102
RTVSPropertyOp39
 70
     1
102
RTVSPropertyOp40
 70
     1
102
RTVSPropertyOp41
 70
     1
102
RTVSPropertyOp42
 70
     1
102
RTVSPropertyOp43
 70
     1
102
RTVSPropertyOp44
 70
     1
102
RTVSPropertyOp45
 70
     1
102
RTVSPropertyOp46
 70
     1
102
RTVSPropertyOp47
 70
     1
102
RTVSPropertyOp48
 70
     1
102
RTVSPropertyOp49
 70
     1
102
RTVSPropertyOp50
 70
     1
102
RTVSPropertyOp51
 70
     0
102
RTVSPropertyOp52
 70
     0
102
RTVSPropertyOp53
 70
     1
102
RTVSPropertyOp54
 70
     1
102
RTVSPropertyOp55
 70
     1
102
RTVSPropertyOp56
 70
     1
102
RTVSPropertyOp57
 70
     1
102
RTVSPropertyOp58
 70
     1
102
RTVSPropertyOp59
 70
     1
102
RTVSPropertyOp60
 70
     1
102
RTVSPropertyOp61
 70
     1
102
RTVSPropertyOp62
 70
     1
  0
XRECORD
  5
12A88
102
{ACAD_REACTORS
330
12A87
102
}
330
12A87
100
AcDbXrecord
280
     1
102
RTVSPost2010Prop28
280
     0
102
RTVSPost2010PropOp28
 70
     1
102
RTVSPost2010Prop29
280
     1
102
RTVSPost2010PropOp29
 70
     1
102
RTVSPost2010Prop30
280
     1
102
RTVSPost2010PropOp30
 70
     1
102
RTVSPost2010Prop31
280
     0
102
RTVSPost2010PropOp31
 70
     1
102
RTVSPost2010Prop32
280
     0
102
RTVSPost2010PropOp32
 70
     1
102
RTVSPost2010Prop33
280
     0
102
RTVSPost2010PropOp33
 70
     1
102
RTVSPost2010Prop34
280
     0
102
RTVSPost2010PropOp34
 70
     1
102
RTVSPost2010Prop35
280
     0
102
RTVSPost2010PropOp35
 70
     1
102
RTVSPost2010Prop36
280
     0
102
RTVSPost2010PropOp36
 70
     1
102
RTVSPost2010Prop37
 90
       50
102
RTVSPost2010PropOp37
 70
     1
102
RTVSPost2010Prop38
140
0.0
102
RTVSPost2010PropOp38
 70
     1
102
RTVSPost2010Prop39
140
1.0
102
RTVSPost2010PropOp39
 70
     1
102
RTVSPost2010Prop40
 90
        0
102
RTVSPost2010PropOp40
 70
     1
102
RTVSPost2010Prop41ColorIndex
 90
       18
102
RTVSPost2010Prop41ColorRGB
 90
        0
102
RTVSPost2010PropOp41
 70
     1
102
RTVSPost2010Prop42
 90
       50
102
RTVSPost2010PropOp42
 70
     1
102
RTVSPost2010Prop43
 90
        3
102
RTVSPost2010PropOp43
 70
     1
102
RTVSPost2010Prop44ColorIndex
 90
        5
102
RTVSPost2010Prop44ColorRGB
 90
      255
102
RTVSPost2010PropOp44
 70
     1
102
RTVSPost2010Prop45
280
     0
102
RTVSPost2010PropOp45
 70
     1
102
RTVSPost2010Prop46
 90
       50
102
RTVSPost2010PropOp46
 70
     1
102
RTVSPost2010Prop47
 90
       50
102
RTVSPost2010PropOp47
 70
     1
102
RTVSPost2010Prop48
 90
       50
102
RTVSPost2010PropOp48
 70
     1
102
RTVSPost2010Prop49
280
     0
102
RTVSPost2010PropOp49
 70
     1
102
RTVSPost2010Prop50
 90
       50
102
RTVSPost2010PropOp50
 70
     1
102
RTVSPost2010Prop51ColorIndex
 90
      256
102
RTVSPost2010Prop51ColorRGB
 90
-16777216
102
RTVSPost2010PropOp51
 70
     0
102
RTVSPost2010Prop52
140
1.0
102
RTVSPost2010PropOp52
 70
     0
102
RTVSPost2010Prop53
 90
        2
102
RTVSPost2010PropOp53
 70
     1
102
RTVSPost2010Prop54
  1
strokes_ogs.tif
102
RTVSPost2010PropOp54
 70
     1
102
RTVSPost2010Prop55
280
     0
102
RTVSPost2010PropOp55
 70
     1
102
RTVSPost2010Prop56
140
1.0
102
RTVSPost2010PropOp56
 70
     1
102
RTVSPost2010Prop57
140
1.0
102
RTVSPost2010PropOp57
 70
     1
102
RTVSPropertyOp0
 70
     1
102
RTVSPropertyOp1
 70
     1
102
RTVSPropertyOp2
 70
     1
102
RTVSPropertyOp3
 70
     1
102
RTVSPropertyOp4
 70
     1
102
RTVSPropertyOp5
 70
     1
102
RTVSPropertyOp6
 70
     1
102
RTVSPropertyOp7
 70
     1
102
RTVSPropertyOp8
 70
     1
102
RTVSPropertyOp9
 70
     1
102
RTVSPropertyOp10
 70
     1
102
RTVSPropertyOp11
 70
     1
102
RTVSPropertyOp12
 70
     1
102
RTVSPropertyOp13
 70
     1
102
RTVSPropertyOp14
 70
     1
102
RTVSPropertyOp15
 70
     1
102
RTVSPropertyOp16
 70
     1
102
RTVSPropertyOp17
 70
     1
102
RTVSPropertyOp18
 70
     1
102
RTVSPropertyOp19
 70
     1
102
RTVSPropertyOp20
 70
     1
102
RTVSPropertyOp21
 70
     1
102
RTVSPropertyOp22
 70
     1
102
RTVSPropertyOp23
 70
     1
102
RTVSPropertyOp24
 70
     1
102
RTVSPropertyOp25
 70
     1
102
RTVSPropertyOp26
 70
     1
102
RTVSPropertyOp27
 70
     1
102
RTVSPropertyOp28
 70
     1
102
RTVSPropertyOp29
 70
     1
102
RTVSPropertyOp30
 70
     1
102
RTVSPropertyOp31
 70
     1
102
RTVSPropertyOp32
 70
     1
102
RTVSPropertyOp33
 70
     1
102
RTVSPropertyOp34
 70
     1
102
RTVSPropertyOp35
 70
     1
102
RTVSPropertyOp36
 70
     1
102
RTVSPropertyOp37
 70
     1
102
RTVSPropertyOp38
 70
     1
102
RTVSPropertyOp39
 70
     1
102
RTVSPropertyOp40
 70
     1
102
RTVSPropertyOp41
 70
     1
102
RTVSPropertyOp42
 70
     1
102
RTVSPropertyOp43
 70
     1
102
RTVSPropertyOp44
 70
     1
102
RTVSPropertyOp45
 70
     1
102
RTVSPropertyOp46
 70
     1
102
RTVSPropertyOp47
 70
     1
102
RTVSPropertyOp48
 70
     1
102
RTVSPropertyOp49
 70
     1
102
RTVSPropertyOp50
 70
     1
102
RTVSPropertyOp51
 70
     0
102
RTVSPropertyOp52
 70
     0
102
RTVSPropertyOp53
 70
     1
102
RTVSPropertyOp54
 70
     1
102
RTVSPropertyOp55
 70
     1
102
RTVSPropertyOp56
 70
     1
102
RTVSPropertyOp57
 70
     1
102
RTVSPropertyOp58
 70
     1
102
RTVSPropertyOp59
 70
     1
102
RTVSPropertyOp60
 70
     1
102
RTVSPropertyOp61
 70
     1
102
RTVSPropertyOp62
 70
     1
  0
ENDSEC
  0
EOF
